999
DXF file: E:\BT Custom\CADOUTPUT\_FRONT.dxf
999
Pro/ENGINEER 2018400 by Parametric Technology Corporation
  0
SECTION
  2
HEADER
  9
$ACADVER
  1
AC1018
  9
$DWGCODEPAGE
  3
ANSI_1252
  9
$EXTMAX
 10
22.0
 20
17.0
 30
0.0
  9
$EXTMIN
 10
0.0
 20
0.0
 30
0.0
  9
$LIMMIN
 10
0.0
 20
0.0
  9
$LIMMAX
 10
22.0
 20
17.0
  9
$VIEWCTR
 10
11.0
 20
8.5
  9
$VIEWSIZE
 40
17.0
  9
$CLAYER
  8
0
  9
$LTSCALE
 40
1.21
  9
$CELTYPE
  6
BYLAYER
  9
$DIMSCALE
 40
1.0
  9
$DIMASZ
 40
0.1
  9
$DIMEXO
 40
0.0625
  9
$DIMDLI
 40
0.836
  9
$DIMEXE
 40
0.125
  9
$DIMCEN
 40
0.198
  9
$DIMLFAC
 40
1.0
  9
$DIMBLK
  1
_FILLED
  9
$DIMALT
 70
1
  9
$DIMALTD
 70
2
  9
$DIMALTTD
 70
2
  9
$DIMALTF
 40
25.4
  9
$DIMTXT
 40
0.08
  9
$DIMTOL
 70
1
  9
$DIMLIM
 70
0
  9
$DIMTFAC
 40
1.0
  9
$DIMTP
 40
0.001
  9
$DIMTM
 40
0.001
  9
$DIMGAP
 40
0.09
  9
$DIMDSEP
 70
46
  9
$AUNITS
 70
0
  9
$PDMODE
 70
3
  9
$PDSIZE
 40
0.06
  9
$HANDSEED
  5
61D
  9
$TILEMODE
 70
1
  9
$MEASUREMENT
 70
0
  9
$INSUNITS
 70
1
  0
ENDSEC
  0
SECTION
  2
CLASSES
  0
CLASS
  1
ACDBDICTIONARYWDFLT
  2
AcDbDictionaryWithDefault
  3
AutoCAD 2000
 90
0
 91
1
280
0
281
0
  0
CLASS
  1
ACDBPLACEHOLDER
  2
AcDbPlaceHolder
  3
AutoCAD 2000
 90
0
 91
1
280
0
281
0
  0
CLASS
  1
LAYOUT
  2
AcDbLayout
  3
AutoCAD 2000
 90
0
 91
0
280
0
281
0
  0
ENDSEC
  0
SECTION
  2
TABLES
  0
TABLE
  2
VPORT
  5
8
100
AcDbSymbolTable
 70
2
  0
VPORT
  5
1F4
100
AcDbSymbolTableRecord
100
AcDbViewportTableRecord
  2
*ACTIVE
 70
0
 10
0.0
 20
0.0
 11
1.0
 21
1.0
 12
11.0
 22
8.5
 13
0.0
 23
0.0
 14
1.0
 24
1.0
 15
0.0
 25
0.0
 16
0.0
 26
0.0
 36
1.0
 17
0.0
 27
0.0
 37
0.0
 40
17.0
 41
1.2941176471
 42
50.0
 43
0.0
 44
0.0
 50
0.0
 51
0.0
 71
0
 72
100
 73
1
 74
1
 75
0
 76
0
 77
0
 78
0
  0
ENDTAB
  0
TABLE
  2
LTYPE
  5
5
100
AcDbSymbolTable
 70
6
  0
LTYPE
  5
14
100
AcDbSymbolTableRecord
100
AcDbLinetypeTableRecord
  2
BYBLOCK
 70
0
  3

 72
65
 73
0
 40
0.0
  0
LTYPE
  5
15
100
AcDbSymbolTableRecord
100
AcDbLinetypeTableRecord
  2
BYLAYER
 70
0
  3

 72
65
 73
0
 40
0.0
  0
LTYPE
  5
16
100
AcDbSymbolTableRecord
100
AcDbLinetypeTableRecord
  2
CONTINUOUS
 70
64
  3
Solid line
 72
65
 73
0
 40
0.0
  0
LTYPE
  5
1F5
100
AcDbSymbolTableRecord
100
AcDbLinetypeTableRecord
  2
CENTER
 70
64
  3
____ _ ____ _ ____ _ ____ _ ____ _ ____ _ ____
 72
65
 73
4
 40
0.6
 49
0.375
 74
0
 49
-0.075
 74
0
 49
0.075
 74
0
 49
-0.075
 74
0
  0
LTYPE
  5
1F6
100
AcDbSymbolTableRecord
100
AcDbLinetypeTableRecord
  2
HIDDEN
 70
64
  3
- - - - - - - - - - - - - - - - - - - -
 72
65
 73
2
 40
0.2
 49
0.1
 74
0
 49
-0.1
 74
0
  0
LTYPE
  5
1F7
100
AcDbSymbolTableRecord
100
AcDbLinetypeTableRecord
  2
PHANTOM
 70
64
  3
_____ _ _ _____ _ _ _____ _ _ _____
 72
65
 73
6
 40
0.8
 49
0.45
 74
0
 49
-0.05
 74
0
 49
0.1
 74
0
 49
-0.05
 74
0
 49
0.1
 74
0
 49
-0.05
 74
0
  0
LTYPE
  5
1F8
100
AcDbSymbolTableRecord
100
AcDbLinetypeTableRecord
  2
DOT
 70
64
  3
. . . . . . . . . . . . . . . . . . . .
 72
65
 73
2
 40
0.2
 49
0.1
 74
0
 49
-0.1
 74
0
  0
LTYPE
  5
1F9
100
AcDbSymbolTableRecord
100
AcDbLinetypeTableRecord
  2
DASHED
 70
64
  3
- - - - - - - - - - - - - - - - - - - -
 72
65
 73
2
 40
0.2
 49
0.1
 74
0
 49
-0.1
 74
0
  0
ENDTAB
  0
TABLE
  2
LAYER
  5
2
100
AcDbSymbolTable
 70
36
  0
LAYER
  5
10
100
AcDbSymbolTableRecord
100
AcDbLayerTableRecord
  2
0
 70
0
 62
7
  6
CONTINUOUS
370
-3
390
F
  0
LAYER
  5
1FA
100
AcDbSymbolTableRecord
100
AcDbLayerTableRecord
  2
DEFAULT_1
 70
0
 62
7
  6
CENTER
370
-3
390
F
  0
LAYER
  5
1FB
100
AcDbSymbolTableRecord
100
AcDbLayerTableRecord
  2
DEFAULT_2
 70
0
 62
8
  6
HIDDEN
370
-3
390
F
  0
LAYER
  5
1FC
100
AcDbSymbolTableRecord
100
AcDbLayerTableRecord
  2
DEFAULT_3
 70
0
 62
7
  6
PHANTOM
370
-3
390
F
  0
LAYER
  5
1FD
100
AcDbSymbolTableRecord
100
AcDbLayerTableRecord
  2
ALL_FEATURES
 70
0
 62
7
  6
CONTINUOUS
370
-3
390
F
  0
LAYER
  5
1FE
100
AcDbSymbolTableRecord
100
AcDbLayerTableRecord
  2
AXES_FEATURES
 70
0
 62
7
  6
CONTINUOUS
370
-3
390
F
  0
LAYER
  5
1FF
100
AcDbSymbolTableRecord
100
AcDbLayerTableRecord
  2
DIMENSIONS
 70
0
 62
7
  6
CONTINUOUS
370
-3
390
F
  0
ENDTAB
  0
TABLE
  2
STYLE
  5
3
100
AcDbSymbolTable
 70
1
  0
STYLE
  5
11
100
AcDbSymbolTableRecord
100
AcDbTextStyleTableRecord
  2
STANDARD
 70
0
 40
0.0
 41
0.8
 50
0.0
 71
0
 42
0.2
  3
txt
  4

  0
STYLE
  5
200
100
AcDbSymbolTableRecord
100
AcDbTextStyleTableRecord
  2
TEXTSTYLE_1
 70
0
 40
0.0
 41
0.8
 50
0.0
 71
0
 42
0.2
  3
gdt
  4

  0
ENDTAB
  0
TABLE
  2
VIEW
  5
6
100
AcDbSymbolTable
 70
0
  0
ENDTAB
  0
TABLE
  2
UCS
  5
7
100
AcDbSymbolTable
 70
0
  0
ENDTAB
  0
TABLE
  2
APPID
  5
9
100
AcDbSymbolTable
 70
1
  0
APPID
  5
201
100
AcDbSymbolTableRecord
100
AcDbRegAppTableRecord
  2
ACAD
 70
0
  0
ENDTAB
  0
TABLE
  2
BLOCK_RECORD
  5
1
100
AcDbSymbolTable
 70
0
  0
BLOCK_RECORD
  5
202
100
AcDbSymbolTableRecord
100
AcDbBlockTableRecord
  2
*Model_Space
  0
BLOCK_RECORD
  5
203
100
AcDbSymbolTableRecord
100
AcDbBlockTableRecord
  2
*Paper_Space
  0
BLOCK_RECORD
  5
204
100
AcDbSymbolTableRecord
100
AcDbBlockTableRecord
  2
_FILLED
  0
ENDTAB
  0
TABLE
  2
DIMSTYLE
  5
A
100
AcDbSymbolTable
 70
1
100
AcDbDimStyleTable
 71
0
  0
DIMSTYLE
105
205
100
AcDbSymbolTableRecord
100
AcDbDimStyleTableRecord
  2
STANDARD
 70
0
  3

  4

 40
1.0
 41
0.1
 42
0.0625
 43
0.38
 44
0.125
 45
0.0
 46
0.0
 47
0.001
 48
0.001
140
0.08
141
0.09
142
0.0
143
25.4
144
1.0
145
0.0
146
1.0
147
0.09
 71
1.0
 72
0.0
 73
1
 74
1
 75
0
 76
0
 77
0
 78
4
 79
1
170
1
171
2
172
0
173
0
174
0
175
0
176
0
177
0
178
0
270
2
179
3
271
3
272
3
273
2
274
2
275
0
280
0
281
0
282
0
283
1
284
4
285
0
286
0
287
3
288
0
340
11
278
46
341
204
342
204
343
204
344
204
  0
ENDTAB
  0
ENDSEC
  0
SECTION
  2
BLOCKS
  0
BLOCK
  5
20
100
AcDbEntity
  8
0
100
AcDbBlockBegin
  2
*Model_Space
 70
0
 10
0.0
 20
0.0
 30
0.0
  3
*Model_Space
  1

  0
ENDBLK
  5
21
100
AcDbEntity
  8
0
100
AcDbBlockEnd
  0
BLOCK
  5
1C
100
AcDbEntity
  8
0
100
AcDbBlockBegin
  2
*Paper_Space
 70
0
 10
0.0
 20
0.0
 30
0.0
  3
*Paper_Space
  1

  0
ENDBLK
  5
1D
100
AcDbEntity
  8
0
100
AcDbBlockEnd
  0
BLOCK
  5
206
100
AcDbEntity
  8
0
100
AcDbBlockBegin
  2
_FILLED
 70
64
 10
0.0
 20
0.0
  3
_FILLED
  1

  0
SOLID
  5
207
100
AcDbEntity
  8
0
  6
BYBLOCK
 62
0
100
AcDbTrace
 10
0.0
 20
0.0
 11
-1.0
 21
0.2
 12
-1.0
 22
-0.2
 13
-1.0
 23
-0.2
  0
ENDBLK
  5
208
100
AcDbEntity
  8
0
  6
BYBLOCK
 62
0
100
AcDbBlockEnd
  0
ENDSEC
  0
SECTION
  2
ENTITIES
  0
LINE
  5
209
100
AcDbEntity
  8
0
100
AcDbLine
 62
7
  6
CONTINUOUS
 10
17.1623265338
 20
-4.9801236861
 11
16.9272889332
 21
-4.9909693901
  0
LWPOLYLINE
  5
20A
100
AcDbEntity
  8
0
100
AcDbPolyline
 62
7
  6
CONTINUOUS
 90
36
 70
0
 10
16.9280951745
 20
-5.5509938526
 10
16.988759016
 20
-5.550436962
 10
17.3495763673
 20
-5.5207841573
 10
17.6742663094
 20
-5.4426342481
 10
17.9638685909
 20
-5.3085330229
 10
18.2096872241
 20
-5.1121219736
 10
18.3992182594
 20
-4.8535146822
 10
18.5231756549
 20
-4.5406886288
 10
18.5802710657
 20
-4.1890425122
 10
18.5787523915
 20
-3.8122746162
 10
18.5303659027
 20
-3.4227556003
 10
18.4453002319
 20
-3.0232765954
 10
18.3305184669
 20
-2.6139615624
 10
18.1905106959
 20
-2.1940744675
 10
18.028289499
 20
-1.7622623655
 10
17.8465293197
 20
-1.3186581391
 10
17.6470141153
 20
-0.862721946
 10
17.4306229112
 20
-0.3927331455
 10
17.1983579776
 20
0.0920800186
 10
16.9510914877
 20
0.5924315751
 10
16.6892374092
 20
1.1097833016
 10
16.412969501
 20
1.6459266194
 10
16.1227305878
 20
2.2021306183
 10
15.8188460431
 20
2.7800407981
 10
15.5015337451
 20
3.3817666989
 10
15.1710040145
 20
4.009848077
 10
14.8274401522
 20
4.6674929097
 10
14.4713048152
 20
5.358316469
 10
14.1036447404
 20
6.0862253553
 10
13.7262684775
 20
6.8557584246
 10
13.3422765298
 20
7.6720539348
 10
12.9541927117
 20
8.5470835268
 10
12.5668680248
 20
9.4995209278
 10
12.1980356736
 20
10.5395056902
 10
11.8855804388
 20
11.6593599963
 10
11.6984418389
 20
12.7686158361
  0
LINE
  5
20B
100
AcDbEntity
  8
0
100
AcDbLine
 62
7
  6
CONTINUOUS
 10
16.9280951745
 20
-5.5509938526
 11
16.9279397168
 21
-5.5509938629
  0
LINE
  5
20C
100
AcDbEntity
  8
0
100
AcDbLine
 62
9
  6
CONTINUOUS
 10
16.3463540036
 20
-5.5088993925
 11
16.3466928368
 21
-5.5089219126
  0
LINE
  5
20D
100
AcDbEntity
  8
0
100
AcDbLine
 62
9
  6
CONTINUOUS
 10
4.7912266396
 20
21.4242316573
 11
4.7809243019
 21
21.4160368161
  0
LINE
  5
20E
100
AcDbEntity
  8
0
100
AcDbLine
 62
9
  6
CONTINUOUS
 10
4.6700026271
 20
21.3278057458
 11
4.6620318654
 21
21.3214655073
  0
LINE
  5
20F
100
AcDbEntity
  8
0
100
AcDbLine
 62
7
  6
CONTINUOUS
 10
4.7315233941
 20
21.4005960408
 11
4.6961907075
 21
21.3728037336
  0
LINE
  5
210
100
AcDbEntity
  8
0
100
AcDbLine
 62
7
  6
CONTINUOUS
 10
4.7544336706
 20
21.3685435664
 11
4.7219082979
 21
21.3429652554
  0
LINE
  5
211
100
AcDbEntity
  8
0
100
AcDbLine
 62
9
  6
CONTINUOUS
 10
3.8913270524
 20
21.1354326252
 11
3.8918637643
 21
21.135817864
  0
LINE
  5
212
100
AcDbEntity
  8
0
100
AcDbLine
 62
9
  6
CONTINUOUS
 10
3.8639742275
 20
21.1436479709
 11
3.8645123814
 21
21.1440340427
  0
LINE
  5
213
100
AcDbEntity
  8
0
100
AcDbLine
 62
9
  6
CONTINUOUS
 10
3.9841968768
 20
20.9854557189
 11
3.9637889353
 21
20.9720820791
  0
LINE
  5
214
100
AcDbEntity
  8
0
100
AcDbLine
 62
9
  6
CONTINUOUS
 10
3.7125109682
 20
20.8519411347
 11
3.7126042723
 21
20.8519978576
  0
LINE
  5
215
100
AcDbEntity
  8
0
100
AcDbLine
 62
9
  6
CONTINUOUS
 10
6.141936979
 20
22.3525491522
 11
6.1532796156
 21
22.3592304664
  0
LINE
  5
216
100
AcDbEntity
  8
0
100
AcDbLine
 62
9
  6
CONTINUOUS
 10
6.2754011421
 20
22.4311655442
 11
6.2841767128
 21
22.4363347612
  0
LINE
  5
217
100
AcDbEntity
  8
0
100
AcDbLine
 62
9
  6
CONTINUOUS
 10
3.6348279096
 20
20.9864918645
 11
3.6349234422
 21
20.9865441746
  0
LINE
  5
218
100
AcDbEntity
  8
0
100
AcDbLine
 62
9
  6
CONTINUOUS
 10
3.8645120906
 20
21.144034618
 11
3.8862980715
 21
21.1550216445
  0
LINE
  5
219
100
AcDbEntity
  8
0
100
AcDbLine
 62
9
  6
CONTINUOUS
 10
3.9631851981
 20
20.9718095378
 11
3.963788623
 21
20.9720825568
  0
LINE
  5
21A
100
AcDbEntity
  8
0
100
AcDbLine
 62
9
  6
CONTINUOUS
 10
3.9703488088
 20
20.9998776738
 11
3.9697461382
 21
20.9996050891
  0
LINE
  5
21B
100
AcDbEntity
  8
0
100
AcDbLine
 62
9
  6
CONTINUOUS
 10
6.2217772105
 20
22.1689291441
 11
6.234398959
 21
22.1726678764
  0
LINE
  5
21C
100
AcDbEntity
  8
0
100
AcDbLine
 62
9
  6
CONTINUOUS
 10
6.3702955656
 20
22.2129222897
 11
6.3800614351
 21
22.2158150706
  0
LINE
  5
21D
100
AcDbEntity
  8
0
100
AcDbLine
 62
7
  6
CONTINUOUS
 10
16.9276072601
 20
-4.9909693889
 11
16.9272889332
 21
-4.9909693901
  0
LINE
  5
21E
100
AcDbEntity
  8
0
100
AcDbLine
 62
7
  6
CONTINUOUS
 10
16.9276072601
 20
-4.9909693889
 11
16.8476490808
 21
-4.9898906888
  0
LWPOLYLINE
  5
21F
100
AcDbEntity
  8
0
100
AcDbPolyline
 62
7
  6
CONTINUOUS
 90
3
 70
0
 10
16.8476490808
 20
-4.9898906888
 10
16.6241943201
 20
-4.976691775
 10
16.4207934772
 20
-4.9538689746
  0
LINE
  5
220
100
AcDbEntity
  8
0
100
AcDbLine
 62
9
  6
CONTINUOUS
 10
7.6739633122
 20
-4.3457589403
 11
7.6736244791
 21
-4.3457364202
  0
LWPOLYLINE
  5
221
100
AcDbEntity
  8
0
100
AcDbPolyline
 62
7
  6
CONTINUOUS
 90
3
 70
0
 10
16.3463537106
 20
-5.5088993532
 10
16.6359201023
 20
-5.5395398079
 10
16.9279397168
 20
-5.5509938629
  0
LINE
  5
222
100
AcDbEntity
  8
0
100
AcDbLine
 62
7
  6
CONTINUOUS
 10
7.6736244791
 20
-4.3457364202
 11
16.3463540036
 21
-5.5088993925
  0
LINE
  5
223
100
AcDbEntity
  8
0
100
AcDbLine
 62
7
  6
CONTINUOUS
 10
7.7480636593
 20
-3.790705963
 11
16.4207931837
 21
-4.9538689353
  0
LINE
  5
224
100
AcDbEntity
  8
0
100
AcDbLine
 62
7
  6
CONTINUOUS
 10
5.5871413136
 20
22.1835353309
 11
5.5775040278
 21
22.1709719235
  0
LINE
  5
225
100
AcDbEntity
  8
0
100
AcDbLine
 62
7
  6
CONTINUOUS
 10
5.244022101
 20
21.7363751879
 11
5.2342564472
 21
21.7236468193
  0
LINE
  5
226
100
AcDbEntity
  8
0
100
AcDbLine
 62
9
  6
CONTINUOUS
 10
4.8397439066
 20
21.1610037499
 11
4.8335426625
 21
21.1529221678
  0
LINE
  5
227
100
AcDbEntity
  8
0
100
AcDbLine
 62
9
  6
CONTINUOUS
 10
4.9340384813
 20
21.2838908287
 11
4.926024879
 21
21.2734472995
  0
LINE
  5
228
100
AcDbEntity
  8
0
100
AcDbLine
 62
7
  6
CONTINUOUS
 10
5.2811080224
 20
21.6876963412
 11
5.2907472822
 21
21.7002584972
  0
LINE
  5
229
100
AcDbEntity
  8
0
100
AcDbLine
 62
7
  6
CONTINUOUS
 10
5.6243522637
 20
22.1350239493
 11
5.6339928888
 21
22.1475848529
  0
LINE
  5
22A
100
AcDbEntity
  8
0
100
AcDbLine
 62
9
  6
CONTINUOUS
 10
5.1065597314
 20
21.1822680612
 11
5.1013105239
 21
21.1701957298
  0
LINE
  5
22B
100
AcDbEntity
  8
0
100
AcDbLine
 62
9
  6
CONTINUOUS
 10
5.0447945002
 20
21.040217802
 11
5.0407333018
 21
21.0308776679
  0
LINE
  5
22C
100
AcDbEntity
  8
0
100
AcDbLine
 62
7
  6
CONTINUOUS
 10
5.0440815513
 20
19.1456159308
 11
4.9001348937
 21
18.9678566126
  0
LINE
  5
22D
100
AcDbEntity
  8
0
100
AcDbLine
 62
9
  6
CONTINUOUS
 10
4.4196456497
 20
-0.3014023822
 11
4.4209383269
 21
-0.3013015122
  0
LINE
  5
22E
100
AcDbEntity
  8
0
100
AcDbLine
 62
9
  6
CONTINUOUS
 10
5.6950504507
 20
22.8764838123
 11
5.6977723557
 21
22.8862986812
  0
LINE
  5
22F
100
AcDbEntity
  8
0
100
AcDbLine
 62
9
  6
CONTINUOUS
 10
5.6536560171
 20
22.7272202917
 11
5.6571739002
 21
22.7399053684
  0
LINE
  5
230
100
AcDbEntity
  8
0
100
AcDbLine
 62
9
  6
CONTINUOUS
 10
5.0244541443
 20
13.7161793345
 11
5.027060542
 21
13.7189256953
  0
LINE
  5
231
100
AcDbEntity
  8
0
100
AcDbLine
 62
7
  6
CONTINUOUS
 10
9.430624668
 20
17.4771158361
 11
9.410624668
 21
17.4571158361
  0
LINE
  5
232
100
AcDbEntity
  8
0
100
AcDbLine
 62
7
  6
CONTINUOUS
 10
4.9943113607
 20
14.6518918639
 11
4.9843714632
 21
14.9456158361
  0
LINE
  5
233
100
AcDbEntity
  8
0
100
AcDbLine
 62
7
  6
CONTINUOUS
 10
4.799124668
 20
14.9856158361
 11
4.799124668
 21
15.0556158361
  0
LINE
  5
234
100
AcDbEntity
  8
0
100
AcDbLine
 62
7
  6
CONTINUOUS
 10
4.799124668
 20
18.8356158361
 11
4.799124668
 21
18.9056158361
  0
LINE
  5
235
100
AcDbEntity
  8
0
100
AcDbLine
 62
7
  6
CONTINUOUS
 10
5.059124668
 20
19.1853510367
 11
5.059124668
 21
19.8227951266
  0
LINE
  5
236
100
AcDbEntity
  8
0
100
AcDbLine
 62
7
  6
CONTINUOUS
 10
5.1542022584
 20
13.7006158361
 11
5.1542022584
 21
9.0877747402
  0
LINE
  5
237
100
AcDbEntity
  8
0
100
AcDbLine
 62
9
  6
CONTINUOUS
 10
5.455628542
 20
22.756815715
 11
5.4559731479
 21
22.7699753735
  0
LINE
  5
238
100
AcDbEntity
  8
0
100
AcDbLine
 62
9
  6
CONTINUOUS
 10
5.4596832917
 20
22.911660085
 11
5.459949891
 21
22.9218414587
  0
LINE
  5
239
100
AcDbEntity
  8
0
100
AcDbLine
 62
7
  6
CONTINUOUS
 10
5.1504263337
 20
8.9915915047
 11
4.4196456497
 21
-0.3014023822
  0
LINE
  5
23A
100
AcDbEntity
  8
0
100
AcDbLine
 62
7
  6
CONTINUOUS
 10
9.487124668
 20
14.7581158361
 11
9.408124668
 21
14.7281158361
  0
LINE
  5
23B
100
AcDbEntity
  8
0
100
AcDbLine
 62
7
  6
CONTINUOUS
 10
5.7142022584
 20
13.7006158361
 11
5.7142022584
 21
9.0877747402
  0
LINE
  5
23C
100
AcDbEntity
  8
0
100
AcDbLine
 62
7
  6
CONTINUOUS
 10
5.809124668
 20
19.1853510369
 11
5.809124668
 21
19.8227951266
  0
LINE
  5
23D
100
AcDbEntity
  8
0
100
AcDbLine
 62
7
  6
CONTINUOUS
 10
6.069124668
 20
14.9856158361
 11
6.069124668
 21
15.0556158361
  0
LINE
  5
23E
100
AcDbEntity
  8
0
100
AcDbLine
 62
7
  6
CONTINUOUS
 10
6.069124668
 20
18.8356158361
 11
6.069124668
 21
18.9056158361
  0
LINE
  5
23F
100
AcDbEntity
  8
0
100
AcDbLine
 62
7
  6
CONTINUOUS
 10
6.194624668
 20
13.9306194504
 11
6.194624668
 21
14.4706154721
  0
LINE
  5
240
100
AcDbEntity
  8
0
100
AcDbLine
 62
7
  6
CONTINUOUS
 10
6.212624668
 20
14.5373496498
 11
6.212624668
 21
13.8638820224
  0
LINE
  5
241
100
AcDbEntity
  8
0
100
AcDbLine
 62
9
  6
CONTINUOUS
 10
6.228660686
 20
13.8373301857
 11
6.2286606855
 21
14.5639014855
  0
LINE
  5
242
100
AcDbEntity
  8
0
100
AcDbLine
 62
9
  6
CONTINUOUS
 10
6.3910323472
 20
13.5713022538
 11
6.3910323842
 21
14.8299295191
  0
LINE
  5
243
100
AcDbEntity
  8
0
100
AcDbLine
 62
9
  6
CONTINUOUS
 10
6.419550236
 20
14.8506158361
 11
6.419550236
 21
13.5506158361
  0
LINE
  5
244
100
AcDbEntity
  8
0
100
AcDbLine
 62
7
  6
CONTINUOUS
 10
6.447624668
 20
13.5506158361
 11
6.447624668
 21
14.8506158361
  0
LINE
  5
245
100
AcDbEntity
  8
0
100
AcDbLine
 62
7
  6
CONTINUOUS
 10
6.562624668
 20
14.8506158361
 11
6.562624668
 21
13.5506158361
  0
LINE
  5
246
100
AcDbEntity
  8
0
100
AcDbLine
 62
9
  6
CONTINUOUS
 10
6.607624668
 20
13.5506158361
 11
6.607624668
 21
14.8506158361
  0
LINE
  5
247
100
AcDbEntity
  8
0
100
AcDbLine
 62
7
  6
CONTINUOUS
 10
6.622624668
 20
13.5656158433
 11
6.622624668
 21
14.8356158289
  0
LINE
  5
248
100
AcDbEntity
  8
0
100
AcDbLine
 62
7
  6
CONTINUOUS
 10
5.8757734524
 20
14.7015446184
 11
5.8840330537
 21
14.9456158361
  0
LINE
  5
249
100
AcDbEntity
  8
0
100
AcDbLine
 62
7
  6
CONTINUOUS
 10
5.7087028297
 20
8.9476898639
 11
4.9779221456
 21
-0.345304023
  0
LINE
  5
24A
100
AcDbEntity
  8
0
100
AcDbLine
 62
7
  6
CONTINUOUS
 10
9.203747456
 20
13.9142501026
 11
9.2100558346
 21
13.9187107999
  0
LINE
  5
24B
100
AcDbEntity
  8
0
100
AcDbLine
 62
7
  6
CONTINUOUS
 10
9.977124668
 20
13.6714235208
 11
9.897124668
 21
13.6431158361
  0
LINE
  5
24C
100
AcDbEntity
  8
0
100
AcDbLine
 62
7
  6
CONTINUOUS
 10
9.1501447738
 20
13.9543817503
 11
9.113124668
 21
13.9436949663
  0
LINE
  5
24D
100
AcDbEntity
  8
0
100
AcDbLine
 62
7
  6
CONTINUOUS
 10
9.153124668
 20
13.9090539502
 11
9.193124668
 21
13.9206009555
  0
LINE
  5
24E
100
AcDbEntity
  8
0
100
AcDbLine
 62
7
  6
CONTINUOUS
 10
6.920124668
 20
15.1922942404
 11
6.920124668
 21
15.1506158361
  0
LINE
  5
24F
100
AcDbEntity
  8
0
100
AcDbLine
 62
7
  6
CONTINUOUS
 10
6.920124668
 20
15.0306158361
 11
6.920124668
 21
14.9906158361
  0
LINE
  5
250
100
AcDbEntity
  8
0
100
AcDbLine
 62
7
  6
CONTINUOUS
 10
6.920124668
 20
13.4106158361
 11
6.920124668
 21
13.3706158361
  0
LINE
  5
251
100
AcDbEntity
  8
0
100
AcDbLine
 62
7
  6
CONTINUOUS
 10
6.920124668
 20
13.2506158361
 11
6.920124668
 21
13.2089374318
  0
LINE
  5
252
100
AcDbEntity
  8
0
100
AcDbLine
 62
7
  6
CONTINUOUS
 10
6.975124668
 20
14.9706158361
 11
6.975124668
 21
14.8456158361
  0
LINE
  5
253
100
AcDbEntity
  8
0
100
AcDbLine
 62
7
  6
CONTINUOUS
 10
6.975124668
 20
13.5556158361
 11
6.975124668
 21
13.4306158361
  0
LINE
  5
254
100
AcDbEntity
  8
0
100
AcDbLine
 62
7
  6
CONTINUOUS
 10
9.993124668
 20
14.7021158361
 11
10.008124668
 21
14.7281158361
  0
LINE
  5
255
100
AcDbEntity
  8
0
100
AcDbLine
 62
7
  6
CONTINUOUS
 10
9.5213873106
 20
13.3403201637
 11
9.4870879473
 21
13.2911540937
  0
LINE
  5
256
100
AcDbEntity
  8
0
100
AcDbLine
 62
7
  6
CONTINUOUS
 10
10.1016283439
 20
13.6953354149
 11
10.0794087651
 21
13.6731158361
  0
LINE
  5
257
100
AcDbEntity
  8
0
100
AcDbLine
 62
7
  6
CONTINUOUS
 10
5.4406146648
 20
21.6601017174
 11
5.4426812229
 21
21.6444029327
  0
LINE
  5
258
100
AcDbEntity
  8
0
100
AcDbLine
 62
7
  6
CONTINUOUS
 10
5.3670182197
 20
22.2191204998
 11
5.3690856389
 21
22.203421867
  0
LINE
  5
259
100
AcDbEntity
  8
0
100
AcDbLine
 62
7
  6
CONTINUOUS
 10
5.5012311163
 20
21.6521111724
 11
5.4991639579
 21
21.6678098637
  0
LINE
  5
25A
100
AcDbEntity
  8
0
100
AcDbLine
 62
7
  6
CONTINUOUS
 10
5.4276819655
 20
22.2107818783
 11
5.4255681131
 21
22.2268287395
  0
LINE
  5
25B
100
AcDbEntity
  8
0
100
AcDbLine
 62
7
  6
CONTINUOUS
 10
8.535124668
 20
14.9706158361
 11
8.535124668
 21
14.6156158361
  0
LINE
  5
25C
100
AcDbEntity
  8
0
100
AcDbLine
 62
7
  6
CONTINUOUS
 10
8.535124668
 20
13.7856158361
 11
8.535124668
 21
13.4306158361
  0
LINE
  5
25D
100
AcDbEntity
  8
0
100
AcDbLine
 62
7
  6
CONTINUOUS
 10
8.590124668
 20
15.1922942404
 11
8.590124668
 21
15.1506158361
  0
LINE
  5
25E
100
AcDbEntity
  8
0
100
AcDbLine
 62
7
  6
CONTINUOUS
 10
8.590124668
 20
15.0306158361
 11
8.590124668
 21
14.9906158361
  0
LINE
  5
25F
100
AcDbEntity
  8
0
100
AcDbLine
 62
7
  6
CONTINUOUS
 10
8.590124668
 20
13.4106158361
 11
8.590124668
 21
13.3706158361
  0
LINE
  5
260
100
AcDbEntity
  8
0
100
AcDbLine
 62
7
  6
CONTINUOUS
 10
8.590124668
 20
13.2506158361
 11
8.590124668
 21
13.2089374318
  0
LINE
  5
261
100
AcDbEntity
  8
0
100
AcDbLine
 62
7
  6
CONTINUOUS
 10
9.357124668
 20
14.5711158361
 11
9.408124668
 21
14.7281158361
  0
LINE
  5
262
100
AcDbEntity
  8
0
100
AcDbLine
 62
7
  6
CONTINUOUS
 10
10.118124668
 20
13.74610588
 11
10.1016283439
 21
13.6953354149
  0
LINE
  5
263
100
AcDbEntity
  8
0
100
AcDbLine
 62
7
  6
CONTINUOUS
 10
9.889124668
 20
14.7831158361
 11
9.973624668
 21
14.9831158361
  0
LINE
  5
264
100
AcDbEntity
  8
0
100
AcDbLine
 62
7
  6
CONTINUOUS
 10
9.993124668
 20
13.6991158361
 11
9.977124668
 21
13.6714235208
  0
LINE
  5
265
100
AcDbEntity
  8
0
100
AcDbLine
 62
9
  6
CONTINUOUS
 10
5.2563235576
 20
22.7376248279
 11
5.2534743171
 21
22.7504769558
  0
LINE
  5
266
100
AcDbEntity
  8
0
100
AcDbLine
 62
9
  6
CONTINUOUS
 10
5.2227976309
 20
22.8888505933
 11
5.2205932163
 21
22.8987940331
  0
LINE
  5
267
100
AcDbEntity
  8
0
100
AcDbLine
 62
9
  6
CONTINUOUS
 10
8.925124668
 20
13.8456158361
 11
8.925124668
 21
14.5556158361
  0
LINE
  5
268
100
AcDbEntity
  8
0
100
AcDbLine
 62
7
  6
CONTINUOUS
 10
8.945124668
 20
13.8656158361
 11
8.945124668
 21
14.5356158361
  0
LINE
  5
269
100
AcDbEntity
  8
0
100
AcDbLine
 62
7
  6
CONTINUOUS
 10
8.998124668
 20
14.544115476
 11
8.998124668
 21
13.8571161962
  0
LINE
  5
26A
100
AcDbEntity
  8
0
100
AcDbLine
 62
7
  6
CONTINUOUS
 10
9.113124668
 20
13.9206009555
 11
9.113124668
 21
13.9436949663
  0
LINE
  5
26B
100
AcDbEntity
  8
0
100
AcDbLine
 62
7
  6
CONTINUOUS
 10
9.153124668
 20
13.9544950282
 11
9.153124668
 21
13.9090539502
  0
LINE
  5
26C
100
AcDbEntity
  8
0
100
AcDbLine
 62
7
  6
CONTINUOUS
 10
9.193124668
 20
13.9436949663
 11
9.193124668
 21
13.9206009555
  0
LINE
  5
26D
100
AcDbEntity
  8
0
100
AcDbLine
 62
7
  6
CONTINUOUS
 10
9.357124668
 20
14.5711154382
 11
9.357124668
 21
13.830116234
  0
LINE
  5
26E
100
AcDbEntity
  8
0
100
AcDbLine
 62
7
  6
CONTINUOUS
 10
9.408124668
 20
13.6731158361
 11
9.408124668
 21
14.7281158361
  0
LINE
  5
26F
100
AcDbEntity
  8
0
100
AcDbLine
 62
7
  6
CONTINUOUS
 10
9.410624668
 20
17.4571158361
 11
9.410624668
 21
17.3771158361
  0
LINE
  5
270
100
AcDbEntity
  8
0
100
AcDbLine
 62
7
  6
CONTINUOUS
 10
9.410624668
 20
15.0881158361
 11
9.410624668
 21
14.9831158361
  0
LINE
  5
271
100
AcDbEntity
  8
0
100
AcDbLine
 62
7
  6
CONTINUOUS
 10
9.487124668
 20
14.7581158361
 11
9.487124668
 21
13.6431158361
  0
LINE
  5
272
100
AcDbEntity
  8
0
100
AcDbLine
 62
7
  6
CONTINUOUS
 10
9.495124668
 20
14.7831158361
 11
9.495124668
 21
14.7552413979
  0
LINE
  5
273
100
AcDbEntity
  8
0
100
AcDbLine
 62
7
  6
CONTINUOUS
 10
9.889124668
 20
14.7831158361
 11
9.889124668
 21
14.7552408167
  0
LINE
  5
274
100
AcDbEntity
  8
0
100
AcDbLine
 62
7
  6
CONTINUOUS
 10
9.897124668
 20
13.6431158361
 11
9.897124668
 21
14.7581158361
  0
LINE
  5
275
100
AcDbEntity
  8
0
100
AcDbLine
 62
7
  6
CONTINUOUS
 10
9.973624668
 20
17.4571158361
 11
9.973624668
 21
17.3771158361
  0
LINE
  5
276
100
AcDbEntity
  8
0
100
AcDbLine
 62
7
  6
CONTINUOUS
 10
9.973624668
 20
15.0881158361
 11
9.973624668
 21
14.9831158361
  0
LINE
  5
277
100
AcDbEntity
  8
0
100
AcDbLine
 62
7
  6
CONTINUOUS
 10
9.977124668
 20
14.7298081514
 11
9.977124668
 21
13.6714235208
  0
LINE
  5
278
100
AcDbEntity
  8
0
100
AcDbLine
 62
7
  6
CONTINUOUS
 10
9.993124668
 20
13.6991158361
 11
9.993124668
 21
14.7021158361
  0
LINE
  5
279
100
AcDbEntity
  8
0
100
AcDbLine
 62
7
  6
CONTINUOUS
 10
10.008124668
 20
14.7281158361
 11
10.008124668
 21
13.6731158361
  0
LINE
  5
27A
100
AcDbEntity
  8
0
100
AcDbLine
 62
7
  6
CONTINUOUS
 10
10.0794087651
 20
13.6731158361
 11
10.0794087651
 21
14.7281158361
  0
LINE
  5
27B
100
AcDbEntity
  8
0
100
AcDbLine
 62
7
  6
CONTINUOUS
 10
10.1016283439
 20
13.6953354149
 11
10.1016283439
 21
14.7058962573
  0
LINE
  5
27C
100
AcDbEntity
  8
0
100
AcDbLine
 62
7
  6
CONTINUOUS
 10
10.118124668
 20
13.7461117612
 11
10.118124668
 21
14.655119911
  0
LINE
  5
27D
100
AcDbEntity
  8
0
100
AcDbLine
 62
9
  6
CONTINUOUS
 10
10.1419339612
 20
13.8054711795
 11
10.1419339612
 21
14.5957604927
  0
LINE
  5
27E
100
AcDbEntity
  8
0
100
AcDbLine
 62
7
  6
CONTINUOUS
 10
10.8515866232
 20
14.3786158361
 11
10.8515866232
 21
14.2786158361
  0
LINE
  5
27F
100
AcDbEntity
  8
0
100
AcDbLine
 62
7
  6
CONTINUOUS
 10
10.9125866232
 20
14.226291056
 11
10.9125866232
 21
13.8209406162
  0
LINE
  5
280
100
AcDbEntity
  8
0
100
AcDbLine
 62
7
  6
CONTINUOUS
 10
10.9223604772
 20
14.226291056
 11
10.9223604772
 21
13.8209406162
  0
LINE
  5
281
100
AcDbEntity
  8
0
100
AcDbLine
 62
7
  6
CONTINUOUS
 10
10.9515866232
 20
14.4786158361
 11
10.9515866232
 21
15.1386158361
  0
LINE
  5
282
100
AcDbEntity
  8
0
100
AcDbLine
 62
9
  6
CONTINUOUS
 10
5.1542022584
 20
9.0877747402
 11
5.7142022584
 21
9.0877747402
  0
LWPOLYLINE
  5
283
100
AcDbEntity
  8
0
100
AcDbPolyline
 62
7
  6
CONTINUOUS
 90
5
 70
0
 10
5.0244531529
 20
13.7161802754
 10
5.0304588065
 20
13.7112676119
 10
5.0419602086
 20
13.7050413266
 10
5.0551876018
 20
13.7014012236
 10
5.0651976987
 20
13.7006158367
  0
LINE
  5
284
100
AcDbEntity
  8
0
100
AcDbLine
 62
9
  6
CONTINUOUS
 10
5.0270598495
 20
14.6823053198
 11
5.0244535091
 21
14.6850517348
  0
LINE
  5
285
100
AcDbEntity
  8
0
100
AcDbLine
 62
7
  6
CONTINUOUS
 10
3.5707649186
 20
20.8480889649
 11
3.5606188965
 21
20.8656623907
  0
LINE
  5
286
100
AcDbEntity
  8
0
100
AcDbLine
 62
9
  6
CONTINUOUS
 10
3.6400070526
 20
20.8887149363
 11
3.6304230848
 21
20.9053148554
  0
LINE
  5
287
100
AcDbEntity
  8
0
100
AcDbLine
 62
7
  6
CONTINUOUS
 10
3.7836312513
 20
21.0732465651
 11
3.7839920056
 21
21.0725580328
  0
LINE
  5
288
100
AcDbEntity
  8
0
100
AcDbLine
 62
7
  6
CONTINUOUS
 10
3.7836312481
 20
21.0732465633
 11
3.783992004
 21
21.0725580359
  0
LINE
  5
289
100
AcDbEntity
  8
0
100
AcDbLine
 62
9
  6
CONTINUOUS
 10
5.7218135121
 20
21.1661570737
 11
5.7264236955
 21
21.1538265549
  0
LINE
  5
28A
100
AcDbEntity
  8
0
100
AcDbLine
 62
9
  6
CONTINUOUS
 10
5.7760597406
 20
21.0210689265
 11
5.7796265589
 21
21.0115290628
  0
LINE
  5
28B
100
AcDbEntity
  8
0
100
AcDbLine
 62
7
  6
CONTINUOUS
 10
9.357124668
 20
13.8301158361
 11
9.408124668
 21
13.6731158361
  0
LINE
  5
28C
100
AcDbEntity
  8
0
100
AcDbLine
 62
7
  6
CONTINUOUS
 10
11.1005866232
 20
13.7686158361
 11
11.1005866232
 21
12.7686158361
  0
LINE
  5
28D
100
AcDbEntity
  8
0
100
AcDbLine
 62
7
  6
CONTINUOUS
 10
11.1564740365
 20
13.8209406162
 11
11.1564740365
 21
14.226291056
  0
LINE
  5
28E
100
AcDbEntity
  8
0
100
AcDbLine
 62
7
  6
CONTINUOUS
 10
11.2491540064
 20
14.226291056
 11
11.2491540064
 21
13.8209406162
  0
LINE
  5
28F
100
AcDbEntity
  8
0
100
AcDbLine
 62
7
  6
CONTINUOUS
 10
11.6504609066
 20
13.8209406162
 11
11.6504609066
 21
14.226291056
  0
LINE
  5
290
100
AcDbEntity
  8
0
100
AcDbLine
 62
7
  6
CONTINUOUS
 10
11.7125866232
 20
13.7686158361
 11
11.7125866232
 21
12.7686158361
  0
LINE
  5
291
100
AcDbEntity
  8
0
100
AcDbLine
 62
7
  6
CONTINUOUS
 10
11.7333801524
 20
14.226291056
 11
11.7333801524
 21
13.8209406162
  0
LINE
  5
292
100
AcDbEntity
  8
0
100
AcDbLine
 62
7
  6
CONTINUOUS
 10
11.8615866232
 20
14.4786158361
 11
11.8615866232
 21
15.1386158361
  0
LINE
  5
293
100
AcDbEntity
  8
0
100
AcDbLine
 62
7
  6
CONTINUOUS
 10
11.9005734933
 20
13.8209406162
 11
11.9005734933
 21
14.226291056
  0
LINE
  5
294
100
AcDbEntity
  8
0
100
AcDbLine
 62
7
  6
CONTINUOUS
 10
11.9005866232
 20
14.226291056
 11
11.9005866232
 21
13.8209406162
  0
LINE
  5
295
100
AcDbEntity
  8
0
100
AcDbLine
 62
7
  6
CONTINUOUS
 10
11.9615866232
 20
14.3786158361
 11
11.9615866232
 21
14.2786158361
  0
LINE
  5
296
100
AcDbEntity
  8
0
100
AcDbLine
 62
9
  6
CONTINUOUS
 10
5.151719011
 20
8.9916923748
 11
5.1504263337
 21
8.9915915047
  0
LINE
  5
297
100
AcDbEntity
  8
0
100
AcDbLine
 62
7
  6
CONTINUOUS
 10
3.8616244663
 20
20.9380941314
 11
3.8616282021
 21
20.9380882423
  0
LINE
  5
298
100
AcDbEntity
  8
0
100
AcDbLine
 62
7
  6
CONTINUOUS
 10
3.8616330667
 20
20.9380907014
 11
3.8620442742
 21
20.9374312504
  0
LINE
  5
299
100
AcDbEntity
  8
0
100
AcDbLine
 62
7
  6
CONTINUOUS
 10
3.8616330681
 20
20.9380906992
 11
3.8620442757
 21
20.9374312513
  0
LINE
  5
29A
100
AcDbEntity
  8
0
100
AcDbLine
 62
9
  6
CONTINUOUS
 10
4.2032943691
 20
21.2379814129
 11
4.2145414528
 21
21.2185033389
  0
LINE
  5
29B
100
AcDbEntity
  8
0
100
AcDbLine
 62
7
  6
CONTINUOUS
 10
4.2216044944
 20
21.2485169229
 11
4.2271972164
 21
21.238795945
  0
LINE
  5
29C
100
AcDbEntity
  8
0
100
AcDbLine
 62
7
  6
CONTINUOUS
 10
9.495124668
 20
14.7831158361
 11
9.410624668
 21
14.9831158361
  0
LINE
  5
29D
100
AcDbEntity
  8
0
100
AcDbLine
 62
7
  6
CONTINUOUS
 10
10.118124668
 20
14.6551257922
 11
10.1016283439
 21
14.7058962573
  0
LWPOLYLINE
  5
29E
100
AcDbEntity
  8
0
100
AcDbPolyline
 62
7
  6
CONTINUOUS
 90
46
 70
0
 10
11.2549252811
 20
11.9355359217
 10
11.4384815973
 20
11.136357146
 10
11.6567059395
 20
10.3936755938
 10
11.8942659985
 20
9.6996764787
 10
12.1424168671
 20
9.0466863817
 10
12.3962601707
 20
8.4277873192
 10
12.6521204784
 20
7.8390841193
 10
12.907510394
 20
7.2773503056
 10
13.1609350123
 20
6.7394258912
 10
13.4112746723
 20
6.2229045179
 10
13.6576400631
 20
5.7259928108
 10
13.899477978
 20
5.2469850538
 10
14.1364756244
 20
4.7842509577
 10
14.3683822745
 20
4.3364508686
 10
14.5949432384
 20
3.9025566396
 10
14.815980885
 20
3.4816249136
 10
15.0313701566
 20
3.072793618
 10
15.2410137854
 20
2.6752931976
 10
15.444810553
 20
2.2884732985
 10
15.642727389
 20
1.911636124
 10
15.8347140817
 20
1.5441761505
 10
16.0206827578
 20
1.1856027461
 10
16.2005070602
 20
0.8355272569
 10
16.3740039913
 20
0.4936874346
 10
16.5411562263
 20
0.1594969237
 10
16.7019178685
 20
-0.1675899408
 10
16.8561196291
 20
-0.4879118611
 10
17.003478057
 20
-0.8016262257
 10
17.1435679966
 20
-1.1086461222
 10
17.276067974
 20
-1.4091721851
 10
17.4009294416
 20
-1.7041935895
 10
17.5177758184
 20
-1.9942490111
 10
17.6258890866
 20
-2.2793863479
 10
17.7242333115
 20
-2.5590492946
 10
17.8114808769
 20
-2.8320197114
 10
17.8870901064
 20
-3.1005232613
 10
17.9494445337
 20
-3.3656958376
 10
17.9956499369
 20
-3.6261257518
 10
18.0218172534
 20
-3.877948482
 10
18.0233596716
 20
-4.1212723815
 10
17.9921748238
 20
-4.3554193474
 10
17.9166544881
 20
-4.5686285433
 10
17.7893192365
 20
-4.7408188497
 10
17.6092471071
 20
-4.8650291756
 10
17.3962031044
 20
-4.9410030505
 10
17.1623265338
 20
-4.9801236861
  0
LINE
  5
29F
100
AcDbEntity
  8
0
100
AcDbLine
 62
7
  6
CONTINUOUS
 10
11.135965157
 20
12.7686158361
 11
11.2549252811
 21
11.9355359217
  0
LINE
  5
2A0
100
AcDbEntity
  8
0
100
AcDbLine
 62
7
  6
CONTINUOUS
 10
5.8241677829
 20
19.145615933
 11
5.9681144423
 21
18.9678566126
  0
LINE
  5
2A1
100
AcDbEntity
  8
0
100
AcDbLine
 62
7
  6
CONTINUOUS
 10
9.8628620254
 20
13.3403201637
 11
9.8971613887
 21
13.2911540937
  0
LINE
  5
2A2
100
AcDbEntity
  8
0
100
AcDbLine
 62
7
  6
CONTINUOUS
 10
9.993124668
 20
14.7021158361
 11
9.977124668
 21
14.7298081514
  0
LINE
  5
2A3
100
AcDbEntity
  8
0
100
AcDbLine
 62
7
  6
CONTINUOUS
 10
9.993124668
 20
13.6991158361
 11
10.008124668
 21
13.6731158361
  0
LINE
  5
2A4
100
AcDbEntity
  8
0
100
AcDbLine
 62
7
  6
CONTINUOUS
 10
5.0419592749
 20
13.7050418321
 11
5.049937627
 21
13.7028459867
  0
LINE
  5
2A5
100
AcDbEntity
  8
0
100
AcDbLine
 62
7
  6
CONTINUOUS
 10
10.1016283439
 20
14.7058962573
 11
10.0794087651
 21
14.7281158361
  0
LINE
  5
2A6
100
AcDbEntity
  8
0
100
AcDbLine
 62
9
  6
CONTINUOUS
 10
5.8994168432
 20
21.258611516
 11
5.9068731048
 21
21.2477625748
  0
LINE
  5
2A7
100
AcDbEntity
  8
0
100
AcDbLine
 62
9
  6
CONTINUOUS
 10
5.9871517099
 20
21.130956461
 11
5.9929204857
 21
21.1225628525
  0
LINE
  5
2A8
100
AcDbEntity
  8
0
100
AcDbLine
 62
7
  6
CONTINUOUS
 10
11.100694675
 20
12.7686158361
 11
11.7124785713
 21
12.7686158361
  0
LINE
  5
2A9
100
AcDbEntity
  8
0
100
AcDbLine
 62
7
  6
CONTINUOUS
 10
7.0384540679
 20
13.0906158361
 11
8.4717956008
 21
13.0906158361
  0
LINE
  5
2AA
100
AcDbEntity
  8
0
100
AcDbLine
 62
9
  6
CONTINUOUS
 10
8.4915233383
 20
13.1072825028
 11
7.0187259977
 21
13.1072825028
  0
LINE
  5
2AB
100
AcDbEntity
  8
0
100
AcDbLine
 62
9
  6
CONTINUOUS
 10
6.9367913347
 20
13.1892171658
 11
8.5734580013
 21
13.1892171658
  0
LINE
  5
2AC
100
AcDbEntity
  8
0
100
AcDbLine
 62
9
  6
CONTINUOUS
 10
6.920124668
 20
13.2089374318
 11
8.590124668
 21
13.2089374318
  0
LINE
  5
2AD
100
AcDbEntity
  8
0
100
AcDbLine
 62
7
  6
CONTINUOUS
 10
8.590124668
 20
13.2506158361
 11
6.920124668
 21
13.2506158361
  0
LINE
  5
2AE
100
AcDbEntity
  8
0
100
AcDbLine
 62
9
  6
CONTINUOUS
 10
9.4870879473
 20
13.2911540937
 11
9.8971613887
 21
13.2911540937
  0
LINE
  5
2AF
100
AcDbEntity
  8
0
100
AcDbLine
 62
9
  6
CONTINUOUS
 10
9.8628620254
 20
13.3403201637
 11
9.5213873106
 21
13.3403201637
  0
LINE
  5
2B0
100
AcDbEntity
  8
0
100
AcDbLine
 62
7
  6
CONTINUOUS
 10
9.512124668
 20
13.365002093
 11
9.872124668
 21
13.365002093
  0
LINE
  5
2B1
100
AcDbEntity
  8
0
100
AcDbLine
 62
7
  6
CONTINUOUS
 10
6.920124668
 20
13.3706158361
 11
8.590124668
 21
13.3706158361
  0
LINE
  5
2B2
100
AcDbEntity
  8
0
100
AcDbLine
 62
9
  6
CONTINUOUS
 10
9.5004811036
 20
13.3919760352
 11
9.8837682324
 21
13.3919760352
  0
LINE
  5
2B3
100
AcDbEntity
  8
0
100
AcDbLine
 62
9
  6
CONTINUOUS
 10
8.590124668
 20
13.4106158361
 11
6.920124668
 21
13.4106158361
  0
LINE
  5
2B4
100
AcDbEntity
  8
0
100
AcDbLine
 62
7
  6
CONTINUOUS
 10
8.5701267446
 20
13.4306158361
 11
6.9401229665
 21
13.4306158361
  0
LINE
  5
2B5
100
AcDbEntity
  8
0
100
AcDbLine
 62
7
  6
CONTINUOUS
 10
6.419550236
 20
13.5506158361
 11
6.447624668
 21
13.5506158361
  0
LINE
  5
2B6
100
AcDbEntity
  8
0
100
AcDbLine
 62
7
  6
CONTINUOUS
 10
6.562624668
 20
13.5506158361
 11
6.607624668
 21
13.5506158361
  0
LINE
  5
2B7
100
AcDbEntity
  8
0
100
AcDbLine
 62
7
  6
CONTINUOUS
 10
6.622624668
 20
13.6156158361
 11
6.915124668
 21
13.6156158361
  0
LINE
  5
2B8
100
AcDbEntity
  8
0
100
AcDbLine
 62
9
  6
CONTINUOUS
 10
9.5039818173
 20
13.6433006579
 11
9.8802675186
 21
13.6433006579
  0
LINE
  5
2B9
100
AcDbEntity
  8
0
100
AcDbLine
 62
9
  6
CONTINUOUS
 10
9.5539010081
 20
13.6639260872
 11
9.830377213
 21
13.6639260872
  0
LINE
  5
2BA
100
AcDbEntity
  8
0
100
AcDbLine
 62
7
  6
CONTINUOUS
 10
10.0794087651
 20
13.6731158361
 11
10.008124668
 21
13.6731158361
  0
LINE
  5
2BB
100
AcDbEntity
  8
0
100
AcDbLine
 62
7
  6
CONTINUOUS
 10
9.757124668
 20
13.6781158361
 11
9.627124668
 21
13.6781158361
  0
LINE
  5
2BC
100
AcDbEntity
  8
0
100
AcDbLine
 62
7
  6
CONTINUOUS
 10
5.0651855512
 20
13.7006158361
 11
6.0333933786
 21
13.7006158361
  0
LINE
  5
2BD
100
AcDbEntity
  8
0
100
AcDbLine
 62
9
  6
CONTINUOUS
 10
6.072057613
 20
13.7189249787
 11
5.0270605418
 21
13.7189256954
  0
LINE
  5
2BE
100
AcDbEntity
  8
0
100
AcDbLine
 62
7
  6
CONTINUOUS
 10
10.9696933128
 20
13.7686158361
 11
11.8434799335
 21
13.7686158361
  0
LINE
  5
2BF
100
AcDbEntity
  8
0
100
AcDbLine
 62
7
  6
CONTINUOUS
 10
10.9125866232
 20
13.8209406162
 11
10.9223604772
 21
13.8209406162
  0
LINE
  5
2C0
100
AcDbEntity
  8
0
100
AcDbLine
 62
7
  6
CONTINUOUS
 10
11.1564740365
 20
13.8209406162
 11
11.2491540064
 21
13.8209406162
  0
LINE
  5
2C1
100
AcDbEntity
  8
0
100
AcDbLine
 62
7
  6
CONTINUOUS
 10
11.6504609066
 20
13.8209406162
 11
11.7333801524
 21
13.8209406162
  0
LINE
  5
2C2
100
AcDbEntity
  8
0
100
AcDbLine
 62
7
  6
CONTINUOUS
 10
11.9005734933
 20
13.8209406162
 11
11.9005866232
 21
13.8209406162
  0
LINE
  5
2C3
100
AcDbEntity
  8
0
100
AcDbLine
 62
7
  6
CONTINUOUS
 10
8.595124668
 20
13.8456158361
 11
8.925124668
 21
13.8456158361
  0
LINE
  5
2C4
100
AcDbEntity
  8
0
100
AcDbLine
 62
7
  6
CONTINUOUS
 10
9.357124668
 20
13.8571158361
 11
8.998124668
 21
13.8571158361
  0
LINE
  5
2C5
100
AcDbEntity
  8
0
100
AcDbLine
 62
7
  6
CONTINUOUS
 10
5.055187097
 20
13.7014013626
 11
5.0651983305
 21
13.7006158367
  0
LINE
  5
2C6
100
AcDbEntity
  8
0
100
AcDbLine
 62
7
  6
CONTINUOUS
 10
9.113124668
 20
13.9206009555
 11
9.153124668
 21
13.9090539502
  0
LINE
  5
2C7
100
AcDbEntity
  8
0
100
AcDbLine
 62
7
  6
CONTINUOUS
 10
9.193124668
 20
13.9436949663
 11
9.1561019428
 21
13.9543825065
  0
LINE
  5
2C8
100
AcDbEntity
  8
0
100
AcDbLine
 62
7
  6
CONTINUOUS
 10
9.487124668
 20
13.6431158361
 11
9.408124668
 21
13.6731158361
  0
LINE
  5
2C9
100
AcDbEntity
  8
0
100
AcDbLine
 62
7
  6
CONTINUOUS
 10
6.194624668
 20
13.9531158361
 11
6.212624668
 21
13.9531158361
  0
LINE
  5
2CA
100
AcDbEntity
  8
0
100
AcDbLine
 62
7
  6
CONTINUOUS
 10
8.945124668
 20
14.0114877071
 11
8.998124668
 21
14.0114877071
  0
LINE
  5
2CB
100
AcDbEntity
  8
0
100
AcDbLine
 62
7
  6
CONTINUOUS
 10
11.9005866232
 20
14.226291056
 11
11.9005734933
 21
14.226291056
  0
LINE
  5
2CC
100
AcDbEntity
  8
0
100
AcDbLine
 62
7
  6
CONTINUOUS
 10
11.7333801524
 20
14.226291056
 11
11.6504609066
 21
14.226291056
  0
LINE
  5
2CD
100
AcDbEntity
  8
0
100
AcDbLine
 62
7
  6
CONTINUOUS
 10
11.2491540064
 20
14.226291056
 11
11.1564740365
 21
14.226291056
  0
LINE
  5
2CE
100
AcDbEntity
  8
0
100
AcDbLine
 62
7
  6
CONTINUOUS
 10
10.9223604772
 20
14.226291056
 11
10.9125866232
 21
14.226291056
  0
LINE
  5
2CF
100
AcDbEntity
  8
0
100
AcDbLine
 62
7
  6
CONTINUOUS
 10
10.8515937301
 20
14.2786158361
 11
11.9615795162
 21
14.2786158361
  0
LINE
  5
2D0
100
AcDbEntity
  8
0
100
AcDbLine
 62
7
  6
CONTINUOUS
 10
11.9615866232
 20
14.3786158361
 11
10.8515866232
 21
14.3786158361
  0
LINE
  5
2D1
100
AcDbEntity
  8
0
100
AcDbLine
 62
7
  6
CONTINUOUS
 10
8.945124668
 20
14.3897439651
 11
8.998124668
 21
14.3897439651
  0
LINE
  5
2D2
100
AcDbEntity
  8
0
100
AcDbLine
 62
7
  6
CONTINUOUS
 10
6.194624668
 20
14.4481158361
 11
6.212624668
 21
14.4481158361
  0
LINE
  5
2D3
100
AcDbEntity
  8
0
100
AcDbLine
 62
9
  6
CONTINUOUS
 10
10.9515866232
 20
14.4786158361
 11
11.8615866232
 21
14.4786158361
  0
LINE
  5
2D4
100
AcDbEntity
  8
0
100
AcDbLine
 62
7
  6
CONTINUOUS
 10
9.357124668
 20
14.5441158361
 11
8.998124668
 21
14.5441158361
  0
LINE
  5
2D5
100
AcDbEntity
  8
0
100
AcDbLine
 62
7
  6
CONTINUOUS
 10
8.595124668
 20
14.5556158361
 11
8.925124668
 21
14.5556158361
  0
LINE
  5
2D6
100
AcDbEntity
  8
0
100
AcDbLine
 62
9
  6
CONTINUOUS
 10
5.027060542
 20
14.6823059769
 11
5.9928567109
 21
14.6823059769
  0
LINE
  5
2D7
100
AcDbEntity
  8
0
100
AcDbLine
 62
9
  6
CONTINUOUS
 10
5.9928567109
 20
14.6823059769
 11
6.0720570586
 21
14.6823073701
  0
LINE
  5
2D8
100
AcDbEntity
  8
0
100
AcDbLine
 62
7
  6
CONTINUOUS
 10
6.0333933786
 20
14.7006158361
 11
5.0651855525
 21
14.7006158361
  0
LINE
  5
2D9
100
AcDbEntity
  8
0
100
AcDbLine
 62
7
  6
CONTINUOUS
 10
9.627124668
 20
14.7231158361
 11
9.757124668
 21
14.7231158361
  0
LINE
  5
2DA
100
AcDbEntity
  8
0
100
AcDbLine
 62
7
  6
CONTINUOUS
 10
10.0794087651
 20
14.7281158361
 11
10.008124668
 21
14.7281158361
  0
LINE
  5
2DB
100
AcDbEntity
  8
0
100
AcDbLine
 62
7
  6
CONTINUOUS
 10
9.889124668
 20
14.7831158361
 11
9.495124668
 21
14.7831158361
  0
LINE
  5
2DC
100
AcDbEntity
  8
0
100
AcDbLine
 62
7
  6
CONTINUOUS
 10
6.622624668
 20
14.7856158361
 11
6.915124668
 21
14.7856158361
  0
LINE
  5
2DD
100
AcDbEntity
  8
0
100
AcDbLine
 62
7
  6
CONTINUOUS
 10
6.419550236
 20
14.8506158361
 11
6.447624668
 21
14.8506158361
  0
LINE
  5
2DE
100
AcDbEntity
  8
0
100
AcDbLine
 62
7
  6
CONTINUOUS
 10
6.562624668
 20
14.8506158361
 11
6.607624668
 21
14.8506158361
  0
LINE
  5
2DF
100
AcDbEntity
  8
0
100
AcDbLine
 62
7
  6
CONTINUOUS
 10
4.839124668
 20
14.9456158361
 11
6.029124668
 21
14.9456158361
  0
LINE
  5
2E0
100
AcDbEntity
  8
0
100
AcDbLine
 62
7
  6
CONTINUOUS
 10
6.9401251604
 20
14.9706158361
 11
8.5701239026
 21
14.9706158361
  0
LINE
  5
2E1
100
AcDbEntity
  8
0
100
AcDbLine
 62
7
  6
CONTINUOUS
 10
9.1530469463
 20
13.880755589
 11
9.1700117731
 21
13.8807371907
  0
LINE
  5
2E2
100
AcDbEntity
  8
0
100
AcDbLine
 62
7
  6
CONTINUOUS
 10
9.977124668
 20
14.7298081514
 11
9.897124668
 21
14.7581158361
  0
LINE
  5
2E3
100
AcDbEntity
  8
0
100
AcDbLine
 62
7
  6
CONTINUOUS
 10
9.953624668
 20
17.4771158361
 11
9.973624668
 21
17.4571158361
  0
LWPOLYLINE
  5
2E4
100
AcDbEntity
  8
0
100
AcDbPolyline
 62
7
  6
CONTINUOUS
 90
5
 70
0
 10
5.065194431
 20
14.7006158358
 10
5.0548129125
 20
14.699769814
 10
5.041590558
 20
14.6960401439
 10
5.0301192904
 20
14.6897232507
 10
5.0244536144
 20
14.6850518348
  0
LINE
  5
2E5
100
AcDbEntity
  8
0
100
AcDbLine
 62
7
  6
CONTINUOUS
 10
9.410624668
 20
14.9831158361
 11
9.973624668
 21
14.9831158361
  0
LINE
  5
2E6
100
AcDbEntity
  8
0
100
AcDbLine
 62
9
  6
CONTINUOUS
 10
4.799124668
 20
14.9856158361
 11
6.069124668
 21
14.9856158361
  0
LINE
  5
2E7
100
AcDbEntity
  8
0
100
AcDbLine
 62
9
  6
CONTINUOUS
 10
6.920124668
 20
14.9906158361
 11
8.590124668
 21
14.9906158361
  0
LINE
  5
2E8
100
AcDbEntity
  8
0
100
AcDbLine
 62
7
  6
CONTINUOUS
 10
8.590124668
 20
15.0306158361
 11
6.920124668
 21
15.0306158361
  0
LINE
  5
2E9
100
AcDbEntity
  8
0
100
AcDbLine
 62
9
  6
CONTINUOUS
 10
6.069124668
 20
15.0556158361
 11
4.799124668
 21
15.0556158361
  0
LINE
  5
2EA
100
AcDbEntity
  8
0
100
AcDbLine
 62
7
  6
CONTINUOUS
 10
9.973624668
 20
15.0881158361
 11
9.410624668
 21
15.0881158361
  0
LINE
  5
2EB
100
AcDbEntity
  8
0
100
AcDbLine
 62
9
  6
CONTINUOUS
 10
4.8368616952
 20
15.0955517717
 11
6.0313876408
 21
15.0955517717
  0
LINE
  5
2EC
100
AcDbEntity
  8
0
100
AcDbLine
 62
7
  6
CONTINUOUS
 10
11.8865866232
 20
15.1386158361
 11
10.9265866232
 21
15.1386158361
  0
LINE
  5
2ED
100
AcDbEntity
  8
0
100
AcDbLine
 62
7
  6
CONTINUOUS
 10
6.920124668
 20
15.1506158361
 11
8.590124668
 21
15.1506158361
  0
LINE
  5
2EE
100
AcDbEntity
  8
0
100
AcDbLine
 62
9
  6
CONTINUOUS
 10
5.9750173615
 20
15.1607637853
 11
4.8932319745
 21
15.1607637853
  0
LINE
  5
2EF
100
AcDbEntity
  8
0
100
AcDbLine
 62
9
  6
CONTINUOUS
 10
8.590124668
 20
15.1922942404
 11
6.920124668
 21
15.1922942404
  0
LINE
  5
2F0
100
AcDbEntity
  8
0
100
AcDbLine
 62
9
  6
CONTINUOUS
 10
8.5734580013
 20
15.2120145064
 11
6.9367913347
 21
15.2120145064
  0
LINE
  5
2F1
100
AcDbEntity
  8
0
100
AcDbLine
 62
9
  6
CONTINUOUS
 10
7.0187259977
 20
15.2939491694
 11
8.4915233383
 21
15.2939491694
  0
LINE
  5
2F2
100
AcDbEntity
  8
0
100
AcDbLine
 62
7
  6
CONTINUOUS
 10
8.471796185
 20
15.3106158361
 11
7.0384531508
 21
15.3106158361
  0
LINE
  5
2F3
100
AcDbEntity
  8
0
100
AcDbLine
 62
7
  6
CONTINUOUS
 10
5.6335317915
 20
21.745387165
 11
5.6460936848
 21
21.7357476153
  0
LINE
  5
2F4
100
AcDbEntity
  8
0
100
AcDbLine
 62
7
  6
CONTINUOUS
 10
5.1862051731
 20
22.0886324817
 11
5.1987673903
 21
22.0789933184
  0
LINE
  5
2F5
100
AcDbEntity
  8
0
100
AcDbLine
 62
7
  6
CONTINUOUS
 10
5.2347175583
 20
22.1258445222
 11
5.2221556512
 21
22.1354840569
  0
LINE
  5
2F6
100
AcDbEntity
  8
0
100
AcDbLine
 62
7
  6
CONTINUOUS
 10
5.6820441628
 20
21.7825991905
 11
5.6694814081
 21
21.7922375059
  0
LINE
  5
2F7
100
AcDbEntity
  8
0
100
AcDbLine
 62
7
  6
CONTINUOUS
 10
6.1409257593
 20
21.3425393011
 11
6.11873919
 21
21.3611560432
  0
LINE
  5
2F8
100
AcDbEntity
  8
0
100
AcDbLine
 62
9
  6
CONTINUOUS
 10
6.0493778409
 20
21.391285805
 11
6.0592371279
 21
21.3825630376
  0
LINE
  5
2F9
100
AcDbEntity
  8
0
100
AcDbLine
 62
9
  6
CONTINUOUS
 10
6.1653891583
 20
21.2886476392
 11
6.1730171811
 21
21.2818989435
  0
LINE
  5
2FA
100
AcDbEntity
  8
0
100
AcDbLine
 62
9
  6
CONTINUOUS
 10
4.7491029943
 20
22.389021794
 11
4.7381256039
 21
22.3962875787
  0
LINE
  5
2FB
100
AcDbEntity
  8
0
100
AcDbLine
 62
9
  6
CONTINUOUS
 10
4.6199362174
 20
22.47451544
 11
4.6114431993
 21
22.4801368378
  0
LINE
  5
2FC
100
AcDbEntity
  8
0
100
AcDbLine
 62
7
  6
CONTINUOUS
 10
9.410624668
 20
17.3771158361
 11
9.973624668
 21
17.3771158361
  0
LINE
  5
2FD
100
AcDbEntity
  8
0
100
AcDbLine
 62
7
  6
CONTINUOUS
 10
9.973624668
 20
17.4571158361
 11
9.410624668
 21
17.4571158361
  0
LINE
  5
2FE
100
AcDbEntity
  8
0
100
AcDbLine
 62
7
  6
CONTINUOUS
 10
9.9536241639
 20
17.4771158361
 11
9.4306251721
 21
17.4771158361
  0
LINE
  5
2FF
100
AcDbEntity
  8
0
100
AcDbLine
 62
9
  6
CONTINUOUS
 10
4.8932319745
 20
18.7304678869
 11
5.9750173615
 21
18.7304678869
  0
LINE
  5
300
100
AcDbEntity
  8
0
100
AcDbLine
 62
9
  6
CONTINUOUS
 10
4.8368616952
 20
18.7956799005
 11
6.0313876408
 21
18.7956799005
  0
LINE
  5
301
100
AcDbEntity
  8
0
100
AcDbLine
 62
9
  6
CONTINUOUS
 10
4.799124668
 20
18.8356158361
 11
6.069124668
 21
18.8356158361
  0
LINE
  5
302
100
AcDbEntity
  8
0
100
AcDbLine
 62
9
  6
CONTINUOUS
 10
6.069124668
 20
18.9056158361
 11
4.799124668
 21
18.9056158361
  0
LINE
  5
303
100
AcDbEntity
  8
0
100
AcDbLine
 62
7
  6
CONTINUOUS
 10
6.0291235394
 20
18.9456158361
 11
4.8391257966
 21
18.9456158361
  0
LINE
  5
304
100
AcDbEntity
  8
0
100
AcDbLine
 62
9
  6
CONTINUOUS
 10
4.9001348937
 20
18.9678566126
 11
5.9681144423
 21
18.9678566126
  0
LINE
  5
305
100
AcDbEntity
  8
0
100
AcDbLine
 62
7
  6
CONTINUOUS
 10
5.8241677829
 20
19.145615933
 11
5.0440815513
 21
19.1456159308
  0
LINE
  5
306
100
AcDbEntity
  8
0
100
AcDbLine
 62
9
  6
CONTINUOUS
 10
5.059124668
 20
19.1853510367
 11
5.809124668
 21
19.1853510369
  0
LINE
  5
307
100
AcDbEntity
  8
0
100
AcDbLine
 62
9
  6
CONTINUOUS
 10
4.6597622358
 20
22.2098319578
 11
4.6473531458
 21
22.214226255
  0
LINE
  5
308
100
AcDbEntity
  8
0
100
AcDbLine
 62
9
  6
CONTINUOUS
 10
4.5137494789
 20
22.2615378058
 11
4.504148802
 21
22.2649375765
  0
LINE
  5
309
100
AcDbEntity
  8
0
100
AcDbLine
 62
7
  6
CONTINUOUS
 10
4.5077527001
 20
22.0068962743
 11
4.5551195678
 21
22.0032515924
  0
LINE
  5
30A
100
AcDbEntity
  8
0
100
AcDbLine
 62
9
  6
CONTINUOUS
 10
4.6164252517
 20
22.0143513319
 11
4.603321912
 21
22.0156130419
  0
LINE
  5
30B
100
AcDbEntity
  8
0
100
AcDbLine
 62
9
  6
CONTINUOUS
 10
4.4622412983
 20
22.0291975609
 11
4.4521028907
 21
22.0301737795
  0
LINE
  5
30C
100
AcDbEntity
  8
0
100
AcDbLine
 62
7
  6
CONTINUOUS
 10
5.7090658393
 20
21.9420279205
 11
5.7253375714
 21
21.944172391
  0
LINE
  5
30D
100
AcDbEntity
  8
0
100
AcDbLine
 62
7
  6
CONTINUOUS
 10
5.1506200043
 20
21.8685093878
 11
5.1665257685
 21
21.8706033397
  0
LINE
  5
30E
100
AcDbEntity
  8
0
100
AcDbLine
 62
7
  6
CONTINUOUS
 10
5.1586105416
 20
21.9291260228
 11
5.1429117646
 21
21.9270592812
  0
LINE
  5
30F
100
AcDbEntity
  8
0
100
AcDbLine
 62
7
  6
CONTINUOUS
 10
5.7176293317
 20
22.0027222844
 11
5.7019308961
 21
22.0006539844
  0
LINE
  5
310
100
AcDbEntity
  8
0
100
AcDbLine
 62
9
  6
CONTINUOUS
 10
6.2548241799
 20
21.9714483482
 11
6.2679758205
 21
21.9720225538
  0
LINE
  5
311
100
AcDbEntity
  8
0
100
AcDbLine
 62
9
  6
CONTINUOUS
 10
6.4095742022
 20
21.9782048622
 11
6.4197493714
 21
21.9786491265
  0
ARC
  5
312
100
AcDbEntity
  8
0
100
AcDbCircle
 62
7
  6
CONTINUOUS
 10
3.9266219443
 20
9.087800885
 40
1.7875803143
100
AcDbArc
 50
355.5045305463
 51
359.9991620038
  0
ARC
  5
313
100
AcDbEntity
  8
0
100
AcDbCircle
 62
7
  6
CONTINUOUS
 10
3.9268373823
 20
9.0877924272
 40
1.2273648763
100
AcDbArc
 50
355.5045428766
 51
359.9991743341
  0
ARC
  5
314
100
AcDbEntity
  8
0
100
AcDbCircle
 62
7
  6
CONTINUOUS
 10
5.4842022584
 20
14.2006158361
 40
0.76
100
AcDbArc
 50
20.8095735777
 51
39.3312480846
  0
ARC
  5
315
100
AcDbEntity
  8
0
100
AcDbCircle
 62
7
  6
CONTINUOUS
 10
5.484209788
 20
14.2006113816
 40
0.7599910142
100
AcDbArc
 50
320.6686515921
 51
339.1905387834
  0
ARC
  5
316
100
AcDbEntity
  8
0
100
AcDbCircle
 62
7
  6
CONTINUOUS
 10
5.4842022584
 20
14.2006158361
 40
0.6678675411
100
AcDbArc
 50
133.5022476611
 51
226.4976979844
  0
ARC
  5
317
100
AcDbEntity
  8
0
100
AcDbCircle
 62
9
  6
CONTINUOUS
 10
5.4842022584
 20
14.2006158361
 40
0.6640812757
100
AcDbArc
 50
133.5021804684
 51
226.4978195129
  0
ARC
  5
318
100
AcDbEntity
  8
0
100
AcDbCircle
 62
7
  6
CONTINUOUS
 10
6.920124668
 20
13.0906158361
 40
0.1
100
AcDbArc
 50
9.5940682271
 51
80.4059317731
  0
ARC
  5
319
100
AcDbEntity
  8
0
100
AcDbCircle
 62
7
  6
CONTINUOUS
 10
6.937624668
 20
15.0906158361
 40
0.0625
100
AcDbArc
 50
106.2602047083
 51
253.7397952917
  0
ARC
  5
31A
100
AcDbEntity
  8
0
100
AcDbCircle
 62
7
  6
CONTINUOUS
 10
6.937624668
 20
13.3106158361
 40
0.0625
100
AcDbArc
 50
106.2602047083
 51
253.7397952917
  0
ARC
  5
31B
100
AcDbEntity
  8
0
100
AcDbCircle
 62
7
  6
CONTINUOUS
 10
6.505124668
 20
14.8334766996
 40
0.06
100
AcDbArc
 50
16.5978421359
 51
163.4021578641
  0
ARC
  5
31C
100
AcDbEntity
  8
0
100
AcDbCircle
 62
7
  6
CONTINUOUS
 10
6.505124668
 20
13.5677549726
 40
0.06
100
AcDbArc
 50
196.5978421359
 51
343.4021578641
  0
ARC
  5
31D
100
AcDbEntity
  8
0
100
AcDbCircle
 62
7
  6
CONTINUOUS
 10
6.0333834671
 20
13.7506158361
 40
0.05
100
AcDbArc
 50
270.0
 51
320.6687519154
  0
ARC
  5
31E
100
AcDbEntity
  8
0
100
AcDbCircle
 62
7
  6
CONTINUOUS
 10
6.0333834671
 20
14.6506158361
 40
0.05
100
AcDbArc
 50
39.3312480846
 51
90.0
  0
ARC
  5
31F
100
AcDbEntity
  8
0
100
AcDbCircle
 62
7
  6
CONTINUOUS
 10
4.839124668
 20
15.0556158361
 40
0.04
100
AcDbArc
 50
93.2432014018
 51
180.0
  0
ARC
  5
320
100
AcDbEntity
  8
0
100
AcDbCircle
 62
7
  6
CONTINUOUS
 10
6.029124668
 20
15.0556158361
 40
0.04
100
AcDbArc
 50
0.0
 51
86.7567985982
  0
ARC
  5
321
100
AcDbEntity
  8
0
100
AcDbCircle
 62
7
  6
CONTINUOUS
 10
4.839124668
 20
14.9856158361
 40
0.04
100
AcDbArc
 50
180.0
 51
270.0
  0
ARC
  5
322
100
AcDbEntity
  8
0
100
AcDbCircle
 62
7
  6
CONTINUOUS
 10
6.029124668
 20
14.9856158361
 40
0.04
100
AcDbArc
 50
270.0
 51
360.0
  0
ARC
  5
323
100
AcDbEntity
  8
0
100
AcDbCircle
 62
7
  6
CONTINUOUS
 10
6.4195499156
 20
13.5806161833
 40
0.0300000097
100
AcDbArc
 50
198.0874092894
 51
270.0004881181
  0
ARC
  5
324
100
AcDbEntity
  8
0
100
AcDbCircle
 62
7
  6
CONTINUOUS
 10
6.2426246757
 20
14.5373495073
 40
0.0300000095
100
AcDbArc
 50
117.7403974847
 51
179.9995275662
  0
ARC
  5
325
100
AcDbEntity
  8
0
100
AcDbCircle
 62
7
  6
CONTINUOUS
 10
6.4195499124
 20
14.8206154891
 40
0.0300000095
100
AcDbArc
 50
89.9995058875
 51
161.9125892481
  0
ARC
  5
326
100
AcDbEntity
  8
0
100
AcDbCircle
 62
7
  6
CONTINUOUS
 10
6.2426246757
 20
13.863882165
 40
0.0300000095
100
AcDbArc
 50
180.000472453
 51
242.2596025699
  0
ARC
  5
327
100
AcDbEntity
  8
0
100
AcDbCircle
 62
7
  6
CONTINUOUS
 10
6.940124668
 20
13.4106158361
 40
0.02
100
AcDbArc
 50
90.0
 51
180.0
  0
ARC
  5
328
100
AcDbEntity
  8
0
100
AcDbCircle
 62
7
  6
CONTINUOUS
 10
6.940124668
 20
13.2089374318
 40
0.02
100
AcDbArc
 50
180.0
 51
260.4059317731
  0
ARC
  5
329
100
AcDbEntity
  8
0
100
AcDbCircle
 62
7
  6
CONTINUOUS
 10
7.0384462637
 20
13.1106158361
 40
0.02
100
AcDbArc
 50
189.5940682269
 51
270.0
  0
ARC
  5
32A
100
AcDbEntity
  8
0
100
AcDbCircle
 62
7
  6
CONTINUOUS
 10
6.940124668
 20
14.9906158361
 40
0.02
100
AcDbArc
 50
180.0
 51
270.0
  0
ARC
  5
32B
100
AcDbEntity
  8
0
100
AcDbCircle
 62
7
  6
CONTINUOUS
 10
6.607624668
 20
14.8356158361
 40
0.015
100
AcDbArc
 50
359.9999724438
 51
90.0
  0
ARC
  5
32C
100
AcDbEntity
  8
0
100
AcDbCircle
 62
7
  6
CONTINUOUS
 10
6.607624668
 20
13.5656158361
 40
0.015
100
AcDbArc
 50
270.0
 51
0.0000275562
  0
ARC
  5
32D
100
AcDbEntity
  8
0
100
AcDbCircle
 62
7
  6
CONTINUOUS
 10
-14.1208759542
 20
16.9456158361
 40
20.175
100
AcDbArc
 50
354.9244926841
 51
5.0755073159
  0
ARC
  5
32E
100
AcDbEntity
  8
0
100
AcDbCircle
 62
9
  6
CONTINUOUS
 10
-20.4795227436
 20
63.0904333064
 40
48.5217850046
100
AcDbArc
 50
299.8006707521
 51
300.0045987721
  0
ARC
  5
32F
100
AcDbEntity
  8
0
100
AcDbCircle
 62
9
  6
CONTINUOUS
 10
-20.4794937683
 20
63.0903830326
 40
48.5217269785
100
AcDbArc
 50
299.8006705644
 51
300.0045988291
  0
ARC
  5
330
100
AcDbEntity
  8
0
100
AcDbCircle
 62
9
  6
CONTINUOUS
 10
-19.1818038664
 20
60.6548294564
 40
45.9175274054
100
AcDbArc
 50
299.9073029667
 51
300.1220751206
  0
ARC
  5
331
100
AcDbEntity
  8
0
100
AcDbCircle
 62
9
  6
CONTINUOUS
 10
-19.1773421381
 20
60.6471063575
 40
45.9086081591
100
AcDbArc
 50
299.9072839804
 51
300.1220958168
  0
ARC
  5
332
100
AcDbEntity
  8
0
100
AcDbCircle
 62
9
  6
CONTINUOUS
 10
-0.2066373973
 20
28.9233346143
 40
8.8607082825
100
AcDbArc
 50
299.8476389377
 51
299.9842293647
  0
ARC
  5
333
100
AcDbEntity
  8
0
100
AcDbCircle
 62
9
  6
CONTINUOUS
 10
-0.2062796132
 20
28.9227162231
 40
8.8599938567
100
AcDbArc
 50
299.8476224193
 51
299.9842240026
  0
ARC
  5
334
100
AcDbEntity
  8
0
100
AcDbCircle
 62
7
  6
CONTINUOUS
 10
0.9881481616
 20
25.580667202
 40
5.4573752211
100
AcDbArc
 50
299.6684351533
 51
299.7939545147
  0
ARC
  5
335
100
AcDbEntity
  8
0
100
AcDbCircle
 62
7
  6
CONTINUOUS
 10
0.9881739341
 20
25.5806102573
 40
5.4573130015
100
AcDbArc
 50
299.6684965671
 51
299.7940172055
  0
ARC
  5
336
100
AcDbEntity
  8
0
100
AcDbCircle
 62
7
  6
CONTINUOUS
 10
4.833467236
 20
15.1554556752
 40
0.06
100
AcDbArc
 50
273.2432014018
 51
5.0755073159
  0
CIRCLE
  5
337
100
AcDbEntity
  8
0
100
AcDbCircle
 62
7
  6
CONTINUOUS
 10
4.1410570546
 20
21.4000096936
 40
0.0708661417
  0
CIRCLE
  5
338
100
AcDbEntity
  8
0
100
AcDbCircle
 62
9
  6
CONTINUOUS
 10
4.1410570546
 20
21.4000096936
 40
0.0651002345
  0
CIRCLE
  5
339
100
AcDbEntity
  8
0
100
AcDbCircle
 62
9
  6
CONTINUOUS
 10
4.1410570546
 20
21.4000096936
 40
0.0569463945
  0
CIRCLE
  5
33A
100
AcDbEntity
  8
0
100
AcDbCircle
 62
9
  6
CONTINUOUS
 10
4.1410570546
 20
21.4000096936
 40
0.0430269203
  0
CIRCLE
  5
33B
100
AcDbEntity
  8
0
100
AcDbCircle
 62
7
  6
CONTINUOUS
 10
3.8749530586
 20
21.5178370625
 40
0.0826771654
  0
CIRCLE
  5
33C
100
AcDbEntity
  8
0
100
AcDbCircle
 62
9
  6
CONTINUOUS
 10
3.8749530586
 20
21.5178370625
 40
0.0769109535
  0
CIRCLE
  5
33D
100
AcDbEntity
  8
0
100
AcDbCircle
 62
9
  6
CONTINUOUS
 10
3.8749530586
 20
21.5178370625
 40
0.0687574628
  0
CIRCLE
  5
33E
100
AcDbEntity
  8
0
100
AcDbCircle
 62
9
  6
CONTINUOUS
 10
3.8749530586
 20
21.5178370625
 40
0.0548379698
  0
CIRCLE
  5
33F
100
AcDbEntity
  8
0
100
AcDbCircle
 62
7
  6
CONTINUOUS
 10
3.8199514396
 20
21.9356158361
 40
0.0826771654
  0
CIRCLE
  5
340
100
AcDbEntity
  8
0
100
AcDbCircle
 62
9
  6
CONTINUOUS
 10
3.8199514396
 20
21.9356158361
 40
0.0769109535
  0
CIRCLE
  5
341
100
AcDbEntity
  8
0
100
AcDbCircle
 62
9
  6
CONTINUOUS
 10
3.8199514396
 20
21.9356158361
 40
0.0687574628
  0
CIRCLE
  5
342
100
AcDbEntity
  8
0
100
AcDbCircle
 62
9
  6
CONTINUOUS
 10
3.8199514396
 20
21.9356158361
 40
0.0548379698
  0
CIRCLE
  5
343
100
AcDbEntity
  8
0
100
AcDbCircle
 62
7
  6
CONTINUOUS
 10
4.0464921947
 20
21.7529305553
 40
0.0708661417
  0
CIRCLE
  5
344
100
AcDbEntity
  8
0
100
AcDbCircle
 62
9
  6
CONTINUOUS
 10
4.0464921947
 20
21.7529305553
 40
0.0651002345
  0
CIRCLE
  5
345
100
AcDbEntity
  8
0
100
AcDbCircle
 62
9
  6
CONTINUOUS
 10
4.0464921947
 20
21.7529305553
 40
0.0569463945
  0
CIRCLE
  5
346
100
AcDbEntity
  8
0
100
AcDbCircle
 62
9
  6
CONTINUOUS
 10
4.0464921947
 20
21.7529305553
 40
0.0430269203
  0
ARC
  5
347
100
AcDbEntity
  8
0
100
AcDbCircle
 62
7
  6
CONTINUOUS
 10
4.0465902355
 20
21.7529323759
 40
0.0176203964
100
AcDbArc
 50
7.5357461483
 51
187.4642538128
  0
ARC
  5
348
100
AcDbEntity
  8
0
100
AcDbCircle
 62
7
  6
CONTINUOUS
 10
4.0465873661
 20
21.7529541715
 40
0.0176203964
100
AcDbArc
 50
187.5357415515
 51
7.464258489
  0
CIRCLE
  5
349
100
AcDbEntity
  8
0
100
AcDbCircle
 62
7
  6
CONTINUOUS
 10
4.2927318322
 20
20.7942230003
 40
0.0826771654
  0
CIRCLE
  5
34A
100
AcDbEntity
  8
0
100
AcDbCircle
 62
9
  6
CONTINUOUS
 10
4.2927318322
 20
20.7942230003
 40
0.0769109535
  0
CIRCLE
  5
34B
100
AcDbEntity
  8
0
100
AcDbCircle
 62
7
  6
CONTINUOUS
 10
4.3237423354
 20
21.0835895053
 40
0.0708661417
  0
CIRCLE
  5
34C
100
AcDbEntity
  8
0
100
AcDbCircle
 62
9
  6
CONTINUOUS
 10
4.2927318322
 20
20.7942230003
 40
0.0687574628
  0
CIRCLE
  5
34D
100
AcDbEntity
  8
0
100
AcDbCircle
 62
9
  6
CONTINUOUS
 10
4.3237423354
 20
21.0835895053
 40
0.0651002345
  0
CIRCLE
  5
34E
100
AcDbEntity
  8
0
100
AcDbCircle
 62
9
  6
CONTINUOUS
 10
4.3237423354
 20
21.0835895053
 40
0.0569463945
  0
CIRCLE
  5
34F
100
AcDbEntity
  8
0
100
AcDbCircle
 62
9
  6
CONTINUOUS
 10
4.2927318322
 20
20.7942230003
 40
0.0548379698
  0
CIRCLE
  5
350
100
AcDbEntity
  8
0
100
AcDbCircle
 62
9
  6
CONTINUOUS
 10
4.3237423354
 20
21.0835895053
 40
0.0430269203
  0
ARC
  5
351
100
AcDbEntity
  8
0
100
AcDbCircle
 62
7
  6
CONTINUOUS
 10
4.323826331
 20
21.0836401025
 40
0.0176203964
100
AcDbArc
 50
37.5357461391
 51
217.4642538203
  0
ARC
  5
352
100
AcDbEntity
  8
0
100
AcDbCircle
 62
7
  6
CONTINUOUS
 10
4.3238129482
 20
21.0836575433
 40
0.0176203964
100
AcDbArc
 50
217.5357415616
 51
37.4642584772
  0
CIRCLE
  5
353
100
AcDbEntity
  8
0
100
AcDbCircle
 62
7
  6
CONTINUOUS
 10
4.5327816537
 20
22.022405297
 40
0.0708661417
  0
ARC
  5
354
100
AcDbEntity
  8
0
100
AcDbCircle
 62
7
  6
CONTINUOUS
 10
4.5327816537
 20
22.022405297
 40
0.0708661417
100
AcDbArc
 50
174.5
 51
354.5000009079
  0
CIRCLE
  5
355
100
AcDbEntity
  8
0
100
AcDbCircle
 62
9
  6
CONTINUOUS
 10
4.5327816537
 20
22.022405297
 40
0.0674067293
  0
CIRCLE
  5
356
100
AcDbEntity
  8
0
100
AcDbCircle
 62
9
  6
CONTINUOUS
 10
4.5327816537
 20
22.022405297
 40
0.0546404342
  0
CIRCLE
  5
357
100
AcDbEntity
  8
0
100
AcDbCircle
 62
9
  6
CONTINUOUS
 10
4.5327816537
 20
22.022405297
 40
0.0462887627
  0
CIRCLE
  5
358
100
AcDbEntity
  8
0
100
AcDbCircle
 62
7
  6
CONTINUOUS
 10
4.5327816537
 20
22.022405297
 40
0.0295275591
  0
CIRCLE
  5
359
100
AcDbEntity
  8
0
100
AcDbCircle
 62
7
  6
CONTINUOUS
 10
5.0163458944
 20
20.3764442267
 40
0.0826771654
  0
CIRCLE
  5
35A
100
AcDbEntity
  8
0
100
AcDbCircle
 62
9
  6
CONTINUOUS
 10
5.0163458944
 20
20.3764442267
 40
0.0769109535
  0
CIRCLE
  5
35B
100
AcDbEntity
  8
0
100
AcDbCircle
 62
9
  6
CONTINUOUS
 10
5.0163458944
 20
20.3764442267
 40
0.0687574628
  0
ARC
  5
35C
100
AcDbEntity
  8
0
100
AcDbCircle
 62
7
  6
CONTINUOUS
 10
4.999124668
 20
19.1853510367
 40
0.06
100
AcDbArc
 50
318.5281678499
 51
360.0
  0
ARC
  5
35D
100
AcDbEntity
  8
0
100
AcDbCircle
 62
7
  6
CONTINUOUS
 10
4.853506136
 20
19.0056158361
 40
0.06
100
AcDbArc
 50
270.0
 51
321.0
  0
ARC
  5
35E
100
AcDbEntity
  8
0
100
AcDbCircle
 62
7
  6
CONTINUOUS
 10
4.833467236
 20
18.735775997
 40
0.06
100
AcDbArc
 50
354.9244926841
 51
86.7567985982
  0
CIRCLE
  5
35F
100
AcDbEntity
  8
0
100
AcDbCircle
 62
9
  6
CONTINUOUS
 10
5.0163458944
 20
20.3764442267
 40
0.0548379698
  0
ARC
  5
360
100
AcDbEntity
  8
0
100
AcDbCircle
 62
7
  6
CONTINUOUS
 10
4.839124668
 20
18.9056158361
 40
0.04
100
AcDbArc
 50
90.0
 51
180.0
  0
ARC
  5
361
100
AcDbEntity
  8
0
100
AcDbCircle
 62
7
  6
CONTINUOUS
 10
4.839124668
 20
18.8356158361
 40
0.04
100
AcDbArc
 50
180.0
 51
266.7567985982
  0
CIRCLE
  5
362
100
AcDbEntity
  8
0
100
AcDbCircle
 62
7
  6
CONTINUOUS
 10
4.6270380538
 20
20.5377008142
 40
0.0826771654
  0
CIRCLE
  5
363
100
AcDbEntity
  8
0
100
AcDbCircle
 62
9
  6
CONTINUOUS
 10
4.6270380538
 20
20.5377008142
 40
0.0769109535
  0
CIRCLE
  5
364
100
AcDbEntity
  8
0
100
AcDbCircle
 62
9
  6
CONTINUOUS
 10
4.6270380538
 20
20.5377008142
 40
0.0687574628
  0
CIRCLE
  5
365
100
AcDbEntity
  8
0
100
AcDbCircle
 62
9
  6
CONTINUOUS
 10
4.6270380538
 20
20.5377008142
 40
0.0548379698
  0
CIRCLE
  5
366
100
AcDbEntity
  8
0
100
AcDbCircle
 62
7
  6
CONTINUOUS
 10
4.5820983372
 20
20.8252335035
 40
0.0708661417
  0
CIRCLE
  5
367
100
AcDbEntity
  8
0
100
AcDbCircle
 62
9
  6
CONTINUOUS
 10
4.5820983372
 20
20.8252335035
 40
0.0651002345
  0
CIRCLE
  5
368
100
AcDbEntity
  8
0
100
AcDbCircle
 62
9
  6
CONTINUOUS
 10
4.5820983372
 20
20.8252335035
 40
0.0569463945
  0
CIRCLE
  5
369
100
AcDbEntity
  8
0
100
AcDbCircle
 62
9
  6
CONTINUOUS
 10
4.5820983372
 20
20.8252335035
 40
0.0430269203
  0
CIRCLE
  5
36A
100
AcDbEntity
  8
0
100
AcDbCircle
 62
7
  6
CONTINUOUS
 10
4.8985185255
 20
20.6425482227
 40
0.0708661417
  0
CIRCLE
  5
36B
100
AcDbEntity
  8
0
100
AcDbCircle
 62
9
  6
CONTINUOUS
 10
4.8985185255
 20
20.6425482227
 40
0.0651002345
  0
CIRCLE
  5
36C
100
AcDbEntity
  8
0
100
AcDbCircle
 62
9
  6
CONTINUOUS
 10
4.8985185255
 20
20.6425482227
 40
0.0569463945
  0
CIRCLE
  5
36D
100
AcDbEntity
  8
0
100
AcDbCircle
 62
9
  6
CONTINUOUS
 10
4.8985185255
 20
20.6425482227
 40
0.0430269203
  0
ARC
  5
36E
100
AcDbEntity
  8
0
100
AcDbCircle
 62
7
  6
CONTINUOUS
 10
4.8985456589
 20
20.6426424516
 40
0.0176203964
100
AcDbArc
 50
247.5357416306
 51
67.4642584058
  0
ARC
  5
36F
100
AcDbEntity
  8
0
100
AcDbCircle
 62
7
  6
CONTINUOUS
 10
4.8985659691
 20
20.6426340389
 40
0.0176203964
100
AcDbArc
 50
67.5357460631
 51
247.4642538938
  0
ARC
  5
370
100
AcDbEntity
  8
0
100
AcDbCircle
 62
9
  6
CONTINUOUS
 10
4.711499354
 20
21.3589524623
 40
0.1030426648
100
AcDbArc
 50
39.3099687354
 51
40.1923584252
  0
ARC
  5
371
100
AcDbEntity
  8
0
100
AcDbCircle
 62
9
  6
CONTINUOUS
 10
4.7337769631
 20
21.3776497778
 40
0.0911266627
100
AcDbArc
 50
217.2473919177
 51
218.0648420492
  0
ARC
  5
372
100
AcDbEntity
  8
0
100
AcDbCircle
 62
9
  6
CONTINUOUS
 10
4.7304603358
 20
21.3762849573
 40
0.0876793227
100
AcDbArc
 50
218.6989391183
 51
219.4991405654
  0
ARC
  5
373
100
AcDbEntity
  8
0
100
AcDbCircle
 62
9
  6
CONTINUOUS
 10
4.7268501127
 20
21.3727458299
 40
0.0824324545
100
AcDbArc
 50
37.5789761614
 51
38.6514521008
  0
ARC
  5
374
100
AcDbEntity
  8
0
100
AcDbCircle
 62
9
  6
CONTINUOUS
 10
4.7283027745
 20
21.3737277471
 40
0.0806824458
100
AcDbArc
 50
24.7306737913
 51
37.6554792412
  0
ARC
  5
375
100
AcDbEntity
  8
0
100
AcDbCircle
 62
9
  6
CONTINUOUS
 10
4.7237901379
 20
21.3717676617
 40
0.0795111312
100
AcDbArc
 50
202.8800029393
 51
204.7489077798
  0
CIRCLE
  5
376
100
AcDbEntity
  8
0
100
AcDbCircle
 62
7
  6
CONTINUOUS
 10
4.7254637386
 20
21.3719214801
 40
0.0708661417
  0
CIRCLE
  5
377
100
AcDbEntity
  8
0
100
AcDbCircle
 62
7
  6
CONTINUOUS
 10
4.7254637386
 20
21.3719214801
 40
0.0708661417
  0
CIRCLE
  5
378
100
AcDbEntity
  8
0
100
AcDbCircle
 62
9
  6
CONTINUOUS
 10
4.7254637386
 20
21.3719214801
 40
0.0674067293
  0
CIRCLE
  5
379
100
AcDbEntity
  8
0
100
AcDbCircle
 62
9
  6
CONTINUOUS
 10
4.7254637386
 20
21.3719214801
 40
0.0546404342
  0
CIRCLE
  5
37A
100
AcDbEntity
  8
0
100
AcDbCircle
 62
9
  6
CONTINUOUS
 10
4.7254637386
 20
21.3719214801
 40
0.0462887627
  0
CIRCLE
  5
37B
100
AcDbEntity
  8
0
100
AcDbCircle
 62
7
  6
CONTINUOUS
 10
4.7254637386
 20
21.3719214801
 40
0.0295275591
  0
ARC
  5
37C
100
AcDbEntity
  8
0
100
AcDbCircle
 62
9
  6
CONTINUOUS
 10
4.8739295192
 20
21.2070254661
 40
0.0975773886
100
AcDbArc
 50
51.0684632129
 51
51.974476933
  0
ARC
  5
37D
100
AcDbEntity
  8
0
100
AcDbCircle
 62
9
  6
CONTINUOUS
 10
4.8849701515
 20
21.2200550982
 40
0.0845673549
100
AcDbArc
 50
232.5459276925
 51
233.3881410284
  0
ARC
  5
37E
100
AcDbEntity
  8
0
100
AcDbCircle
 62
9
  6
CONTINUOUS
 10
4.8839698116
 20
21.2185609666
 40
0.0827735886
100
AcDbArc
 50
218.6477721504
 51
231.596321902
  0
ARC
  5
37F
100
AcDbEntity
  8
0
100
AcDbCircle
 62
9
  6
CONTINUOUS
 10
4.8835691084
 20
21.218229402
 40
0.0822535674
100
AcDbArc
 50
216.8728602158
 51
218.6417116847
  0
ARC
  5
380
100
AcDbEntity
  8
0
100
AcDbCircle
 62
9
  6
CONTINUOUS
 10
4.8831829346
 20
21.2176148123
 40
0.08154333
100
AcDbArc
 50
231.6166210289
 51
232.5000919094
  0
ARC
  5
381
100
AcDbEntity
  8
0
100
AcDbCircle
 62
9
  6
CONTINUOUS
 10
4.8886430996
 20
21.2223441001
 40
0.0763054995
100
AcDbArc
 50
36.0636271027
 51
38.8884994229
  0
CIRCLE
  5
382
100
AcDbEntity
  8
0
100
AcDbCircle
 62
7
  6
CONTINUOUS
 10
4.8828840039
 20
21.2172250161
 40
0.0708661417
  0
ARC
  5
383
100
AcDbEntity
  8
0
100
AcDbCircle
 62
7
  6
CONTINUOUS
 10
4.8828840039
 20
21.2172250161
 40
0.0708661417
100
AcDbArc
 50
211.0760984466
 51
30.8988496484
  0
CIRCLE
  5
384
100
AcDbEntity
  8
0
100
AcDbCircle
 62
9
  6
CONTINUOUS
 10
4.8828840039
 20
21.2172250161
 40
0.0674067293
  0
CIRCLE
  5
385
100
AcDbEntity
  8
0
100
AcDbCircle
 62
9
  6
CONTINUOUS
 10
4.8828840039
 20
21.2172250161
 40
0.0546404342
  0
CIRCLE
  5
386
100
AcDbEntity
  8
0
100
AcDbCircle
 62
9
  6
CONTINUOUS
 10
4.8828840039
 20
21.2172250161
 40
0.0462887628
  0
CIRCLE
  5
387
100
AcDbEntity
  8
0
100
AcDbCircle
 62
7
  6
CONTINUOUS
 10
4.8828840039
 20
21.2172250161
 40
0.0295275591
  0
CIRCLE
  5
388
100
AcDbEntity
  8
0
100
AcDbCircle
 62
7
  6
CONTINUOUS
 10
4.9329209894
 20
21.6462457574
 40
0.0295275591
  0
ARC
  5
389
100
AcDbEntity
  8
0
100
AcDbCircle
 62
9
  6
CONTINUOUS
 10
5.0781144992
 20
21.1149685293
 40
0.0920253488
100
AcDbArc
 50
245.2316351992
 51
246.0332620348
  0
ARC
  5
38A
100
AcDbEntity
  8
0
100
AcDbCircle
 62
9
  6
CONTINUOUS
 10
5.0756254959
 20
21.1121295217
 40
0.0884271759
100
AcDbArc
 50
246.7597439307
 51
247.5533664273
  0
ARC
  5
38B
100
AcDbEntity
  8
0
100
AcDbCircle
 62
9
  6
CONTINUOUS
 10
5.0731752545
 20
21.1053033976
 40
0.0838931748
100
AcDbArc
 50
65.4854276174
 51
66.5505503116
  0
ARC
  5
38C
100
AcDbEntity
  8
0
100
AcDbCircle
 62
9
  6
CONTINUOUS
 10
5.0714958458
 20
21.104091404
 40
0.0792654042
100
AcDbArc
 50
230.9082375106
 51
232.7624767321
  0
CIRCLE
  5
38D
100
AcDbEntity
  8
0
100
AcDbCircle
 62
7
  6
CONTINUOUS
 10
5.0730526764
 20
21.1052071073
 40
0.0708661417
  0
ARC
  5
38E
100
AcDbEntity
  8
0
100
AcDbCircle
 62
7
  6
CONTINUOUS
 10
5.0730526764
 20
21.1052071073
 40
0.0708661417
100
AcDbArc
 50
246.5
 51
66.4999995299
  0
CIRCLE
  5
38F
100
AcDbEntity
  8
0
100
AcDbCircle
 62
9
  6
CONTINUOUS
 10
5.0730526764
 20
21.1052071073
 40
0.0674067293
  0
CIRCLE
  5
390
100
AcDbEntity
  8
0
100
AcDbCircle
 62
9
  6
CONTINUOUS
 10
5.0730526764
 20
21.1052071073
 40
0.0546404342
  0
CIRCLE
  5
391
100
AcDbEntity
  8
0
100
AcDbCircle
 62
9
  6
CONTINUOUS
 10
5.0730526764
 20
21.1052071073
 40
0.0462887626
  0
CIRCLE
  5
392
100
AcDbEntity
  8
0
100
AcDbCircle
 62
7
  6
CONTINUOUS
 10
5.0730526764
 20
21.1052071073
 40
0.0295275591
  0
CIRCLE
  5
393
100
AcDbEntity
  8
0
100
AcDbCircle
 62
7
  6
CONTINUOUS
 10
5.2514393872
 20
20.5479833628
 40
0.0708661417
  0
CIRCLE
  5
394
100
AcDbEntity
  8
0
100
AcDbCircle
 62
9
  6
CONTINUOUS
 10
5.2514393872
 20
20.5479833628
 40
0.0651002345
  0
CIRCLE
  5
395
100
AcDbEntity
  8
0
100
AcDbCircle
 62
9
  6
CONTINUOUS
 10
5.2514393872
 20
20.5479833628
 40
0.0569463945
  0
CIRCLE
  5
396
100
AcDbEntity
  8
0
100
AcDbCircle
 62
9
  6
CONTINUOUS
 10
5.2514393872
 20
20.5479833628
 40
0.0430269203
  0
CIRCLE
  5
397
100
AcDbEntity
  8
0
100
AcDbCircle
 62
9
  6
CONTINUOUS
 10
4.9715805102
 20
21.8747207425
 40
0.1439792358
  0
CIRCLE
  5
398
100
AcDbEntity
  8
0
100
AcDbCircle
 62
9
  6
CONTINUOUS
 10
5.1501158911
 20
21.5654883919
 40
0.1439792321
  0
CIRCLE
  5
399
100
AcDbEntity
  8
0
100
AcDbCircle
 62
9
  6
CONTINUOUS
 10
4.9715805102
 20
21.8747207425
 40
0.130060568
  0
CIRCLE
  5
39A
100
AcDbEntity
  8
0
100
AcDbCircle
 62
9
  6
CONTINUOUS
 10
5.1501158911
 20
21.5654883919
 40
0.1300605664
  0
CIRCLE
  5
39B
100
AcDbEntity
  8
0
100
AcDbCircle
 62
9
  6
CONTINUOUS
 10
4.9715805102
 20
21.8747207425
 40
0.1219067236
  0
CIRCLE
  5
39C
100
AcDbEntity
  8
0
100
AcDbCircle
 62
9
  6
CONTINUOUS
 10
5.1501158911
 20
21.5654883919
 40
0.1219067236
  0
CIRCLE
  5
39D
100
AcDbEntity
  8
0
100
AcDbCircle
 62
9
  6
CONTINUOUS
 10
4.9715805102
 20
21.8747207425
 40
0.1079869821
  0
CIRCLE
  5
39E
100
AcDbEntity
  8
0
100
AcDbCircle
 62
9
  6
CONTINUOUS
 10
5.1501158911
 20
21.5654883919
 40
0.1079869821
  0
CIRCLE
  5
39F
100
AcDbEntity
  8
0
100
AcDbCircle
 62
7
  6
CONTINUOUS
 10
4.9715805102
 20
21.8747207425
 40
0.0885826772
  0
CIRCLE
  5
3A0
100
AcDbEntity
  8
0
100
AcDbCircle
 62
7
  6
CONTINUOUS
 10
5.1501158911
 20
21.5654883919
 40
0.0885826772
  0
CIRCLE
  5
3A1
100
AcDbEntity
  8
0
100
AcDbCircle
 62
7
  6
CONTINUOUS
 10
5.2843356931
 20
21.3765957713
 40
0.0295275591
  0
ARC
  5
3A2
100
AcDbEntity
  8
0
100
AcDbCircle
 62
7
  6
CONTINUOUS
 10
6.920124668
 20
15.3106158361
 40
0.1
100
AcDbArc
 50
279.5940682269
 51
350.4059317729
  0
ARC
  5
3A3
100
AcDbEntity
  8
0
100
AcDbCircle
 62
7
  6
CONTINUOUS
 10
6.0347821
 20
15.1554556752
 40
0.06
100
AcDbArc
 50
174.9244926841
 51
266.7567985982
  0
ARC
  5
3A4
100
AcDbEntity
  8
0
100
AcDbCircle
 62
7
  6
CONTINUOUS
 10
6.940124668
 20
15.1922942404
 40
0.02
100
AcDbArc
 50
99.5940682269
 51
180.0
  0
ARC
  5
3A5
100
AcDbEntity
  8
0
100
AcDbCircle
 62
7
  6
CONTINUOUS
 10
7.0384462637
 20
15.2906158361
 40
0.02
100
AcDbArc
 50
90.0
 51
170.4059317731
  0
CIRCLE
  5
3A6
100
AcDbEntity
  8
0
100
AcDbCircle
 62
7
  6
CONTINUOUS
 10
5.434124668
 20
20.3214426078
 40
0.0826771654
  0
CIRCLE
  5
3A7
100
AcDbEntity
  8
0
100
AcDbCircle
 62
9
  6
CONTINUOUS
 10
5.434124668
 20
20.3214426078
 40
0.0769109535
  0
CIRCLE
  5
3A8
100
AcDbEntity
  8
0
100
AcDbCircle
 62
9
  6
CONTINUOUS
 10
5.434124668
 20
20.3214426078
 40
0.0687574628
  0
ARC
  5
3A9
100
AcDbEntity
  8
0
100
AcDbCircle
 62
7
  6
CONTINUOUS
 10
6.0147432
 20
19.0056158361
 40
0.06
100
AcDbArc
 50
219.0
 51
270.0
  0
ARC
  5
3AA
100
AcDbEntity
  8
0
100
AcDbCircle
 62
7
  6
CONTINUOUS
 10
5.869124668
 20
19.1853510369
 40
0.06
100
AcDbArc
 50
180.0
 51
221.4718295498
  0
ARC
  5
3AB
100
AcDbEntity
  8
0
100
AcDbCircle
 62
7
  6
CONTINUOUS
 10
6.0347821
 20
18.735775997
 40
0.06
100
AcDbArc
 50
93.2432014018
 51
185.0755073159
  0
CIRCLE
  5
3AC
100
AcDbEntity
  8
0
100
AcDbCircle
 62
9
  6
CONTINUOUS
 10
5.434124668
 20
20.3214426078
 40
0.0548379698
  0
ARC
  5
3AD
100
AcDbEntity
  8
0
100
AcDbCircle
 62
7
  6
CONTINUOUS
 10
6.029124668
 20
18.9056158361
 40
0.04
100
AcDbArc
 50
0.0
 51
90.0
  0
ARC
  5
3AE
100
AcDbEntity
  8
0
100
AcDbCircle
 62
7
  6
CONTINUOUS
 10
6.029124668
 20
18.8356158361
 40
0.04
100
AcDbArc
 50
273.2432014018
 51
360.0
  0
CIRCLE
  5
3AF
100
AcDbEntity
  8
0
100
AcDbCircle
 62
7
  6
CONTINUOUS
 10
5.6168099488
 20
20.5479833628
 40
0.0708661417
  0
CIRCLE
  5
3B0
100
AcDbEntity
  8
0
100
AcDbCircle
 62
9
  6
CONTINUOUS
 10
5.6168099488
 20
20.5479833628
 40
0.0651002345
  0
CIRCLE
  5
3B1
100
AcDbEntity
  8
0
100
AcDbCircle
 62
9
  6
CONTINUOUS
 10
5.6168099488
 20
20.5479833628
 40
0.0569463945
  0
CIRCLE
  5
3B2
100
AcDbEntity
  8
0
100
AcDbCircle
 62
9
  6
CONTINUOUS
 10
5.6168099488
 20
20.5479833628
 40
0.0430269203
  0
ARC
  5
3B3
100
AcDbEntity
  8
0
100
AcDbCircle
 62
7
  6
CONTINUOUS
 10
5.6167863326
 20
20.5480785342
 40
0.0176203964
100
AcDbArc
 50
277.5357416358
 51
97.4642584047
  0
ARC
  5
3B4
100
AcDbEntity
  8
0
100
AcDbCircle
 62
7
  6
CONTINUOUS
 10
5.6168081282
 20
20.5480814036
 40
0.0176203964
100
AcDbArc
 50
97.535746062
 51
277.464253899
  0
ARC
  5
3B5
100
AcDbEntity
  8
0
100
AcDbCircle
 62
9
  6
CONTINUOUS
 10
5.756928906
 20
21.0752605029
 40
0.0974436076
100
AcDbArc
 50
111.1226712881
 51
112.0556617787
  0
ARC
  5
3B6
100
AcDbEntity
  8
0
100
AcDbCircle
 62
9
  6
CONTINUOUS
 10
5.7537843558
 20
21.0830888876
 40
0.0760832396
100
AcDbArc
 50
289.8560325185
 51
290.7420277764
  0
CIRCLE
  5
3B7
100
AcDbEntity
  8
0
100
AcDbCircle
 62
7
  6
CONTINUOUS
 10
5.751241588
 20
21.0874481057
 40
0.0708661417
  0
CIRCLE
  5
3B8
100
AcDbEntity
  8
0
100
AcDbCircle
 62
9
  6
CONTINUOUS
 10
5.751241588
 20
21.0874481057
 40
0.0674067293
  0
CIRCLE
  5
3B9
100
AcDbEntity
  8
0
100
AcDbCircle
 62
9
  6
CONTINUOUS
 10
5.751241588
 20
21.0874481057
 40
0.0546404342
  0
CIRCLE
  5
3BA
100
AcDbEntity
  8
0
100
AcDbCircle
 62
9
  6
CONTINUOUS
 10
5.751241588
 20
21.0874481057
 40
0.0462887627
  0
CIRCLE
  5
3BB
100
AcDbEntity
  8
0
100
AcDbCircle
 62
7
  6
CONTINUOUS
 10
5.751241588
 20
21.0874481057
 40
0.0295275591
  0
CIRCLE
  5
3BC
100
AcDbEntity
  8
0
100
AcDbCircle
 62
9
  6
CONTINUOUS
 10
5.4950197616
 20
21.4730716783
 40
0.1439792358
  0
CIRCLE
  5
3BD
100
AcDbEntity
  8
0
100
AcDbCircle
 62
9
  6
CONTINUOUS
 10
5.4950197616
 20
21.4730716783
 40
0.130060568
  0
CIRCLE
  5
3BE
100
AcDbEntity
  8
0
100
AcDbCircle
 62
9
  6
CONTINUOUS
 10
5.4950197616
 20
21.4730716783
 40
0.1219067236
  0
CIRCLE
  5
3BF
100
AcDbEntity
  8
0
100
AcDbCircle
 62
9
  6
CONTINUOUS
 10
5.4950197616
 20
21.4730716783
 40
0.1079869821
  0
CIRCLE
  5
3C0
100
AcDbEntity
  8
0
100
AcDbCircle
 62
7
  6
CONTINUOUS
 10
5.4950197616
 20
21.4730716783
 40
0.0885826772
  0
ARC
  5
3C1
100
AcDbEntity
  8
0
100
AcDbCircle
 62
7
  6
CONTINUOUS
 10
5.434124668
 20
21.9356158361
 40
2.1497084296
100
AcDbArc
 50
211.3267920237
 51
208.7632150813
  0
ARC
  5
3C2
100
AcDbEntity
  8
0
100
AcDbCircle
 62
9
  6
CONTINUOUS
 10
5.434124668
 20
21.9356158361
 40
2.025
100
AcDbArc
 50
212.2046302397
 51
207.7953725402
  0
ARC
  5
3C3
100
AcDbEntity
  8
0
100
AcDbCircle
 62
7
  6
CONTINUOUS
 10
5.434124668
 20
21.9356158361
 40
1.877
100
AcDbArc
 50
212.3603575934
 51
207.6178448732
  0
ARC
  5
3C4
100
AcDbEntity
  8
0
100
AcDbCircle
 62
7
  6
CONTINUOUS
 10
5.434124668
 20
21.9356158361
 40
1.8749065617
100
AcDbArc
 50
212.3645156414
 51
207.6167076399
  0
ARC
  5
3C5
100
AcDbEntity
  8
0
100
AcDbCircle
 62
7
  6
CONTINUOUS
 10
5.434124668
 20
21.9356158361
 40
1.865
100
AcDbArc
 50
30.0803854403
 51
92.0678528912
  0
ARC
  5
3C6
100
AcDbEntity
  8
0
100
AcDbCircle
 62
7
  6
CONTINUOUS
 10
5.434124668
 20
21.9356158361
 40
1.865
100
AcDbArc
 50
206.4122277444
 51
207.6114599196
  0
ARC
  5
3C7
100
AcDbEntity
  8
0
100
AcDbCircle
 62
7
  6
CONTINUOUS
 10
5.434124668
 20
21.9356158361
 40
1.865
100
AcDbArc
 50
212.3840401833
 51
215.0781478226
  0
ARC
  5
3C8
100
AcDbEntity
  8
0
100
AcDbCircle
 62
7
  6
CONTINUOUS
 10
5.434124668
 20
21.9356158361
 40
1.865
100
AcDbArc
 50
268.334002653
 51
271.6906948663
  0
ARC
  5
3C9
100
AcDbEntity
  8
0
100
AcDbCircle
 62
7
  6
CONTINUOUS
 10
5.434124668
 20
21.9356158361
 40
1.8622047244
100
AcDbArc
 50
212.4133019933
 51
207.5866972358
  0
ARC
  5
3CA
100
AcDbEntity
  8
0
100
AcDbCircle
 62
9
  6
CONTINUOUS
 10
5.434124668
 20
21.9356158361
 40
1.7683598047
100
AcDbArc
 50
213.1646759673
 51
206.8353242141
  0
ARC
  5
3CB
100
AcDbEntity
  8
0
100
AcDbCircle
 62
9
  6
CONTINUOUS
 10
5.434124668
 20
21.9356158361
 40
1.75857485
100
AcDbArc
 50
213.2340769713
 51
206.7659278357
  0
ARC
  5
3CC
100
AcDbEntity
  8
0
100
AcDbCircle
 62
9
  6
CONTINUOUS
 10
5.434124668
 20
21.9356158361
 40
1.7579204953
100
AcDbArc
 50
213.2374412786
 51
206.7625587217
  0
ARC
  5
3CD
100
AcDbEntity
  8
0
100
AcDbCircle
 62
9
  6
CONTINUOUS
 10
5.434124668
 20
21.9356158361
 40
1.7335217585
100
AcDbArc
 50
213.2374456713
 51
206.7625528486
  0
CIRCLE
  5
3CE
100
AcDbEntity
  8
0
100
AcDbCircle
 62
9
  6
CONTINUOUS
 10
5.434124668
 20
21.9356158361
 40
1.2864016238
  0
ARC
  5
3CF
100
AcDbEntity
  8
0
100
AcDbCircle
 62
9
  6
CONTINUOUS
 10
5.434124668
 20
21.9356158361
 40
1.2864016238
100
AcDbArc
 50
210.0
 51
210.7172245659
  0
ARC
  5
3D0
100
AcDbEntity
  8
0
100
AcDbCircle
 62
9
  6
CONTINUOUS
 10
5.434124668
 20
21.9356158361
 40
1.2864016238
100
AcDbArc
 50
30.0
 51
30.7172245658
  0
CIRCLE
  5
3D1
100
AcDbEntity
  8
0
100
AcDbCircle
 62
9
  6
CONTINUOUS
 10
5.434124668
 20
21.9356158361
 40
1.270345173
  0
CIRCLE
  5
3D2
100
AcDbEntity
  8
0
100
AcDbCircle
 62
9
  6
CONTINUOUS
 10
5.434124668
 20
21.9356158361
 40
1.270345173
  0
CIRCLE
  5
3D3
100
AcDbEntity
  8
0
100
AcDbCircle
 62
9
  6
CONTINUOUS
 10
5.434124668
 20
21.9356158361
 40
1.2686221422
  0
ARC
  5
3D4
100
AcDbEntity
  8
0
100
AcDbCircle
 62
9
  6
CONTINUOUS
 10
5.434124668
 20
21.9356158361
 40
1.2686221422
100
AcDbArc
 50
30.0
 51
210.0
  0
CIRCLE
  5
3D5
100
AcDbEntity
  8
0
100
AcDbCircle
 62
9
  6
CONTINUOUS
 10
5.434124668
 20
21.9356158361
 40
1.2621655827
  0
ARC
  5
3D6
100
AcDbEntity
  8
0
100
AcDbCircle
 62
9
  6
CONTINUOUS
 10
5.434124668
 20
21.9356158361
 40
1.2621655774
100
AcDbArc
 50
209.0671034207
 51
210.0
  0
CIRCLE
  5
3D7
100
AcDbEntity
  8
0
100
AcDbCircle
 62
7
  6
CONTINUOUS
 10
5.434124668
 20
21.9356158361
 40
1.1732283464
  0
ARC
  5
3D8
100
AcDbEntity
  8
0
100
AcDbCircle
 62
7
  6
CONTINUOUS
 10
5.4341246679
 20
21.9356158363
 40
1.1732283462
100
AcDbArc
 50
29.9996511208
 51
210.0003488792
  0
CIRCLE
  5
3D9
100
AcDbEntity
  8
0
100
AcDbCircle
 62
7
  6
CONTINUOUS
 10
5.434124668
 20
21.9356158361
 40
1.1653404974
  0
CIRCLE
  5
3DA
100
AcDbEntity
  8
0
100
AcDbCircle
 62
7
  6
CONTINUOUS
 10
5.434124668
 20
21.9356158361
 40
1.1653404974
  0
CIRCLE
  5
3DB
100
AcDbEntity
  8
0
100
AcDbCircle
 62
7
  6
CONTINUOUS
 10
5.434124668
 20
21.9356158361
 40
1.1614173228
  0
ARC
  5
3DC
100
AcDbEntity
  8
0
100
AcDbCircle
 62
7
  6
CONTINUOUS
 10
5.434124668
 20
21.9356158361
 40
0.8937007874
100
AcDbArc
 50
316.802340994
 51
320.0
  0
ARC
  5
3DD
100
AcDbEntity
  8
0
100
AcDbCircle
 62
7
  6
CONTINUOUS
 10
5.434124668
 20
21.9356158361
 40
0.8937007874
100
AcDbArc
 50
14.8055325994
 51
18.1914279563
  0
ARC
  5
3DE
100
AcDbEntity
  8
0
100
AcDbCircle
 62
7
  6
CONTINUOUS
 10
5.434124668
 20
21.9356158361
 40
0.8937007874
100
AcDbArc
 50
72.8085922347
 51
76.1926660052
  0
CIRCLE
  5
3DF
100
AcDbEntity
  8
0
100
AcDbCircle
 62
9
  6
CONTINUOUS
 10
5.434124668
 20
21.9356158361
 40
0.7233776624
  0
CIRCLE
  5
3E0
100
AcDbEntity
  8
0
100
AcDbCircle
 62
9
  6
CONTINUOUS
 10
5.434124668
 20
21.9356158361
 40
0.6903545
  0
CIRCLE
  5
3E1
100
AcDbEntity
  8
0
100
AcDbCircle
 62
9
  6
CONTINUOUS
 10
5.434124668
 20
21.9356158361
 40
0.6619775031
  0
CIRCLE
  5
3E2
100
AcDbEntity
  8
0
100
AcDbCircle
 62
9
  6
CONTINUOUS
 10
5.434124668
 20
21.9356158361
 40
0.6434795449
  0
CIRCLE
  5
3E3
100
AcDbEntity
  8
0
100
AcDbCircle
 62
7
  6
CONTINUOUS
 10
5.434124668
 20
21.9356158361
 40
0.2913385827
  0
CIRCLE
  5
3E4
100
AcDbEntity
  8
0
100
AcDbCircle
 62
7
  6
CONTINUOUS
 10
5.434124668
 20
21.9356158361
 40
0.2755905512
  0
CIRCLE
  5
3E5
100
AcDbEntity
  8
0
100
AcDbCircle
 62
9
  6
CONTINUOUS
 10
5.434124668
 20
21.9356158361
 40
0.2650026166
  0
CIRCLE
  5
3E6
100
AcDbEntity
  8
0
100
AcDbCircle
 62
7
  6
CONTINUOUS
 10
5.7234947467
 20
21.4344121575
 40
0.0295275591
  0
ARC
  5
3E7
100
AcDbEntity
  8
0
100
AcDbCircle
 62
9
  6
CONTINUOUS
 10
5.95587551
 20
21.1784135232
 40
0.0980779186
100
AcDbArc
 50
125.1452014576
 51
126.0719655968
  0
CIRCLE
  5
3E8
100
AcDbEntity
  8
0
100
AcDbCircle
 62
7
  6
CONTINUOUS
 10
5.8519034416
 20
20.3764442267
 40
0.0826771654
  0
CIRCLE
  5
3E9
100
AcDbEntity
  8
0
100
AcDbCircle
 62
9
  6
CONTINUOUS
 10
5.8519034416
 20
20.3764442267
 40
0.0769109535
  0
CIRCLE
  5
3EA
100
AcDbEntity
  8
0
100
AcDbCircle
 62
7
  6
CONTINUOUS
 10
5.9697308105
 20
20.6425482227
 40
0.0708661417
  0
CIRCLE
  5
3EB
100
AcDbEntity
  8
0
100
AcDbCircle
 62
9
  6
CONTINUOUS
 10
5.8519034416
 20
20.3764442267
 40
0.0687574628
  0
CIRCLE
  5
3EC
100
AcDbEntity
  8
0
100
AcDbCircle
 62
9
  6
CONTINUOUS
 10
5.9697308105
 20
20.6425482227
 40
0.0651002345
  0
CIRCLE
  5
3ED
100
AcDbEntity
  8
0
100
AcDbCircle
 62
9
  6
CONTINUOUS
 10
5.9697308105
 20
20.6425482227
 40
0.0569463945
  0
CIRCLE
  5
3EE
100
AcDbEntity
  8
0
100
AcDbCircle
 62
9
  6
CONTINUOUS
 10
5.8519034416
 20
20.3764442267
 40
0.0548379698
  0
CIRCLE
  5
3EF
100
AcDbEntity
  8
0
100
AcDbCircle
 62
9
  6
CONTINUOUS
 10
5.9697308105
 20
20.6425482227
 40
0.0430269203
  0
ARC
  5
3F0
100
AcDbEntity
  8
0
100
AcDbCircle
 62
9
  6
CONTINUOUS
 10
5.941560071
 20
21.1985839967
 40
0.0917449965
100
AcDbArc
 50
303.2360377699
 51
304.0432417897
  0
ARC
  5
3F1
100
AcDbEntity
  8
0
100
AcDbCircle
 62
9
  6
CONTINUOUS
 10
5.9430219829
 20
21.1946305959
 40
0.0876564679
100
AcDbArc
 50
304.698088382
 51
305.4979861828
  0
CIRCLE
  5
3F2
100
AcDbEntity
  8
0
100
AcDbCircle
 62
7
  6
CONTINUOUS
 10
5.9470122054
 20
21.1893598385
 40
0.0708661417
  0
CIRCLE
  5
3F3
100
AcDbEntity
  8
0
100
AcDbCircle
 62
9
  6
CONTINUOUS
 10
5.9470122054
 20
21.1893598385
 40
0.0674067293
  0
CIRCLE
  5
3F4
100
AcDbEntity
  8
0
100
AcDbCircle
 62
9
  6
CONTINUOUS
 10
5.9470122054
 20
21.1893598385
 40
0.0546404342
  0
CIRCLE
  5
3F5
100
AcDbEntity
  8
0
100
AcDbCircle
 62
9
  6
CONTINUOUS
 10
5.9470122054
 20
21.1893598385
 40
0.0462887627
  0
CIRCLE
  5
3F6
100
AcDbEntity
  8
0
100
AcDbCircle
 62
7
  6
CONTINUOUS
 10
5.9470122054
 20
21.1893598385
 40
0.0295275591
  0
CIRCLE
  5
3F7
100
AcDbEntity
  8
0
100
AcDbCircle
 62
9
  6
CONTINUOUS
 10
5.8966688258
 20
21.9965109297
 40
0.1439792358
  0
CIRCLE
  5
3F8
100
AcDbEntity
  8
0
100
AcDbCircle
 62
9
  6
CONTINUOUS
 10
5.8042521122
 20
21.6516070592
 40
0.1439792321
  0
CIRCLE
  5
3F9
100
AcDbEntity
  8
0
100
AcDbCircle
 62
9
  6
CONTINUOUS
 10
5.8966688258
 20
21.9965109297
 40
0.130060568
  0
CIRCLE
  5
3FA
100
AcDbEntity
  8
0
100
AcDbCircle
 62
9
  6
CONTINUOUS
 10
5.8042521122
 20
21.6516070592
 40
0.1300605664
  0
CIRCLE
  5
3FB
100
AcDbEntity
  8
0
100
AcDbCircle
 62
9
  6
CONTINUOUS
 10
5.8966688258
 20
21.9965109297
 40
0.1219067236
  0
CIRCLE
  5
3FC
100
AcDbEntity
  8
0
100
AcDbCircle
 62
9
  6
CONTINUOUS
 10
5.8042521122
 20
21.6516070592
 40
0.1219067236
  0
CIRCLE
  5
3FD
100
AcDbEntity
  8
0
100
AcDbCircle
 62
9
  6
CONTINUOUS
 10
5.8966688258
 20
21.9965109297
 40
0.1079869821
  0
CIRCLE
  5
3FE
100
AcDbEntity
  8
0
100
AcDbCircle
 62
9
  6
CONTINUOUS
 10
5.8042521122
 20
21.6516070592
 40
0.1079869821
  0
CIRCLE
  5
3FF
100
AcDbEntity
  8
0
100
AcDbCircle
 62
7
  6
CONTINUOUS
 10
5.8042521122
 20
21.6516070592
 40
0.0885826772
  0
CIRCLE
  5
400
100
AcDbEntity
  8
0
100
AcDbCircle
 62
7
  6
CONTINUOUS
 10
5.8966688258
 20
21.9965109297
 40
0.0885826772
  0
ARC
  5
401
100
AcDbEntity
  8
0
100
AcDbCircle
 62
9
  6
CONTINUOUS
 10
6.1220519818
 20
21.3282382868
 40
0.0962106998
100
AcDbArc
 50
139.0571460343
 51
139.9928033558
  0
ARC
  5
402
100
AcDbEntity
  8
0
100
AcDbCircle
 62
9
  6
CONTINUOUS
 10
6.1048386758
 20
21.3431899561
 40
0.0916784296
100
AcDbArc
 50
317.235509117
 51
318.0451461566
  0
ARC
  5
403
100
AcDbEntity
  8
0
100
AcDbCircle
 62
9
  6
CONTINUOUS
 10
6.1072395484
 20
21.3396977167
 40
0.0875638688
100
AcDbArc
 50
318.694249532
 51
319.5001877396
  0
ARC
  5
404
100
AcDbEntity
  8
0
100
AcDbCircle
 62
9
  6
CONTINUOUS
 10
6.1088182568
 20
21.3393571538
 40
0.0789286398
100
AcDbArc
 50
137.7659184157
 51
138.8587142261
  0
CIRCLE
  5
405
100
AcDbEntity
  8
0
100
AcDbCircle
 62
7
  6
CONTINUOUS
 10
6.1123129191
 20
21.3356055562
 40
0.0708661417
  0
ARC
  5
406
100
AcDbEntity
  8
0
100
AcDbCircle
 62
7
  6
CONTINUOUS
 10
6.1123129191
 20
21.3356055562
 40
0.0708661417
100
AcDbArc
 50
138.499998711
 51
318.5
  0
CIRCLE
  5
407
100
AcDbEntity
  8
0
100
AcDbCircle
 62
9
  6
CONTINUOUS
 10
6.1123129191
 20
21.3356055562
 40
0.0674067292
  0
CIRCLE
  5
408
100
AcDbEntity
  8
0
100
AcDbCircle
 62
9
  6
CONTINUOUS
 10
6.1123129191
 20
21.3356055562
 40
0.0546404346
  0
CIRCLE
  5
409
100
AcDbEntity
  8
0
100
AcDbCircle
 62
9
  6
CONTINUOUS
 10
6.1123129191
 20
21.3356055562
 40
0.0462887633
  0
CIRCLE
  5
40A
100
AcDbEntity
  8
0
100
AcDbCircle
 62
7
  6
CONTINUOUS
 10
6.1123129191
 20
21.3356055562
 40
0.0295275591
  0
CIRCLE
  5
40B
100
AcDbEntity
  8
0
100
AcDbCircle
 62
7
  6
CONTINUOUS
 10
5.9931447328
 20
21.7858268612
 40
0.0295275591
  0
CIRCLE
  5
40C
100
AcDbEntity
  8
0
100
AcDbCircle
 62
7
  6
CONTINUOUS
 10
6.2412112822
 20
20.5377008142
 40
0.0826771654
  0
CIRCLE
  5
40D
100
AcDbEntity
  8
0
100
AcDbCircle
 62
9
  6
CONTINUOUS
 10
6.2412112822
 20
20.5377008142
 40
0.0769109536
  0
CIRCLE
  5
40E
100
AcDbEntity
  8
0
100
AcDbCircle
 62
9
  6
CONTINUOUS
 10
6.2412112822
 20
20.5377008142
 40
0.0687574628
  0
CIRCLE
  5
40F
100
AcDbEntity
  8
0
100
AcDbCircle
 62
9
  6
CONTINUOUS
 10
6.2412112822
 20
20.5377008142
 40
0.0548379698
  0
CIRCLE
  5
410
100
AcDbEntity
  8
0
100
AcDbCircle
 62
7
  6
CONTINUOUS
 10
6.2861509988
 20
20.8252335035
 40
0.0708661417
  0
CIRCLE
  5
411
100
AcDbEntity
  8
0
100
AcDbCircle
 62
9
  6
CONTINUOUS
 10
6.2861509988
 20
20.8252335035
 40
0.0651002345
  0
CIRCLE
  5
412
100
AcDbEntity
  8
0
100
AcDbCircle
 62
9
  6
CONTINUOUS
 10
6.2861509988
 20
20.8252335035
 40
0.0569463945
  0
CIRCLE
  5
413
100
AcDbEntity
  8
0
100
AcDbCircle
 62
9
  6
CONTINUOUS
 10
6.2861509988
 20
20.8252335035
 40
0.0430269203
  0
ARC
  5
414
100
AcDbEntity
  8
0
100
AcDbCircle
 62
7
  6
CONTINUOUS
 10
6.2860829608
 20
20.8253041163
 40
0.0176203964
100
AcDbArc
 50
307.5357416369
 51
127.4642584019
  0
ARC
  5
415
100
AcDbEntity
  8
0
100
AcDbCircle
 62
7
  6
CONTINUOUS
 10
6.2861004016
 20
20.825317499
 40
0.0176203964
100
AcDbArc
 50
127.5357460611
 51
307.4642538982
  0
CIRCLE
  5
416
100
AcDbEntity
  8
0
100
AcDbCircle
 62
7
  6
CONTINUOUS
 10
6.5755175038
 20
20.7942230003
 40
0.0826771654
  0
CIRCLE
  5
417
100
AcDbEntity
  8
0
100
AcDbCircle
 62
9
  6
CONTINUOUS
 10
6.5755175038
 20
20.7942230003
 40
0.0769109535
  0
CIRCLE
  5
418
100
AcDbEntity
  8
0
100
AcDbCircle
 62
9
  6
CONTINUOUS
 10
6.5755175038
 20
20.7942230003
 40
0.0687574628
  0
CIRCLE
  5
419
100
AcDbEntity
  8
0
100
AcDbCircle
 62
9
  6
CONTINUOUS
 10
6.5755175038
 20
20.7942230003
 40
0.0548379698
  0
CIRCLE
  5
41A
100
AcDbEntity
  8
0
100
AcDbCircle
 62
7
  6
CONTINUOUS
 10
6.5445070006
 20
21.0835895053
 40
0.0708661417
  0
CIRCLE
  5
41B
100
AcDbEntity
  8
0
100
AcDbCircle
 62
9
  6
CONTINUOUS
 10
6.5445070006
 20
21.0835895053
 40
0.0651002345
  0
CIRCLE
  5
41C
100
AcDbEntity
  8
0
100
AcDbCircle
 62
9
  6
CONTINUOUS
 10
6.5445070006
 20
21.0835895053
 40
0.0569463945
  0
CIRCLE
  5
41D
100
AcDbEntity
  8
0
100
AcDbCircle
 62
9
  6
CONTINUOUS
 10
6.5445070006
 20
21.0835895053
 40
0.0430269203
  0
CIRCLE
  5
41E
100
AcDbEntity
  8
0
100
AcDbCircle
 62
7
  6
CONTINUOUS
 10
6.3387746324
 20
21.9751137065
 40
0.0708661417
  0
CIRCLE
  5
41F
100
AcDbEntity
  8
0
100
AcDbCircle
 62
9
  6
CONTINUOUS
 10
6.3387746324
 20
21.9751137065
 40
0.0674067293
  0
CIRCLE
  5
420
100
AcDbEntity
  8
0
100
AcDbCircle
 62
9
  6
CONTINUOUS
 10
6.3387746324
 20
21.9751137065
 40
0.0546404342
  0
CIRCLE
  5
421
100
AcDbEntity
  8
0
100
AcDbCircle
 62
9
  6
CONTINUOUS
 10
6.3387746324
 20
21.9751137065
 40
0.0462887627
  0
CIRCLE
  5
422
100
AcDbEntity
  8
0
100
AcDbCircle
 62
7
  6
CONTINUOUS
 10
6.3387746324
 20
21.9751137065
 40
0.0295275591
  0
CIRCLE
  5
423
100
AcDbEntity
  8
0
100
AcDbCircle
 62
7
  6
CONTINUOUS
 10
6.8320396899
 20
21.1285292219
 40
0.0826771654
  0
CIRCLE
  5
424
100
AcDbEntity
  8
0
100
AcDbCircle
 62
9
  6
CONTINUOUS
 10
6.8320396899
 20
21.1285292219
 40
0.0769109535
  0
CIRCLE
  5
425
100
AcDbEntity
  8
0
100
AcDbCircle
 62
9
  6
CONTINUOUS
 10
6.8320396899
 20
21.1285292219
 40
0.0687574628
  0
CIRCLE
  5
426
100
AcDbEntity
  8
0
100
AcDbCircle
 62
9
  6
CONTINUOUS
 10
6.8320396899
 20
21.1285292219
 40
0.0548379698
  0
CIRCLE
  5
427
100
AcDbEntity
  8
0
100
AcDbCircle
 62
7
  6
CONTINUOUS
 10
6.7271922814
 20
21.4000096936
 40
0.0708661417
  0
CIRCLE
  5
428
100
AcDbEntity
  8
0
100
AcDbCircle
 62
9
  6
CONTINUOUS
 10
6.7271922814
 20
21.4000096936
 40
0.0651002345
  0
CIRCLE
  5
429
100
AcDbEntity
  8
0
100
AcDbCircle
 62
9
  6
CONTINUOUS
 10
6.7271922814
 20
21.4000096936
 40
0.0569463945
  0
CIRCLE
  5
42A
100
AcDbEntity
  8
0
100
AcDbCircle
 62
9
  6
CONTINUOUS
 10
6.7271922814
 20
21.4000096936
 40
0.0430269203
  0
ARC
  5
42B
100
AcDbEntity
  8
0
100
AcDbCircle
 62
7
  6
CONTINUOUS
 10
6.7270980524
 20
21.400036827
 40
0.0176203964
100
AcDbArc
 50
337.5357416343
 51
157.4642584021
  0
ARC
  5
42C
100
AcDbEntity
  8
0
100
AcDbCircle
 62
7
  6
CONTINUOUS
 10
6.7271064652
 20
21.4000571372
 40
0.0176203964
100
AcDbArc
 50
157.5357460625
 51
337.4642538945
  0
CIRCLE
  5
42D
100
AcDbEntity
  8
0
100
AcDbCircle
 62
7
  6
CONTINUOUS
 10
6.8217571413
 20
21.7529305553
 40
0.0708661417
  0
CIRCLE
  5
42E
100
AcDbEntity
  8
0
100
AcDbCircle
 62
9
  6
CONTINUOUS
 10
6.8217571413
 20
21.7529305553
 40
0.0651002345
  0
CIRCLE
  5
42F
100
AcDbEntity
  8
0
100
AcDbCircle
 62
9
  6
CONTINUOUS
 10
6.8217571413
 20
21.7529305553
 40
0.0569463945
  0
CIRCLE
  5
430
100
AcDbEntity
  8
0
100
AcDbCircle
 62
9
  6
CONTINUOUS
 10
6.8217571413
 20
21.7529305553
 40
0.0430269203
  0
CIRCLE
  5
431
100
AcDbEntity
  8
0
100
AcDbCircle
 62
7
  6
CONTINUOUS
 10
6.9932962774
 20
21.5178370625
 40
0.0826771654
  0
CIRCLE
  5
432
100
AcDbEntity
  8
0
100
AcDbCircle
 62
9
  6
CONTINUOUS
 10
6.9932962774
 20
21.5178370625
 40
0.0769109535
  0
CIRCLE
  5
433
100
AcDbEntity
  8
0
100
AcDbCircle
 62
9
  6
CONTINUOUS
 10
6.9932962774
 20
21.5178370625
 40
0.0687574628
  0
CIRCLE
  5
434
100
AcDbEntity
  8
0
100
AcDbCircle
 62
9
  6
CONTINUOUS
 10
6.9932962774
 20
21.5178370625
 40
0.0548379698
  0
CIRCLE
  5
435
100
AcDbEntity
  8
0
100
AcDbCircle
 62
7
  6
CONTINUOUS
 10
7.0482978963
 20
21.9356158361
 40
0.0826771654
  0
CIRCLE
  5
436
100
AcDbEntity
  8
0
100
AcDbCircle
 62
9
  6
CONTINUOUS
 10
7.0482978963
 20
21.9356158361
 40
0.0769109535
  0
CIRCLE
  5
437
100
AcDbEntity
  8
0
100
AcDbCircle
 62
9
  6
CONTINUOUS
 10
7.0482978963
 20
21.9356158361
 40
0.0687574628
  0
CIRCLE
  5
438
100
AcDbEntity
  8
0
100
AcDbCircle
 62
9
  6
CONTINUOUS
 10
7.0482978963
 20
21.9356158361
 40
0.0548379698
  0
CIRCLE
  5
439
100
AcDbEntity
  8
0
100
AcDbCircle
 62
7
  6
CONTINUOUS
 10
4.0464921947
 20
22.1183011169
 40
0.0708661417
  0
CIRCLE
  5
43A
100
AcDbEntity
  8
0
100
AcDbCircle
 62
9
  6
CONTINUOUS
 10
4.0464921947
 20
22.1183011169
 40
0.0651002345
  0
CIRCLE
  5
43B
100
AcDbEntity
  8
0
100
AcDbCircle
 62
9
  6
CONTINUOUS
 10
4.0464921947
 20
22.1183011169
 40
0.0569463945
  0
CIRCLE
  5
43C
100
AcDbEntity
  8
0
100
AcDbCircle
 62
9
  6
CONTINUOUS
 10
4.0464921947
 20
22.1183011169
 40
0.0430269203
  0
CIRCLE
  5
43D
100
AcDbEntity
  8
0
100
AcDbCircle
 62
7
  6
CONTINUOUS
 10
3.8749530586
 20
22.3533946097
 40
0.0826771654
  0
CIRCLE
  5
43E
100
AcDbEntity
  8
0
100
AcDbCircle
 62
9
  6
CONTINUOUS
 10
3.8749530586
 20
22.3533946097
 40
0.0769109535
  0
CIRCLE
  5
43F
100
AcDbEntity
  8
0
100
AcDbCircle
 62
9
  6
CONTINUOUS
 10
3.8749530586
 20
22.3533946097
 40
0.0687574628
  0
CIRCLE
  5
440
100
AcDbEntity
  8
0
100
AcDbCircle
 62
9
  6
CONTINUOUS
 10
3.8749530586
 20
22.3533946097
 40
0.0548379698
  0
ARC
  5
441
100
AcDbEntity
  8
0
100
AcDbCircle
 62
9
  6
CONTINUOUS
 10
4.5902410238
 20
22.2336858737
 40
0.0915891769
100
AcDbArc
 50
159.2388524226
 51
160.0489770544
  0
ARC
  5
442
100
AcDbEntity
  8
0
100
AcDbCircle
 62
9
  6
CONTINUOUS
 10
4.5811467696
 20
22.2375214097
 40
0.0833491418
100
AcDbArc
 50
339.5320466508
 51
340.5970322009
  0
CIRCLE
  5
443
100
AcDbEntity
  8
0
100
AcDbCircle
 62
7
  6
CONTINUOUS
 10
4.5805516643
 20
22.2378818897
 40
0.0708661417
  0
ARC
  5
444
100
AcDbEntity
  8
0
100
AcDbCircle
 62
7
  6
CONTINUOUS
 10
4.5805516643
 20
22.2378818897
 40
0.0708661417
100
AcDbArc
 50
340.4999991536
 51
160.5000000001
  0
CIRCLE
  5
445
100
AcDbEntity
  8
0
100
AcDbCircle
 62
9
  6
CONTINUOUS
 10
4.5805516643
 20
22.2378818897
 40
0.0674067293
  0
CIRCLE
  5
446
100
AcDbEntity
  8
0
100
AcDbCircle
 62
9
  6
CONTINUOUS
 10
4.5805516643
 20
22.2378818897
 40
0.0546404342
  0
CIRCLE
  5
447
100
AcDbEntity
  8
0
100
AcDbCircle
 62
9
  6
CONTINUOUS
 10
4.5805516643
 20
22.2378818897
 40
0.0462887627
  0
CIRCLE
  5
448
100
AcDbEntity
  8
0
100
AcDbCircle
 62
7
  6
CONTINUOUS
 10
4.5805516643
 20
22.2378818897
 40
0.0295275591
  0
CIRCLE
  5
449
100
AcDbEntity
  8
0
100
AcDbCircle
 62
7
  6
CONTINUOUS
 10
4.1410570546
 20
22.4712219786
 40
0.0708661417
  0
CIRCLE
  5
44A
100
AcDbEntity
  8
0
100
AcDbCircle
 62
9
  6
CONTINUOUS
 10
4.1410570546
 20
22.4712219786
 40
0.0651002345
  0
CIRCLE
  5
44B
100
AcDbEntity
  8
0
100
AcDbCircle
 62
9
  6
CONTINUOUS
 10
4.1410570546
 20
22.4712219786
 40
0.0569463945
  0
CIRCLE
  5
44C
100
AcDbEntity
  8
0
100
AcDbCircle
 62
9
  6
CONTINUOUS
 10
4.1410570546
 20
22.4712219786
 40
0.0430269203
  0
ARC
  5
44D
100
AcDbEntity
  8
0
100
AcDbCircle
 62
7
  6
CONTINUOUS
 10
4.1411428708
 20
22.4711745349
 40
0.0176203964
100
AcDbArc
 50
337.5357415749
 51
157.4642583837
  0
ARC
  5
44E
100
AcDbEntity
  8
0
100
AcDbCircle
 62
7
  6
CONTINUOUS
 10
4.1411512835
 20
22.4711948452
 40
0.0176203964
100
AcDbArc
 50
157.5357461214
 51
337.4642539166
  0
CIRCLE
  5
44F
100
AcDbEntity
  8
0
100
AcDbCircle
 62
7
  6
CONTINUOUS
 10
4.0362096461
 20
22.7427024503
 40
0.0826771654
  0
CIRCLE
  5
450
100
AcDbEntity
  8
0
100
AcDbCircle
 62
9
  6
CONTINUOUS
 10
4.0362096461
 20
22.7427024503
 40
0.0769109535
  0
CIRCLE
  5
451
100
AcDbEntity
  8
0
100
AcDbCircle
 62
9
  6
CONTINUOUS
 10
4.0362096461
 20
22.7427024503
 40
0.0687574628
  0
CIRCLE
  5
452
100
AcDbEntity
  8
0
100
AcDbCircle
 62
9
  6
CONTINUOUS
 10
4.0362096461
 20
22.7427024503
 40
0.0548379698
  0
CIRCLE
  5
453
100
AcDbEntity
  8
0
100
AcDbCircle
 62
7
  6
CONTINUOUS
 10
4.3237423354
 20
22.7876421669
 40
0.0708661417
  0
CIRCLE
  5
454
100
AcDbEntity
  8
0
100
AcDbCircle
 62
9
  6
CONTINUOUS
 10
4.3237423354
 20
22.7876421669
 40
0.0651002345
  0
CIRCLE
  5
455
100
AcDbEntity
  8
0
100
AcDbCircle
 62
9
  6
CONTINUOUS
 10
4.3237423354
 20
22.7876421669
 40
0.0569463945
  0
CIRCLE
  5
456
100
AcDbEntity
  8
0
100
AcDbCircle
 62
9
  6
CONTINUOUS
 10
4.3237423354
 20
22.7876421669
 40
0.0430269203
  0
CIRCLE
  5
457
100
AcDbEntity
  8
0
100
AcDbCircle
 62
7
  6
CONTINUOUS
 10
4.8751046032
 20
22.085404811
 40
0.0295275591
  0
ARC
  5
458
100
AcDbEntity
  8
0
100
AcDbCircle
 62
9
  6
CONTINUOUS
 10
4.6874645635
 20
22.4289499145
 40
0.091648168
100
AcDbArc
 50
145.2375363393
 51
146.0467231493
  0
ARC
  5
459
100
AcDbEntity
  8
0
100
AcDbCircle
 62
9
  6
CONTINUOUS
 10
4.6847063199
 20
22.4320085944
 40
0.0876575655
100
AcDbArc
 50
146.6981659873
 51
147.4980579694
  0
ARC
  5
45A
100
AcDbEntity
  8
0
100
AcDbCircle
 62
9
  6
CONTINUOUS
 10
4.6795217525
 20
22.4349073069
 40
0.0833487342
100
AcDbArc
 50
325.5320597725
 51
326.5970508611
  0
CIRCLE
  5
45B
100
AcDbEntity
  8
0
100
AcDbCircle
 62
7
  6
CONTINUOUS
 10
4.6790312071
 20
22.4354012952
 40
0.0708661417
  0
CIRCLE
  5
45C
100
AcDbEntity
  8
0
100
AcDbCircle
 62
9
  6
CONTINUOUS
 10
4.6790312071
 20
22.4354012952
 40
0.0674067293
  0
CIRCLE
  5
45D
100
AcDbEntity
  8
0
100
AcDbCircle
 62
9
  6
CONTINUOUS
 10
4.6790312071
 20
22.4354012952
 40
0.0546404338
  0
CIRCLE
  5
45E
100
AcDbEntity
  8
0
100
AcDbCircle
 62
9
  6
CONTINUOUS
 10
4.6790312071
 20
22.4354012952
 40
0.0462887621
  0
CIRCLE
  5
45F
100
AcDbEntity
  8
0
100
AcDbCircle
 62
7
  6
CONTINUOUS
 10
4.6790312071
 20
22.4354012952
 40
0.0295275591
  0
CIRCLE
  5
460
100
AcDbEntity
  8
0
100
AcDbCircle
 62
9
  6
CONTINUOUS
 10
5.0639972238
 20
22.219624613
 40
0.1439792321
  0
CIRCLE
  5
461
100
AcDbEntity
  8
0
100
AcDbCircle
 62
9
  6
CONTINUOUS
 10
5.0639972238
 20
22.219624613
 40
0.1300605664
  0
CIRCLE
  5
462
100
AcDbEntity
  8
0
100
AcDbCircle
 62
9
  6
CONTINUOUS
 10
5.0639972238
 20
22.219624613
 40
0.1219067236
  0
CIRCLE
  5
463
100
AcDbEntity
  8
0
100
AcDbCircle
 62
9
  6
CONTINUOUS
 10
5.0639972238
 20
22.219624613
 40
0.1079869821
  0
CIRCLE
  5
464
100
AcDbEntity
  8
0
100
AcDbCircle
 62
7
  6
CONTINUOUS
 10
5.0639972238
 20
22.219624613
 40
0.0885826772
  0
CIRCLE
  5
465
100
AcDbEntity
  8
0
100
AcDbCircle
 62
9
  6
CONTINUOUS
 10
5.3732295744
 20
22.3981599939
 40
0.1439792358
  0
CIRCLE
  5
466
100
AcDbEntity
  8
0
100
AcDbCircle
 62
9
  6
CONTINUOUS
 10
5.3732295744
 20
22.3981599939
 40
0.130060568
  0
CIRCLE
  5
467
100
AcDbEntity
  8
0
100
AcDbCircle
 62
9
  6
CONTINUOUS
 10
5.3732295744
 20
22.3981599939
 40
0.1219067236
  0
CIRCLE
  5
468
100
AcDbEntity
  8
0
100
AcDbCircle
 62
9
  6
CONTINUOUS
 10
5.3732295744
 20
22.3981599939
 40
0.1079869821
  0
CIRCLE
  5
469
100
AcDbEntity
  8
0
100
AcDbCircle
 62
7
  6
CONTINUOUS
 10
5.3732295744
 20
22.3981599939
 40
0.0885826772
  0
CIRCLE
  5
46A
100
AcDbEntity
  8
0
100
AcDbCircle
 62
7
  6
CONTINUOUS
 10
5.1447545893
 20
22.4368195147
 40
0.0295275591
  0
ARC
  5
46B
100
AcDbEntity
  8
0
100
AcDbCircle
 62
9
  6
CONTINUOUS
 10
5.2398612506
 20
22.8132816767
 40
0.0876564681
100
AcDbArc
 50
102.6980883849
 51
103.4979861842
  0
CIRCLE
  5
46C
100
AcDbEntity
  8
0
100
AcDbCircle
 62
7
  6
CONTINUOUS
 10
4.2927318322
 20
23.0770086719
 40
0.0826771654
  0
CIRCLE
  5
46D
100
AcDbEntity
  8
0
100
AcDbCircle
 62
9
  6
CONTINUOUS
 10
4.2927318322
 20
23.0770086719
 40
0.0769109535
  0
CIRCLE
  5
46E
100
AcDbEntity
  8
0
100
AcDbCircle
 62
7
  6
CONTINUOUS
 10
4.5820983372
 20
23.0459981687
 40
0.0708661417
  0
CIRCLE
  5
46F
100
AcDbEntity
  8
0
100
AcDbCircle
 62
9
  6
CONTINUOUS
 10
4.2927318322
 20
23.0770086719
 40
0.0687574628
  0
CIRCLE
  5
470
100
AcDbEntity
  8
0
100
AcDbCircle
 62
9
  6
CONTINUOUS
 10
4.5820983372
 20
23.0459981687
 40
0.0651002345
  0
CIRCLE
  5
471
100
AcDbEntity
  8
0
100
AcDbCircle
 62
9
  6
CONTINUOUS
 10
4.5820983372
 20
23.0459981687
 40
0.0569463945
  0
CIRCLE
  5
472
100
AcDbEntity
  8
0
100
AcDbCircle
 62
9
  6
CONTINUOUS
 10
4.2927318322
 20
23.0770086719
 40
0.0548379698
  0
CIRCLE
  5
473
100
AcDbEntity
  8
0
100
AcDbCircle
 62
9
  6
CONTINUOUS
 10
4.5820983372
 20
23.0459981687
 40
0.0430269203
  0
ARC
  5
474
100
AcDbEntity
  8
0
100
AcDbCircle
 62
7
  6
CONTINUOUS
 10
4.5821489344
 20
23.0459141731
 40
0.0176203964
100
AcDbArc
 50
307.5357415656
 51
127.4642583955
  0
ARC
  5
475
100
AcDbEntity
  8
0
100
AcDbCircle
 62
7
  6
CONTINUOUS
 10
4.5821663752
 20
23.0459275559
 40
0.0176203964
100
AcDbArc
 50
127.5357461325
 51
307.464253908
  0
CIRCLE
  5
476
100
AcDbEntity
  8
0
100
AcDbCircle
 62
7
  6
CONTINUOUS
 10
4.6270380538
 20
23.333530858
 40
0.0826771654
  0
CIRCLE
  5
477
100
AcDbEntity
  8
0
100
AcDbCircle
 62
9
  6
CONTINUOUS
 10
4.6270380538
 20
23.333530858
 40
0.0769109536
  0
CIRCLE
  5
478
100
AcDbEntity
  8
0
100
AcDbCircle
 62
9
  6
CONTINUOUS
 10
4.6270380538
 20
23.333530858
 40
0.0687574628
  0
CIRCLE
  5
479
100
AcDbEntity
  8
0
100
AcDbCircle
 62
9
  6
CONTINUOUS
 10
4.6270380538
 20
23.333530858
 40
0.0548379698
  0
CIRCLE
  5
47A
100
AcDbEntity
  8
0
100
AcDbCircle
 62
7
  6
CONTINUOUS
 10
5.2381360412
 20
22.8196634016
 40
0.0708661417
  0
CIRCLE
  5
47B
100
AcDbEntity
  8
0
100
AcDbCircle
 62
7
  6
CONTINUOUS
 10
5.2381360412
 20
22.8196634016
 40
0.0708661417
  0
CIRCLE
  5
47C
100
AcDbEntity
  8
0
100
AcDbCircle
 62
9
  6
CONTINUOUS
 10
5.2381360412
 20
22.8196634016
 40
0.0674067293
  0
CIRCLE
  5
47D
100
AcDbEntity
  8
0
100
AcDbCircle
 62
9
  6
CONTINUOUS
 10
5.2381360412
 20
22.8196634016
 40
0.0546404342
  0
CIRCLE
  5
47E
100
AcDbEntity
  8
0
100
AcDbCircle
 62
9
  6
CONTINUOUS
 10
5.2381360412
 20
22.8196634016
 40
0.0462887627
  0
CIRCLE
  5
47F
100
AcDbEntity
  8
0
100
AcDbCircle
 62
7
  6
CONTINUOUS
 10
5.2381360412
 20
22.8196634016
 40
0.0295275591
  0
CIRCLE
  5
480
100
AcDbEntity
  8
0
100
AcDbCircle
 62
7
  6
CONTINUOUS
 10
4.8985185255
 20
23.2286834495
 40
0.0708661417
  0
CIRCLE
  5
481
100
AcDbEntity
  8
0
100
AcDbCircle
 62
9
  6
CONTINUOUS
 10
4.8985185255
 20
23.2286834495
 40
0.0651002345
  0
CIRCLE
  5
482
100
AcDbEntity
  8
0
100
AcDbCircle
 62
9
  6
CONTINUOUS
 10
4.8985185255
 20
23.2286834495
 40
0.0569463945
  0
CIRCLE
  5
483
100
AcDbEntity
  8
0
100
AcDbCircle
 62
9
  6
CONTINUOUS
 10
4.8985185255
 20
23.2286834495
 40
0.0430269203
  0
CIRCLE
  5
484
100
AcDbEntity
  8
0
100
AcDbCircle
 62
7
  6
CONTINUOUS
 10
5.0163458944
 20
23.4947874455
 40
0.0826771654
  0
CIRCLE
  5
485
100
AcDbEntity
  8
0
100
AcDbCircle
 62
9
  6
CONTINUOUS
 10
5.0163458944
 20
23.4947874455
 40
0.0769109535
  0
CIRCLE
  5
486
100
AcDbEntity
  8
0
100
AcDbCircle
 62
9
  6
CONTINUOUS
 10
5.0163458944
 20
23.4947874455
 40
0.0687574628
  0
CIRCLE
  5
487
100
AcDbEntity
  8
0
100
AcDbCircle
 62
9
  6
CONTINUOUS
 10
5.0163458944
 20
23.4947874455
 40
0.0548379698
  0
CIRCLE
  5
488
100
AcDbEntity
  8
0
100
AcDbCircle
 62
7
  6
CONTINUOUS
 10
5.2514393872
 20
23.3232483094
 40
0.0708661417
  0
CIRCLE
  5
489
100
AcDbEntity
  8
0
100
AcDbCircle
 62
9
  6
CONTINUOUS
 10
5.2514393872
 20
23.3232483094
 40
0.0651002345
  0
CIRCLE
  5
48A
100
AcDbEntity
  8
0
100
AcDbCircle
 62
9
  6
CONTINUOUS
 10
5.2514393872
 20
23.3232483094
 40
0.0569463945
  0
CIRCLE
  5
48B
100
AcDbEntity
  8
0
100
AcDbCircle
 62
9
  6
CONTINUOUS
 10
5.2514393872
 20
23.3232483094
 40
0.0430269203
  0
ARC
  5
48C
100
AcDbEntity
  8
0
100
AcDbCircle
 62
7
  6
CONTINUOUS
 10
5.2514412078
 20
23.3231502686
 40
0.0176203964
100
AcDbArc
 50
277.5357415696
 51
97.4642583931
  0
ARC
  5
48D
100
AcDbEntity
  8
0
100
AcDbCircle
 62
7
  6
CONTINUOUS
 10
5.2514630034
 20
23.323153138
 40
0.0176203964
100
AcDbArc
 50
97.5357461317
 51
277.4642539105
  0
CIRCLE
  5
48E
100
AcDbEntity
  8
0
100
AcDbCircle
 62
9
  6
CONTINUOUS
 10
5.7181334449
 20
22.3057432803
 40
0.1439792321
  0
CIRCLE
  5
48F
100
AcDbEntity
  8
0
100
AcDbCircle
 62
9
  6
CONTINUOUS
 10
5.7181334449
 20
22.3057432803
 40
0.1300605664
  0
CIRCLE
  5
490
100
AcDbEntity
  8
0
100
AcDbCircle
 62
9
  6
CONTINUOUS
 10
5.7181334449
 20
22.3057432803
 40
0.1219067236
  0
CIRCLE
  5
491
100
AcDbEntity
  8
0
100
AcDbCircle
 62
9
  6
CONTINUOUS
 10
5.7181334449
 20
22.3057432803
 40
0.1079869821
  0
CIRCLE
  5
492
100
AcDbEntity
  8
0
100
AcDbCircle
 62
7
  6
CONTINUOUS
 10
5.7181334449
 20
22.3057432803
 40
0.0885826772
  0
CIRCLE
  5
493
100
AcDbEntity
  8
0
100
AcDbCircle
 62
7
  6
CONTINUOUS
 10
5.9353283466
 20
22.2249859148
 40
0.0295275591
  0
ARC
  5
494
100
AcDbEntity
  8
0
100
AcDbCircle
 62
9
  6
CONTINUOUS
 10
6.2299344693
 20
22.4060821184
 40
0.1030015277
100
AcDbArc
 50
211.3140956451
 51
212.1978251138
  0
ARC
  5
495
100
AcDbEntity
  8
0
100
AcDbCircle
 62
9
  6
CONTINUOUS
 10
6.2051410796
 20
22.3905944844
 40
0.0913172597
100
AcDbArc
 50
29.2442384135
 51
30.0592452662
  0
ARC
  5
496
100
AcDbEntity
  8
0
100
AcDbCircle
 62
9
  6
CONTINUOUS
 10
6.2131720878
 20
22.3944371846
 40
0.0824445129
100
AcDbArc
 50
30.5435046223
 51
31.4012801126
  0
CIRCLE
  5
497
100
AcDbEntity
  8
0
100
AcDbCircle
 62
7
  6
CONTINUOUS
 10
6.2143400495
 20
22.3951978183
 40
0.0708661417
  0
CIRCLE
  5
498
100
AcDbEntity
  8
0
100
AcDbCircle
 62
9
  6
CONTINUOUS
 10
6.2143400495
 20
22.3951978183
 40
0.0674067293
  0
CIRCLE
  5
499
100
AcDbEntity
  8
0
100
AcDbCircle
 62
9
  6
CONTINUOUS
 10
6.2143400495
 20
22.3951978183
 40
0.0546404342
  0
CIRCLE
  5
49A
100
AcDbEntity
  8
0
100
AcDbCircle
 62
9
  6
CONTINUOUS
 10
6.2143400495
 20
22.3951978183
 40
0.0462887627
  0
CIRCLE
  5
49B
100
AcDbEntity
  8
0
100
AcDbCircle
 62
7
  6
CONTINUOUS
 10
6.2143400495
 20
22.3951978183
 40
0.0295275591
  0
ARC
  5
49C
100
AcDbEntity
  8
0
100
AcDbCircle
 62
9
  6
CONTINUOUS
 10
5.6756309237
 20
22.8065993604
 40
0.0827187367
100
AcDbArc
 50
60.6549297899
 51
73.6103303726
  0
ARC
  5
49D
100
AcDbEntity
  8
0
100
AcDbCircle
 62
9
  6
CONTINUOUS
 10
5.6757731313
 20
22.8068609368
 40
0.0824210335
100
AcDbArc
 50
58.8988371713
 51
60.6519891541
  0
ARC
  5
49E
100
AcDbEntity
  8
0
100
AcDbCircle
 62
9
  6
CONTINUOUS
 10
5.6760959166
 20
22.8080319528
 40
0.0812131624
100
AcDbArc
 50
73.6398663925
 51
74.5196167373
  0
CIRCLE
  5
49F
100
AcDbEntity
  8
0
100
AcDbCircle
 62
7
  6
CONTINUOUS
 10
5.6761121739
 20
22.8081945929
 40
0.0708661417
  0
ARC
  5
4A0
100
AcDbEntity
  8
0
100
AcDbCircle
 62
7
  6
CONTINUOUS
 10
5.6761121739
 20
22.8081945929
 40
0.0708661417
100
AcDbArc
 50
74.5000000002
 51
254.4999986186
  0
CIRCLE
  5
4A1
100
AcDbEntity
  8
0
100
AcDbCircle
 62
9
  6
CONTINUOUS
 10
5.6761121739
 20
22.8081945929
 40
0.0674067293
  0
CIRCLE
  5
4A2
100
AcDbEntity
  8
0
100
AcDbCircle
 62
9
  6
CONTINUOUS
 10
5.6761121739
 20
22.8081945929
 40
0.0546404342
  0
CIRCLE
  5
4A3
100
AcDbEntity
  8
0
100
AcDbCircle
 62
9
  6
CONTINUOUS
 10
5.6761121739
 20
22.8081945929
 40
0.0462887627
  0
CIRCLE
  5
4A4
100
AcDbEntity
  8
0
100
AcDbCircle
 62
7
  6
CONTINUOUS
 10
5.6761121739
 20
22.8081945929
 40
0.0295275591
  0
CIRCLE
  5
4A5
100
AcDbEntity
  8
0
100
AcDbCircle
 62
7
  6
CONTINUOUS
 10
5.5839136429
 20
22.4946359009
 40
0.0295275591
  0
ARC
  5
4A6
100
AcDbEntity
  8
0
100
AcDbCircle
 62
9
  6
CONTINUOUS
 10
6.2961016422
 20
22.1906289963
 40
0.0876562385
100
AcDbArc
 50
16.6980829962
 51
17.4979763303
  0
CIRCLE
  5
4A7
100
AcDbEntity
  8
0
100
AcDbCircle
 62
7
  6
CONTINUOUS
 10
6.3023472626
 20
22.1927950852
 40
0.0708661417
  0
CIRCLE
  5
4A8
100
AcDbEntity
  8
0
100
AcDbCircle
 62
9
  6
CONTINUOUS
 10
6.3023472626
 20
22.1927950852
 40
0.0674067293
  0
CIRCLE
  5
4A9
100
AcDbEntity
  8
0
100
AcDbCircle
 62
9
  6
CONTINUOUS
 10
6.3023472626
 20
22.1927950852
 40
0.0546404342
  0
CIRCLE
  5
4AA
100
AcDbEntity
  8
0
100
AcDbCircle
 62
9
  6
CONTINUOUS
 10
6.3023472626
 20
22.1927950852
 40
0.0462887627
  0
CIRCLE
  5
4AB
100
AcDbEntity
  8
0
100
AcDbCircle
 62
7
  6
CONTINUOUS
 10
6.3023472626
 20
22.1927950852
 40
0.0295275591
  0
CIRCLE
  5
4AC
100
AcDbEntity
  8
0
100
AcDbCircle
 62
7
  6
CONTINUOUS
 10
6.8217571413
 20
22.1183011169
 40
0.0708661417
  0
CIRCLE
  5
4AD
100
AcDbEntity
  8
0
100
AcDbCircle
 62
9
  6
CONTINUOUS
 10
6.8217571413
 20
22.1183011169
 40
0.0651002345
  0
CIRCLE
  5
4AE
100
AcDbEntity
  8
0
100
AcDbCircle
 62
9
  6
CONTINUOUS
 10
6.8217571413
 20
22.1183011169
 40
0.0569463945
  0
CIRCLE
  5
4AF
100
AcDbEntity
  8
0
100
AcDbCircle
 62
9
  6
CONTINUOUS
 10
6.8217571413
 20
22.1183011169
 40
0.0430269203
  0
ARC
  5
4B0
100
AcDbEntity
  8
0
100
AcDbCircle
 62
7
  6
CONTINUOUS
 10
6.8216619699
 20
22.1182775007
 40
0.0176203964
100
AcDbArc
 50
7.5357462165
 51
187.4642538257
  0
ARC
  5
4B1
100
AcDbEntity
  8
0
100
AcDbCircle
 62
7
  6
CONTINUOUS
 10
6.8216591005
 20
22.1182992963
 40
0.0176203964
100
AcDbArc
 50
187.5357414848
 51
7.464258478
  0
CIRCLE
  5
4B2
100
AcDbEntity
  8
0
100
AcDbCircle
 62
7
  6
CONTINUOUS
 10
6.9932962774
 20
22.3533946097
 40
0.0826771654
  0
CIRCLE
  5
4B3
100
AcDbEntity
  8
0
100
AcDbCircle
 62
9
  6
CONTINUOUS
 10
6.9932962774
 20
22.3533946097
 40
0.0769109535
  0
CIRCLE
  5
4B4
100
AcDbEntity
  8
0
100
AcDbCircle
 62
9
  6
CONTINUOUS
 10
6.9932962774
 20
22.3533946097
 40
0.0687574628
  0
CIRCLE
  5
4B5
100
AcDbEntity
  8
0
100
AcDbCircle
 62
9
  6
CONTINUOUS
 10
6.9932962774
 20
22.3533946097
 40
0.0548379698
  0
CIRCLE
  5
4B6
100
AcDbEntity
  8
0
100
AcDbCircle
 62
7
  6
CONTINUOUS
 10
6.5445070006
 20
22.7876421669
 40
0.0708661417
  0
CIRCLE
  5
4B7
100
AcDbEntity
  8
0
100
AcDbCircle
 62
9
  6
CONTINUOUS
 10
6.5445070006
 20
22.7876421669
 40
0.0651002345
  0
CIRCLE
  5
4B8
100
AcDbEntity
  8
0
100
AcDbCircle
 62
9
  6
CONTINUOUS
 10
6.5445070006
 20
22.7876421669
 40
0.0569463945
  0
CIRCLE
  5
4B9
100
AcDbEntity
  8
0
100
AcDbCircle
 62
9
  6
CONTINUOUS
 10
6.5445070006
 20
22.7876421669
 40
0.0430269203
  0
ARC
  5
4BA
100
AcDbEntity
  8
0
100
AcDbCircle
 62
7
  6
CONTINUOUS
 10
6.544423005
 20
22.7875915697
 40
0.0176203964
100
AcDbArc
 50
217.5357414987
 51
37.4642584668
  0
ARC
  5
4BB
100
AcDbEntity
  8
0
100
AcDbCircle
 62
7
  6
CONTINUOUS
 10
6.5444359306
 20
22.7875747088
 40
0.0176194003
100
AcDbArc
 50
37.5333449525
 51
217.4666550527
  0
CIRCLE
  5
4BC
100
AcDbEntity
  8
0
100
AcDbCircle
 62
7
  6
CONTINUOUS
 10
6.7271922814
 20
22.4712219786
 40
0.0708661417
  0
CIRCLE
  5
4BD
100
AcDbEntity
  8
0
100
AcDbCircle
 62
9
  6
CONTINUOUS
 10
6.7271922814
 20
22.4712219786
 40
0.0651002345
  0
CIRCLE
  5
4BE
100
AcDbEntity
  8
0
100
AcDbCircle
 62
9
  6
CONTINUOUS
 10
6.7271922814
 20
22.4712219786
 40
0.0569463945
  0
CIRCLE
  5
4BF
100
AcDbEntity
  8
0
100
AcDbCircle
 62
9
  6
CONTINUOUS
 10
6.7271922814
 20
22.4712219786
 40
0.0430269203
  0
CIRCLE
  5
4C0
100
AcDbEntity
  8
0
100
AcDbCircle
 62
7
  6
CONTINUOUS
 10
6.8320396899
 20
22.7427024503
 40
0.0826771654
  0
CIRCLE
  5
4C1
100
AcDbEntity
  8
0
100
AcDbCircle
 62
9
  6
CONTINUOUS
 10
6.8320396899
 20
22.7427024503
 40
0.0769113022
  0
CIRCLE
  5
4C2
100
AcDbEntity
  8
0
100
AcDbCircle
 62
9
  6
CONTINUOUS
 10
6.8320396899
 20
22.7427024503
 40
0.0687574886
  0
CIRCLE
  5
4C3
100
AcDbEntity
  8
0
100
AcDbCircle
 62
9
  6
CONTINUOUS
 10
6.8320396899
 20
22.7427024503
 40
0.0548380036
  0
CIRCLE
  5
4C4
100
AcDbEntity
  8
0
100
AcDbCircle
 62
7
  6
CONTINUOUS
 10
5.4578282039
 20
22.8408173508
 40
0.0708661417
  0
ARC
  5
4C5
100
AcDbEntity
  8
0
100
AcDbCircle
 62
7
  6
CONTINUOUS
 10
5.4578282039
 20
22.8408173508
 40
0.0708661417
100
AcDbArc
 50
268.5000005504
 51
88.5
  0
CIRCLE
  5
4C6
100
AcDbEntity
  8
0
100
AcDbCircle
 62
9
  6
CONTINUOUS
 10
5.4578282039
 20
22.8408173508
 40
0.0674067293
  0
CIRCLE
  5
4C7
100
AcDbEntity
  8
0
100
AcDbCircle
 62
9
  6
CONTINUOUS
 10
5.4578282039
 20
22.8408173508
 40
0.0546404342
  0
CIRCLE
  5
4C8
100
AcDbEntity
  8
0
100
AcDbCircle
 62
9
  6
CONTINUOUS
 10
5.4578282039
 20
22.8408173508
 40
0.0462887627
  0
CIRCLE
  5
4C9
100
AcDbEntity
  8
0
100
AcDbCircle
 62
7
  6
CONTINUOUS
 10
5.4578282039
 20
22.8408173508
 40
0.0295275591
  0
CIRCLE
  5
4CA
100
AcDbEntity
  8
0
100
AcDbCircle
 62
7
  6
CONTINUOUS
 10
5.6168099488
 20
23.3232483094
 40
0.0708661417
  0
CIRCLE
  5
4CB
100
AcDbEntity
  8
0
100
AcDbCircle
 62
9
  6
CONTINUOUS
 10
5.6168099488
 20
23.3232483094
 40
0.0651002345
  0
CIRCLE
  5
4CC
100
AcDbEntity
  8
0
100
AcDbCircle
 62
9
  6
CONTINUOUS
 10
5.6168099488
 20
23.3232483094
 40
0.0569463945
  0
CIRCLE
  5
4CD
100
AcDbEntity
  8
0
100
AcDbCircle
 62
9
  6
CONTINUOUS
 10
5.6168099488
 20
23.3232483094
 40
0.0430269203
  0
CIRCLE
  5
4CE
100
AcDbEntity
  8
0
100
AcDbCircle
 62
7
  6
CONTINUOUS
 10
5.434124668
 20
23.5497890644
 40
0.0826771654
  0
CIRCLE
  5
4CF
100
AcDbEntity
  8
0
100
AcDbCircle
 62
9
  6
CONTINUOUS
 10
5.434124668
 20
23.5497890644
 40
0.0769109535
  0
CIRCLE
  5
4D0
100
AcDbEntity
  8
0
100
AcDbCircle
 62
9
  6
CONTINUOUS
 10
5.434124668
 20
23.5497890644
 40
0.0687574628
  0
CIRCLE
  5
4D1
100
AcDbEntity
  8
0
100
AcDbCircle
 62
9
  6
CONTINUOUS
 10
5.434124668
 20
23.5497890644
 40
0.0548379698
  0
CIRCLE
  5
4D2
100
AcDbEntity
  8
0
100
AcDbCircle
 62
7
  6
CONTINUOUS
 10
5.9697308105
 20
23.2286834495
 40
0.0708661417
  0
CIRCLE
  5
4D3
100
AcDbEntity
  8
0
100
AcDbCircle
 62
9
  6
CONTINUOUS
 10
5.9697308105
 20
23.2286834495
 40
0.0651002345
  0
CIRCLE
  5
4D4
100
AcDbEntity
  8
0
100
AcDbCircle
 62
9
  6
CONTINUOUS
 10
5.9697308105
 20
23.2286834495
 40
0.0569463945
  0
CIRCLE
  5
4D5
100
AcDbEntity
  8
0
100
AcDbCircle
 62
9
  6
CONTINUOUS
 10
5.9697308105
 20
23.2286834495
 40
0.0430269203
  0
ARC
  5
4D6
100
AcDbEntity
  8
0
100
AcDbCircle
 62
7
  6
CONTINUOUS
 10
5.9696833668
 20
23.2285976333
 40
0.0176203964
100
AcDbArc
 50
247.5357415817
 51
67.4642583845
  0
ARC
  5
4D7
100
AcDbEntity
  8
0
100
AcDbCircle
 62
7
  6
CONTINUOUS
 10
5.9697029911
 20
23.2285894941
 40
0.0176194003
100
AcDbArc
 50
67.5333449442
 51
247.4666550617
  0
CIRCLE
  5
4D8
100
AcDbEntity
  8
0
100
AcDbCircle
 62
7
  6
CONTINUOUS
 10
5.8519034416
 20
23.4947874455
 40
0.0826771654
  0
CIRCLE
  5
4D9
100
AcDbEntity
  8
0
100
AcDbCircle
 62
9
  6
CONTINUOUS
 10
5.8519034416
 20
23.4947874455
 40
0.0769109535
  0
CIRCLE
  5
4DA
100
AcDbEntity
  8
0
100
AcDbCircle
 62
9
  6
CONTINUOUS
 10
5.8519034416
 20
23.4947874455
 40
0.0687574628
  0
CIRCLE
  5
4DB
100
AcDbEntity
  8
0
100
AcDbCircle
 62
9
  6
CONTINUOUS
 10
5.8519034416
 20
23.4947874455
 40
0.0548379698
  0
CIRCLE
  5
4DC
100
AcDbEntity
  8
0
100
AcDbCircle
 62
7
  6
CONTINUOUS
 10
6.5755175038
 20
23.0770086719
 40
0.0826771654
  0
CIRCLE
  5
4DD
100
AcDbEntity
  8
0
100
AcDbCircle
 62
9
  6
CONTINUOUS
 10
6.5755175038
 20
23.0770086719
 40
0.0769109535
  0
CIRCLE
  5
4DE
100
AcDbEntity
  8
0
100
AcDbCircle
 62
7
  6
CONTINUOUS
 10
6.2861509988
 20
23.0459981687
 40
0.0708661417
  0
CIRCLE
  5
4DF
100
AcDbEntity
  8
0
100
AcDbCircle
 62
9
  6
CONTINUOUS
 10
6.5755175038
 20
23.0770086719
 40
0.0687574628
  0
CIRCLE
  5
4E0
100
AcDbEntity
  8
0
100
AcDbCircle
 62
9
  6
CONTINUOUS
 10
6.2861509988
 20
23.0459981687
 40
0.0651002345
  0
CIRCLE
  5
4E1
100
AcDbEntity
  8
0
100
AcDbCircle
 62
9
  6
CONTINUOUS
 10
6.2861509988
 20
23.0459981687
 40
0.0569463945
  0
CIRCLE
  5
4E2
100
AcDbEntity
  8
0
100
AcDbCircle
 62
9
  6
CONTINUOUS
 10
6.5755175038
 20
23.0770086719
 40
0.0548379698
  0
CIRCLE
  5
4E3
100
AcDbEntity
  8
0
100
AcDbCircle
 62
9
  6
CONTINUOUS
 10
6.2861509988
 20
23.0459981687
 40
0.0430269203
  0
CIRCLE
  5
4E4
100
AcDbEntity
  8
0
100
AcDbCircle
 62
7
  6
CONTINUOUS
 10
6.2412112822
 20
23.333530858
 40
0.0826771654
  0
CIRCLE
  5
4E5
100
AcDbEntity
  8
0
100
AcDbCircle
 62
9
  6
CONTINUOUS
 10
6.2412112822
 20
23.333530858
 40
0.0769109535
  0
CIRCLE
  5
4E6
100
AcDbEntity
  8
0
100
AcDbCircle
 62
9
  6
CONTINUOUS
 10
6.2412112822
 20
23.333530858
 40
0.0687574628
  0
CIRCLE
  5
4E7
100
AcDbEntity
  8
0
100
AcDbCircle
 62
9
  6
CONTINUOUS
 10
6.2412112822
 20
23.333530858
 40
0.0548379698
  0
ARC
  5
4E8
100
AcDbEntity
  8
0
100
AcDbCircle
 62
7
  6
CONTINUOUS
 10
8.590124668
 20
13.0906158361
 40
0.1
100
AcDbArc
 50
99.5940682269
 51
170.4059317729
  0
ARC
  5
4E9
100
AcDbEntity
  8
0
100
AcDbCircle
 62
7
  6
CONTINUOUS
 10
8.572624668
 20
13.3106158361
 40
0.0625
100
AcDbArc
 50
286.2602047083
 51
73.7397952917
  0
ARC
  5
4EA
100
AcDbEntity
  8
0
100
AcDbCircle
 62
7
  6
CONTINUOUS
 10
8.570124668
 20
13.4106158361
 40
0.02
100
AcDbArc
 50
0.0
 51
90.0
  0
ARC
  5
4EB
100
AcDbEntity
  8
0
100
AcDbCircle
 62
7
  6
CONTINUOUS
 10
8.570124668
 20
13.2089374318
 40
0.02
100
AcDbArc
 50
279.5940682269
 51
360.0
  0
ARC
  5
4EC
100
AcDbEntity
  8
0
100
AcDbCircle
 62
7
  6
CONTINUOUS
 10
8.4718030723
 20
13.1106158361
 40
0.02
100
AcDbArc
 50
270.0
 51
350.4059317731
  0
ARC
  5
4ED
100
AcDbEntity
  8
0
100
AcDbCircle
 62
9
  6
CONTINUOUS
 10
8.6650257569
 20
13.5571691558
 40
8.8601835187
100
AcDbArc
 50
120.0157904175
 51
120.1523908627
  0
ARC
  5
4EE
100
AcDbEntity
  8
0
100
AcDbCircle
 62
9
  6
CONTINUOUS
 10
8.6640898083
 20
13.5587799621
 40
8.8583205351
100
AcDbArc
 50
120.0158226889
 51
120.1523895879
  0
ARC
  5
4EF
100
AcDbEntity
  8
0
100
AcDbCircle
 62
7
  6
CONTINUOUS
 10
9.1531251692
 20
13.807477579
 40
0.1470180184
100
AcDbArc
 50
89.9943667012
 51
94.3477969572
  0
ARC
  5
4F0
100
AcDbEntity
  8
0
100
AcDbCircle
 62
7
  6
CONTINUOUS
 10
9.1531464988
 20
13.8080303967
 40
0.1464652001
100
AcDbArc
 50
83.3223412236
 51
90.0026893812
  0
ARC
  5
4F1
100
AcDbEntity
  8
0
100
AcDbCircle
 62
7
  6
CONTINUOUS
 10
9.1598170186
 20
13.8309880761
 40
0.1224761581
100
AcDbArc
 50
66.5072653034
 51
67.9084545144
  0
ARC
  5
4F2
100
AcDbEntity
  8
0
100
AcDbCircle
 62
7
  6
CONTINUOUS
 10
9.1629855392
 20
13.8380363453
 40
0.1147490797
100
AcDbArc
 50
62.3675117685
 51
66.5553057039
  0
ARC
  5
4F3
100
AcDbEntity
  8
0
100
AcDbCircle
 62
7
  6
CONTINUOUS
 10
9.1682714596
 20
13.8480060743
 40
0.1034649057
100
AcDbArc
 50
58.5562896114
 51
62.4002214328
  0
ARC
  5
4F4
100
AcDbEntity
  8
0
100
AcDbCircle
 62
7
  6
CONTINUOUS
 10
9.1743035402
 20
13.8577513934
 40
0.092003979
100
AcDbArc
 50
54.7565766637
 51
58.5952357173
  0
ARC
  5
4F5
100
AcDbEntity
  8
0
100
AcDbCircle
 62
7
  6
CONTINUOUS
 10
9.1969312545
 20
13.9031957556
 40
0.0417695693
100
AcDbArc
 50
43.9030862723
 51
46.1241441661
  0
ARC
  5
4F6
100
AcDbEntity
  8
0
100
AcDbCircle
 62
7
  6
CONTINUOUS
 10
9.1163291341
 20
13.913527999
 40
0.0373199309
100
AcDbArc
 50
136.7286294168
 51
139.5951586338
  0
ARC
  5
4F7
100
AcDbEntity
  8
0
100
AcDbCircle
 62
7
  6
CONTINUOUS
 10
9.1925757757
 20
13.9467576478
 40
0.0328256762
100
AcDbArc
 50
308.2599474303
 51
310.8657435043
  0
ARC
  5
4F8
100
AcDbEntity
  8
0
100
AcDbCircle
 62
7
  6
CONTINUOUS
 10
9.1874422514
 20
13.9394419562
 40
0.0299066413
100
AcDbArc
 50
315.0406091732
 51
317.6729610318
  0
ARC
  5
4F9
100
AcDbEntity
  8
0
100
AcDbCircle
 62
7
  6
CONTINUOUS
 10
8.925124668
 20
13.8656158361
 40
0.02
100
AcDbArc
 50
270.0
 51
360.0
  0
ARC
  5
4FA
100
AcDbEntity
  8
0
100
AcDbCircle
 62
7
  6
CONTINUOUS
 10
9.216004003
 20
13.922500602
 40
0.0192255897
100
AcDbArc
 50
338.2563312228
 51
340.3375795345
  0
ARC
  5
4FB
100
AcDbEntity
  8
0
100
AcDbCircle
 62
7
  6
CONTINUOUS
 10
9.2027035882
 20
13.9369610355
 40
0.0184987684
100
AcDbArc
 50
331.0592254567
 51
335.8455474961
  0
ARC
  5
4FC
100
AcDbEntity
  8
0
100
AcDbCircle
 62
7
  6
CONTINUOUS
 10
9.2038907543
 20
13.9364323264
 40
0.0171991975
100
AcDbArc
 50
335.8343297098
 51
339.6227262681
  0
ARC
  5
4FD
100
AcDbEntity
  8
0
100
AcDbCircle
 62
7
  6
CONTINUOUS
 10
9.2043695577
 20
13.936328092
 40
0.0169871118
100
AcDbArc
 50
330.4185056889
 51
335.1043170175
  0
ARC
  5
4FE
100
AcDbEntity
  8
0
100
AcDbCircle
 62
7
  6
CONTINUOUS
 10
9.2050221247
 20
13.9360270819
 40
0.015997528
100
AcDbArc
 50
339.572373005
 51
345.636392574
  0
ARC
  5
4FF
100
AcDbEntity
  8
0
100
AcDbCircle
 62
7
  6
CONTINUOUS
 10
9.2055647824
 20
13.9357631689
 40
0.015665141
100
AcDbArc
 50
335.1382489404
 51
340.0740419515
  0
ARC
  5
500
100
AcDbEntity
  8
0
100
AcDbCircle
 62
7
  6
CONTINUOUS
 10
9.2065343163
 20
13.9283873528
 40
0.0146333851
100
AcDbArc
 50
16.0896324477
 51
21.8581836076
  0
ARC
  5
501
100
AcDbEntity
  8
0
100
AcDbCircle
 62
7
  6
CONTINUOUS
 10
9.2070584109
 20
13.9285424149
 40
0.014086846
100
AcDbArc
 50
14.5196147219
 51
16.0744198397
  0
ARC
  5
502
100
AcDbEntity
  8
0
100
AcDbCircle
 62
7
  6
CONTINUOUS
 10
9.6476984469
 20
12.9668190816
 40
0.7208227488
100
AcDbArc
 50
70.0104717209
 51
70.8861229449
  0
ARC
  5
503
100
AcDbEntity
  8
0
100
AcDbCircle
 62
7
  6
CONTINUOUS
 10
9.736091742
 20
12.9681522846
 40
0.7194128455
100
AcDbArc
 50
109.1121946816
 51
109.9920187649
  0
ARC
  5
504
100
AcDbEntity
  8
0
100
AcDbCircle
 62
7
  6
CONTINUOUS
 10
9.692124668
 20
13.1481158361
 40
0.25
100
AcDbArc
 50
145.0995
 51
34.9005
  0
ARC
  5
505
100
AcDbEntity
  8
0
100
AcDbCircle
 62
7
  6
CONTINUOUS
 10
9.512124668
 20
13.381002093
 40
0.016
100
AcDbArc
 50
136.6958241996
 51
270.0
  0
ARC
  5
506
100
AcDbEntity
  8
0
100
AcDbCircle
 62
7
  6
CONTINUOUS
 10
9.872124668
 20
13.381002093
 40
0.016
100
AcDbArc
 50
270.0
 51
43.3041758004
  0
ARC
  5
507
100
AcDbEntity
  8
0
100
AcDbCircle
 62
7
  6
CONTINUOUS
 10
9.8759843755
 20
13.3494746122
 40
0.016
100
AcDbArc
 50
103.9592487755
 51
214.9005
  0
ARC
  5
508
100
AcDbEntity
  8
0
100
AcDbCircle
 62
7
  6
CONTINUOUS
 10
9.5082649605
 20
13.3494746122
 40
0.016
100
AcDbArc
 50
325.0995
 51
76.0407512245
  0
ARC
  5
509
100
AcDbEntity
  8
0
100
AcDbCircle
 62
7
  6
CONTINUOUS
 10
10.019124668
 20
13.5195481142
 40
0.186
100
AcDbArc
 50
138.2918727518
 51
223.3041758004
  0
ARC
  5
50A
100
AcDbEntity
  8
0
100
AcDbCircle
 62
7
  6
CONTINUOUS
 10
9.365124668
 20
13.5195481142
 40
0.186
100
AcDbArc
 50
316.6958241996
 51
41.7081272482
  0
ARC
  5
50B
100
AcDbEntity
  8
0
100
AcDbCircle
 62
7
  6
CONTINUOUS
 10
9.857124668
 20
13.6639260904
 40
0.031
100
AcDbArc
 50
318.2918697479
 51
328.8127897392
  0
ARC
  5
50C
100
AcDbEntity
  8
0
100
AcDbCircle
 62
7
  6
CONTINUOUS
 10
9.527124668
 20
13.6639260904
 40
0.031
100
AcDbArc
 50
211.1844999391
 51
221.7081302521
  0
ARC
  5
50D
100
AcDbEntity
  8
0
100
AcDbCircle
 62
7
  6
CONTINUOUS
 10
10.112924321
 20
13.8131158361
 40
0.03
100
AcDbArc
 50
280.0623600608
 51
345.2369687319
  0
ARC
  5
50E
100
AcDbEntity
  8
0
100
AcDbCircle
 62
7
  6
CONTINUOUS
 10
8.6424546525
 20
14.2006158361
 40
1.5506700155
100
AcDbArc
 50
345.2369687319
 51
14.7630312681
  0
ARC
  5
50F
100
AcDbEntity
  8
0
100
AcDbCircle
 62
7
  6
CONTINUOUS
 10
8.572624668
 20
15.0906158361
 40
0.0625
100
AcDbArc
 50
286.2602047083
 51
73.7397952917
  0
ARC
  5
510
100
AcDbEntity
  8
0
100
AcDbCircle
 62
7
  6
CONTINUOUS
 10
10.112924321
 20
14.5881158361
 40
0.03
100
AcDbArc
 50
14.7630312681
 51
79.9376399392
  0
ARC
  5
511
100
AcDbEntity
  8
0
100
AcDbCircle
 62
7
  6
CONTINUOUS
 10
8.570124668
 20
14.9906158361
 40
0.02
100
AcDbArc
 50
270.0
 51
360.0
  0
ARC
  5
512
100
AcDbEntity
  8
0
100
AcDbCircle
 62
7
  6
CONTINUOUS
 10
8.925124668
 20
14.5356158361
 40
0.02
100
AcDbArc
 50
0.0
 51
90.0
  0
ARC
  5
513
100
AcDbEntity
  8
0
100
AcDbCircle
 62
7
  6
CONTINUOUS
 10
11.7235930255
 20
13.9565955696
 40
0.223
100
AcDbArc
 50
302.5461444331
 51
322.5320047229
  0
ARC
  5
514
100
AcDbEntity
  8
0
100
AcDbCircle
 62
7
  6
CONTINUOUS
 10
11.0895802209
 20
13.9565955696
 40
0.223
100
AcDbArc
 50
217.4679952771
 51
237.4538555669
  0
ARC
  5
515
100
AcDbEntity
  8
0
100
AcDbCircle
 62
7
  6
CONTINUOUS
 10
11.7235930255
 20
14.0906361026
 40
0.223
100
AcDbArc
 50
37.4679952771
 51
57.4538555669
  0
ARC
  5
516
100
AcDbEntity
  8
0
100
AcDbCircle
 62
7
  6
CONTINUOUS
 10
11.0895802209
 20
14.0906361026
 40
0.223
100
AcDbArc
 50
122.5461444331
 51
142.5320047229
  0
ARC
  5
517
100
AcDbEntity
  8
0
100
AcDbCircle
 62
7
  6
CONTINUOUS
 10
11.8173253508
 20
14.1640642413
 40
0.1048540997
100
AcDbArc
 50
100.3080453296
 51
101.3758446593
  0
ARC
  5
518
100
AcDbEntity
  8
0
100
AcDbCircle
 62
7
  6
CONTINUOUS
 10
11.8170567026
 20
14.1653991276
 40
0.1034924488
100
AcDbArc
 50
101.3758047802
 51
102.5480193988
  0
ARC
  5
519
100
AcDbEntity
  8
0
100
AcDbCircle
 62
7
  6
CONTINUOUS
 10
11.8169791979
 20
14.1666410979
 40
0.1022569641
100
AcDbArc
 50
79.6312760468
 51
100.3755840844
  0
ARC
  5
51A
100
AcDbEntity
  8
0
100
AcDbCircle
 62
7
  6
CONTINUOUS
 10
10.8515866232
 20
14.4786158361
 40
0.1
100
AcDbArc
 50
270.0
 51
360.0
  0
ARC
  5
51B
100
AcDbEntity
  8
0
100
AcDbCircle
 62
7
  6
CONTINUOUS
 10
11.9615866232
 20
14.4786158361
 40
0.1
100
AcDbArc
 50
180.0
 51
270.0
  0
ARC
  5
51C
100
AcDbEntity
  8
0
100
AcDbCircle
 62
7
  6
CONTINUOUS
 10
16.9385265437
 20
-1.6253418629
 40
3.365778773
100
AcDbArc
 50
266.8635981879
 51
268.1396494269
  0
ARC
  5
51D
100
AcDbEntity
  8
0
100
AcDbCircle
 62
7
  6
CONTINUOUS
 10
16.9278226645
 20
-1.9962050494
 40
2.9947638755
100
AcDbArc
 50
268.1139878145
 51
269.989788661
  0
ARC
  5
51E
100
AcDbEntity
  8
0
100
AcDbCircle
 62
9
  6
CONTINUOUS
 10
34.8920416414
 20
-32.8216022131
 40
62.140870884
100
AcDbArc
 50
119.9966189927
 51
120.193532084
  0
ARC
  5
51F
100
AcDbEntity
  8
0
100
AcDbCircle
 62
9
  6
CONTINUOUS
 10
34.8918921107
 20
-32.821344564
 40
62.1405729875
100
AcDbArc
 50
119.9966264532
 51
120.1935323914
  0
ARC
  5
520
100
AcDbEntity
  8
0
100
AcDbCircle
 62
9
  6
CONTINUOUS
 10
27.1909566088
 20
-19.4835460657
 40
46.6723066356
100
AcDbArc
 50
119.9913600724
 51
120.2033691435
  0
ARC
  5
521
100
AcDbEntity
  8
0
100
AcDbCircle
 62
9
  6
CONTINUOUS
 10
27.1909395429
 20
-19.4835165197
 40
46.6722725151
100
AcDbArc
 50
119.9913600581
 51
120.2033692842
  0
ARC
  5
522
100
AcDbEntity
  8
0
100
AcDbCircle
 62
9
  6
CONTINUOUS
 10
26.6671363273
 20
-18.757865361
 40
45.9358348327
100
AcDbArc
 50
119.8779797699
 51
120.0926475921
  0
ARC
  5
523
100
AcDbEntity
  8
0
100
AcDbCircle
 62
9
  6
CONTINUOUS
 10
26.6617599114
 20
-18.7485470051
 40
45.9250767132
100
AcDbArc
 50
119.87795501
 51
120.0926709128
  0
ARC
  5
524
100
AcDbEntity
  8
0
100
AcDbCircle
 62
7
  6
CONTINUOUS
 10
24.9891252902
 20
16.9456158361
 40
20.175
100
AcDbArc
 50
174.9244926841
 51
185.0755073159
  0
ARC
  5
525
100
AcDbEntity
  8
0
100
AcDbCircle
 62
7
  6
CONTINUOUS
 10
11.4065866232
 20
15.7786158361
 40
1.0
100
AcDbArc
 50
297.1347694181
 51
242.8707124951
  0
ARC
  5
526
100
AcDbEntity
  8
0
100
AcDbCircle
 62
9
  6
CONTINUOUS
 10
11.4065866232
 20
15.7786158361
 40
0.8699999967
100
AcDbArc
 50
301.6002843921
 51
238.4107242372
  0
ARC
  5
527
100
AcDbEntity
  8
0
100
AcDbCircle
 62
7
  6
CONTINUOUS
 10
11.4065866232
 20
15.7786158361
 40
0.832
100
AcDbArc
 50
303.2521025349
 51
236.7493586343
  0
ARC
  5
528
100
AcDbEntity
  8
0
100
AcDbCircle
 62
7
  6
CONTINUOUS
 10
9.7636562302
 20
15.5096801813
 40
0.8008218378
100
AcDbArc
 50
250.0289893511
 51
250.349634448
  0
ARC
  5
529
100
AcDbEntity
  8
0
100
AcDbCircle
 62
7
  6
CONTINUOUS
 10
11.4065866232
 20
15.7786158361
 40
0.8
100
AcDbArc
 50
306.8698976458
 51
233.1301023542
  0
ARC
  5
52A
100
AcDbEntity
  8
0
100
AcDbCircle
 62
7
  6
CONTINUOUS
 10
9.6371693281
 20
15.4637180923
 40
0.7519621694
100
AcDbArc
 50
289.6397735867
 51
289.9815967639
  0
ARC
  5
52B
100
AcDbEntity
  8
0
100
AcDbCircle
 62
7
  6
CONTINUOUS
 10
9.692124668
 20
17.1995950028
 40
0.3735208333
100
AcDbArc
 50
47.9864211384
 51
132.0135788616
  0
ARC
  5
52C
100
AcDbEntity
  8
0
100
AcDbCircle
 62
7
  6
CONTINUOUS
 10
8.590124668
 20
15.3106158361
 40
0.1
100
AcDbArc
 50
189.5940682271
 51
260.4059317731
  0
ARC
  5
52D
100
AcDbEntity
  8
0
100
AcDbCircle
 62
7
  6
CONTINUOUS
 10
8.570124668
 20
15.1922942404
 40
0.02
100
AcDbArc
 50
0.0
 51
80.4059317731
  0
ARC
  5
52E
100
AcDbEntity
  8
0
100
AcDbCircle
 62
7
  6
CONTINUOUS
 10
8.4718030723
 20
15.2906158361
 40
0.02
100
AcDbArc
 50
9.5940682269
 51
90.0
  0
SPLINE
  5
52F
100
AcDbEntity
  8
0
100
AcDbSpline
 62
7
  6
CONTINUOUS
 70
0
 71
3
 72
21
 73
17
 74
0
 42
0.0000001
 43
0.0000001
 44
0.0000000001
 40
0.0
 40
0.0
 40
0.0
 40
0.0
 40
0.0697353255
 40
0.1393288736
 40
0.277185434
 40
0.4120863991
 40
0.4780199687
 40
0.5427150829
 40
0.6060183994
 40
0.6677895399
 40
0.727897119
 40
0.786226367
 40
0.8426742195
 40
0.8971571774
 40
0.9496133315
 40
1.0
 40
1.0
 40
1.0
 40
1.0
 10
9.153124668
 20
13.9011479609
 30
0.0
 10
9.1518918027
 20
13.9011479609
 30
0.0
 10
9.1494283996
 20
13.9011847992
 30
0.0
 10
9.1445323292
 20
13.9014042295
 30
0.0
 10
9.1385002672
 20
13.9019473195
 30
0.0
 10
9.1325770285
 20
13.9028535985
 30
0.0
 10
9.1279767448
 20
13.903792458
 30
0.0
 10
9.1246420054
 20
13.90459211
 30
0.0
 10
9.1214085945
 20
13.9054897676
 30
0.0
 10
9.118287876
 20
13.9064820046
 30
0.0
 10
9.1152909927
 20
13.9075656653
 30
0.0
 10
9.1124284499
 20
13.9087365654
 30
0.0
 10
9.1097104535
 20
13.9099907653
 30
0.0
 10
9.1071466288
 20
13.9113239175
 30
0.0
 10
9.1047460095
 20
13.9127310022
 30
0.0
 10
9.1032292883
 20
13.9137358193
 30
0.0
 10
9.1025019642
 20
13.9142501323
 30
0.0
  0
LINE
  5
530
100
AcDbEntity
  8
0
100
AcDbLine
 62
7
  6
CONTINUOUS
 10
9.2188922374
 20
13.9280093837
 11
9.217650738
 21
13.9260339416
  0
SPLINE
  5
531
100
AcDbEntity
  8
0
100
AcDbSpline
 62
7
  6
CONTINUOUS
 70
0
 71
3
 72
21
 73
17
 74
0
 42
0.0000001
 43
0.0000001
 44
0.0000000001
 40
0.0
 40
0.0
 40
0.0
 40
0.0
 40
0.0503864875
 40
0.1028423908
 40
0.1573250379
 40
0.2137726436
 40
0.2721016117
 40
0.3322090131
 40
0.393980093
 40
0.457283428
 40
0.5219786993
 40
0.5879124088
 40
0.7228137405
 40
0.8606710073
 40
0.9302647162
 40
1.0
 40
1.0
 40
1.0
 40
1.0
 10
9.2037473715
 20
13.9142501324
 30
0.0
 10
9.2030200504
 20
13.9137358208
 30
0.0
 10
9.2015033345
 20
13.9127310094
 30
0.0
 10
9.1991027272
 20
13.9113239307
 30
0.0
 10
9.1965389173
 20
13.9099907806
 30
0.0
 10
9.1938209328
 20
13.9087365908
 30
0.0
 10
9.1909584047
 20
13.907565688
 30
0.0
 10
9.18796153
 20
13.9064820301
 30
0.0
 10
9.1848408159
 20
13.9054897926
 30
0.0
 10
9.1816074048
 20
13.9045921277
 30
0.0
 10
9.1782726595
 20
13.9037924772
 30
0.0
 10
9.173672366
 20
13.9028536074
 30
0.0
 10
9.1677491061
 20
13.9019473243
 30
0.0
 10
9.1617170226
 20
13.9014042313
 30
0.0
 10
9.1568209377
 20
13.9011847998
 30
0.0
 10
9.1543575325
 20
13.9011479609
 30
0.0
 10
9.153124668
 20
13.9011479609
 30
0.0
  0
SPLINE
  5
532
100
AcDbEntity
  8
0
100
AcDbSpline
 62
7
  6
CONTINUOUS
 70
0
 71
3
 72
15
 73
11
 74
0
 42
0.0000001
 43
0.0000001
 44
0.0000000001
 40
0.0
 40
0.0
 40
0.0
 40
0.0
 40
0.1344498818
 40
0.2648459511
 40
0.3917712427
 40
0.5158993327
 40
0.63797062
 40
0.7587838492
 40
0.8791775682
 40
1.0
 40
1.0
 40
1.0
 40
1.0
 10
9.2120665109
 20
13.9417636422
 30
0.0
 10
9.2123727183
 20
13.9412943743
 30
0.0
 10
9.2129419532
 20
13.9403471814
 30
0.0
 10
9.2136687215
 20
13.9388830936
 30
0.0
 10
9.2142523244
 20
13.937402155
 30
0.0
 10
9.2146914165
 20
13.9359081424
 30
0.0
 10
9.2149847213
 20
13.9344046332
 30
0.0
 10
9.21513101
 20
13.9328953098
 30
0.0
 10
9.2151302282
 20
13.9313842427
 30
0.0
 10
9.2150319939
 20
13.9303819035
 30
0.0
 10
9.214959019
 20
13.9298836783
 30
0.0
  0
SPLINE
  5
533
100
AcDbEntity
  8
0
100
AcDbSpline
 62
7
  6
CONTINUOUS
 70
0
 71
3
 72
14
 73
10
 74
0
 42
0.0000001
 43
0.0000001
 44
0.0000000001
 40
0.0
 40
0.0
 40
0.0
 40
0.0
 40
0.1153535249
 40
0.2324279115
 40
0.3518106147
 40
0.4740433126
 40
0.5996065277
 40
0.7289142151
 40
1.0
 40
1.0
 40
1.0
 40
1.0
 10
9.214959019
 20
13.9298836783
 30
0.0
 10
9.2148918478
 20
13.9294250764
 30
0.0
 10
9.2147157903
 20
13.9285065152
 30
0.0
 10
9.214332154
 20
13.9271443563
 30
0.0
 10
9.2138283602
 20
13.9257923536
 30
0.0
 10
9.2132053337
 20
13.9244534415
 30
0.0
 10
9.21246444
 20
13.9231301061
 30
0.0
 10
9.2113038973
 20
13.9213624247
 30
0.0
 10
9.2102859563
 20
13.9201093735
 30
0.0
 10
9.2095526322
 20
13.9193039758
 30
0.0
  0
SPLINE
  5
534
100
AcDbEntity
  8
0
100
AcDbSpline
 62
7
  6
CONTINUOUS
 70
0
 71
3
 72
9
 73
5
 74
0
 42
0.0000001
 43
0.0000001
 44
0.0000000001
 40
0.0
 40
0.0
 40
0.0
 40
0.0
 40
0.4859206657
 40
1.0
 40
1.0
 40
1.0
 40
1.0
 10
9.2086044233
 20
13.918309761
 30
0.0
 10
9.2078795915
 20
13.9175832418
 30
0.0
 10
9.2063140303
 20
13.9161607061
 30
0.0
 10
9.2046338574
 20
13.9148769945
 30
0.0
 10
9.2037473715
 20
13.9142501324
 30
0.0
  0
SPLINE
  5
535
100
AcDbEntity
  8
0
100
AcDbSpline
 62
7
  6
CONTINUOUS
 70
0
 71
3
 72
19
 73
15
 74
0
 42
0.0000001
 43
0.0000001
 44
0.0000000001
 40
0.0
 40
0.0
 40
0.0
 40
0.0
 40
0.1496290042
 40
0.2905831654
 40
0.4232648377
 40
0.5483787941
 40
0.6084511308
 40
0.6670609907
 40
0.7243980182
 40
0.7806751297
 40
0.8361223563
 40
0.8909852579
 40
0.9455227937
 40
1.0
 40
1.0
 40
1.0
 40
1.0
 10
9.1025019642
 20
13.9142501323
 30
0.0
 10
9.1015651597
 20
13.9149125754
 30
0.0
 10
9.0997949284
 20
13.9162709483
 30
0.0
 10
9.0974059736
 20
13.918475169
 30
0.0
 10
9.0953779328
 20
13.9207711684
 30
0.0
 10
9.0939820306
 20
13.9227775773
 30
0.0
 10
9.09306952
 20
13.9244105757
 30
0.0
 10
9.0924924749
 20
13.9256319743
 30
0.0
 10
9.0920147661
 20
13.9268644149
 30
0.0
 10
9.0916370394
 20
13.9281058298
 30
0.0
 10
9.091359993
 20
13.929354147
 30
0.0
 10
9.0911843821
 20
13.9306073229
 30
0.0
 10
9.0911104803
 20
13.9318630689
 30
0.0
 10
9.0911289976
 20
13.9326998678
 30
0.0
 10
9.0911550496
 20
13.9331167874
 30
0.0
  0
SPLINE
  5
536
100
AcDbEntity
  8
0
100
AcDbSpline
 62
7
  6
CONTINUOUS
 70
0
 71
3
 72
14
 73
10
 74
0
 42
0.0000001
 43
0.0000001
 44
0.0000000001
 40
0.0
 40
0.0
 40
0.0
 40
0.0
 40
0.1192840691
 40
0.2394057816
 40
0.3607942394
 40
0.4838569817
 40
0.6089783132
 40
0.7365173116
 40
1.0
 40
1.0
 40
1.0
 40
1.0
 10
9.0911550496
 20
13.9331167874
 30
0.0
 10
9.0911780187
 20
13.9334843721
 30
0.0
 10
9.0912503417
 20
13.9342207464
 30
0.0
 10
9.0914370033
 20
13.9353198541
 30
0.0
 10
9.0917017233
 20
13.9364148519
 30
0.0
 10
9.0920440171
 20
13.9375042536
 30
0.0
 10
9.092463464
 20
13.9385867585
 30
0.0
 10
9.093132008
 20
13.9400342334
 30
0.0
 10
9.0937383105
 20
13.9410824218
 30
0.0
 10
9.094182884
 20
13.9417637325
 30
0.0
  0
SPLINE
  5
537
100
AcDbEntity
  8
0
100
AcDbSpline
 62
7
  6
CONTINUOUS
 70
0
 71
3
 72
23
 73
19
 74
0
 42
0.0000001
 43
0.0000001
 44
0.0000000001
 40
0.0
 40
0.0
 40
0.0
 40
0.0
 40
0.0882295107
 40
0.1726761888
 40
0.2533819971
 40
0.3303950134
 40
0.4037705749
 40
0.4735726703
 40
0.5398756353
 40
0.6027662147
 40
0.6623460597
 40
0.7187347293
 40
0.7720732457
 40
0.8225282134
 40
0.870296418
 40
0.9156096625
 40
0.9587393512
 40
1.0
 40
1.0
 40
1.0
 40
1.0
 10
6.3910319261
 20
14.8299296547
 30
0.0
 10
6.3881269013
 20
14.8210345625
 30
0.0
 10
6.3822750027
 20
14.8036794191
 30
0.0
 10
6.3731485633
 20
14.7784011508
 30
0.0
 10
6.3638668898
 20
14.7544506068
 30
0.0
 10
6.3544299508
 20
14.7318276561
 30
0.0
 10
6.3448376226
 20
14.7105319671
 30
0.0
 10
6.3350897289
 20
14.6905632015
 30
0.0
 10
6.325186001
 20
14.6719209649
 30
0.0
 10
6.3151260462
 20
14.654604825
 30
0.0
 10
6.3049093058
 20
14.6386143277
 30
0.0
 10
6.294534997
 20
14.6239490325
 30
0.0
 10
6.284002075
 20
14.6106085911
 30
0.0
 10
6.2733091201
 20
14.5985928294
 30
0.0
 10
6.2624545453
 20
14.58790203
 30
0.0
 10
6.251435895
 20
14.5785367882
 30
0.0
 10
6.2402526985
 20
14.5704995743
 30
0.0
 10
6.2325336104
 20
14.5659387227
 30
0.0
 10
6.228660557
 20
14.5639018045
 30
0.0
  0
SPLINE
  5
538
100
AcDbEntity
  8
0
100
AcDbSpline
 62
7
  6
CONTINUOUS
 70
0
 71
3
 72
23
 73
19
 74
0
 42
0.0000001
 43
0.0000001
 44
0.0000000001
 40
0.0
 40
0.0
 40
0.0
 40
0.0
 40
0.0882295107
 40
0.1726761889
 40
0.2533819972
 40
0.3303950135
 40
0.403770575
 40
0.4735726704
 40
0.5398756354
 40
0.6027662148
 40
0.6623460598
 40
0.7187347293
 40
0.7720732457
 40
0.8225282135
 40
0.870296418
 40
0.9156096625
 40
0.9587393512
 40
1.0
 40
1.0
 40
1.0
 40
1.0
 10
6.3910319262
 20
13.5713020177
 30
0.0
 10
6.3881269014
 20
13.5801971099
 30
0.0
 10
6.3822750029
 20
13.5975522532
 30
0.0
 10
6.3731485634
 20
13.6228305216
 30
0.0
 10
6.3638668899
 20
13.6467810655
 30
0.0
 10
6.3544299509
 20
13.6694040163
 30
0.0
 10
6.3448376227
 20
13.6906997052
 30
0.0
 10
6.335089729
 20
13.7106684708
 30
0.0
 10
6.3251860011
 20
13.7293107074
 30
0.0
 10
6.3151260463
 20
13.7466268473
 30
0.0
 10
6.3049093059
 20
13.7626173446
 30
0.0
 10
6.294534997
 20
13.7772826397
 30
0.0
 10
6.2840020751
 20
13.7906230812
 30
0.0
 10
6.2733091202
 20
13.8026388429
 30
0.0
 10
6.2624545453
 20
13.8133296423
 30
0.0
 10
6.251435895
 20
13.8226948841
 30
0.0
 10
6.2402526985
 20
13.8307320979
 30
0.0
 10
6.2325336104
 20
13.8352929494
 30
0.0
 10
6.228660557
 20
13.8373298677
 30
0.0
  0
LINE
  5
539
100
AcDbEntity
  8
0
100
AcDbLine
 62
7
  6
CONTINUOUS
 10
9.487124668
 20
14.7581158361
 11
9.4901398135
 21
14.7570153252
  0
SPLINE
  5
53A
100
AcDbEntity
  8
0
100
AcDbSpline
 62
7
  6
CONTINUOUS
 70
0
 71
3
 72
13
 73
9
 74
0
 42
0.0000001
 43
0.0000001
 44
0.0000000001
 40
0.0
 40
0.0
 40
0.0
 40
0.0
 40
0.1478402555
 40
0.2522622533
 40
0.3744361733
 40
0.6639678656
 40
0.8273123531
 40
1.0
 40
1.0
 40
1.0
 40
1.0
 10
9.4943562225
 20
14.755496436
 30
0.0
 10
9.5007113926
 20
14.7532289513
 30
0.0
 10
9.511610734
 20
14.7495132066
 30
0.0
 10
9.5279126474
 20
14.7443808537
 30
0.0
 10
9.5505387287
 20
14.7378202463
 30
0.0
 10
9.576060298
 20
14.731604379
 30
0.0
 10
9.6041232314
 20
14.7263161919
 30
0.0
 10
9.6193033302
 20
14.7240888255
 30
0.0
 10
9.627124668
 20
14.7231158361
 30
0.0
  0
SPLINE
  5
53B
100
AcDbEntity
  8
0
100
AcDbSpline
 62
7
  6
CONTINUOUS
 70
0
 71
3
 72
12
 73
8
 74
0
 42
0.0000001
 43
0.0000001
 44
0.0000000001
 40
0.0
 40
0.0
 40
0.0
 40
0.0
 40
0.3360217049
 40
0.6255981632
 40
0.7477849452
 40
0.8522103676
 40
1.0
 40
1.0
 40
1.0
 40
1.0
 10
9.757124668
 20
14.7231158361
 30
0.0
 10
9.7723443935
 20
14.7250091991
 30
0.0
 10
9.8005426773
 20
14.7297415188
 30
0.0
 10
9.8337258345
 20
14.7378243937
 30
0.0
 10
9.8563560355
 20
14.7443868141
 30
0.0
 10
9.8726571333
 20
14.7495187934
 30
0.0
 10
9.8835546487
 20
14.7532349276
 30
0.0
 10
9.8899079087
 20
14.7555018018
 30
0.0
  0
LINE
  5
53C
100
AcDbEntity
  8
0
100
AcDbLine
 62
7
  6
CONTINUOUS
 10
9.8941285616
 20
14.7570222195
 11
9.897124668
 21
14.7581158361
  0
LINE
  5
53D
100
AcDbEntity
  8
0
100
AcDbLine
 62
7
  6
CONTINUOUS
 10
9.897124668
 20
13.6431158361
 11
9.8941105458
 21
13.6442159466
  0
SPLINE
  5
53E
100
AcDbEntity
  8
0
100
AcDbSpline
 62
7
  6
CONTINUOUS
 70
0
 71
3
 72
14
 73
10
 74
0
 42
0.0000001
 43
0.0000001
 44
0.0000000001
 40
0.0
 40
0.0
 40
0.0
 40
0.0
 40
0.0750356615
 40
0.1674069327
 40
0.2756080142
 40
0.3981461305
 40
0.6799335019
 40
0.8360922842
 40
1.0
 40
1.0
 40
1.0
 40
1.0
 10
9.8837295179
 20
13.6479026071
 30
0.0
 10
9.8806480139
 20
13.6489706387
 30
0.0
 10
9.8737567475
 20
13.6513065782
 30
0.0
 10
9.8623554338
 20
13.6549833489
 30
0.0
 10
9.8489106559
 20
13.6590446211
 30
0.0
 10
9.8274447524
 20
13.6650038507
 30
0.0
 10
9.803704572
 20
13.6705470866
 30
0.0
 10
9.7779666036
 20
13.67524433
 30
0.0
 10
9.7641942439
 20
13.6772363673
 30
0.0
 10
9.757124668
 20
13.6781158361
 30
0.0
  0
SPLINE
  5
53F
100
AcDbEntity
  8
0
100
AcDbSpline
 62
7
  6
CONTINUOUS
 70
0
 71
3
 72
14
 73
10
 74
0
 42
0.0000001
 43
0.0000001
 44
0.0000000001
 40
0.0
 40
0.0
 40
0.0
 40
0.0
 40
0.1638785438
 40
0.3200049762
 40
0.6017684486
 40
0.7243109065
 40
0.8325248469
 40
0.9249241336
 40
1.0
 40
1.0
 40
1.0
 40
1.0
 10
9.627124668
 20
13.6781158361
 30
0.0
 10
9.6200576419
 20
13.6772366845
 30
0.0
 10
9.6062903958
 20
13.675245765
 30
0.0
 10
9.5805607143
 20
13.6705503856
 30
0.0
 10
9.5568269787
 20
13.6650091697
 30
0.0
 10
9.5353649307
 20
13.6590523485
 30
0.0
 10
9.5219206504
 20
13.6549915075
 30
0.0
 10
9.5105178635
 20
13.6513149643
 30
0.0
 10
9.5036249313
 20
13.6489788429
 30
0.0
 10
9.5005422989
 20
13.6479105521
 30
0.0
  0
LINE
  5
540
100
AcDbEntity
  8
0
100
AcDbLine
 62
7
  6
CONTINUOUS
 10
9.4901322296
 20
13.6442134953
 11
9.487124668
 21
13.6431158361
  0
SPLINE
  5
541
100
AcDbEntity
  8
0
100
AcDbSpline
 62
7
  6
CONTINUOUS
 70
0
 71
3
 72
9
 73
5
 74
0
 42
0.0000001
 43
0.0000001
 44
0.0000000001
 40
0.0
 40
0.0
 40
0.0
 40
0.0
 40
0.5171330193
 40
1.0
 40
1.0
 40
1.0
 40
1.0
 10
9.087910621
 20
13.9377181903
 30
0.0
 10
9.0868162197
 20
13.936431193
 30
0.0
 10
9.0848714966
 20
13.9337877081
 30
0.0
 10
9.0834059397
 20
13.9308442838
 30
0.0
 10
9.0828463176
 20
13.929369428
 30
0.0
  0
SPLINE
  5
542
100
AcDbEntity
  8
0
100
AcDbSpline
 62
7
  6
CONTINUOUS
 70
0
 71
3
 72
9
 73
5
 74
0
 42
0.0000001
 43
0.0000001
 44
0.0000000001
 40
0.0
 40
0.0
 40
0.0
 40
0.0
 40
0.5060952059
 40
1.0
 40
1.0
 40
1.0
 40
1.0
 10
9.0828463176
 20
13.929369428
 30
0.0
 10
9.0824756545
 20
13.928392564
 30
0.0
 10
9.0818690408
 20
13.9264116817
 30
0.0
 10
9.0815472851
 20
13.9243642262
 30
0.0
 10
9.0814633811
 20
13.9233480283
 30
0.0
  0
SPLINE
  5
543
100
AcDbEntity
  8
0
100
AcDbSpline
 62
7
  6
CONTINUOUS
 70
0
 71
3
 72
10
 73
6
 74
0
 42
0.0000001
 43
0.0000001
 44
0.0000000001
 40
0.0
 40
0.0
 40
0.0
 40
0.0
 40
0.2425213655
 40
0.4909569709
 40
1.0
 40
1.0
 40
1.0
 40
1.0
 10
9.2058787758
 20
13.9444725413
 30
0.0
 10
9.2031134961
 20
13.9455951851
 30
0.0
 10
9.1974316827
 20
13.947667589
 30
0.0
 10
9.1856045208
 20
13.9510886087
 30
0.0
 10
9.1763997365
 20
13.9527731407
 30
0.0
 10
9.1701779795
 20
13.9535019868
 30
0.0
  0
SPLINE
  5
544
100
AcDbEntity
  8
0
100
AcDbSpline
 62
7
  6
CONTINUOUS
 70
0
 71
3
 72
10
 73
6
 74
0
 42
0.0000001
 43
0.0000001
 44
0.0000000001
 40
0.0
 40
0.0
 40
0.0
 40
0.0
 40
0.515285346
 40
0.7631116335
 40
1.0
 40
1.0
 40
1.0
 40
1.0
 10
9.1419796499
 20
13.9540725146
 30
0.0
 10
9.1326043906
 20
13.9533591308
 30
0.0
 10
9.1187644669
 20
13.950960591
 30
0.0
 10
9.1014447143
 20
13.9451529619
 30
0.0
 10
9.0933795128
 20
13.9414678523
 30
0.0
 10
9.089560722
 20
13.9394428433
 30
0.0
  0
SPLINE
  5
545
100
AcDbEntity
  8
0
100
AcDbSpline
 62
7
  6
CONTINUOUS
 70
0
 71
3
 72
9
 73
5
 74
0
 42
0.0000001
 43
0.0000001
 44
0.0000000001
 40
0.0
 40
0.0
 40
0.0
 40
0.0
 40
0.5095479698
 40
1.0
 40
1.0
 40
1.0
 40
1.0
 10
9.089560722
 20
13.9394428433
 30
0.0
 10
9.0876763569
 20
13.9384436117
 30
0.0
 10
9.0840346282
 20
13.9363739426
 30
0.0
 10
9.0805310186
 20
13.9340770374
 30
0.0
 10
9.0788547659
 20
13.9328917607
 30
0.0
  0
LINE
  5
546
100
AcDbEntity
  8
0
100
AcDbLine
 62
7
  6
CONTINUOUS
 10
9.2224077257
 20
13.9363254011
 11
9.2258816649
 21
13.9333050674
  0
LINE
  5
547
100
AcDbEntity
  8
0
100
AcDbLine
 62
7
  6
CONTINUOUS
 10
9.2270268039
 20
13.9321604724
 11
9.2297535328
 21
13.9289891059
  0
SPLINE
  5
548
100
AcDbEntity
  8
0
100
AcDbSpline
 62
7
  6
CONTINUOUS
 70
0
 71
3
 72
9
 73
5
 74
0
 42
0.0000001
 43
0.0000001
 44
0.0000000001
 40
0.0
 40
0.0
 40
0.0
 40
0.0
 40
0.5168776067
 40
1.0
 40
1.0
 40
1.0
 40
1.0
 10
9.2297535328
 20
13.9289891059
 30
0.0
 10
9.2308115515
 20
13.9275991743
 30
0.0
 10
9.2326500086
 20
13.9247404823
 30
0.0
 10
9.2339149179
 20
13.921577943
 30
0.0
 10
9.2343532319
 20
13.9200051527
 30
0.0
  0
LINE
  5
549
100
AcDbEntity
  8
0
100
AcDbLine
 62
7
  6
CONTINUOUS
 10
9.2101791402
 20
13.9190291937
 11
9.2129024285
 21
13.9209826172
  0
SPLINE
  5
54A
100
AcDbEntity
  8
0
100
AcDbSpline
 62
7
  6
CONTINUOUS
 70
0
 71
3
 72
9
 73
5
 74
0
 42
0.0000001
 43
0.0000001
 44
0.0000000001
 40
0.0
 40
0.0
 40
0.0
 40
0.0
 40
0.2630099355
 40
1.0
 40
1.0
 40
1.0
 40
1.0
 10
9.2140532474
 20
13.921933401
 30
0.0
 10
9.2144232023
 20
13.9222538346
 30
0.0
 10
9.2158005318
 20
13.923504923
 30
0.0
 10
9.2170563511
 20
13.9248946922
 30
0.0
 10
9.2178724238
 20
13.9259969268
 30
0.0
  0
LINE
  5
54B
100
AcDbEntity
  8
0
100
AcDbLine
 62
7
  6
CONTINUOUS
 10
9.2178724238
 20
13.9259969268
 11
9.2191424745
 21
13.9279422172
  0
LINE
  5
54C
100
AcDbEntity
  8
0
100
AcDbLine
 62
7
  6
CONTINUOUS
 10
9.2202921112
 20
13.9304244025
 11
9.2208542141
 21
13.9324112779
  0
SPLINE
  5
54D
100
AcDbEntity
  8
0
100
AcDbSpline
 62
7
  6
CONTINUOUS
 70
0
 71
3
 72
21
 73
17
 74
0
 42
0.0000001
 43
0.0000001
 44
0.0000000001
 40
0.0
 40
0.0
 40
0.0
 40
0.0
 40
0.1661772538
 40
0.3242907838
 40
0.3993618493
 40
0.4713046835
 40
0.5398502798
 40
0.6047898941
 40
0.6659720245
 40
0.7233534018
 40
0.7769735048
 40
0.8270011249
 40
0.8737688786
 40
0.917755302
 40
0.9595865827
 40
1.0
 40
1.0
 40
1.0
 40
1.0
 10
9.1700117657
 20
13.8807371994
 30
0.0
 10
9.1743375575
 20
13.880974446
 30
0.0
 10
9.182764075
 20
13.8818031962
 30
0.0
 10
9.1930043616
 20
13.883780183
 30
0.0
 10
9.200675392
 20
13.8858989057
 30
0.0
 10
9.2060034028
 20
13.8876960211
 30
0.0
 10
9.2109685305
 20
13.889712832
 30
0.0
 10
9.2155374649
 20
13.8919315967
 30
0.0
 10
9.2196785363
 20
13.8943367222
 30
0.0
 10
9.2233653419
 20
13.8969075716
 30
0.0
 10
9.2265738936
 20
13.8996257303
 30
0.0
 10
9.2292822192
 20
13.9024734578
 30
0.0
 10
9.2314735386
 20
13.905430795
 30
0.0
 10
9.233127931
 20
13.9084804505
 30
0.0
 10
9.2342333097
 20
13.911594675
 30
0.0
 10
9.2346038089
 20
13.9137193943
 30
0.0
 10
9.234691814
 20
13.9147693027
 30
0.0
  0
SPLINE
  5
54E
100
AcDbEntity
  8
0
100
AcDbSpline
 62
7
  6
CONTINUOUS
 70
0
 71
3
 72
9
 73
5
 74
0
 42
0.0000001
 43
0.0000001
 44
0.0000000001
 40
0.0
 40
0.0
 40
0.0
 40
0.0
 40
0.4966964695
 40
1.0
 40
1.0
 40
1.0
 40
1.0
 10
9.221124668
 20
13.9287493897
 30
0.0
 10
9.221124668
 20
13.9293055464
 30
0.0
 10
9.2210517559
 20
13.9304264056
 30
0.0
 10
9.220836618
 20
13.9315285869
 30
0.0
 10
9.2206953494
 20
13.9320741482
 30
0.0
  0
SPLINE
  5
54F
100
AcDbEntity
  8
0
100
AcDbSpline
 62
7
  6
CONTINUOUS
 70
0
 71
3
 72
9
 73
5
 74
0
 42
0.0000001
 43
0.0000001
 44
0.0000000001
 40
0.0
 40
0.0
 40
0.0
 40
0.0
 40
0.4785922496
 40
1.0
 40
1.0
 40
1.0
 40
1.0
 10
9.2201156814
 20
13.933835516
 30
0.0
 10
9.219699853
 20
13.9348749711
 30
0.0
 10
9.2185902044
 20
13.9369544102
 30
0.0
 10
9.2171260272
 20
13.9387934346
 30
0.0
 10
9.216299624
 20
13.9396905005
 30
0.0
  0
SPLINE
  5
550
100
AcDbEntity
  8
0
100
AcDbSpline
 62
7
  6
CONTINUOUS
 70
0
 71
3
 72
9
 73
5
 74
0
 42
0.0000001
 43
0.0000001
 44
0.0000000001
 40
0.0
 40
0.0
 40
0.0
 40
0.0
 40
0.4981546886
 40
1.0
 40
1.0
 40
1.0
 40
1.0
 10
9.234691814
 20
13.9147693027
 30
0.0
 10
9.2347647832
 20
13.9156398324
 30
0.0
 10
9.234779421
 20
13.9174007424
 30
0.0
 10
9.2345361988
 20
13.9191443281
 30
0.0
 10
9.2343532319
 20
13.9200051527
 30
0.0
  0
SPLINE
  5
551
100
AcDbEntity
  8
0
100
AcDbSpline
 62
7
  6
CONTINUOUS
 70
0
 71
3
 72
23
 73
19
 74
0
 42
0.0000001
 43
0.0000001
 44
0.0000000001
 40
0.0
 40
0.0
 40
0.0
 40
0.0
 40
0.0430871466
 40
0.0868324974
 40
0.132212267
 40
0.1800615135
 40
0.2310120684
 40
0.2854649859
 40
0.3435957662
 40
0.4054246433
 40
0.4708218199
 40
0.5395602603
 40
0.6113160944
 40
0.6856974492
 40
0.7622591083
 40
0.840508595
 40
0.9199323753
 40
1.0
 40
1.0
 40
1.0
 40
1.0
 10
9.0814633811
 20
13.9233480283
 30
0.0
 10
9.0813560522
 20
13.9220481215
 30
0.0
 10
9.081390924
 20
13.9194010253
 30
0.0
 10
9.0821962621
 20
13.9154586604
 30
0.0
 10
9.0837387533
 20
13.9115880754
 30
0.0
 10
9.0859887618
 20
13.9078290871
 30
0.0
 10
9.0889157027
 20
13.904212431
 30
0.0
 10
9.0924853422
 20
13.9007670327
 30
0.0
 10
9.0966576655
 20
13.8975175319
 30
0.0
 10
9.1013919863
 20
13.8944926156
 30
0.0
 10
9.1066395664
 20
13.8917134836
 30
0.0
 10
9.1123507127
 20
13.8892051073
 30
0.0
 10
9.1184692395
 20
13.8869847209
 30
0.0
 10
9.1249370138
 20
13.8850697774
 30
0.0
 10
9.1316926152
 20
13.8834742486
 30
0.0
 10
9.1386726063
 20
13.8822081368
 30
0.0
 10
9.145812405
 20
13.8812816449
 30
0.0
 10
9.1506270399
 20
13.8808929108
 30
0.0
 10
9.1530469467
 20
13.8807555885
 30
0.0
  0
SPLINE
  5
552
100
AcDbEntity
  8
0
100
AcDbSpline
 62
7
  6
CONTINUOUS
 70
0
 71
3
 72
45
 73
41
 74
0
 42
0.0000001
 43
0.0000001
 44
0.0000000001
 40
0.0
 40
0.0
 40
0.0
 40
0.0
 40
0.0101215611
 40
0.0201315536
 40
0.0301426009
 40
0.0402729791
 40
0.0506332624
 40
0.0613197448
 40
0.0839491752
 40
0.1086235334
 40
0.1355356335
 40
0.1647061044
 40
0.1960443474
 40
0.229392061
 40
0.2645502622
 40
0.3012948655
 40
0.3393852301
 40
0.3785680792
 40
0.4185801055
 40
0.4591498317
 40
0.4999999312
 40
0.5408500819
 40
0.581419778
 40
0.6214318038
 40
0.6606146941
 40
0.6987050073
 40
0.735449663
 40
0.7706078439
 40
0.8039555595
 40
0.8352938262
 40
0.8644642801
 40
0.8913764175
 40
0.9160507715
 40
0.9386802317
 40
0.9493667244
 40
0.9597270128
 40
0.9698573966
 40
0.9798684476
 40
0.9898784398
 40
1.0
 40
1.0
 40
1.0
 40
1.0
 10
9.058124668
 20
13.9031361099
 30
0.0
 10
9.058124668
 20
13.9024067221
 30
0.0
 10
9.0582106398
 20
13.9009543404
 30
0.0
 10
9.0586052179
 20
13.8988128867
 30
0.0
 10
9.0592627258
 20
13.8967361076
 30
0.0
 10
9.0601772752
 20
13.8947316957
 30
0.0
 10
9.0613427136
 20
13.8928053116
 30
0.0
 10
9.0632551854
 20
13.8902989898
 30
0.0
 10
9.0662784381
 20
13.8873778073
 30
0.0
 10
9.0706761752
 20
13.8843058204
 30
0.0
 10
9.0758336615
 20
13.8815842942
 30
0.0
 10
9.0816727993
 20
13.8791990531
 30
0.0
 10
9.0881184682
 20
13.8771321699
 30
0.0
 10
9.0950970846
 20
13.8753653782
 30
0.0
 10
9.1025375917
 20
13.8738799505
 30
0.0
 10
9.1103712308
 20
13.8726578819
 30
0.0
 10
9.1185310976
 20
13.8716826198
 30
0.0
 10
9.1269514845
 20
13.8709398303
 30
0.0
 10
9.135567241
 20
13.8704178929
 30
0.0
 10
9.1443133376
 20
13.8701082454
 30
0.0
 10
9.1531246568
 20
13.87000563
 30
0.0
 10
9.1619359738
 20
13.8701082449
 30
0.0
 10
9.1706820719
 20
13.870417892
 30
0.0
 10
9.1792978292
 20
13.8709398284
 30
0.0
 10
9.1877182154
 20
13.8716826173
 30
0.0
 10
9.1958780853
 20
13.8726578791
 30
0.0
 10
9.203711723
 20
13.8738799473
 30
0.0
 10
9.2111522329
 20
13.8753653732
 30
0.0
 10
9.2181308495
 20
13.8771321658
 30
0.0
 10
9.2245765201
 20
13.8791990459
 30
0.0
 10
9.2304156605
 20
13.8815842889
 30
0.0
 10
9.2355731492
 20
13.884305813
 30
0.0
 10
9.2399708907
 20
13.8873778017
 30
0.0
 10
9.2429941464
 20
13.8902989848
 30
0.0
 10
9.2449066206
 20
13.8928053089
 30
0.0
 10
9.2460720602
 20
13.8947316941
 30
0.0
 10
9.2469866097
 20
13.8967361071
 30
0.0
 10
9.2476441181
 20
13.8988128866
 30
0.0
 10
9.2480386964
 20
13.9009543406
 30
0.0
 10
9.248124668
 20
13.9024067222
 30
0.0
 10
9.248124668
 20
13.9031361099
 30
0.0
  0
SPLINE
  5
553
100
AcDbEntity
  8
0
100
AcDbSpline
 62
7
  6
CONTINUOUS
 70
0
 71
3
 72
21
 73
17
 74
0
 42
0.0000001
 43
0.0000001
 44
0.0000000001
 40
0.0
 40
0.0
 40
0.0
 40
0.0
 40
0.0377006583
 40
0.0767610073
 40
0.1182282932
 40
0.1629498987
 40
0.2115318035
 40
0.2643558439
 40
0.321567919
 40
0.383152361
 40
0.4489835909
 40
0.5188116755
 40
0.5923269819
 40
0.6691452977
 40
0.8308345642
 40
1.0
 40
1.0
 40
1.0
 40
1.0
 10
9.221124668
 20
13.9287493897
 30
0.0
 10
9.221124668
 20
13.9278317003
 30
0.0
 10
9.2209210469
 20
13.9259578061
 30
0.0
 10
9.2200257521
 20
13.9232041467
 30
0.0
 10
9.2185520837
 20
13.9205169897
 30
0.0
 10
9.2165193906
 20
13.9179265061
 30
0.0
 10
9.2139522251
 20
13.9154506485
 30
0.0
 10
9.2108711766
 20
13.9131112499
 30
0.0
 10
9.2073034569
 20
13.9109266342
 30
0.0
 10
9.2032779017
 20
13.9089176005
 30
0.0
 10
9.1988272581
 20
13.9071057931
 30
0.0
 10
9.1939895555
 20
13.9055068977
 30
0.0
 10
9.1888045969
 20
13.904139621
 30
0.0
 10
9.1813599049
 20
13.9026186662
 30
0.0
 10
9.1714927846
 20
13.9014099861
 30
0.0
 10
9.1634292615
 20
13.9011898677
 30
0.0
 10
9.1593121913
 20
13.9012638577
 30
0.0
  0
SPLINE
  5
554
100
AcDbEntity
  8
0
100
AcDbSpline
 62
7
  6
CONTINUOUS
 70
0
 71
3
 72
37
 73
33
 74
0
 42
0.0000001
 43
0.0000001
 44
0.0000000001
 40
0.0
 40
0.0
 40
0.0
 40
0.0
 40
0.027810312
 40
0.0568805208
 40
0.0872025605
 40
0.118749306
 40
0.1514456126
 40
0.1851899499
 40
0.2553421643
 40
0.2915158463
 40
0.3282403741
 40
0.3653813526
 40
0.4028000796
 40
0.4403464828
 40
0.4778652531
 40
0.5521748109
 40
0.5886608249
 40
0.6244875816
 40
0.6595030638
 40
0.6935764877
 40
0.7265982079
 40
0.7584618335
 40
0.7890653748
 40
0.8183140834
 40
0.8461241884
 40
0.8724279602
 40
0.8971842464
 40
0.9204167389
 40
0.9421953364
 40
0.9626192271
 40
0.9818256853
 40
1.0
 40
1.0
 40
1.0
 40
1.0
 10
9.0848366367
 20
13.9100794255
 30
0.0
 10
9.0859860756
 20
13.9091031673
 30
0.0
 10
9.0884151909
 20
13.9071970237
 30
0.0
 10
9.0923316389
 20
13.9045412037
 30
0.0
 10
9.0965850418
 20
13.9020394106
 30
0.0
 10
9.1011555071
 20
13.8997079892
 30
0.0
 10
9.1060152478
 20
13.8975531383
 30
0.0
 10
9.1129300037
 20
13.8948912827
 30
0.0
 10
9.1202034023
 20
13.8926620773
 30
0.0
 10
9.1277473412
 20
13.8908497128
 30
0.0
 10
9.133602686
 20
13.8896911184
 30
0.0
 10
9.1395658526
 20
13.8887552072
 30
0.0
 10
9.1456053051
 20
13.8880483049
 30
0.0
 10
9.1516875227
 20
13.8875675605
 30
0.0
 10
9.1597818508
 20
13.8872273893
 30
0.0
 10
9.1678326494
 20
13.8873267925
 30
0.0
 10
9.1757663497
 20
13.887871642
 30
0.0
 10
9.1815546138
 20
13.8884948698
 30
0.0
 10
9.1871833157
 20
13.8893340869
 30
0.0
 10
9.192621824
 20
13.8903839277
 30
0.0
 10
9.1978427002
 20
13.8916323534
 30
0.0
 10
9.2028196128
 20
13.8930687722
 30
0.0
 10
9.2075263785
 20
13.8946823136
 30
0.0
 10
9.2119369294
 20
13.8964621978
 30
0.0
 10
9.2160252187
 20
13.8983978652
 30
0.0
 10
9.2197658819
 20
13.9004785245
 30
0.0
 10
9.2231340593
 20
13.90269654
 30
0.0
 10
9.2261125438
 20
13.9050372831
 30
0.0
 10
9.2286904717
 20
13.9074838305
 30
0.0
 10
9.2308573458
 20
13.9100216439
 30
0.0
 10
9.2326018063
 20
13.9126351701
 30
0.0
 10
9.2334966498
 20
13.9144629501
 30
0.0
 10
9.2338617015
 20
13.9153783899
 30
0.0
  0
LINE
  5
555
100
AcDbEntity
  8
0
100
AcDbLine
 62
7
  6
CONTINUOUS
 10
9.2341085763
 20
13.91603162
 11
9.2348250161
 21
13.9186364746
  0
SPLINE
  5
556
100
AcDbEntity
  8
0
100
AcDbSpline
 62
7
  6
CONTINUOUS
 70
0
 71
3
 72
13
 73
9
 74
0
 42
0.0000001
 43
0.0000001
 44
0.0000000001
 40
0.0
 40
0.0
 40
0.0
 40
0.0
 40
0.1067134744
 40
0.2172978889
 40
0.3327116202
 40
0.4537101054
 40
0.7140169833
 40
1.0
 40
1.0
 40
1.0
 40
1.0
 10
9.248124668
 20
13.9031361099
 30
0.0
 10
9.248124668
 20
13.9039646999
 30
0.0
 10
9.2480111581
 20
13.9056536458
 30
0.0
 10
9.2475192474
 20
13.9081956031
 30
0.0
 10
9.2467080337
 20
13.9107705934
 30
0.0
 10
9.245174335
 20
13.9143156541
 30
0.0
 10
9.2424535223
 20
13.9187560412
 30
0.0
 10
9.2397207911
 20
13.9220176708
 30
0.0
 10
9.2381988071
 20
13.9236345845
 30
0.0
  0
SPLINE
  5
557
100
AcDbEntity
  8
0
100
AcDbSpline
 62
7
  6
CONTINUOUS
 70
0
 71
3
 72
9
 73
5
 74
0
 42
0.0000001
 43
0.0000001
 44
0.0000000001
 40
0.0
 40
0.0
 40
0.0
 40
0.0
 40
0.4831359286
 40
1.0
 40
1.0
 40
1.0
 40
1.0
 10
9.2381988071
 20
13.9236345845
 30
0.0
 10
9.2366263883
 20
13.9253050789
 30
0.0
 10
9.2331628751
 20
13.9285688693
 30
0.0
 10
9.2293984963
 20
13.9314747861
 30
0.0
 10
9.2273945695
 20
13.9328917605
 30
0.0
  0
SPLINE
  5
558
100
AcDbEntity
  8
0
100
AcDbSpline
 62
7
  6
CONTINUOUS
 70
0
 71
3
 72
15
 73
11
 74
0
 42
0.0000001
 43
0.0000001
 44
0.0000000001
 40
0.0
 40
0.0
 40
0.0
 40
0.0
 40
0.1530914786
 40
0.2986820847
 40
0.4361650031
 40
0.5651010312
 40
0.6853423221
 40
0.7971786066
 40
0.901524666
 40
1.0
 40
1.0
 40
1.0
 40
1.0
 10
9.0788547659
 20
13.9328917607
 30
0.0
 10
9.0772905972
 20
13.9317857386
 30
0.0
 10
9.0743085304
 20
13.9295266459
 30
0.0
 10
9.0702097574
 20
13.9259145147
 30
0.0
 10
9.0666335977
 20
13.9221913607
 30
0.0
 10
9.063623323
 20
13.9183926132
 30
0.0
 10
9.0612198671
 20
13.9145549344
 30
0.0
 10
9.0594606129
 20
13.9107147195
 30
0.0
 10
9.0583796078
 20
13.9069112469
 30
0.0
 10
9.058124668
 20
13.9043683748
 30
0.0
 10
9.058124668
 20
13.9031361099
 30
0.0
  0
SPLINE
  5
559
100
AcDbEntity
  8
0
100
AcDbSpline
 62
9
  6
CONTINUOUS
 70
0
 71
3
 72
11
 73
7
 74
0
 42
0.0000001
 43
0.0000001
 44
0.0000000001
 40
0.0
 40
0.0
 40
0.0
 40
0.0
 40
0.2550042121
 40
0.5060900681
 40
0.7540371292
 40
1.0
 40
1.0
 40
1.0
 40
1.0
 10
5.0270605422
 20
13.7189256953
 30
0.0
 10
5.0293963013
 20
13.7160450083
 30
0.0
 10
5.034689685
 20
13.7108271469
 30
0.0
 10
5.044081606
 20
13.7049983979
 30
0.0
 10
5.0544004134
 20
13.7014220522
 30
0.0
 10
5.0616083881
 20
13.7006159197
 30
0.0
 10
5.0651855512
 20
13.7006158361
 30
0.0
  0
SPLINE
  5
55A
100
AcDbEntity
  8
0
100
AcDbSpline
 62
9
  6
CONTINUOUS
 70
0
 71
3
 72
11
 73
7
 74
0
 42
0.0000001
 43
0.0000001
 44
0.0000000001
 40
0.0
 40
0.0
 40
0.0
 40
0.0
 40
0.2459190649
 40
0.4938752038
 40
0.7450296365
 40
1.0
 40
1.0
 40
1.0
 40
1.0
 10
5.0651855515
 20
14.7006158361
 30
0.0
 10
5.0616090195
 20
14.7006157755
 30
0.0
 10
5.054401469
 20
14.699810163
 30
0.0
 10
5.0440823118
 20
14.6962333334
 30
0.0
 10
5.034689324
 20
14.6904049911
 30
0.0
 10
5.0293958821
 20
14.685186378
 30
0.0
 10
5.0270605421
 20
14.6823059769
 30
0.0
  0
SPLINE
  5
55B
100
AcDbEntity
  8
0
100
AcDbSpline
 62
7
  6
CONTINUOUS
 70
0
 71
3
 72
79
 73
75
 74
0
 42
0.0000001
 43
0.0000001
 44
0.0000000001
 40
0.0
 40
0.0
 40
0.0
 40
0.0
 40
0.0625018572
 40
0.1250037173
 40
0.1875055733
 40
0.2500074332
 40
0.3125092952
 40
0.3750111549
 40
0.4062626295
 40
0.4375141045
 40
0.4687655791
 40
0.5000170536
 40
0.5312685284
 40
0.5625200032
 40
0.593771478
 40
0.6093972833
 40
0.6250230885
 40
0.6406488939
 40
0.6562747
 40
0.6719005053
 40
0.6797134155
 40
0.6875263261
 40
0.6953392384
 40
0.7031521519
 40
0.7109650578
 40
0.7148715116
 40
0.7187779724
 40
0.7226844393
 40
0.7265908747
 40
0.7285440884
 40
0.7304973308
 40
0.7324506203
 40
0.7344038997
 40
0.7363570763
 40
0.7373336049
 40
0.7383101395
 40
0.7392867895
 40
0.7402636896
 40
0.7412406233
 40
0.7422170951
 40
0.742705192
 40
0.7431933431
 40
0.7441700159
 40
0.7446584208
 40
0.7451467716
 40
0.7461233765
 40
0.7470999686
 40
0.7480765772
 40
0.7500297991
 40
0.751983009
 40
0.753936225
 40
0.7558894556
 40
0.7578426976
 40
0.7617491285
 40
0.7656555192
 40
0.7695619107
 40
0.7734683212
 40
0.781280831
 40
0.7890933224
 40
0.7969058154
 40
0.8047183173
 40
0.8125308163
 40
0.8281533238
 40
0.843775831
 40
0.8593983688
 40
0.8750207856
 40
0.890643232
 40
0.9062658299
 40
0.9218885042
 40
0.937510798
 40
0.9531329342
 40
0.9687553639
 40
0.9843777504
 40
1.0
 40
1.0
 40
1.0
 40
1.0
 10
9.973624668
 20
15.0881158361
 30
0.0
 10
9.9713754672
 20
15.1372559413
 30
0.0
 10
9.9680377745
 20
15.2355932389
 30
0.0
 10
9.9665147198
 20
15.3831730775
 30
0.0
 10
9.968475681
 20
15.5307485819
 30
0.0
 10
9.9739212508
 20
15.6782365085
 30
0.0
 10
9.9828474665
 20
15.8255543834
 30
0.0
 10
9.9931824249
 20
15.9481111804
 30
0.0
 10
10.003184669
 20
16.0459872633
 30
0.0
 10
10.0115525364
 20
16.119301684
 30
0.0
 10
10.0207853442
 20
16.1925121017
 30
0.0
 10
10.0308819076
 20
16.2656084285
 30
0.0
 10
10.0418406798
 20
16.3385804769
 30
0.0
 10
10.0536601484
 20
16.4114180169
 30
0.0
 10
10.0642256992
 20
16.4719956608
 30
0.0
 10
10.0731067562
 20
16.5203800977
 30
0.0
 10
10.0799816743
 20
16.5566286004
 30
0.0
 10
10.0870704354
 20
16.59283588
 30
0.0
 10
10.0943727766
 20
16.6290006864
 30
0.0
 10
10.1006358722
 20
16.6591016017
 30
0.0
 10
10.1057529749
 20
16.6831597793
 30
0.0
 10
10.109644025
 20
16.7011920273
 30
0.0
 10
10.1135882249
 20
16.7192127253
 30
0.0
 10
10.1175853531
 20
16.7372217537
 30
0.0
 10
10.1209611216
 20
16.7522192575
 30
0.0
 10
10.1236883114
 20
16.7642112329
 30
0.0
 10
10.1257466753
 20
16.7732022678
 30
0.0
 10
10.1278170677
 20
16.7821905264
 30
0.0
 10
10.1295558844
 20
16.7896776074
 30
0.0
 10
10.1309542874
 20
16.7956655558
 30
0.0
 10
10.1320045616
 20
16.8001562352
 30
0.0
 10
10.1330537647
 20
16.8046472183
 30
0.0
 10
10.1341065561
 20
16.8091373087
 30
0.0
 10
10.1349923221
 20
16.8128769595
 30
0.0
 10
10.1357106148
 20
16.8158662466
 30
0.0
 10
10.1362505634
 20
16.8181079383
 30
0.0
 10
10.1367833905
 20
16.8203516574
 30
0.0
 10
10.1372962231
 20
16.8226003541
 30
0.0
 10
10.1378032622
 20
16.8248501866
 30
0.0
 10
10.1382548158
 20
16.8267181551
 30
0.0
 10
10.1386509592
 20
16.8282031846
 30
0.0
 10
10.1390756601
 20
16.8296804538
 30
0.0
 10
10.1395275328
 20
16.8311498648
 30
0.0
 10
10.1399780776
 20
16.8326197927
 30
0.0
 10
10.1404178788
 20
16.8340929357
 30
0.0
 10
10.140950715
 20
16.8359392119
 30
0.0
 10
10.1415777547
 20
16.8381581987
 30
0.0
 10
10.1424069161
 20
16.8411187997
 30
0.0
 10
10.1434242986
 20
16.8448248907
 30
0.0
 10
10.1446050209
 20
16.8492830415
 30
0.0
 10
10.1457428137
 20
16.8537523463
 30
0.0
 10
10.1468393833
 20
16.8582319686
 30
0.0
 10
10.1482472079
 20
16.8642177872
 30
0.0
 10
10.1499082263
 20
16.8717229066
 30
0.0
 10
10.1517424038
 20
16.8807626795
 30
0.0
 10
10.153414349
 20
16.8898338991
 30
0.0
 10
10.1554264242
 20
16.9019664926
 30
0.0
 10
10.1575349703
 20
16.9171968148
 30
0.0
 10
10.1594116665
 20
16.9355512367
 30
0.0
 10
10.1606315795
 20
16.9539610341
 30
0.0
 10
10.1611934538
 20
16.9724028617
 30
0.0
 10
10.1610641899
 20
16.9969998801
 30
0.0
 10
10.1592560416
 20
17.0277151099
 30
0.0
 10
10.1544611248
 20
17.0643197501
 30
0.0
 10
10.1470660206
 20
17.1004896653
 30
0.0
 10
10.1371108054
 20
17.1360400294
 30
0.0
 10
10.1246408094
 20
17.1707882483
 30
0.0
 10
10.1097268032
 20
17.2045598721
 30
0.0
 10
10.0924399471
 20
17.2371805623
 30
0.0
 10
10.0728685529
 20
17.2684838611
 30
0.0
 10
10.0511038629
 20
17.2983033435
 30
0.0
 10
10.0272729181
 20
17.3264991232
 30
0.0
 10
10.0015004511
 20
17.3529295209
 30
0.0
 10
9.9831022908
 20
17.3692831804
 30
0.0
 10
9.973624668
 20
17.3771158361
 30
0.0
  0
SPLINE
  5
55C
100
AcDbEntity
  8
0
100
AcDbSpline
 62
7
  6
CONTINUOUS
 70
0
 71
3
 72
79
 73
75
 74
0
 42
0.0000001
 43
0.0000001
 44
0.0000000001
 40
0.0
 40
0.0
 40
0.0
 40
0.0
 40
0.0625018572
 40
0.1250037173
 40
0.1875055733
 40
0.2500074332
 40
0.3125092952
 40
0.3750111549
 40
0.4062626295
 40
0.4375141045
 40
0.4687655791
 40
0.5000170536
 40
0.5312685284
 40
0.5625200032
 40
0.593771478
 40
0.6093972833
 40
0.6250230885
 40
0.6406488939
 40
0.6562747
 40
0.6719005053
 40
0.6797134155
 40
0.6875263261
 40
0.6953392384
 40
0.7031521519
 40
0.7109650578
 40
0.7148715116
 40
0.7187779724
 40
0.7226844393
 40
0.7265908747
 40
0.7285440884
 40
0.7304973308
 40
0.7324506203
 40
0.7344038997
 40
0.7363570763
 40
0.7373336049
 40
0.7383101395
 40
0.7392867895
 40
0.7402636896
 40
0.7412406233
 40
0.7422170951
 40
0.742705192
 40
0.7431933431
 40
0.7441700159
 40
0.7446584208
 40
0.7451467716
 40
0.7461233765
 40
0.7470999686
 40
0.7480765772
 40
0.7500297991
 40
0.751983009
 40
0.753936225
 40
0.7558894556
 40
0.7578426976
 40
0.7617491285
 40
0.7656555192
 40
0.7695619107
 40
0.7734683212
 40
0.781280831
 40
0.7890933224
 40
0.7969058154
 40
0.8047183173
 40
0.8125308163
 40
0.8281533238
 40
0.843775831
 40
0.8593983688
 40
0.8750207856
 40
0.890643232
 40
0.9062658299
 40
0.9218885042
 40
0.937510798
 40
0.9531329342
 40
0.9687553639
 40
0.9843777504
 40
1.0
 40
1.0
 40
1.0
 40
1.0
 10
9.410624668
 20
15.0881158361
 30
0.0
 10
9.4128738688
 20
15.1372559413
 30
0.0
 10
9.4162115615
 20
15.2355932389
 30
0.0
 10
9.4177346161
 20
15.3831730775
 30
0.0
 10
9.415773655
 20
15.5307485819
 30
0.0
 10
9.4103280852
 20
15.6782365085
 30
0.0
 10
9.4014018695
 20
15.8255543834
 30
0.0
 10
9.3910669111
 20
15.9481111804
 30
0.0
 10
9.381064667
 20
16.0459872633
 30
0.0
 10
9.3726967996
 20
16.119301684
 30
0.0
 10
9.3634639918
 20
16.1925121017
 30
0.0
 10
9.3533674284
 20
16.2656084285
 30
0.0
 10
9.3424086562
 20
16.3385804769
 30
0.0
 10
9.3305891876
 20
16.4114180169
 30
0.0
 10
9.3200236368
 20
16.4719956608
 30
0.0
 10
9.3111425798
 20
16.5203800977
 30
0.0
 10
9.3042676617
 20
16.5566286004
 30
0.0
 10
9.2971789006
 20
16.59283588
 30
0.0
 10
9.2898765594
 20
16.6290006864
 30
0.0
 10
9.2836134638
 20
16.6591016017
 30
0.0
 10
9.2784963611
 20
16.6831597793
 30
0.0
 10
9.274605311
 20
16.7011920273
 30
0.0
 10
9.270661111
 20
16.7192127253
 30
0.0
 10
9.2666639829
 20
16.7372217537
 30
0.0
 10
9.2632882144
 20
16.7522192575
 30
0.0
 10
9.2605610246
 20
16.7642112329
 30
0.0
 10
9.2585026607
 20
16.7732022678
 30
0.0
 10
9.2564322683
 20
16.7821905264
 30
0.0
 10
9.2546934516
 20
16.7896776074
 30
0.0
 10
9.2532950486
 20
16.7956655558
 30
0.0
 10
9.2522447744
 20
16.8001562352
 30
0.0
 10
9.2511955712
 20
16.8046472183
 30
0.0
 10
9.2501427799
 20
16.8091373087
 30
0.0
 10
9.2492570139
 20
16.8128769595
 30
0.0
 10
9.2485387212
 20
16.8158662466
 30
0.0
 10
9.2479987726
 20
16.8181079383
 30
0.0
 10
9.2474659455
 20
16.8203516574
 30
0.0
 10
9.2469531129
 20
16.8226003541
 30
0.0
 10
9.2464460738
 20
16.8248501866
 30
0.0
 10
9.2459945202
 20
16.8267181551
 30
0.0
 10
9.2455983768
 20
16.8282031846
 30
0.0
 10
9.2451736759
 20
16.8296804538
 30
0.0
 10
9.2447218032
 20
16.8311498648
 30
0.0
 10
9.2442712584
 20
16.8326197927
 30
0.0
 10
9.2438314572
 20
16.8340929357
 30
0.0
 10
9.243298621
 20
16.8359392119
 30
0.0
 10
9.2426715813
 20
16.8381581987
 30
0.0
 10
9.2418424199
 20
16.8411187997
 30
0.0
 10
9.2408250373
 20
16.8448248907
 30
0.0
 10
9.2396443151
 20
16.8492830415
 30
0.0
 10
9.2385065223
 20
16.8537523463
 30
0.0
 10
9.2374099527
 20
16.8582319686
 30
0.0
 10
9.2360021281
 20
16.8642177872
 30
0.0
 10
9.2343411097
 20
16.8717229066
 30
0.0
 10
9.2325069322
 20
16.8807626795
 30
0.0
 10
9.230834987
 20
16.8898338991
 30
0.0
 10
9.2288229118
 20
16.9019664926
 30
0.0
 10
9.2267143656
 20
16.9171968148
 30
0.0
 10
9.2248376695
 20
16.9355512367
 30
0.0
 10
9.2236177564
 20
16.9539610341
 30
0.0
 10
9.2230558822
 20
16.9724028617
 30
0.0
 10
9.2231851461
 20
16.9969998801
 30
0.0
 10
9.2249932943
 20
17.0277151099
 30
0.0
 10
9.2297882112
 20
17.0643197501
 30
0.0
 10
9.2371833154
 20
17.1004896653
 30
0.0
 10
9.2471385306
 20
17.1360400294
 30
0.0
 10
9.2596085266
 20
17.1707882483
 30
0.0
 10
9.2745225328
 20
17.2045598721
 30
0.0
 10
9.2918093888
 20
17.2371805623
 30
0.0
 10
9.311380783
 20
17.2684838611
 30
0.0
 10
9.3331454731
 20
17.2983033435
 30
0.0
 10
9.3569764179
 20
17.3264991232
 30
0.0
 10
9.3827488849
 20
17.3529295209
 30
0.0
 10
9.4011470452
 20
17.3692831804
 30
0.0
 10
9.410624668
 20
17.3771158361
 30
0.0
  0
SPLINE
  5
55D
100
AcDbEntity
  8
0
100
AcDbSpline
 62
7
  6
CONTINUOUS
 70
0
 71
3
 72
17
 73
13
 74
0
 42
0.0000001
 43
0.0000001
 44
0.0000000001
 40
0.0
 40
0.0
 40
0.0
 40
0.0
 40
0.1166047023
 40
0.2399488905
 40
0.3038378129
 40
0.3687701261
 40
0.500000053
 40
0.6312299719
 40
0.6961622758
 40
0.7600511858
 40
0.8833953401
 40
1.0
 40
1.0
 40
1.0
 40
1.0
 10
6.915124668
 20
13.6156158361
 30
0.0
 10
6.9187828433
 20
13.6156158361
 30
0.0
 10
6.9263252077
 20
13.6149154831
 30
0.0
 10
6.9355515202
 20
13.6122783189
 30
0.0
 10
6.9427538654
 20
13.6089750983
 30
0.0
 10
6.9498052113
 20
13.6048505757
 30
0.0
 10
6.9578646765
 20
13.5983558378
 30
0.0
 10
6.9643594129
 20
13.5902963718
 30
0.0
 10
6.968483934
 20
13.5832450261
 30
0.0
 10
6.9717871529
 20
13.576042682
 30
0.0
 10
6.9744243155
 20
13.566816372
 30
0.0
 10
6.975124668
 20
13.5592740101
 30
0.0
 10
6.975124668
 20
13.5556158361
 30
0.0
  0
SPLINE
  5
55E
100
AcDbEntity
  8
0
100
AcDbSpline
 62
7
  6
CONTINUOUS
 70
0
 71
3
 72
17
 73
13
 74
0
 42
0.0000001
 43
0.0000001
 44
0.0000000001
 40
0.0
 40
0.0
 40
0.0
 40
0.0
 40
0.1166047163
 40
0.2399489157
 40
0.3038378422
 40
0.3687701585
 40
0.5000000881
 40
0.6312300043
 40
0.6961623052
 40
0.760051211
 40
0.8833953541
 40
1.0
 40
1.0
 40
1.0
 40
1.0
 10
6.915124668
 20
14.7856158361
 30
0.0
 10
6.9187828438
 20
14.7856158361
 30
0.0
 10
6.9263252089
 20
14.7863161892
 30
0.0
 10
6.9355515222
 20
14.788953354
 30
0.0
 10
6.9427538678
 20
14.7922565752
 30
0.0
 10
6.9498052138
 20
14.7963810983
 30
0.0
 10
6.9578646787
 20
14.8028758366
 30
0.0
 10
6.9643594147
 20
14.8109353029
 30
0.0
 10
6.9684839352
 20
14.8179866485
 30
0.0
 10
6.9717871536
 20
14.8251889922
 30
0.0
 10
6.9744243157
 20
14.8344153014
 30
0.0
 10
6.975124668
 20
14.8419576626
 30
0.0
 10
6.975124668
 20
14.8456158361
 30
0.0
  0
SPLINE
  5
55F
100
AcDbEntity
  8
0
100
AcDbSpline
 62
7
  6
CONTINUOUS
 70
0
 71
3
 72
17
 73
13
 74
0
 42
0.0000001
 43
0.0000001
 44
0.0000000001
 40
0.0
 40
0.0
 40
0.0
 40
0.0
 40
0.1166046487
 40
0.2399488003
 40
0.3038377121
 40
0.3687700195
 40
0.499999947
 40
0.6312298826
 40
0.6961621993
 40
0.7600511236
 40
0.883395309
 40
1.0
 40
1.0
 40
1.0
 40
1.0
 10
8.5951247316
 20
14.5556158361
 30
0.0
 10
8.5914665555
 20
14.5556158322
 30
0.0
 10
8.5839241882
 20
14.5563161775
 30
0.0
 10
8.5746978699
 20
14.5589533336
 30
0.0
 10
8.5674955183
 20
14.5622565492
 30
0.0
 10
8.5604441645
 20
14.5663810682
 30
0.0
 10
8.5523846885
 20
14.5728758045
 30
0.0
 10
8.5458899421
 20
14.5809352728
 30
0.0
 10
8.5417654141
 20
14.5879866224
 30
0.0
 10
8.5384621892
 20
14.5951889717
 30
0.0
 10
8.5358250218
 20
14.6044152897
 30
0.0
 10
8.535124668
 20
14.6119576587
 30
0.0
 10
8.535124668
 20
14.6156158361
 30
0.0
  0
SPLINE
  5
560
100
AcDbEntity
  8
0
100
AcDbSpline
 62
7
  6
CONTINUOUS
 70
0
 71
3
 72
17
 73
13
 74
0
 42
0.0000001
 43
0.0000001
 44
0.0000000001
 40
0.0
 40
0.0
 40
0.0
 40
0.0
 40
0.1166047184
 40
0.2399489167
 40
0.3038378416
 40
0.3687701558
 40
0.500000081
 40
0.631229994
 40
0.696162294
 40
0.7600511998
 40
0.8833953464
 40
1.0
 40
1.0
 40
1.0
 40
1.0
 10
8.5951246403
 20
13.8456158361
 30
0.0
 10
8.5914664656
 20
13.8456158344
 30
0.0
 10
8.5839241029
 20
13.8449154782
 30
0.0
 10
8.5746977934
 20
13.8422783107
 30
0.0
 10
8.5674954511
 20
13.8389750881
 30
0.0
 10
8.5604441087
 20
13.8348505642
 30
0.0
 10
8.5523846481
 20
13.8283558259
 30
0.0
 10
8.5458899157
 20
13.8202963611
 30
0.0
 10
8.5417653974
 20
13.8132450171
 30
0.0
 10
8.5384621807
 20
13.8060426751
 30
0.0
 10
8.5358250199
 20
13.7968163681
 30
0.0
 10
8.535124668
 20
13.7892740088
 30
0.0
 10
8.535124668
 20
13.7856158361
 30
0.0
  0
SPLINE
  5
561
100
AcDbEntity
  8
0
100
AcDbSpline
 62
9
  6
CONTINUOUS
 70
0
 71
3
 72
63
 73
59
 74
0
 42
0.0000001
 43
0.0000001
 44
0.0000000001
 40
0.0
 40
0.0
 40
0.0
 40
0.0
 40
0.0000497526
 40
0.0001985502
 40
0.0004458221
 40
0.0007909976
 40
0.001233506
 40
0.0017727767
 40
0.003139323
 40
0.0048860727
 40
0.0070084629
 40
0.0095019315
 40
0.0123619173
 40
0.0155829631
 40
0.019156026
 40
0.0273184657
 40
0.0367698286
 40
0.0474308151
 40
0.0592222211
 40
0.0720649092
 40
0.085879994
 40
0.100588924
 40
0.1323967303
 40
0.1669752147
 40
0.2038615656
 40
0.2426783574
 40
0.2830973111
 40
0.3248395814
 40
0.3676720661
 40
0.4112895241
 40
0.4554949647
 40
0.4999976207
 40
0.5445004419
 40
0.5887042261
 40
0.6323138198
 40
0.6751386873
 40
0.7168813812
 40
0.7573059833
 40
0.7961288343
 40
0.8330201354
 40
0.8676020515
 40
0.8994123203
 40
0.9279381646
 40
0.9407815745
 40
0.9525734005
 40
0.9632344458
 40
0.97268554
 40
0.9808474403
 40
0.9876407942
 40
0.9905003431
 40
0.9929933579
 40
0.9951152998
 40
0.9968616292
 40
0.9982278056
 40
0.9992092878
 40
0.9995543492
 40
0.9998015336
 40
1.0
 40
1.0
 40
1.0
 40
1.0
 10
6.9151246886
 20
14.7856158361
 30
0.0
 10
6.9151383504
 20
14.7855982538
 30
0.0
 10
6.9151977407
 20
14.7855320453
 30
0.0
 10
6.9153251133
 20
14.7853785169
 30
0.0
 10
6.9155407651
 20
14.7851264008
 30
0.0
 10
6.9158398677
 20
14.7847727562
 30
0.0
 10
6.9162239181
 20
14.7843197845
 30
0.0
 10
6.9169028606
 20
14.7835175628
 30
0.0
 10
6.9179582337
 20
14.7822692387
 30
0.0
 10
6.9194694499
 20
14.7804785235
 30
0.0
 10
6.9213041334
 20
14.778300854
 30
0.0
 10
6.923457613
 20
14.7757403078
 30
0.0
 10
6.9259250257
 20
14.7728013242
 30
0.0
 10
6.9287001526
 20
14.7694898242
 30
0.0
 10
6.9329932468
 20
14.7643542671
 30
0.0
 10
6.9390579565
 20
14.7570654702
 30
0.0
 10
6.9471160589
 20
14.7473088033
 30
0.0
 10
6.9561624132
 20
14.736262082
 30
0.0
 10
6.9661134895
 20
14.7239947141
 30
0.0
 10
6.9768783832
 20
14.7105702042
 30
0.0
 10
6.9883663306
 20
14.6960522692
 30
0.0
 10
7.0049670788
 20
14.6747575158
 30
0.0
 10
7.026925197
 20
14.6458577058
 30
0.0
 10
7.0541021063
 20
14.608468735
 30
0.0
 10
7.0820750787
 20
14.5677970753
 30
0.0
 10
7.1100473599
 20
14.5239839843
 30
0.0
 10
7.1372427505
 20
14.4771425234
 30
0.0
 10
7.162565544
 20
14.4272216777
 30
0.0
 10
7.1848745986
 20
14.374300533
 30
0.0
 10
7.2026596765
 20
14.3184936938
 30
0.0
 10
7.2142870368
 20
14.2602776712
 30
0.0
 10
7.2183608742
 20
14.2006185712
 30
0.0
 10
7.2142935427
 20
14.1409593669
 30
0.0
 10
7.2026636473
 20
14.0827480401
 30
0.0
 10
7.1848836034
 20
14.0269478728
 30
0.0
 10
7.1625790859
 20
13.9740320292
 30
0.0
 10
7.1372563138
 20
13.9241119288
 30
0.0
 10
7.1100581587
 20
13.8772658114
 30
0.0
 10
7.0820825451
 20
13.8334460034
 30
0.0
 10
7.0541066045
 20
13.7927685553
 30
0.0
 10
7.0269268352
 20
13.7553755822
 30
0.0
 10
7.0012257258
 20
13.7215501463
 30
0.0
 10
6.9809942144
 20
13.6957942719
 30
0.0
 10
6.9661103633
 20
13.6772331131
 30
0.0
 10
6.956158946
 20
13.6649653239
 30
0.0
 10
6.9471125296
 20
13.6539185331
 30
0.0
 10
6.939054597
 20
13.6441621605
 30
0.0
 10
6.9320683558
 20
13.6357657503
 30
0.0
 10
6.9269507957
 20
13.6296521388
 30
0.0
 10
6.9234556351
 20
13.6254890475
 30
0.0
 10
6.9213025511
 20
13.6229289516
 30
0.0
 10
6.9194682283
 20
13.620751752
 30
0.0
 10
6.9179574314
 20
13.6189614083
 30
0.0
 10
6.9167743637
 20
13.6175623479
 30
0.0
 10
6.915996061
 20
13.6166423003
 30
0.0
 10
6.9155399876
 20
13.6161055982
 30
0.0
 10
6.9153120636
 20
13.6158349122
 30
0.0
 10
6.9151809354
 20
13.6156845784
 30
0.0
 10
6.9151246886
 20
13.6156158361
 30
0.0
  0
SPLINE
  5
562
100
AcDbEntity
  8
0
100
AcDbSpline
 62
9
  6
CONTINUOUS
 70
0
 71
3
 72
93
 73
89
 74
0
 42
0.0000001
 43
0.0000001
 44
0.0000000001
 40
0.0
 40
0.0
 40
0.0
 40
0.0
 40
0.000012427
 40
0.0000279423
 40
0.0000496545
 40
0.0001116566
 40
0.0001984072
 40
0.0003098805
 40
0.0004460503
 40
0.0007923759
 40
0.0012371763
 40
0.0017801877
 40
0.0024209152
 40
0.0031588036
 40
0.0039932982
 40
0.0049238441
 40
0.0070704809
 40
0.0095920512
 40
0.0124813416
 40
0.0157304552
 40
0.0193304567
 40
0.0232722658
 40
0.0275460961
 40
0.0370487966
 40
0.047755029
 40
0.059579825
 40
0.0724392719
 40
0.0862523633
 40
0.100941791
 40
0.1164356215
 40
0.1326665605
 40
0.1670982054
 40
0.203805292
 40
0.2424307831
 40
0.2826803612
 40
0.3033382436
 40
0.3243121499
 40
0.3455748858
 40
0.367100929
 40
0.3888615773
 40
0.4108263925
 40
0.4329623538
 40
0.4552318972
 40
0.4775936766
 40
0.5000024513
 40
0.52241121
 40
0.5447729905
 40
0.5670425073
 40
0.5891785673
 40
0.6111435292
 40
0.6329036489
 40
0.654429569
 40
0.6756929979
 40
0.7173195365
 40
0.7575697181
 40
0.7961951868
 40
0.8329018059
 40
0.8673334964
 40
0.8835644391
 40
0.8990582611
 40
0.9137476784
 40
0.9275607572
 40
0.9404201929
 40
0.9522449853
 40
0.962951217
 40
0.9724539072
 40
0.9767277345
 40
0.980669553
 40
0.9842695715
 40
0.9875186908
 40
0.9904079574
 40
0.9929294958
 40
0.9950761484
 40
0.9960067319
 40
0.9968412744
 40
0.9975792099
 40
0.9982199724
 40
0.9987629961
 40
0.9992077781
 40
0.9993932451
 40
0.9995540636
 40
0.9996902095
 40
0.9998016585
 40
0.9998883863
 40
0.9999503686
 40
0.9999720727
 40
0.9999875813
 40
1.0
 40
1.0
 40
1.0
 40
1.0
 10
6.975124668
 20
14.8456158361
 30
0.0
 10
6.9751268619
 20
14.8456103392
 30
0.0
 10
6.9751365372
 20
14.8456005661
 30
0.0
 10
6.975149252
 20
14.8455807571
 30
0.0
 10
6.9751772544
 20
14.8455425848
 30
0.0
 10
6.9752239436
 20
14.8454762373
 30
0.0
 10
6.9752960752
 20
14.8453754208
 30
0.0
 10
6.9753884175
 20
14.8452456801
 30
0.0
 10
6.9755526146
 20
14.8450153212
 30
0.0
 10
6.9758088555
 20
14.8446556298
 30
0.0
 10
6.9761775345
 20
14.8441381303
 30
0.0
 10
6.9766275078
 20
14.8435063942
 30
0.0
 10
6.9771583285
 20
14.842760868
 30
0.0
 10
6.9777694475
 20
14.8419021003
 30
0.0
 10
6.9784603054
 20
14.8409306658
 30
0.0
 10
6.9795395022
 20
14.8394121112
 30
0.0
 10
6.9810829306
 20
14.8372377508
 30
0.0
 10
6.9831637571
 20
14.8343008554
 30
0.0
 10
6.985544862
 20
14.8309332157
 30
0.0
 10
6.988218324
 20
14.8271432615
 30
0.0
 10
6.9911753016
 20
14.8229398667
 30
0.0
 10
6.9944065556
 20
14.8183327324
 30
0.0
 10
6.9992410823
 20
14.8114163587
 30
0.0
 10
7.0058955787
 20
14.801841518
 30
0.0
 10
7.0145509984
 20
14.7892779913
 30
0.0
 10
7.0240470062
 20
14.7753524269
 30
0.0
 10
7.0342931649
 20
14.7601477421
 30
0.0
 10
7.0451989743
 20
14.7437428251
 30
0.0
 10
7.056675141
 20
14.7262110588
 30
0.0
 10
7.0686329871
 20
14.7076190368
 30
0.0
 10
7.0854369789
 20
14.6809661012
 30
0.0
 10
7.1070826919
 20
14.6454243013
 30
0.0
 10
7.1331324818
 20
14.6000925681
 30
0.0
 10
7.1590218775
 20
14.5515011201
 30
0.0
 10
7.1796192527
 20
14.508785833
 30
0.0
 10
7.19521185
 20
14.4730373267
 30
0.0
 10
7.2064023083
 20
14.4452470731
 30
0.0
 10
7.2168462784
 20
14.4167258073
 30
0.0
 10
7.2263808839
 20
14.3874918232
 30
0.0
 10
7.2348475326
 20
14.3575815877
 30
0.0
 10
7.2420839089
 20
14.3270496678
 30
0.0
 10
7.247924561
 20
14.2959716906
 30
0.0
 10
7.2522173619
 20
14.2644498082
 30
0.0
 10
7.254845207
 20
14.2326141304
 30
0.0
 10
7.255734806
 20
14.2006153692
 30
0.0
 10
7.2548456583
 20
14.1686165829
 30
0.0
 10
7.2522174815
 20
14.1367809457
 30
0.0
 10
7.2479243141
 20
14.1052590719
 30
0.0
 10
7.2420836162
 20
14.0741810435
 30
0.0
 10
7.2348496395
 20
14.0436486521
 30
0.0
 10
7.2263794881
 20
14.0137396164
 30
0.0
 10
7.2168419917
 20
13.9845065216
 30
0.0
 10
7.2030238202
 20
13.946744593
 30
0.0
 10
7.1839525573
 20
13.9014435764
 30
0.0
 10
7.1590240812
 20
13.8497299269
 30
0.0
 10
7.1331328154
 20
13.8011380963
 30
0.0
 10
7.107082059
 20
13.7558075128
 30
0.0
 10
7.0854369865
 20
13.7202654873
 30
0.0
 10
7.0686329811
 20
13.6936125441
 30
0.0
 10
7.056675128
 20
13.6750205338
 30
0.0
 10
7.0451989512
 20
13.6574887923
 30
0.0
 10
7.0342931342
 20
13.6410838999
 30
0.0
 10
7.0240469741
 20
13.6258792318
 30
0.0
 10
7.014550974
 20
13.6119536712
 30
0.0
 10
7.0058955704
 20
13.5993901418
 30
0.0
 10
6.999241071
 20
13.5898153113
 30
0.0
 10
6.9944065389
 20
13.5828989435
 30
0.0
 10
6.9911752853
 20
13.5782917953
 30
0.0
 10
6.9882183171
 20
13.5740883753
 30
0.0
 10
6.9855448665
 20
13.5702984137
 30
0.0
 10
6.9831637526
 20
13.5669308095
 30
0.0
 10
6.9810829039
 20
13.5639939532
 30
0.0
 10
6.979539471
 20
13.5618195835
 30
0.0
 10
6.9784602923
 20
13.5603009567
 30
0.0
 10
6.977769441
 20
13.5593294401
 30
0.0
 10
6.9771583283
 20
13.5584705918
 30
0.0
 10
6.9766275162
 20
13.5577250046
 30
0.0
 10
6.9761775435
 20
13.5570932502
 30
0.0
 10
6.9758533168
 20
13.5566381519
 30
0.0
 10
6.9756346755
 20
13.5563313299
 30
0.0
 10
6.9755013402
 20
13.5561442154
 30
0.0
 10
6.9753884122
 20
13.5559858374
 30
0.0
 10
6.9752960776
 20
13.5558561354
 30
0.0
 10
6.9752239263
 20
13.5557553657
 30
0.0
 10
6.9751772778
 20
13.5556890319
 30
0.0
 10
6.9751492211
 20
13.555650901
 30
0.0
 10
6.9751366035
 20
13.555631067
 30
0.0
 10
6.9751267442
 20
13.5556213743
 30
0.0
 10
6.975124668
 20
13.5556158361
 30
0.0
  0
SPLINE
  5
563
100
AcDbEntity
  8
0
100
AcDbSpline
 62
9
  6
CONTINUOUS
 70
0
 71
3
 72
51
 73
47
 74
0
 42
0.0000001
 43
0.0000001
 44
0.0000000001
 40
0.0
 40
0.0
 40
0.0
 40
0.0
 40
0.0007043303
 40
0.001580248
 40
0.0028019447
 40
0.0062725173
 40
0.0110957508
 40
0.0172463585
 40
0.0246790609
 40
0.0333437358
 40
0.0431904742
 40
0.0662195401
 40
0.0933134517
 40
0.1240195243
 40
0.1579109379
 40
0.2336635197
 40
0.3177201436
 40
0.3620654005
 40
0.4074990693
 40
0.4536858373
 40
0.5002465096
 40
0.5468041298
 40
0.5929807983
 40
0.6383957229
 40
0.6827122966
 40
0.7255858948
 40
0.7667067055
 40
0.805747039
 40
0.8423694223
 40
0.8762093257
 40
0.906865738
 40
0.9339131686
 40
0.9459430204
 40
0.9568999789
 40
0.9667273182
 40
0.9753742387
 40
0.9827912699
 40
0.9889287296
 40
0.9937416863
 40
0.9956432604
 40
0.9972048308
 40
0.998423845
 40
0.9992977488
 40
0.9996044857
 40
0.9998239863
 40
1.0
 40
1.0
 40
1.0
 40
1.0
 10
8.5951245782
 20
13.8456158361
 30
0.0
 10
8.5950371499
 20
13.8457691711
 30
0.0
 10
8.5948365423
 20
13.8461106354
 30
0.0
 10
8.5944862857
 20
13.8467192224
 30
0.0
 10
8.5937890805
 20
13.8479279787
 30
0.0
 10
8.5926033716
 20
13.8499969366
 30
0.0
 10
8.5908104514
 20
13.8531415692
 30
0.0
 10
8.5885369353
 20
13.857155157
 30
0.0
 10
8.5858102999
 20
13.8620184303
 30
0.0
 10
8.5826611784
 20
13.8677066622
 30
0.0
 10
8.5776742347
 20
13.8768447569
 30
0.0
 10
8.5706151292
 20
13.8901131875
 30
0.0
 10
8.5614223736
 20
13.9081646698
 30
0.0
 10
8.551435075
 20
13.9288616559
 30
0.0
 10
8.5369820272
 20
13.9609312725
 30
0.0
 10
8.5191511863
 20
14.0061235101
 30
0.0
 10
8.5043142028
 20
14.0551750551
 30
0.0
 10
8.4949606741
 20
14.097743081
 30
0.0
 10
8.4895555916
 20
14.1314067585
 30
0.0
 10
8.4862132709
 20
14.1658970657
 30
0.0
 10
8.4850627815
 20
14.2008137651
 30
0.0
 10
8.4862402496
 20
14.2357269691
 30
0.0
 10
8.4896070601
 20
14.2702069469
 30
0.0
 10
8.495031689
 20
14.3038523111
 30
0.0
 10
8.502185594
 20
14.3363216314
 30
0.0
 10
8.5107498392
 20
14.3673293652
 30
0.0
 10
8.5203395741
 20
14.3966436085
 30
0.0
 10
8.5305770677
 20
14.424068909
 30
0.0
 10
8.5410906446
 20
14.449422354
 30
0.0
 10
8.5515086509
 20
14.4725263743
 30
0.0
 10
8.5614830692
 20
14.4931882388
 30
0.0
 10
8.5694160943
 20
14.5087608279
 30
0.0
 10
8.5752624956
 20
14.5198533864
 30
0.0
 10
8.5791540698
 20
14.5270977683
 30
0.0
 10
8.582687561
 20
14.5335719309
 30
0.0
 10
8.5858305099
 20
14.5392484448
 30
0.0
 10
8.5885515013
 20
14.5441015026
 30
0.0
 10
8.5908203036
 20
14.5481064989
 30
0.0
 10
8.5924152917
 20
14.5509046082
 30
0.0
 10
8.5934460952
 20
14.5527043467
 30
0.0
 10
8.5940304673
 20
14.5537218491
 30
0.0
 10
8.594487824
 20
14.55451531
 30
0.0
 10
8.5947882426
 20
14.5550362541
 30
0.0
 10
8.5949646209
 20
14.5553395947
 30
0.0
 10
8.5950519419
 20
14.5554923771
 30
0.0
 10
8.595103583
 20
14.5555770432
 30
0.0
 10
8.5951245782
 20
14.5556158361
 30
0.0
  0
SPLINE
  5
564
100
AcDbEntity
  8
0
100
AcDbSpline
 62
9
  6
CONTINUOUS
 70
0
 71
3
 72
76
 73
72
 74
0
 42
0.0000001
 43
0.0000001
 44
0.0000000001
 40
0.0
 40
0.0
 40
0.0
 40
0.0
 40
0.0000111398
 40
0.0000445247
 40
0.0001001381
 40
0.0001779631
 40
0.0002779829
 40
0.0004001808
 40
0.0007110438
 40
0.0011104176
 40
0.0015981683
 40
0.0021741337
 40
0.0028379791
 40
0.0044277022
 40
0.0063641239
 40
0.0086438772
 40
0.0112624569
 40
0.0142148523
 40
0.017496002
 40
0.0250207599
 40
0.0337859996
 40
0.0437365506
 40
0.0548144406
 40
0.0669598942
 40
0.0801130012
 40
0.0942143543
 40
0.1092060856
 40
0.1250320976
 40
0.1589740489
 40
0.1956396411
 40
0.2346640376
 40
0.2757104782
 40
0.3184593399
 40
0.3625946145
 40
0.4077924173
 40
0.4537130139
 40
0.5000003878
 40
0.5462877307
 40
0.5922082283
 40
0.6374058788
 40
0.6815412237
 40
0.7242902568
 40
0.7653368077
 40
0.8043612391
 40
0.8410266413
 40
0.8749685582
 40
0.9057857956
 40
0.9198871976
 40
0.9330402364
 40
0.9451853328
 40
0.9562629476
 40
0.9662137562
 40
0.9749793171
 40
0.9825041544
 40
0.9857853775
 40
0.9887378496
 40
0.991356369
 40
0.993635781
 40
0.9955715599
 40
0.9971606577
 40
0.9978243141
 40
0.9984002356
 40
0.9988881076
 40
0.999287727
 40
0.9995989099
 40
0.9997212802
 40
0.9998214723
 40
0.9998994634
 40
0.9999552303
 40
0.9999887502
 40
1.0
 40
1.0
 40
1.0
 40
1.0
 10
8.535124668
 20
14.6156158361
 30
0.0
 10
8.5351240042
 20
14.6156127072
 30
0.0
 10
8.53511704
 20
14.6156016282
 30
0.0
 10
8.5351066186
 20
14.6155749765
 30
0.0
 10
8.5350857421
 20
14.6155317394
 30
0.0
 10
8.5350581841
 20
14.6154706826
 30
0.0
 10
8.5350221117
 20
14.6153924274
 30
0.0
 10
8.5349583833
 20
14.6152532716
 30
0.0
 10
8.5348587437
 20
14.6150360083
 30
0.0
 10
8.5347155069
 20
14.6147232757
 30
0.0
 10
8.5345406252
 20
14.6143413105
 30
0.0
 10
8.5343342421
 20
14.6138902512
 30
0.0
 10
8.533996448
 20
14.6131513627
 30
0.0
 10
8.5334969539
 20
14.6120568866
 30
0.0
 10
8.5328063468
 20
14.6105396223
 30
0.0
 10
8.5319953096
 20
14.6087525981
 30
0.0
 10
8.531066505
 20
14.6066986711
 30
0.0
 10
8.5300228789
 20
14.6043811079
 30
0.0
 10
8.5284069791
 20
14.6007763051
 30
0.0
 10
8.5261239806
 20
14.5956414951
 30
0.0
 10
8.5230948999
 20
14.5887427511
 30
0.0
 10
8.5196983773
 20
14.5808912443
 30
0.0
 10
8.5159709085
 20
14.5721256009
 30
0.0
 10
8.5119515366
 20
14.562485106
 30
0.0
 10
8.5076802898
 20
14.5520094124
 30
0.0
 10
8.5031985524
 20
14.5407374323
 30
0.0
 10
8.4985481617
 20
14.5287071675
 30
0.0
 10
8.4920253323
 20
14.5112941139
 30
0.0
 10
8.4837248356
 20
14.487902956
 30
0.0
 10
8.4739830536
 20
14.4579654301
 30
0.0
 10
8.4645802659
 20
14.4257868111
 30
0.0
 10
8.4558539414
 20
14.3916104227
 30
0.0
 10
8.4481351281
 20
14.3556878255
 30
0.0
 10
8.4417356504
 20
14.3182946751
 30
0.0
 10
8.436935779
 20
14.2797426901
 30
0.0
 10
8.4339568801
 20
14.2403859758
 30
0.0
 10
8.4329481726
 20
14.2006157036
 30
0.0
 10
8.4339568378
 20
14.1608454511
 30
0.0
 10
8.4369360866
 20
14.1214888474
 30
0.0
 10
8.4417358584
 20
14.0829369015
 30
0.0
 10
8.4481355905
 20
14.0455437743
 30
0.0
 10
8.4558538288
 20
14.0096209513
 30
0.0
 10
8.4645804067
 20
13.9754445255
 30
0.0
 10
8.4739827882
 20
13.9432658245
 30
0.0
 10
8.4837249301
 20
13.9133283903
 30
0.0
 10
8.4934648558
 20
13.885880476
 30
0.0
 10
8.5015197414
 20
13.8647165706
 30
0.0
 10
8.5076802487
 20
13.849222105
 30
0.0
 10
8.5119514616
 20
13.8387465045
 30
0.0
 10
8.5159709281
 20
13.8291062687
 30
0.0
 10
8.5196985373
 20
13.8203408021
 30
0.0
 10
8.5230949432
 20
13.8124891505
 30
0.0
 10
8.526123927
 20
13.8055901573
 30
0.0
 10
8.5284069828
 20
13.8004552237
 30
0.0
 10
8.5300228801
 20
13.7968503475
 30
0.0
 10
8.5310664767
 20
13.7945327429
 30
0.0
 10
8.5319952472
 20
13.7924789027
 30
0.0
 10
8.5328062731
 20
13.7906922026
 30
0.0
 10
8.5334969426
 20
13.7891754744
 30
0.0
 10
8.5339964855
 20
13.7880814805
 30
0.0
 10
8.534334277
 20
13.7873428618
 30
0.0
 10
8.5345406633
 20
13.7868918392
 30
0.0
 10
8.5347155294
 20
13.786509765
 30
0.0
 10
8.5348587507
 20
13.7861968079
 30
0.0
 10
8.5349583636
 20
13.7859793004
 30
0.0
 10
8.5350220854
 20
13.7858399301
 30
0.0
 10
8.5350581414
 20
13.7857615092
 30
0.0
 10
8.5350857427
 20
13.7857003091
 30
0.0
 10
8.5351065354
 20
13.7856569075
 30
0.0
 10
8.5351171268
 20
13.7856301772
 30
0.0
 10
8.5351239412
 20
13.7856189834
 30
0.0
 10
8.535124668
 20
13.7856158361
 30
0.0
  0
SPLINE
  5
565
100
AcDbEntity
  8
0
100
AcDbSpline
 62
9
  6
CONTINUOUS
 70
0
 71
3
 72
33
 73
29
 74
0
 42
0.0000001
 43
0.0000001
 44
0.0000000001
 40
0.0
 40
0.0
 40
0.0
 40
0.0
 40
0.031384176
 40
0.0627778824
 40
0.0784679514
 40
0.094153204
 40
0.1255121761
 40
0.156862582
 40
0.188180941
 40
0.2194656248
 40
0.2507325923
 40
0.2819812758
 40
0.3132008532
 40
0.375511262
 40
0.4377619178
 40
0.499973912
 40
0.5621929579
 40
0.6244473384
 40
0.6867705557
 40
0.7491858509
 40
0.7804628433
 40
0.8117659335
 40
0.8430968317
 40
0.8744508281
 40
0.9058184508
 40
0.9372055253
 40
0.9686163279
 40
1.0
 40
1.0
 40
1.0
 40
1.0
 10
6.0483580782
 20
21.3900905894
 30
0.0
 10
6.0466351061
 20
21.3880376665
 30
0.0
 10
6.0433595963
 20
21.3837838387
 30
0.0
 10
6.0397695774
 20
21.3781124425
 30
0.0
 10
6.0372556102
 20
21.3733756735
 30
0.0
 10
6.0349921154
 20
21.3685177016
 30
0.0
 10
6.0326253462
 20
21.3622427628
 30
0.0
 10
6.0305192748
 20
21.3544822477
 30
0.0
 10
6.0291475979
 20
21.3465648333
 30
0.0
 10
6.0285427689
 20
21.338558466
 30
0.0
 10
6.0287331958
 20
21.330537464
 30
0.0
 10
6.029708431
 20
21.3225788096
 30
0.0
 10
6.0320410035
 20
21.3121666112
 30
0.0
 10
6.0368369271
 20
21.2996633016
 30
0.0
 10
6.0453014133
 20
21.286031266
 30
0.0
 10
6.0562556177
 20
21.2743070872
 30
0.0
 10
6.0692615802
 20
21.2649173376
 30
0.0
 10
6.0838330386
 20
21.2581855849
 30
0.0
 10
6.0994396149
 20
21.2543674044
 30
0.0
 10
6.1128418256
 20
21.2537647505
 30
0.0
 10
6.1234753021
 20
21.2548448889
 30
0.0
 10
6.1313505096
 20
21.2564286134
 30
0.0
 10
6.1390428467
 20
21.2587622384
 30
0.0
 10
6.1464807908
 20
21.2618263673
 30
0.0
 10
6.1535902343
 20
21.2656020515
 30
0.0
 10
6.1602876821
 20
21.2700779854
 30
0.0
 10
6.1665081099
 20
21.2751950505
 30
0.0
 10
6.1703247084
 20
21.2789739664
 30
0.0
 10
6.172144469
 20
21.2809415452
 30
0.0
  0
SPLINE
  5
566
100
AcDbEntity
  8
0
100
AcDbSpline
 62
9
  6
CONTINUOUS
 70
0
 71
3
 72
33
 73
29
 74
0
 42
0.0000001
 43
0.0000001
 44
0.0000000001
 40
0.0
 40
0.0
 40
0.0
 40
0.0
 40
0.0627042609
 40
0.0940955095
 40
0.1254565994
 40
0.156795259
 40
0.1881171153
 40
0.2194188152
 40
0.2506949403
 40
0.2819464453
 40
0.313173334
 40
0.3754875274
 40
0.4377350068
 40
0.4688808465
 40
0.5000225936
 40
0.5311651559
 40
0.5623126969
 40
0.6245670565
 40
0.6868825478
 40
0.7181076934
 40
0.7493568176
 40
0.7806291592
 40
0.8119259338
 40
0.8432441537
 40
0.8745804591
 40
0.9059370816
 40
0.9373192445
 40
1.0
 40
1.0
 40
1.0
 40
1.0
 10
6.2835417079
 20
22.4373931422
 30
0.0
 10
6.280733632
 20
22.4419933134
 30
0.0
 10
6.275827887
 20
22.4485084051
 30
0.0
 10
6.2681417692
 20
22.4560882842
 30
0.0
 10
6.26184386
 20
22.4611840875
 30
0.0
 10
6.2550843654
 20
22.465636232
 30
0.0
 10
6.2479251009
 20
22.4694017144
 30
0.0
 10
6.2404386927
 20
22.4724511635
 30
0.0
 10
6.2326954878
 20
22.4747511194
 30
0.0
 10
6.2247705501
 20
22.4762830696
 30
0.0
 10
6.2140772957
 20
22.4772869938
 30
0.0
 10
6.2006148166
 20
22.476577316
 30
0.0
 10
6.1875537228
 20
22.4732691379
 30
0.0
 10
6.1776559068
 20
22.4691566535
 30
0.0
 10
6.1705642276
 20
22.4653610288
 30
0.0
 10
6.1638737179
 20
22.4608958647
 30
0.0
 10
6.1555798295
 20
22.4541055528
 30
0.0
 10
6.1465054058
 20
22.4441448137
 30
0.0
 10
6.139532161
 20
22.4326069854
 30
0.0
 10
6.1353732825
 20
22.4227048222
 30
0.0
 10
6.1329878084
 20
22.4149944413
 30
0.0
 10
6.1313630938
 20
22.4070829819
 30
0.0
 10
6.1305211278
 20
22.3990443214
 30
0.0
 10
6.1304647806
 20
22.3909563791
 30
0.0
 10
6.1312007068
 20
22.3828968606
 30
0.0
 10
6.1327223215
 20
22.3749411198
 30
0.0
 10
6.1357833293
 20
22.3645921242
 30
0.0
 10
6.1392155595
 20
22.3571987718
 30
0.0
 10
6.1419370717
 20
22.3525492059
 30
0.0
  0
SPLINE
  5
567
100
AcDbEntity
  8
0
100
AcDbSpline
 62
9
  6
CONTINUOUS
 70
0
 71
3
 72
32
 73
28
 74
0
 42
0.0000001
 43
0.0000001
 44
0.0000000001
 40
0.0
 40
0.0
 40
0.0
 40
0.0
 40
0.0313954855
 40
0.0627987833
 40
0.0784926832
 40
0.0941815191
 40
0.125550402
 40
0.1569188236
 40
0.1882613153
 40
0.2195681883
 40
0.2508507735
 40
0.313304674
 40
0.3756683574
 40
0.4379783408
 40
0.4691418715
 40
0.5002966407
 40
0.5314507203
 40
0.5626051484
 40
0.6248623748
 40
0.6871649243
 40
0.718371172
 40
0.7495975049
 40
0.8120548791
 40
0.8433451515
 40
0.8746597972
 40
0.9372997038
 40
1.0
 40
1.0
 40
1.0
 40
1.0
 10
6.142773197
 20
22.3511983564
 30
0.0
 10
6.1440975657
 20
22.3490952608
 30
0.0
 10
6.1469017384
 20
22.3449835919
 30
0.0
 10
6.1508178698
 20
22.3401483936
 30
0.0
 10
6.1542079232
 20
22.3365111876
 30
0.0
 10
6.1577699875
 20
22.3330462827
 30
0.0
 10
6.1625252761
 20
22.3290396089
 30
0.0
 10
6.1686393748
 20
22.3247705566
 30
0.0
 10
6.1750958191
 20
22.3210495502
 30
0.0
 10
6.1818492061
 20
22.3179127588
 30
0.0
 10
6.1911777432
 20
22.3145682947
 30
0.0
 10
6.203344851
 20
22.3120098199
 30
0.0
 10
6.2182298602
 20
22.3116383989
 30
0.0
 10
6.2304933422
 20
22.3135193389
 30
0.0
 10
6.239970638
 20
22.3163003055
 30
0.0
 10
6.2468628726
 20
22.3190217325
 30
0.0
 10
6.2534802038
 20
22.3223542287
 30
0.0
 10
6.261864118
 20
22.3275665991
 30
0.0
 10
6.2714173064
 20
22.3354677117
 30
0.0
 10
6.279416389
 20
22.3449430484
 30
0.0
 10
6.2847268068
 20
22.3532820383
 30
0.0
 10
6.2892703138
 20
22.3620748055
 30
0.0
 10
6.2926047434
 20
22.3714574006
 30
0.0
 10
6.2946282714
 20
22.381159602
 30
0.0
 10
6.2957734847
 20
22.3910201324
 30
0.0
 10
6.2955528152
 20
22.4034869324
 30
0.0
 10
6.2935869972
 20
22.4132791256
 30
0.0
 10
6.292156633
 20
22.418032083
 30
0.0
  0
SPLINE
  5
568
100
AcDbEntity
  8
0
100
AcDbSpline
 62
9
  6
CONTINUOUS
 70
0
 71
3
 72
9
 73
5
 74
0
 42
0.0000001
 43
0.0000001
 44
0.0000000001
 40
0.0
 40
0.0
 40
0.0
 40
0.0
 40
0.2502221138
 40
1.0
 40
1.0
 40
1.0
 40
1.0
 10
6.292156633
 20
22.418032083
 30
0.0
 10
6.2917072369
 20
22.4195253811
 30
0.0
 10
6.2897370617
 20
22.4254400223
 30
0.0
 10
6.2871023138
 20
22.4311287596
 30
0.0
 10
6.2848195106
 20
22.4352060251
 30
0.0
  0
SPLINE
  5
569
100
AcDbEntity
  8
0
100
AcDbSpline
 62
9
  6
CONTINUOUS
 70
0
 71
3
 72
36
 73
32
 74
0
 42
0.0000001
 43
0.0000001
 44
0.0000000001
 40
0.0
 40
0.0
 40
0.0
 40
0.0
 40
0.031378278
 40
0.0627650663
 40
0.0784517214
 40
0.0941339185
 40
0.1254870438
 40
0.1568313701
 40
0.1881435892
 40
0.2194225434
 40
0.2506831309
 40
0.281925202
 40
0.3131385068
 40
0.3754349949
 40
0.4376719849
 40
0.4688076455
 40
0.4999436253
 40
0.5310810261
 40
0.5622212508
 40
0.5933702363
 40
0.6245335101
 40
0.6868424488
 40
0.7492434169
 40
0.7805132834
 40
0.8118091443
 40
0.8431327923
 40
0.8744796286
 40
0.9058401112
 40
0.9372198472
 40
0.9686233308
 40
1.0
 40
1.0
 40
1.0
 40
1.0
 10
5.898127139
 20
21.2576877546
 30
0.0
 10
5.8959609216
 20
21.2561096661
 30
0.0
 10
5.8917560139
 20
21.2527722541
 30
0.0
 10
5.886899619
 20
21.2481393901
 30
0.0
 10
5.8833125276
 20
21.2441534985
 30
0.0
 10
5.8799394852
 20
21.2399888343
 30
0.0
 10
5.8761238949
 20
21.2344736793
 30
0.0
 10
5.8722048333
 20
21.2274522045
 30
0.0
 10
5.8689630973
 20
21.2200999291
 30
0.0
 10
5.8664434213
 20
21.2124766452
 30
0.0
 10
5.8646891623
 20
21.2046478231
 30
0.0
 10
5.8637102601
 20
21.1966899833
 30
0.0
 10
5.863453875
 20
21.1860230543
 30
0.0
 10
5.8650828667
 20
21.1727331528
 30
0.0
 10
5.86918869
 20
21.1599954267
 30
0.0
 10
5.8738997123
 20
21.1504449833
 30
0.0
 10
5.8781165901
 20
21.1436568715
 30
0.0
 10
5.8829691962
 20
21.1373079443
 30
0.0
 10
5.8884136015
 20
21.1314572128
 30
0.0
 10
5.8943963159
 20
21.1261539461
 30
0.0
 10
5.903015575
 20
21.1198850731
 30
0.0
 10
5.9148767627
 20
21.1136449966
 30
0.0
 10
5.927733016
 20
21.109820851
 30
0.0
 10
5.938311602
 20
21.1082969095
 30
0.0
 10
5.9463355242
 20
21.1079290607
 30
0.0
 10
5.9543634122
 20
21.1083330241
 30
0.0
 10
5.962321133
 20
21.1095072434
 30
0.0
 10
5.9701322265
 20
21.1114511731
 30
0.0
 10
5.9777129939
 20
21.1141739937
 30
0.0
 10
5.9849859206
 20
21.1176344627
 30
0.0
 10
5.9896029604
 20
21.1203778351
 30
0.0
 10
5.9918445331
 20
21.1218466703
 30
0.0
  0
SPLINE
  5
56A
100
AcDbEntity
  8
0
100
AcDbSpline
 62
9
  6
CONTINUOUS
 70
0
 71
3
 72
34
 73
30
 74
0
 42
0.0000001
 43
0.0000001
 44
0.0000000001
 40
0.0
 40
0.0
 40
0.0
 40
0.0
 40
0.0313627234
 40
0.0627668771
 40
0.0941450375
 40
0.1255004392
 40
0.1568487273
 40
0.188174484
 40
0.2194668164
 40
0.2507366205
 40
0.3131319337
 40
0.3754322739
 40
0.4065999428
 40
0.437748289
 40
0.4688840874
 40
0.5000217725
 40
0.5311617595
 40
0.562302456
 40
0.6245494727
 40
0.6868605359
 40
0.7492621823
 40
0.7805393255
 40
0.8118362898
 40
0.8431559208
 40
0.8744982485
 40
0.9058565039
 40
0.9372372084
 40
0.968637975
 40
1.0
 40
1.0
 40
1.0
 40
1.0
 10
6.2548242867
 20
21.9714483542
 30
0.0
 10
6.2547015583
 20
21.9741541968
 30
0.0
 10
6.2547199158
 20
21.9795851114
 30
0.0
 10
6.2555476967
 20
21.9876868689
 30
0.0
 10
6.2572029663
 20
21.9956617604
 30
0.0
 10
6.2596597441
 20
22.0034207558
 30
0.0
 10
6.2628499569
 20
22.0109017865
 30
0.0
 10
6.2667219373
 20
22.0180472892
 30
0.0
 10
6.2712569218
 20
22.0247854827
 30
0.0
 10
6.2781496975
 20
22.0331086034
 30
0.0
 10
6.2882653246
 20
22.0421500903
 30
0.0
 10
6.2999681624
 20
22.0489847145
 30
0.0
 10
6.3099504554
 20
22.0530422234
 30
0.0
 10
6.3176966077
 20
22.0553555977
 30
0.0
 10
6.3256297318
 20
22.0568970057
 30
0.0
 10
6.3336758697
 20
22.0576428216
 30
0.0
 10
6.3417573181
 20
22.057596859
 30
0.0
 10
6.3524680731
 20
22.0564778603
 30
0.0
 10
6.365585928
 20
22.0531305928
 30
0.0
 10
6.3802631095
 20
22.0461628688
 30
0.0
 10
6.3911175804
 20
22.0380194805
 30
0.0
 10
6.3987213496
 20
22.0303398914
 30
0.0
 10
6.4038480612
 20
22.024039735
 30
0.0
 10
6.4083448637
 20
22.0172699386
 30
0.0
 10
6.4121670315
 20
22.0100911552
 30
0.0
 10
6.4152682748
 20
22.002566346
 30
0.0
 10
6.4175906048
 20
21.9947597772
 30
0.0
 10
6.4191159504
 20
21.9867608052
 30
0.0
 10
6.4196220667
 20
21.9813547067
 30
0.0
 10
6.419749577
 20
21.9786491456
 30
0.0
  0
SPLINE
  5
56B
100
AcDbEntity
  8
0
100
AcDbSpline
 62
9
  6
CONTINUOUS
 70
0
 71
3
 72
40
 73
36
 74
0
 42
0.0000001
 43
0.0000001
 44
0.0000000001
 40
0.0
 40
0.0
 40
0.0
 40
0.0
 40
0.0313578249
 40
0.0627582106
 40
0.0784453565
 40
0.0941164465
 40
0.1254502136
 40
0.1411304394
 40
0.1568117004
 40
0.1881329417
 40
0.2193905762
 40
0.2506367917
 40
0.2818964148
 40
0.3131343833
 40
0.3443308653
 40
0.3755091013
 40
0.4066852512
 40
0.437842999
 40
0.4689696387
 40
0.5000887192
 40
0.5312338683
 40
0.5624034037
 40
0.6246252757
 40
0.6557754797
 40
0.6869836513
 40
0.7182435387
 40
0.7495032032
 40
0.7807361318
 40
0.8119911138
 40
0.8433126336
 40
0.8589911987
 40
0.8746658488
 40
0.905996304
 40
0.9373549427
 40
1.0
 40
1.0
 40
1.0
 40
1.0
 10
6.3800616019
 20
22.2158151295
 30
0.0
 10
6.380874902
 20
22.2132310299
 30
0.0
 10
6.382217867
 20
22.2079653569
 30
0.0
 10
6.3831745828
 20
22.2012421878
 30
0.0
 10
6.3834952559
 20
22.1958273823
 30
0.0
 10
6.3835223194
 20
22.1904091987
 30
0.0
 10
6.3831370522
 20
22.1849975696
 30
0.0
 10
6.3823891782
 20
22.1796319175
 30
0.0
 10
6.3814192964
 20
22.1743028546
 30
0.0
 10
6.3797847071
 20
22.167732417
 30
0.0
 10
6.3770751003
 20
22.1600776057
 30
0.0
 10
6.373553823
 20
22.1527650803
 30
0.0
 10
6.3692979032
 20
22.145858819
 30
0.0
 10
6.3643856896
 20
22.1394092956
 30
0.0
 10
6.3588810364
 20
22.1334674902
 30
0.0
 10
6.3528383563
 20
22.1280820183
 30
0.0
 10
6.3463135997
 20
22.1232974383
 30
0.0
 10
6.3393605421
 20
22.1191673459
 30
0.0
 10
6.3320327296
 20
22.1157546982
 30
0.0
 10
6.3243949773
 20
22.113113015
 30
0.0
 10
6.3165328479
 20
22.1112277069
 30
0.0
 10
6.3058730561
 20
22.1096984854
 30
0.0
 10
6.2950277073
 20
22.1096793127
 30
0.0
 10
6.2843810433
 20
22.1113611906
 30
0.0
 10
6.276544191
 20
22.1134119388
 30
0.0
 10
6.268922436
 20
22.1161778536
 30
0.0
 10
6.2615805539
 20
22.1196263747
 30
0.0
 10
6.2546185975
 20
22.1237952696
 30
0.0
 10
6.248154269
 20
22.1287090264
 30
0.0
 10
6.2432044708
 20
22.133329973
 30
0.0
 10
6.239506266
 20
22.1372868913
 30
0.0
 10
6.2359835542
 20
22.1414015312
 30
0.0
 10
6.2319318097
 20
22.1468404706
 30
0.0
 10
6.2263229834
 20
22.1561118859
 30
0.0
 10
6.2231976799
 20
22.1637068581
 30
0.0
 10
6.2217773301
 20
22.168929182
 30
0.0
  0
SPLINE
  5
56C
100
AcDbEntity
  8
0
100
AcDbSpline
 62
9
  6
CONTINUOUS
 70
0
 71
3
 72
36
 73
32
 74
0
 42
0.0000001
 43
0.0000001
 44
0.0000000001
 40
0.0
 40
0.0
 40
0.0
 40
0.0
 40
0.0313579316
 40
0.0627574775
 40
0.0941314579
 40
0.1254823743
 40
0.1568262831
 40
0.1881482277
 40
0.2194369075
 40
0.2507026229
 40
0.2819509805
 40
0.3131694118
 40
0.3754625086
 40
0.4066266061
 40
0.4377715535
 40
0.4689030662
 40
0.5000358743
 40
0.5311712439
 40
0.5623070048
 40
0.6245424322
 40
0.6868422184
 40
0.7180585351
 40
0.7493048498
 40
0.7805751477
 40
0.8118649172
 40
0.8431769966
 40
0.8745121098
 40
0.9058636949
 40
0.9372357064
 40
0.9686314888
 40
1.0
 40
1.0
 40
1.0
 40
1.0
 10
6.2217773301
 20
22.168929182
 30
0.0
 10
6.2210072904
 20
22.1715127272
 30
0.0
 10
6.219716167
 20
22.176761539
 30
0.0
 10
6.2185592106
 20
22.1847840395
 30
0.0
 10
6.2182275561
 20
22.1928836936
 30
0.0
 10
6.2187186605
 20
22.2009691302
 30
0.0
 10
6.2199822295
 20
22.2089644365
 30
0.0
 10
6.2219820006
 20
22.2168024399
 30
0.0
 10
6.2247161584
 20
22.2244093753
 30
0.0
 10
6.2281845683
 20
22.2317042434
 30
0.0
 10
6.2323585637
 20
22.2386135943
 30
0.0
 10
6.2387959076
 20
22.247210268
 30
0.0
 10
6.2464874037
 20
22.2547913327
 30
0.0
 10
6.2551144886
 20
22.2611605918
 30
0.0
 10
6.2620130144
 20
22.2653025874
 30
0.0
 10
6.2692797163
 20
22.268750828
 30
0.0
 10
6.2768511383
 20
22.2714630007
 30
0.0
 10
6.2846516944
 20
22.2734240805
 30
0.0
 10
6.2952523284
 20
22.2750080689
 30
0.0
 10
6.3087230614
 20
22.2750511342
 30
0.0
 10
6.32196339
 20
22.2725135025
 30
0.0
 10
6.3320947968
 20
22.2689463227
 30
0.0
 10
6.3394073907
 20
22.2655290461
 30
0.0
 10
6.3463574632
 20
22.2614135134
 30
0.0
 10
6.3528802214
 20
22.2566400124
 30
0.0
 10
6.3589179312
 20
22.2512579701
 30
0.0
 10
6.3644125758
 20
22.2453150685
 30
0.0
 10
6.3693051504
 20
22.2388602677
 30
0.0
 10
6.3735270813
 20
22.2319409313
 30
0.0
 10
6.3770294306
 20
22.2246311872
 30
0.0
 10
6.3788909601
 20
22.2195567643
 30
0.0
 10
6.3797018136
 20
22.2169847829
 30
0.0
  0
SPLINE
  5
56D
100
AcDbEntity
  8
0
100
AcDbSpline
 62
9
  6
CONTINUOUS
 70
0
 71
3
 72
27
 73
23
 74
0
 42
0.0000001
 43
0.0000001
 44
0.0000000001
 40
0.0
 40
0.0
 40
0.0
 40
0.0
 40
0.0313780793
 40
0.0627931003
 40
0.0941973609
 40
0.1255812209
 40
0.1882329331
 40
0.2508012644
 40
0.3132848168
 40
0.375682104
 40
0.4380106126
 40
0.500293219
 40
0.5625540926
 40
0.6248275109
 40
0.6560086404
 40
0.6872027985
 40
0.7495808554
 40
0.8120423493
 40
0.8433379487
 40
0.8746582021
 40
0.9372911229
 40
1.0
 40
1.0
 40
1.0
 40
1.0
 10
4.9340384047
 20
21.2838907291
 30
0.0
 10
4.9320665616
 20
21.2853850156
 30
0.0
 10
4.9279936382
 20
21.2882121964
 30
0.0
 10
4.9215446908
 20
21.2919146197
 30
0.0
 10
4.9147871611
 20
21.2950241817
 30
0.0
 10
4.9054497847
 20
21.2983198806
 30
0.0
 10
4.8932876373
 20
21.3008379154
 30
0.0
 10
4.8784146656
 20
21.301211262
 30
0.0
 10
4.8637320792
 20
21.2989222582
 30
0.0
 10
4.8497107788
 20
21.2940621963
 30
0.0
 10
4.8367915008
 20
21.2867932895
 30
0.0
 10
4.8253782323
 20
21.2773500862
 30
0.0
 10
4.8158302333
 20
21.266032482
 30
0.0
 10
4.809676146
 20
21.2553264021
 30
0.0
 10
4.8059540119
 20
21.2462180636
 30
0.0
 10
4.8030602895
 20
21.2368047849
 30
0.0
 10
4.8010348166
 20
21.2245991273
 30
0.0
 10
4.8012202287
 20
21.2122193494
 30
0.0
 10
4.8026899763
 20
21.2024557172
 30
0.0
 10
4.8050359023
 20
21.1928506615
 30
0.0
 10
4.8095712545
 20
21.1812870853
 30
0.0
 10
4.814801928
 20
21.1728292331
 30
0.0
 10
4.8177688064
 20
21.1688738592
 30
0.0
  0
SPLINE
  5
56E
100
AcDbEntity
  8
0
100
AcDbSpline
 62
9
  6
CONTINUOUS
 70
0
 71
3
 72
10
 73
6
 74
0
 42
0.0000001
 43
0.0000001
 44
0.0000000001
 40
0.0
 40
0.0
 40
0.0
 40
0.0
 40
0.49972449
 40
0.7499641269
 40
1.0
 40
1.0
 40
1.0
 40
1.0
 10
5.6536560484
 20
22.7272204132
 30
0.0
 10
5.6498882133
 20
22.7282584621
 30
0.0
 10
5.6443319955
 20
22.7302174131
 30
0.0
 10
5.6372751649
 20
22.733599111
 30
0.0
 10
5.6338784062
 20
22.7355500854
 30
0.0
 10
5.6322200126
 20
22.7365862182
 30
0.0
  0
SPLINE
  5
56F
100
AcDbEntity
  8
0
100
AcDbSpline
 62
9
  6
CONTINUOUS
 70
0
 71
3
 72
33
 73
29
 74
0
 42
0.0000001
 43
0.0000001
 44
0.0000000001
 40
0.0
 40
0.0
 40
0.0
 40
0.0
 40
0.0626690645
 40
0.0940164264
 40
0.1253346909
 40
0.1566253878
 40
0.1879013763
 40
0.2191573953
 40
0.2503833072
 40
0.3127174914
 40
0.3438978268
 40
0.3750606269
 40
0.4062094532
 40
0.4373575099
 40
0.4995978136
 40
0.5618597733
 40
0.6241830176
 40
0.6553955385
 40
0.6866297242
 40
0.7178914628
 40
0.7491757714
 40
0.8117382809
 40
0.8430814188
 40
0.8744425509
 40
0.9058179304
 40
0.9372173767
 40
0.9686295212
 40
1.0
 40
1.0
 40
1.0
 40
1.0
 10
5.6322200126
 20
22.7365862182
 30
0.0
 10
5.6280450981
 20
22.7391946254
 30
0.0
 10
5.6221293345
 20
22.7437004926
 30
0.0
 10
5.6151182328
 20
22.7506226972
 30
0.0
 10
5.6103246954
 20
22.7562480662
 30
0.0
 10
5.6060520751
 20
22.7622712218
 30
0.0
 10
5.6023485763
 20
22.7686547475
 30
0.0
 10
5.5992396916
 20
22.775343072
 30
0.0
 10
5.5959311338
 20
22.7845839188
 30
0.0
 10
5.5938987592
 20
22.7942323034
 30
0.0
 10
5.593137955
 20
22.8040051905
 30
0.0
 10
5.5932069961
 20
22.8113588439
 30
0.0
 10
5.5939282827
 20
22.8186750435
 30
0.0
 10
5.5957669011
 20
22.8282944755
 30
0.0
 10
5.5996731865
 20
22.8399560128
 30
0.0
 10
5.6067650889
 20
22.8528872832
 30
0.0
 10
5.6144772008
 20
22.8624794124
 30
0.0
 10
5.6215908537
 20
22.8692376123
 30
0.0
 10
5.6273756893
 20
22.8738064201
 30
0.0
 10
5.6335529577
 20
22.8778388497
 30
0.0
 10
5.6422360951
 20
22.8824624438
 30
0.0
 10
5.6515109192
 20
22.8859111401
 30
0.0
 10
5.6611141757
 20
22.8880996618
 30
0.0
 10
5.6684470723
 20
22.8890982622
 30
0.0
 10
5.6758443848
 20
22.8894320542
 30
0.0
 10
5.6832451079
 20
22.8890749492
 30
0.0
 10
5.6905813287
 20
22.8880509922
 30
0.0
 10
5.6953955417
 20
22.8869491651
 30
0.0
 10
5.6977723947
 20
22.8862988554
 30
0.0
  0
SPLINE
  5
570
100
AcDbEntity
  8
0
100
AcDbSpline
 62
9
  6
CONTINUOUS
 70
0
 71
3
 72
36
 73
32
 74
0
 42
0.0000001
 43
0.0000001
 44
0.0000000001
 40
0.0
 40
0.0
 40
0.0
 40
0.0
 40
0.0313579316
 40
0.0627574775
 40
0.094131458
 40
0.1254823744
 40
0.1568262831
 40
0.1881482278
 40
0.2194369076
 40
0.2507026231
 40
0.2819509806
 40
0.313169412
 40
0.3754625088
 40
0.4066266063
 40
0.4377715538
 40
0.4689030665
 40
0.5000358746
 40
0.5311712442
 40
0.5623070051
 40
0.6245424327
 40
0.6868422189
 40
0.7180585355
 40
0.7493048503
 40
0.7805751484
 40
0.8118649179
 40
0.8431769971
 40
0.8745121101
 40
0.9058636953
 40
0.9372357066
 40
0.9686314888
 40
1.0
 40
1.0
 40
1.0
 40
1.0
 10
5.2563235331
 20
22.737624932
 30
0.0
 10
5.2536925661
 20
22.7370369871
 30
0.0
 10
5.2483664759
 20
22.7361151474
 30
0.0
 10
5.2402828126
 20
22.7355206307
 30
0.0
 10
5.2321797538
 20
22.7357547876
 30
0.0
 10
5.2241482706
 20
22.7368087073
 30
0.0
 10
5.2162605826
 20
22.7386269227
 30
0.0
 10
5.2085811691
 20
22.7411685741
 30
0.0
 10
5.2011834891
 20
22.7444267047
 30
0.0
 10
5.194148335
 20
22.7483955301
 30
0.0
 10
5.1875469781
 20
22.7530413298
 30
0.0
 10
5.179420292
 20
22.7600626665
 30
0.0
 10
5.1723942261
 20
22.7682642549
 30
0.0
 10
5.1666422773
 20
22.7773146218
 30
0.0
 10
5.1629915884
 20
22.7844852742
 30
0.0
 10
5.1600586471
 20
22.7919748119
 30
0.0
 10
5.1578812369
 20
22.7997169819
 30
0.0
 10
5.1564690735
 20
22.8076353343
 30
0.0
 10
5.1556284067
 20
22.8183206392
 30
0.0
 10
5.1565251174
 20
22.8317615622
 30
0.0
 10
5.159980166
 20
22.8447926219
 30
0.0
 10
5.1642453879
 20
22.8546505151
 30
0.0
 10
5.1681644413
 20
22.8617069186
 30
0.0
 10
5.1727547614
 20
22.868352976
 30
0.0
 10
5.1779716388
 20
22.8745268626
 30
0.0
 10
5.1837617398
 20
22.8801744328
 30
0.0
 10
5.190073452
 20
22.8852411366
 30
0.0
 10
5.1968538183
 20
22.8896715285
 30
0.0
 10
5.2040508068
 20
22.8934005058
 30
0.0
 10
5.2115870565
 20
22.8963844211
 30
0.0
 10
5.2167789719
 20
22.8978874425
 30
0.0
 10
5.2194012503
 20
22.8985169088
 30
0.0
  0
SPLINE
  5
571
100
AcDbEntity
  8
0
100
AcDbSpline
 62
9
  6
CONTINUOUS
 70
0
 71
3
 72
35
 73
31
 74
0
 42
0.0000001
 43
0.0000001
 44
0.0000000001
 40
0.0
 40
0.0
 40
0.0
 40
0.0
 40
0.0313751085
 40
0.0627764514
 40
0.0941466974
 40
0.1254989424
 40
0.1568433528
 40
0.1881628617
 40
0.2194494664
 40
0.2507157055
 40
0.2819632656
 40
0.3131796219
 40
0.3754757802
 40
0.4066404339
 40
0.4377859242
 40
0.4689196032
 40
0.5000554126
 40
0.5311934298
 40
0.5623321551
 40
0.624576311
 40
0.6868840585
 40
0.7492801131
 40
0.780553911
 40
0.81184713
 40
0.8431626018
 40
0.8745009035
 40
0.9058554382
 40
0.9372305165
 40
0.9686290214
 40
1.0
 40
1.0
 40
1.0
 40
1.0
 10
4.7482380323
 20
22.3877365067
 30
0.0
 10
4.7467207506
 20
22.3855262062
 30
0.0
 10
4.743469213
 20
22.3812474709
 30
0.0
 10
4.7379903527
 20
22.3753391406
 30
0.0
 10
4.7319366866
 20
22.3700223933
 30
0.0
 10
4.7253880729
 20
22.3653398077
 30
0.0
 10
4.7184303799
 20
22.3613006409
 30
0.0
 10
4.7111341166
 20
22.3579243253
 30
0.0
 10
4.703555343
 20
22.3552584066
 30
0.0
 10
4.6957566154
 20
22.3533532716
 30
0.0
 10
4.6878130995
 20
22.3522274474
 30
0.0
 10
4.6771480174
 20
22.3517812611
 30
0.0
 10
4.6664762547
 20
22.3529236378
 30
0.0
 10
4.6561430016
 20
22.3555373857
 30
0.0
 10
4.6486100231
 20
22.3582243329
 30
0.0
 10
4.6413766883
 20
22.3616297646
 30
0.0
 10
4.6345133803
 20
22.365728773
 30
0.0
 10
4.6280788837
 20
22.3704741947
 30
0.0
 10
4.6201597808
 20
22.3776012843
 30
0.0
 10
4.6115962315
 20
22.3878974718
 30
0.0
 10
4.6038555059
 20
22.4019821664
 30
0.0
 10
4.5998339807
 20
22.4147882523
 30
0.0
 10
4.5981408775
 20
22.4253445104
 30
0.0
 10
4.5976378906
 20
22.4333639121
 30
0.0
 10
4.5979039247
 20
22.4413992464
 30
0.0
 10
4.5989393076
 20
22.4493777042
 30
0.0
 10
4.6007445915
 20
22.4572236595
 30
0.0
 10
4.6033275397
 20
22.4648554658
 30
0.0
 10
4.6066621343
 20
22.4721898241
 30
0.0
 10
4.6093379156
 20
22.476848714
 30
0.0
 10
4.6107782754
 20
22.4791094758
 30
0.0
  0
SPLINE
  5
572
100
AcDbEntity
  8
0
100
AcDbSpline
 62
9
  6
CONTINUOUS
 70
0
 71
3
 72
35
 73
31
 74
0
 42
0.0000001
 43
0.0000001
 44
0.0000000001
 40
0.0
 40
0.0
 40
0.0
 40
0.0
 40
0.0313750235
 40
0.0627760437
 40
0.0941456805
 40
0.1254976115
 40
0.1568414933
 40
0.1881599446
 40
0.2194454416
 40
0.2507109662
 40
0.2819572755
 40
0.3131718651
 40
0.3754657528
 40
0.4066291227
 40
0.437773255
 40
0.4689065489
 40
0.5000424249
 40
0.5311802234
 40
0.562319174
 40
0.6245653632
 40
0.6868748133
 40
0.7492762145
 40
0.7805520155
 40
0.811847619
 40
0.8431658221
 40
0.8745064709
 40
0.9058628546
 40
0.9372418106
 40
0.9686403853
 40
1.0
 40
1.0
 40
1.0
 40
1.0
 10
4.6592339068
 20
22.2083755961
 30
0.0
 10
4.6582919502
 20
22.2058519275
 30
0.0
 10
4.6561608614
 20
22.2008905747
 30
0.0
 10
4.6522505391
 20
22.193801388
 30
0.0
 10
4.6476328969
 20
22.1871521414
 30
0.0
 10
4.6423767765
 20
22.1810037554
 30
0.0
 10
4.6365642884
 20
22.1753862323
 30
0.0
 10
4.6302594081
 20
22.1703365662
 30
0.0
 10
4.6235055524
 20
22.1659155529
 30
0.0
 10
4.6163523421
 20
22.1621880102
 30
0.0
 10
4.6088699135
 20
22.1591893317
 30
0.0
 10
4.5985674867
 20
22.1562086648
 30
0.0
 10
4.5878783112
 20
22.154781947
 30
0.0
 10
4.5771695611
 20
22.1548783885
 30
0.0
 10
4.5691774846
 20
22.1557161344
 30
0.0
 10
4.5613086475
 20
22.1573316316
 30
0.0
 10
4.5536379911
 20
22.1597147111
 30
0.0
 10
4.5462348755
 20
22.162833768
 30
0.0
 10
4.5368226794
 20
22.167933552
 30
0.0
 10
4.5260389397
 20
22.1759835253
 30
0.0
 10
4.5151834796
 20
22.1879413293
 30
0.0
 10
4.5082738037
 20
22.1995252872
 30
0.0
 10
4.5041685554
 20
22.2094530008
 30
0.0
 10
4.5018184875
 20
22.2171775898
 30
0.0
 10
4.5002199698
 20
22.225096678
 30
0.0
 10
4.4993915023
 20
22.2331385446
 30
0.0
 10
4.4993521112
 20
22.2412287526
 30
0.0
 10
4.5001310699
 20
22.2492872337
 30
0.0
 10
4.5017106309
 20
22.2572260658
 30
0.0
 10
4.5032586491
 20
22.2623965653
 30
0.0
 10
4.5041486043
 20
22.2649376358
 30
0.0
  0
SPLINE
  5
573
100
AcDbEntity
  8
0
100
AcDbSpline
 62
9
  6
CONTINUOUS
 70
0
 71
3
 72
31
 73
27
 74
0
 42
0.0000001
 43
0.0000001
 44
0.0000000001
 40
0.0
 40
0.0
 40
0.0
 40
0.0
 40
0.0313984692
 40
0.0628051308
 40
0.078500602
 40
0.0941907259
 40
0.1255621617
 40
0.1569342841
 40
0.1882818551
 40
0.2195934688
 40
0.2508798936
 40
0.3133450276
 40
0.3757195392
 40
0.4380412316
 40
0.4692097792
 40
0.5003680196
 40
0.5315250434
 40
0.5626827053
 40
0.6249447538
 40
0.6872484688
 40
0.7496153128
 40
0.8120688826
 40
0.8433572031
 40
0.8746678885
 40
0.9373006375
 40
1.0
 40
1.0
 40
1.0
 40
1.0
 10
4.7902118018
 20
21.4254516451
 30
0.0
 10
4.7886252258
 20
21.4273294946
 30
0.0
 10
4.785314376
 20
21.4309725121
 30
0.0
 10
4.7808190099
 20
21.4351759205
 30
0.0
 10
4.7770048406
 20
21.4382806999
 30
0.0
 10
4.7730469279
 20
21.4411952673
 30
0.0
 10
4.7678486677
 20
21.444482696
 30
0.0
 10
4.7612863408
 20
21.4478504141
 30
0.0
 10
4.754464538
 20
21.4506426857
 30
0.0
 10
4.7474317078
 20
21.4528314574
 30
0.0
 10
4.7378490665
 20
21.454896887
 30
0.0
 10
4.7255874706
 20
21.4558382218
 30
0.0
 10
4.7109392408
 20
21.4543088015
 30
0.0
 10
4.6991435935
 20
21.4509244297
 30
0.0
 10
4.6901868451
 20
21.447022005
 30
0.0
 10
4.6837558271
 20
21.4435056359
 30
0.0
 10
4.6776666576
 20
21.4394277107
 30
0.0
 10
4.6700665012
 20
21.4332973235
 30
0.0
 10
4.661630772
 20
21.4243981589
 30
0.0
 10
4.6535427735
 20
21.4121104941
 30
0.0
 10
4.6477374741
 20
21.3985753436
 30
0.0
 10
4.6449839776
 20
21.386594113
 30
0.0
 10
4.6440813807
 20
21.3768335809
 30
0.0
 10
4.6440526609
 20
21.3670168951
 30
0.0
 10
4.6456418472
 20
21.3547898333
 30
0.0
 10
4.6486262615
 20
21.3453764157
 30
0.0
 10
4.6505348504
 20
21.3408535415
 30
0.0
  0
SPLINE
  5
574
100
AcDbEntity
  8
0
100
AcDbSpline
 62
9
  6
CONTINUOUS
 70
0
 71
3
 72
9
 73
5
 74
0
 42
0.0000001
 43
0.0000001
 44
0.0000000001
 40
0.0
 40
0.0
 40
0.0
 40
0.0
 40
0.250226647
 40
1.0
 40
1.0
 40
1.0
 40
1.0
 10
4.6515820124
 20
21.3384809288
 30
0.0
 10
4.6522348673
 20
21.3370646525
 30
0.0
 10
4.6550088001
 20
21.3314815656
 30
0.0
 10
4.6584091817
 20
21.3262144176
 30
0.0
 10
4.6612374463
 20
21.3224946586
 30
0.0
  0
SPLINE
  5
575
100
AcDbEntity
  8
0
100
AcDbSpline
 62
9
  6
CONTINUOUS
 70
0
 71
3
 72
36
 73
32
 74
0
 42
0.0000001
 43
0.0000001
 44
0.0000000001
 40
0.0
 40
0.0
 40
0.0
 40
0.0
 40
0.0313650979
 40
0.0627548192
 40
0.0784434873
 40
0.0941260442
 40
0.1254784532
 40
0.1568258854
 40
0.1881431982
 40
0.2194252937
 40
0.2506869568
 40
0.2819315389
 40
0.3131481413
 40
0.3754463809
 40
0.4376855242
 40
0.4688216641
 40
0.4999575135
 40
0.5310946046
 40
0.5622342113
 40
0.5933824316
 40
0.6245446571
 40
0.6868500906
 40
0.7492476968
 40
0.780516575
 40
0.8118113907
 40
0.8431341346
 40
0.8744803737
 40
0.905840506
 40
0.9372199284
 40
0.9686233707
 40
1.0
 40
1.0
 40
1.0
 40
1.0
 10
4.7491029035
 20
22.3890218525
 30
0.0
 10
4.7505642177
 20
22.3912868582
 30
0.0
 10
4.7533060896
 20
22.3959394044
 30
0.0
 10
4.7562004148
 20
22.4020397452
 30
0.0
 10
4.7581417574
 20
22.4070742893
 30
0.0
 10
4.7598142988
 20
22.4122009295
 30
0.0
 10
4.7614087663
 20
22.4187582755
 30
0.0
 10
4.762546236
 20
22.4267695569
 30
0.0
 10
4.7629251003
 20
22.434846501
 30
0.0
 10
4.7625266568
 20
22.4429159829
 30
0.0
 10
4.7613317886
 20
22.4509003182
 30
0.0
 10
4.7593558609
 20
22.4587226928
 30
0.0
 10
4.7557119282
 20
22.4688221344
 30
0.0
 10
4.7493289074
 20
22.4806883238
 30
0.0
 10
4.7408134899
 20
22.4911211865
 30
0.0
 10
4.7328948351
 20
22.4983400455
 30
0.0
 10
4.7264495392
 20
22.503147585
 30
0.0
 10
4.7195678765
 20
22.5073058481
 30
0.0
 10
4.7123131702
 20
22.5107747337
 30
0.0
 10
4.7047548412
 20
22.5135278563
 30
0.0
 10
4.6943710485
 20
22.5162050003
 30
0.0
 10
4.6809625259
 20
22.5176447828
 30
0.0
 10
4.6675202865
 20
22.5164393746
 30
0.0
 10
4.6570657772
 20
22.5139213699
 30
0.0
 10
4.649431251
 20
22.5112699093
 30
0.0
 10
4.6420831551
 20
22.5078913705
 30
0.0
 10
4.6350908742
 20
22.5038154498
 30
0.0
 10
4.6285263142
 20
22.4990718873
 30
0.0
 10
4.6224717412
 20
22.4936840216
 30
0.0
 10
4.6169855248
 20
22.4877193656
 30
0.0
 10
4.6137109782
 20
22.4834206665
 30
0.0
 10
4.6121734924
 20
22.481205453
 30
0.0
  0
SPLINE
  5
576
100
AcDbEntity
  8
0
100
AcDbSpline
 62
9
  6
CONTINUOUS
 70
0
 71
3
 72
28
 73
24
 74
0
 42
0.0000001
 43
0.0000001
 44
0.0000000001
 40
0.0
 40
0.0
 40
0.0
 40
0.0
 40
0.0627260014
 40
0.1254628319
 40
0.1568250044
 40
0.1881704748
 40
0.2507470292
 40
0.313233298
 40
0.3756277513
 40
0.4379505734
 40
0.5002258588
 40
0.5624785574
 40
0.6247431283
 40
0.6559204943
 40
0.6871112684
 40
0.7183187725
 40
0.749544214
 40
0.8119982029
 40
0.8432914336
 40
0.8746090903
 40
0.9059461285
 40
0.9372976703
 40
1.0
 40
1.0
 40
1.0
 40
1.0
 10
5.6536560484
 20
22.7272204132
 30
0.0
 10
5.6584228728
 20
22.7258982401
 30
0.0
 10
5.6682191202
 20
22.7241184404
 30
0.0
 10
5.6806554656
 20
22.7241152881
 30
0.0
 10
5.6904712597
 20
22.7254419387
 30
0.0
 10
5.7001147853
 20
22.727644166
 30
0.0
 10
5.7117305167
 20
22.7320042953
 30
0.0
 10
5.7244863328
 20
22.7396297109
 30
0.0
 10
5.7356665242
 20
22.74939276
 30
0.0
 10
5.7449201882
 20
22.7609756139
 30
0.0
 10
5.7519626321
 20
22.7740095564
 30
0.0
 10
5.756571996
 20
22.7880821212
 30
0.0
 10
5.7582645422
 20
22.800315494
 30
0.0
 10
5.7583012729
 20
22.8101551956
 30
0.0
 10
5.7576671675
 20
22.8175178379
 30
0.0
 10
5.7563773908
 20
22.8247982842
 30
0.0
 10
5.7537992428
 20
22.8343142397
 30
0.0
 10
5.7499417631
 20
22.8434525158
 30
0.0
 10
5.7449189843
 20
22.8519524948
 30
0.0
 10
5.7405857597
 20
22.8579750649
 30
0.0
 10
5.7357285539
 20
22.8635900013
 30
0.0
 10
5.7286068041
 20
22.870463763
 30
0.0
 10
5.722581911
 20
22.8748802046
 30
0.0
 10
5.7183477744
 20
22.8774344908
 30
0.0
  0
SPLINE
  5
577
100
AcDbEntity
  8
0
100
AcDbSpline
 62
9
  6
CONTINUOUS
 70
0
 71
3
 72
36
 73
32
 74
0
 42
0.0000001
 43
0.0000001
 44
0.0000000001
 40
0.0
 40
0.0
 40
0.0
 40
0.0
 40
0.031364195
 40
0.0627549931
 40
0.0784449791
 40
0.0941286157
 40
0.1254815037
 40
0.1568278807
 40
0.1881450146
 40
0.2194279968
 40
0.2506903275
 40
0.2819348452
 40
0.3131509154
 40
0.375447047
 40
0.4376835781
 40
0.4688184384
 40
0.4999534741
 40
0.531090285
 40
0.5622297622
 40
0.5933778269
 40
0.6245403416
 40
0.6868473915
 40
0.7492475432
 40
0.7805182513
 40
0.8118156567
 40
0.8431411139
 40
0.8744890538
 40
0.9058503327
 40
0.9372328641
 40
0.9686360065
 40
1.0
 40
1.0
 40
1.0
 40
1.0
 10
5.2563235331
 20
22.737624932
 30
0.0
 10
5.2589619569
 20
22.738238936
 30
0.0
 10
5.2641928232
 20
22.7396877163
 30
0.0
 10
5.2705415531
 20
22.7420850468
 30
0.0
 10
5.2754565423
 20
22.7443772461
 30
0.0
 10
5.2802410833
 20
22.7469233942
 30
0.0
 10
5.2859660258
 20
22.7505600208
 30
0.0
 10
5.292371341
 20
22.7555706063
 30
0.0
 10
5.298268861
 20
22.7611616016
 30
0.0
 10
5.3035943829
 20
22.767291364
 30
0.0
 10
5.3082802504
 20
22.7739154723
 30
0.0
 10
5.3122836817
 20
22.7809668979
 30
0.0
 10
5.3166544388
 20
22.7908325199
 30
0.0
 10
5.3202534093
 20
22.8038874892
 30
0.0
 10
5.3212959441
 20
22.8173820289
 30
0.0
 10
5.3205343465
 20
22.8281238193
 30
0.0
 10
5.3191699253
 20
22.8360888185
 30
0.0
 10
5.3170345367
 20
22.8438822861
 30
0.0
 10
5.3141473261
 20
22.8514307037
 30
0.0
 10
5.3105402064
 20
22.8586659781
 30
0.0
 10
5.3048151625
 20
22.8677970679
 30
0.0
 10
5.2960188328
 20
22.8781096493
 30
0.0
 10
5.2853628981
 20
22.886504188
 30
0.0
 10
5.2759807791
 20
22.8918699074
 30
0.0
 10
5.2685679373
 20
22.8951916277
 30
0.0
 10
5.2608624133
 20
22.8977807089
 30
0.0
 10
5.2529359689
 20
22.899609674
 30
0.0
 10
5.2448621332
 20
22.9006492534
 30
0.0
 10
5.2367190122
 20
22.9008571396
 30
0.0
 10
5.2285975565
 20
22.9002567128
 30
0.0
 10
5.223242487
 20
22.8993592653
 30
0.0
 10
5.2205931618
 20
22.8987942322
 30
0.0
  0
SPLINE
  5
578
100
AcDbEntity
  8
0
100
AcDbSpline
 62
9
  6
CONTINUOUS
 70
0
 71
3
 72
37
 73
33
 74
0
 42
0.0000001
 43
0.0000001
 44
0.0000000001
 40
0.0
 40
0.0
 40
0.0
 40
0.0
 40
0.0313621511
 40
0.0627609985
 40
0.0784585572
 40
0.0941485781
 40
0.1255057552
 40
0.1568498284
 40
0.1881714254
 40
0.2194663903
 40
0.2507376533
 40
0.3131410322
 40
0.3754525875
 40
0.4066199351
 40
0.4377729879
 40
0.4689147444
 40
0.5000513858
 40
0.5311877864
 40
0.5623259747
 40
0.6245596193
 40
0.686853228
 40
0.7180683131
 40
0.7493104195
 40
0.7805729509
 40
0.8118573602
 40
0.8431735395
 40
0.8745205552
 40
0.9058751651
 40
0.9215582984
 40
0.9372460253
 40
0.96863404
 40
1.0
 40
1.0
 40
1.0
 40
1.0
 10
4.4521027127
 20
22.0301737885
 30
0.0
 10
4.4518625454
 20
22.0274756971
 30
0.0
 10
4.4516211573
 20
22.0220519343
 30
0.0
 10
4.4519506946
 20
22.0152724815
 30
0.0
 10
4.4526158312
 20
22.0098883871
 30
0.0
 10
4.4535563303
 20
22.0045492432
 30
0.0
 10
4.4552372648
 20
21.9979778291
 30
0.0
 10
4.458019489
 20
21.9903350905
 30
0.0
 10
4.4615266075
 20
21.9830026546
 30
0.0
 10
4.4657251252
 20
21.9760492837
 30
0.0
 10
4.4721934549
 20
21.967390295
 30
0.0
 10
4.4818213386
 20
21.9578328453
 30
0.0
 10
4.4931308417
 20
21.9503591386
 30
0.0
 10
4.5028922202
 20
21.9457881577
 30
0.0
 10
4.5105136201
 20
21.9430877387
 30
0.0
 10
4.5183583622
 20
21.9411417263
 30
0.0
 10
4.5263550237
 20
21.9399762468
 30
0.0
 10
4.5344274764
 20
21.9395970098
 30
0.0
 10
4.5451818299
 20
21.9401474669
 30
0.0
 10
4.5584529194
 20
21.9428083143
 30
0.0
 10
4.5709685172
 20
21.9479825804
 30
0.0
 10
4.5802226393
 20
21.9535304842
 30
0.0
 10
4.5867315603
 20
21.9583655352
 30
0.0
 10
4.5927377185
 20
21.9638204844
 30
0.0
 10
4.5981823468
 20
21.9698446019
 30
0.0
 10
4.6030218226
 20
21.9763735012
 30
0.0
 10
4.6072123386
 20
21.9833436618
 30
0.0
 10
4.6101142103
 20
21.9894743257
 30
0.0
 10
4.6120468495
 20
21.9945378244
 30
0.0
 10
4.6137106297
 20
21.9996990393
 30
0.0
 10
4.6153076192
 20
22.0062939412
 30
0.0
 10
4.6161216297
 20
22.0116593108
 30
0.0
 10
4.6164251187
 20
22.0143513462
 30
0.0
  0
SPLINE
  5
579
100
AcDbEntity
  8
0
100
AcDbSpline
 62
9
  6
CONTINUOUS
 70
0
 71
3
 72
39
 73
35
 74
0
 42
0.0000001
 43
0.0000001
 44
0.0000000001
 40
0.0
 40
0.0
 40
0.0
 40
0.0
 40
0.031373774
 40
0.0627616865
 40
0.0784402509
 40
0.0941111999
 40
0.1254525315
 40
0.1568117861
 40
0.1881415082
 40
0.219414196
 40
0.2506507624
 40
0.281886558
 40
0.3131195638
 40
0.3754283533
 40
0.4065814703
 40
0.4377295962
 40
0.4688742915
 40
0.5000137388
 40
0.5311515627
 40
0.5622947566
 40
0.5934505179
 40
0.6246156477
 40
0.6557867489
 40
0.6869760424
 40
0.7181996659
 40
0.7494497413
 40
0.7807050763
 40
0.8119814043
 40
0.8433042929
 40
0.8589792192
 40
0.8746514176
 40
0.905983474
 40
0.9373537679
 40
1.0
 40
1.0
 40
1.0
 40
1.0
 10
4.6164251187
 20
22.0143513462
 30
0.0
 10
4.6166193896
 20
22.0170545808
 30
0.0
 10
4.6168301523
 20
22.0224773917
 30
0.0
 10
4.6165397353
 20
22.0292572257
 30
0.0
 10
4.6159065816
 20
22.0346420472
 30
0.0
 10
4.6149805387
 20
22.0399802412
 30
0.0
 10
4.6132846185
 20
22.0465482942
 30
0.0
 10
4.6104806597
 20
22.0541842119
 30
0.0
 10
4.6069886877
 20
22.0615243897
 30
0.0
 10
4.6028151511
 20
22.0684893668
 30
0.0
 10
4.5979565409
 20
22.0749857476
 30
0.0
 10
4.5924659184
 20
22.0809528991
 30
0.0
 10
4.5844281913
 20
22.0881520809
 30
0.0
 10
4.5754012617
 20
22.0941766465
 30
0.0
 10
4.5656458331
 20
22.0987600053
 30
0.0
 10
4.5580225196
 20
22.1014562811
 30
0.0
 10
4.550174466
 20
22.1033940994
 30
0.0
 10
4.5421754794
 20
22.1045567469
 30
0.0
 10
4.534101448
 20
22.1049362152
 30
0.0
 10
4.5260275635
 20
22.1045203871
 30
0.0
 10
4.5180313085
 20
22.1033147106
 30
0.0
 10
4.5101872045
 20
22.1013395467
 30
0.0
 10
4.5025694872
 20
22.0986102279
 30
0.0
 10
4.495247289
 20
22.0951541804
 30
0.0
 10
4.4882884689
 20
22.0910011702
 30
0.0
 10
4.4817661431
 20
22.0861811928
 30
0.0
 10
4.4757616103
 20
22.0807206182
 30
0.0
 10
4.4703614663
 20
22.0746544765
 30
0.0
 10
4.4663706373
 20
22.0691831941
 30
0.0
 10
4.4634821948
 20
22.0646026061
 30
0.0
 10
4.4607965789
 20
22.0598996718
 30
0.0
 10
4.457841645
 20
22.0537941691
 30
0.0
 10
4.4540804608
 20
22.0436336467
 30
0.0
 10
4.4524463187
 20
22.0355745297
 30
0.0
 10
4.4521027127
 20
22.0301737885
 30
0.0
  0
SPLINE
  5
57A
100
AcDbEntity
  8
0
100
AcDbSpline
 62
9
  6
CONTINUOUS
 70
0
 71
3
 72
36
 73
32
 74
0
 42
0.0000001
 43
0.0000001
 44
0.0000000001
 40
0.0
 40
0.0
 40
0.0
 40
0.0
 40
0.0313655695
 40
0.0627548206
 40
0.0784429127
 40
0.0941250723
 40
0.1254774107
 40
0.1568251651
 40
0.188142243
 40
0.2194238252
 40
0.250685093
 40
0.2819293155
 40
0.3131456264
 40
0.3754436119
 40
0.4376824363
 40
0.4688188061
 40
0.4999548118
 40
0.5310918672
 40
0.5622315634
 40
0.5933800611
 40
0.624542605
 40
0.686848398
 40
0.7492464558
 40
0.7805155501
 40
0.8118105777
 40
0.8431334798
 40
0.8744798139
 40
0.9058400675
 40
0.9372197099
 40
0.9686233311
 40
1.0
 40
1.0
 40
1.0
 40
1.0
 10
4.6597621345
 20
22.2098319922
 30
0.0
 10
4.6606301839
 20
22.2123839227
 30
0.0
 10
4.6621636603
 20
22.2175618358
 30
0.0
 10
4.6634977964
 20
22.2241807287
 30
0.0
 10
4.6641649801
 20
22.2295350598
 30
0.0
 10
4.664548509
 20
22.2349138775
 30
0.0
 10
4.6645094566
 20
22.2416621789
 30
0.0
 10
4.6636746793
 20
22.2497106105
 30
0.0
 10
4.6620880128
 20
22.2576391651
 30
0.0
 10
4.6597489657
 20
22.2653723474
 30
0.0
 10
4.6566578998
 20
22.2728302478
 30
0.0
 10
4.6528483941
 20
22.2799421789
 30
0.0
 10
4.6468696355
 20
22.2888600617
 30
0.0
 10
4.637806251
 20
22.2988300993
 30
0.0
 10
4.6270196523
 20
22.3068927282
 30
0.0
 10
4.6175897514
 20
22.3119812311
 30
0.0
 10
4.6101729988
 20
22.315087026
 30
0.0
 10
4.6024898491
 20
22.3174571812
 30
0.0
 10
4.5946114398
 20
22.3190679816
 30
0.0
 10
4.5866115531
 20
22.3199107949
 30
0.0
 10
4.5758885036
 20
22.3199964021
 30
0.0
 10
4.5625298679
 20
22.3181498958
 30
0.0
 10
4.5497784453
 20
22.3137284015
 30
0.0
 10
4.5402435906
 20
22.3087560332
 30
0.0
 10
4.5334772239
 20
22.3043364336
 30
0.0
 10
4.5271646746
 20
22.2992806468
 30
0.0
 10
4.5213661196
 20
22.2936342342
 30
0.0
 10
4.5161441023
 20
22.2874434735
 30
0.0
 10
4.5115727367
 20
22.2807509573
 30
0.0
 10
4.5076922732
 20
22.2736363354
 30
0.0
 10
4.5055549217
 20
22.2686731419
 30
0.0
 10
4.5045990746
 20
22.2661517616
 30
0.0
  0
SPLINE
  5
57B
100
AcDbEntity
  8
0
100
AcDbSpline
 62
9
  6
CONTINUOUS
 70
0
 71
3
 72
32
 73
28
 74
0
 42
0.0000001
 43
0.0000001
 44
0.0000000001
 40
0.0
 40
0.0
 40
0.0
 40
0.0
 40
0.0626941646
 40
0.1253795317
 40
0.1879724128
 40
0.2504857564
 40
0.31290169
 40
0.3752291227
 40
0.4064033108
 40
0.4375650028
 40
0.4687173776
 40
0.499864641
 40
0.5310122716
 40
0.5621640345
 40
0.5933256813
 40
0.6244991561
 40
0.6868168526
 40
0.7180419105
 40
0.7492903401
 40
0.7805608215
 40
0.8118543933
 40
0.8431716518
 40
0.8745105291
 40
0.9058677298
 40
0.9372445976
 40
0.9686385675
 40
1.0
 40
1.0
 40
1.0
 40
1.0
 10
5.459949899
 20
22.9218416649
 30
0.0
 10
5.4545376978
 20
22.9219778094
 30
0.0
 10
5.4436571564
 20
22.921189945
 30
0.0
 10
5.4279121625
 20
22.9168461999
 30
0.0
 10
5.413332758
 20
22.909506382
 30
0.0
 10
5.400485742
 20
22.8994775639
 30
0.0
 10
5.3898586294
 20
22.8871544436
 30
0.0
 10
5.3831782219
 20
22.8753562326
 30
0.0
 10
5.3792957941
 20
22.865300305
 30
0.0
 10
5.3771351911
 20
22.8575077188
 30
0.0
 10
5.3757439524
 20
22.8495448057
 30
0.0
 10
5.3751407208
 20
22.8414848024
 30
0.0
 10
5.3753259078
 20
22.8334045473
 30
0.0
 10
5.3762999148
 20
22.8253798955
 30
0.0
 10
5.3780569105
 20
22.8174863917
 30
0.0
 10
5.3814092452
 20
22.8072438208
 30
0.0
 10
5.3862609686
 20
22.7975363831
 30
0.0
 10
5.3924438825
 20
22.7886944535
 30
0.0
 10
5.3977196531
 20
22.7825363509
 30
0.0
 10
5.4035757302
 20
22.7769200478
 30
0.0
 10
5.4099617139
 20
22.7719043812
 30
0.0
 10
5.4168119257
 20
22.7675334701
 30
0.0
 10
5.4240622989
 20
22.7638519602
 30
0.0
 10
5.4316442755
 20
22.7608985173
 30
0.0
 10
5.4394888007
 20
22.7587167333
 30
0.0
 10
5.4475100729
 20
22.7573260719
 30
0.0
 10
5.4529217786
 20
22.7569037806
 30
0.0
 10
5.4556285457
 20
22.756815822
 30
0.0
  0
SPLINE
  5
57C
100
AcDbEntity
  8
0
100
AcDbSpline
 62
9
  6
CONTINUOUS
 70
0
 71
3
 72
43
 73
39
 74
0
 42
0.0000001
 43
0.0000001
 44
0.0000000001
 40
0.0
 40
0.0
 40
0.0
 40
0.0
 40
0.0626675826
 40
0.094057024
 40
0.1254250994
 40
0.1567524464
 40
0.1880433808
 40
0.2193372132
 40
0.2506406192
 40
0.2819102611
 40
0.313103692
 40
0.3286833532
 40
0.3442613094
 40
0.3754302069
 40
0.3910295513
 40
0.406626899
 40
0.4377804152
 40
0.4688834132
 40
0.4999822994
 40
0.531119716
 40
0.5622898378
 40
0.5934553933
 40
0.6245912686
 40
0.6557185355
 40
0.6869028678
 40
0.702527078
 40
0.7181640356
 40
0.7494154029
 40
0.7806095808
 40
0.8118385752
 40
0.8431754969
 40
0.8588651682
 40
0.8745476234
 40
0.9058763163
 40
0.9215430881
 40
0.9372265215
 40
0.9686278999
 40
1.0
 40
1.0
 40
1.0
 40
1.0
 10
5.7218135489
 20
21.1661569734
 30
0.0
 10
5.7268775505
 20
21.1680023893
 30
0.0
 10
5.7347541056
 20
21.1700984109
 30
0.0
 10
5.7454810252
 20
21.171351402
 30
0.0
 10
5.753585944
 20
21.1714902934
 30
0.0
 10
5.7616553302
 20
21.1708192391
 30
0.0
 10
5.7696061655
 20
21.1693191083
 30
0.0
 10
5.7773668856
 20
21.1670449155
 30
0.0
 10
5.7848822232
 20
21.1640664998
 30
0.0
 10
5.792092236
 20
21.160428772
 30
0.0
 10
5.7977692137
 20
21.1568228803
 30
0.0
 10
5.8020503033
 20
21.1535894645
 30
0.0
 10
5.8061486001
 20
21.1501309941
 30
0.0
 10
5.8099777552
 20
21.1463629884
 30
0.0
 10
5.8135319853
 20
21.1423440938
 30
0.0
 10
5.8169069877
 20
21.1381750023
 30
0.0
 10
5.8207705
 20
21.1326938692
 30
0.0
 10
5.8247525486
 20
21.1257061493
 30
0.0
 10
5.8279823491
 20
21.1183408744
 30
0.0
 10
5.8304572463
 20
21.1106847782
 30
0.0
 10
5.8321940839
 20
21.1028233274
 30
0.0
 10
5.8331859689
 20
21.0948334673
 30
0.0
 10
5.8333881702
 20
21.0867863578
 30
0.0
 10
5.8327463166
 20
21.0787608624
 30
0.0
 10
5.8315567858
 20
21.0721537728
 30
0.0
 10
5.8302563343
 20
21.0669415403
 30
0.0
 10
5.8287378753
 20
21.0617827086
 30
0.0
 10
5.8264272959
 20
21.0554662134
 30
0.0
 10
5.8228805382
 20
21.0482122421
 30
0.0
 10
5.8184825429
 20
21.0414323504
 30
0.0
 10
5.8142648053
 20
21.0361753554
 30
0.0
 10
5.8106363282
 20
21.032183484
 30
0.0
 10
5.8068496747
 20
21.0283424177
 30
0.0
 10
5.8028137066
 20
21.0247548303
 30
0.0
 10
5.7985288775
 20
21.021480326
 30
0.0
 10
5.7940721598
 20
21.0184323264
 30
0.0
 10
5.788204428
 20
21.0150740982
 30
0.0
 10
5.7832533686
 20
21.0128926
 30
0.0
 10
5.7807300659
 20
21.0119370214
 30
0.0
  0
SPLINE
  5
57D
100
AcDbEntity
  8
0
100
AcDbSpline
 62
9
  6
CONTINUOUS
 70
0
 71
3
 72
35
 73
31
 74
0
 42
0.0000001
 43
0.0000001
 44
0.0000000001
 40
0.0
 40
0.0
 40
0.0
 40
0.0
 40
0.0313715215
 40
0.0627741951
 40
0.0941440407
 40
0.1254930531
 40
0.1568342876
 40
0.1881521836
 40
0.2194379883
 40
0.2507046016
 40
0.281952032
 40
0.3131682606
 40
0.3443599048
 40
0.3755398975
 40
0.437778757
 40
0.468912254
 40
0.5000469533
 40
0.5311828793
 40
0.5623207277
 40
0.6245670383
 40
0.6868758641
 40
0.7492743006
 40
0.7805481885
 40
0.8118418583
 40
0.8431583766
 40
0.8744977104
 40
0.9058528807
 40
0.937228938
 40
0.9686285693
 40
1.0
 40
1.0
 40
1.0
 40
1.0
 10
6.050379105
 20
21.3924099173
 30
0.0
 10
6.0521811895
 20
21.39439499
 30
0.0
 10
6.0559918386
 20
21.3981863958
 30
0.0
 10
6.062246362
 20
21.4032683457
 30
0.0
 10
6.0689860284
 20
21.4076846421
 30
0.0
 10
6.0761228466
 20
21.4114105125
 30
0.0
 10
6.0835728293
 20
21.4144482121
 30
0.0
 10
6.0912660273
 20
21.4167850369
 30
0.0
 10
6.0991416385
 20
21.4183777762
 30
0.0
 10
6.1071306144
 20
21.419182709
 30
0.0
 10
6.1151540288
 20
21.4191954352
 30
0.0
 10
6.1231327109
 20
21.4184135306
 30
0.0
 10
6.130989979
 20
21.4168481349
 30
0.0
 10
6.1411981966
 20
21.4137743164
 30
0.0
 10
6.1509279881
 20
21.4092695704
 30
0.0
 10
6.159842643
 20
21.4034357709
 30
0.0
 10
6.1660721487
 20
21.3984233127
 30
0.0
 10
6.171786246
 20
21.3928303177
 30
0.0
 10
6.1786397942
 20
21.3846713329
 30
0.0
 10
6.185692498
 20
21.3732843638
 30
0.0
 10
6.1914021594
 20
21.3582580112
 30
0.0
 10
6.1936060706
 20
21.3450152509
 30
0.0
 10
6.1938162457
 20
21.334324311
 30
0.0
 10
6.1931994044
 20
21.3263115383
 30
0.0
 10
6.191818736
 20
21.318389844
 30
0.0
 10
6.1896843449
 20
21.310631326
 30
0.0
 10
6.1868057871
 20
21.3031110336
 30
0.0
 10
6.1831860563
 20
21.2959112741
 30
0.0
 10
6.1788633243
 20
21.289110635
 30
0.0
 10
6.1755650056
 20
21.2848684428
 30
0.0
 10
6.173823823
 20
21.2828297512
 30
0.0
  0
SPLINE
  5
57E
100
AcDbEntity
  8
0
100
AcDbSpline
 62
9
  6
CONTINUOUS
 70
0
 71
3
 72
31
 73
27
 74
0
 42
0.0000001
 43
0.0000001
 44
0.0000000001
 40
0.0
 40
0.0
 40
0.0
 40
0.0
 40
0.0313793002
 40
0.0627909244
 40
0.0941799255
 40
0.1255527836
 40
0.1569223972
 40
0.1882744875
 40
0.2195951669
 40
0.2508881519
 40
0.2821658598
 40
0.3134252593
 40
0.3446575593
 40
0.375867799
 40
0.4070654079
 40
0.4382505725
 40
0.5005128467
 40
0.5627570498
 40
0.6250107422
 40
0.6873006348
 40
0.7496566894
 40
0.8120982515
 40
0.8433806193
 40
0.8746854906
 40
0.9373096942
 40
1.0
 40
1.0
 40
1.0
 40
1.0
 10
5.4556285457
 20
22.756815822
 30
0.0
 10
5.4581021644
 20
22.7567755272
 30
0.0
 10
5.463057465
 20
22.7568850631
 30
0.0
 10
5.4704508671
 20
22.7576614269
 30
0.0
 10
5.477745207
 20
22.7591051874
 30
0.0
 10
5.4848647618
 20
22.7612382561
 30
0.0
 10
5.4917583892
 20
22.7640048506
 30
0.0
 10
5.4983801384
 20
22.7673609364
 30
0.0
 10
5.5046790179
 20
22.7712786587
 30
0.0
 10
5.5105991336
 20
22.7757394139
 30
0.0
 10
5.5160841312
 20
22.7807183941
 30
0.0
 10
5.5210938759
 20
22.786168623
 30
0.0
 10
5.5255852009
 20
22.7920468714
 30
0.0
 10
5.5295249525
 20
22.7983018606
 30
0.0
 10
5.5328939967
 20
22.8048779897
 30
0.0
 10
5.536594965
 20
22.8139923734
 30
0.0
 10
5.5396894915
 20
22.8259449509
 30
0.0
 10
5.5407516737
 20
22.8407094388
 30
0.0
 10
5.5391776863
 20
22.8554298281
 30
0.0
 10
5.5350210857
 20
22.8696481346
 30
0.0
 10
5.5284037675
 20
22.8829170169
 30
0.0
 10
5.520985066
 20
22.8928251291
 30
0.0
 10
5.5140627038
 20
22.899858767
 30
0.0
 10
5.5065235482
 20
22.9062499645
 30
0.0
 10
5.4960722708
 20
22.912949908
 30
0.0
 10
5.4868814797
 20
22.9167442933
 30
0.0
 10
5.4821574005
 20
22.9181973845
 30
0.0
  0
SPLINE
  5
57F
100
AcDbEntity
  8
0
100
AcDbSpline
 62
9
  6
CONTINUOUS
 70
0
 71
3
 72
9
 73
5
 74
0
 42
0.0000001
 43
0.0000001
 44
0.0000000001
 40
0.0
 40
0.0
 40
0.0
 40
0.0
 40
0.5001328701
 40
1.0
 40
1.0
 40
1.0
 40
1.0
 10
5.4821574005
 20
22.9181973845
 30
0.0
 10
5.4785636547
 20
22.9193027936
 30
0.0
 10
5.4712111778
 20
22.9209970019
 30
0.0
 10
5.4637056078
 20
22.9217129397
 30
0.0
 10
5.459949899
 20
22.9218416649
 30
0.0
  0
SPLINE
  5
580
100
AcDbEntity
  8
0
100
AcDbSpline
 62
9
  6
CONTINUOUS
 70
0
 71
3
 72
36
 73
32
 74
0
 42
0.0000001
 43
0.0000001
 44
0.0000000001
 40
0.0
 40
0.0
 40
0.0
 40
0.0
 40
0.0313579316
 40
0.0627574775
 40
0.094131458
 40
0.1254823744
 40
0.1568262831
 40
0.1881482278
 40
0.2194369076
 40
0.2507026231
 40
0.2819509806
 40
0.313169412
 40
0.3754625089
 40
0.4066266063
 40
0.4377715538
 40
0.4689030665
 40
0.5000358746
 40
0.5311712442
 40
0.5623070051
 40
0.6245424327
 40
0.6868422189
 40
0.7180585355
 40
0.7493048503
 40
0.7805751484
 40
0.8118649179
 40
0.8431769971
 40
0.8745121101
 40
0.9058636953
 40
0.9372357066
 40
0.9686314888
 40
1.0
 40
1.0
 40
1.0
 40
1.0
 10
5.8994169049
 20
21.2586114286
 30
0.0
 10
5.901636047
 20
21.2601421392
 30
0.0
 10
5.9062289846
 20
21.2629920426
 30
0.0
 10
5.9135013169
 20
21.2665714624
 30
0.0
 10
5.9211020588
 20
21.2693898153
 30
0.0
 10
5.9289435257
 20
21.2714212844
 30
0.0
 10
5.9369379781
 20
21.2726902444
 30
0.0
 10
5.9450103256
 20
21.2732104252
 30
0.0
 10
5.9530898524
 20
21.2729607588
 30
0.0
 10
5.9610994818
 20
21.2719163431
 30
0.0
 10
5.9689605005
 20
21.2700817444
 30
0.0
 10
5.9791256717
 20
21.2666159846
 30
0.0
 10
5.9887124957
 20
21.2616436149
 30
0.0
 10
5.9974359368
 20
21.2554069788
 30
0.0
 10
6.0035069703
 20
21.2501260378
 30
0.0
 10
6.0090319764
 20
21.2442805585
 30
0.0
 10
6.0139511038
 20
21.2379178156
 30
0.0
 10
6.0182267059
 20
21.2311050529
 30
0.0
 10
6.0230089443
 20
21.22151273
 30
0.0
 10
6.027212587
 20
21.2087146095
 30
0.0
 10
6.0288906426
 20
21.1953381373
 30
0.0
 10
6.0286288295
 20
21.1846002777
 30
0.0
 10
6.0276385217
 20
21.1765895911
 30
0.0
 10
6.025872108
 20
21.1687079098
 30
0.0
 10
6.0233478821
 20
21.1610293051
 30
0.0
 10
6.020095011
 20
21.1536239592
 30
0.0
 10
6.016140914
 20
21.1465617842
 30
0.0
 10
6.0115139218
 20
21.1399140264
 30
0.0
 10
6.0062378898
 20
21.1337605396
 30
0.0
 10
6.0003681951
 20
21.1281707726
 30
0.0
 10
5.9961173766
 20
21.1248322698
 30
0.0
 10
5.9939218447
 20
21.123266316
 30
0.0
  0
SPLINE
  5
581
100
AcDbEntity
  8
0
100
AcDbSpline
 62
9
  6
CONTINUOUS
 70
0
 71
3
 72
36
 73
32
 74
0
 42
0.0000001
 43
0.0000001
 44
0.0000000001
 40
0.0
 40
0.0
 40
0.0
 40
0.0
 40
0.0313782819
 40
0.0627927265
 40
0.0941901834
 40
0.125560703
 40
0.1569177232
 40
0.1882599559
 40
0.2508140147
 40
0.313283597
 40
0.3445174804
 40
0.3757263275
 40
0.4380343523
 40
0.5002928677
 40
0.5314325008
 40
0.5625718837
 40
0.5937259228
 40
0.624899111
 40
0.6560745672
 40
0.687237066
 40
0.7184003443
 40
0.7496041882
 40
0.7808583667
 40
0.8121298498
 40
0.8433775211
 40
0.8589998599
 40
0.874628676
 40
0.9059250559
 40
0.9372835291
 40
0.9686525698
 40
1.0
 40
1.0
 40
1.0
 40
1.0
 10
4.8345349398
 20
21.1521733855
 30
0.0
 10
4.8365043088
 20
21.1507101721
 30
0.0
 10
4.8405750084
 20
21.1479520911
 30
0.0
 10
4.8470194691
 20
21.1443680881
 30
0.0
 10
4.8537634661
 20
21.1413840817
 30
0.0
 10
4.8607485573
 20
21.1390348503
 30
0.0
 10
4.8679108218
 20
21.1373177581
 30
0.0
 10
4.8776074318
 20
21.1358737356
 30
0.0
 10
4.8898998511
 20
21.1356595365
 30
0.0
 10
4.9020259624
 20
21.1376445492
 30
0.0
 10
4.9113792859
 20
21.1404952185
 30
0.0
 10
4.9204287265
 20
21.1441660332
 30
0.0
 10
4.9310681289
 20
21.1502322376
 30
0.0
 10
4.9404719323
 20
21.158071333
 30
0.0
 10
4.9470623217
 20
21.1652545406
 30
0.0
 10
4.95150822
 20
21.1710639526
 30
0.0
 10
4.9554309994
 20
21.1772406711
 30
0.0
 10
4.9588080489
 20
21.1837352346
 30
0.0
 10
4.9616052734
 20
21.1905008633
 30
0.0
 10
4.9637816951
 20
21.1974912611
 30
0.0
 10
4.9652893872
 20
21.2046580445
 30
0.0
 10
4.966146672
 20
21.2119371768
 30
0.0
 10
4.9663884334
 20
21.2192699362
 30
0.0
 10
4.9660393765
 20
21.2266019049
 30
0.0
 10
4.9652091822
 20
21.2326648593
 30
0.0
 10
4.9641962872
 20
21.2374473195
 30
0.0
 10
4.9629433919
 20
21.2421765187
 30
0.0
 10
4.9609535343
 20
21.2479748376
 30
0.0
 10
4.9579736371
 20
21.2547040971
 30
0.0
 10
4.9544708385
 20
21.2611808773
 30
0.0
 10
4.9517689199
 20
21.2652827901
 30
0.0
 10
4.9503256999
 20
21.2672638737
 30
0.0
  0
SPLINE
  5
582
100
AcDbEntity
  8
0
100
AcDbSpline
 62
9
  6
CONTINUOUS
 70
0
 71
3
 72
9
 73
5
 74
0
 42
0.0000001
 43
0.0000001
 44
0.0000000001
 40
0.0
 40
0.0
 40
0.0
 40
0.0
 40
0.2500172068
 40
1.0
 40
1.0
 40
1.0
 40
1.0
 10
4.9480369486
 20
21.2702492141
 30
0.0
 10
4.9470933191
 20
21.2714187234
 30
0.0
 10
4.9431782623
 20
21.2759823059
 30
0.0
 10
4.9387528109
 20
21.2800979295
 30
0.0
 10
4.9352463036
 20
21.2829306617
 30
0.0
  0
SPLINE
  5
583
100
AcDbEntity
  8
0
100
AcDbSpline
 62
9
  6
CONTINUOUS
 70
0
 71
3
 72
10
 73
6
 74
0
 42
0.0000001
 43
0.0000001
 44
0.0000000001
 40
0.0
 40
0.0
 40
0.0
 40
0.0
 40
0.4998248733
 40
0.7500095993
 40
1.0
 40
1.0
 40
1.0
 40
1.0
 10
5.107984602
 20
21.1816340868
 30
0.0
 10
5.1113076429
 20
21.1801186614
 30
0.0
 10
5.1161539662
 20
21.1775145915
 30
0.0
 10
5.1222133149
 20
21.1734240963
 30
0.0
 10
5.1250962892
 20
21.1711715672
 30
0.0
 10
5.1264960148
 20
21.1699978432
 30
0.0
  0
SPLINE
  5
584
100
AcDbEntity
  8
0
100
AcDbSpline
 62
9
  6
CONTINUOUS
 70
0
 71
3
 72
30
 73
26
 74
0
 42
0.0000001
 43
0.0000001
 44
0.0000000001
 40
0.0
 40
0.0
 40
0.0
 40
0.0
 40
0.0626832658
 40
0.0940379981
 40
0.1253646884
 40
0.1566631932
 40
0.1879457759
 40
0.2503810221
 40
0.3127281747
 40
0.3439149414
 40
0.3750851398
 40
0.4062400823
 40
0.4373922556
 40
0.4996456408
 40
0.5619182145
 40
0.6242485304
 40
0.6554670423
 40
0.6867051375
 40
0.749194626
 40
0.8117657361
 40
0.8744136835
 40
0.9057933477
 40
0.9371946187
 40
0.9686123898
 40
1.0
 40
1.0
 40
1.0
 40
1.0
 10
5.1264960148
 20
21.1699978432
 30
0.0
 10
5.1302484368
 20
21.1668512924
 30
0.0
 10
5.135456539
 20
21.1615982423
 30
0.0
 10
5.14141182
 20
21.1538136006
 30
0.0
 10
5.1453620553
 20
21.1476128243
 30
0.0
 10
5.1487473361
 20
21.1410926809
 30
0.0
 10
5.1524481107
 20
21.1320420995
 30
0.0
 10
5.1555180791
 20
21.1201686428
 30
0.0
 10
5.1564025936
 20
21.1079481057
 30
0.0
 10
5.1558460946
 20
21.098211791
 30
0.0
 10
5.1547976856
 20
21.0909721269
 30
0.0
 10
5.1531152929
 20
21.0838553009
 30
0.0
 10
5.1500281393
 20
21.0746153261
 30
0.0
 10
5.1446390437
 20
21.0636338754
 30
0.0
 10
5.1359586385
 20
21.0518075611
 30
0.0
 10
5.1271012035
 20
21.0433564824
 30
0.0
 10
5.1192091695
 20
21.0376138936
 30
0.0
 10
5.1108217574
 20
21.0325981035
 30
0.0
 10
5.0995341531
 20
21.0277595382
 30
0.0
 10
5.0851805331
 20
21.0244214964
 30
0.0
 10
5.0728928114
 20
21.0237764002
 30
0.0
 10
5.0631154514
 20
21.0245790455
 30
0.0
 10
5.0558565434
 20
21.0258549094
 30
0.0
 10
5.0487437497
 20
21.0277803874
 30
0.0
 10
5.044128343
 20
21.0294657088
 30
0.0
 10
5.0418619887
 20
21.0304019803
 30
0.0
  0
SPLINE
  5
585
100
AcDbEntity
  8
0
100
AcDbSpline
 62
9
  6
CONTINUOUS
 70
0
 71
3
 72
31
 73
27
 74
0
 42
0.0000001
 43
0.0000001
 44
0.0000000001
 40
0.0
 40
0.0
 40
0.0
 40
0.0
 40
0.0313815306
 40
0.0627909276
 40
0.0941731282
 40
0.1255431158
 40
0.1569139303
 40
0.1882657998
 40
0.2195829758
 40
0.2508719538
 40
0.2821470002
 40
0.3134039767
 40
0.3446340738
 40
0.375843618
 40
0.4381641044
 40
0.4693326682
 40
0.5004892876
 40
0.5627363103
 40
0.6249915055
 40
0.6872862241
 40
0.749645119
 40
0.8120901973
 40
0.8433741677
 40
0.8746807498
 40
0.9373075006
 40
1.0
 40
1.0
 40
1.0
 40
1.0
 10
6.2548242867
 20
21.9714483542
 30
0.0
 10
6.2549647856
 20
21.9689784843
 30
0.0
 10
6.2554254435
 20
21.9640444725
 30
0.0
 10
6.2567073352
 20
21.9567233377
 30
0.0
 10
6.2586474093
 20
21.9495466198
 30
0.0
 10
6.2612716055
 20
21.9425943925
 30
0.0
 10
6.264513999
 20
21.9359124313
 30
0.0
 10
6.2683231115
 20
21.9295417325
 30
0.0
 10
6.2726683368
 20
21.9235315061
 30
0.0
 10
6.2775295612
 20
21.9179376158
 30
0.0
 10
6.2828779045
 20
21.9128142293
 30
0.0
 10
6.2886629505
 20
21.9081975593
 30
0.0
 10
6.294839807
 20
21.9041278013
 30
0.0
 10
6.3035143076
 20
21.8994720571
 30
0.0
 10
6.3127710701
 20
21.8959871202
 30
0.0
 10
6.3223535522
 20
21.8937665827
 30
0.0
 10
6.3320920915
 20
21.8924138364
 30
0.0
 10
6.3444347832
 20
21.8923813373
 30
0.0
 10
6.359007188
 20
21.8949769764
 30
0.0
 10
6.3729014256
 20
21.9001122635
 30
0.0
 10
6.3856782708
 20
21.907634268
 30
0.0
 10
6.3950463343
 20
21.9157233665
 30
0.0
 10
6.4015811712
 20
21.9231177552
 30
0.0
 10
6.4074326587
 20
21.9310823388
 30
0.0
 10
6.4133902263
 20
21.9419730134
 30
0.0
 10
6.4165362968
 20
21.9514047093
 30
0.0
 10
6.4176576805
 20
21.9562179697
 30
0.0
  0
SPLINE
  5
586
100
AcDbEntity
  8
0
100
AcDbSpline
 62
9
  6
CONTINUOUS
 70
0
 71
3
 72
9
 73
5
 74
0
 42
0.0000001
 43
0.0000001
 44
0.0000000001
 40
0.0
 40
0.0
 40
0.0
 40
0.0
 40
0.500143992
 40
1.0
 40
1.0
 40
1.0
 40
1.0
 10
6.4176576805
 20
21.9562179697
 30
0.0
 10
6.4185117454
 20
21.9598838306
 30
0.0
 10
6.4196927505
 20
21.9673441897
 30
0.0
 10
6.4198843118
 20
21.9748896911
 30
0.0
 10
6.419749577
 20
21.9786491456
 30
0.0
  0
SPLINE
  5
587
100
AcDbEntity
  8
0
100
AcDbSpline
 62
9
  6
CONTINUOUS
 70
0
 71
3
 72
36
 73
32
 74
0
 42
0.0000001
 43
0.0000001
 44
0.0000000001
 40
0.0
 40
0.0
 40
0.0
 40
0.0
 40
0.0313697296
 40
0.0627270504
 40
0.0940764722
 40
0.125402044
 40
0.1566965305
 40
0.1879707932
 40
0.2192295693
 40
0.2504619316
 40
0.2816650278
 40
0.3128540443
 40
0.3440327257
 40
0.3751952151
 40
0.4063409856
 40
0.4374811027
 40
0.4686242926
 40
0.4997686403
 40
0.5620077806
 40
0.624306511
 40
0.6555077264
 40
0.6867276429
 40
0.7179751524
 40
0.7492473215
 40
0.8117848241
 40
0.8431160035
 40
0.8744668594
 40
0.9058318077
 40
0.9372187296
 40
0.9686244942
 40
1.0
 40
1.0
 40
1.0
 40
1.0
 10
4.8015853764
 20
21.4074815219
 30
0.0
 10
4.8026258781
 20
21.4052184793
 30
0.0
 10
4.8044912945
 20
21.4005910912
 30
0.0
 10
4.8066419216
 20
21.3934278164
 30
0.0
 10
4.8081572583
 20
21.3861073768
 30
0.0
 10
4.8090378247
 20
21.3786888837
 30
0.0
 10
4.8092599319
 20
21.3712267723
 30
0.0
 10
4.8087994241
 20
21.3637804452
 30
0.0
 10
4.8076569334
 20
21.3564130078
 30
0.0
 10
4.8058458966
 20
21.3491864881
 30
0.0
 10
4.8033760009
 20
21.3421638557
 30
0.0
 10
4.8002857512
 20
21.3353966601
 30
0.0
 10
4.7966133485
 20
21.3289309007
 30
0.0
 10
4.7923907764
 20
21.322814335
 30
0.0
 10
4.7876427797
 20
21.3170993058
 30
0.0
 10
4.782394697
 20
21.3118417734
 30
0.0
 10
4.7766906149
 20
21.3070825798
 30
0.0
 10
4.7685495834
 20
21.3014511914
 30
0.0
 10
4.7574637481
 20
21.2958250695
 30
0.0
 10
4.7455542948
 20
21.2922466722
 30
0.0
 10
4.7357623236
 20
21.2906929806
 30
0.0
 10
4.7283301165
 20
21.290205504
 30
0.0
 10
4.7208789136
 20
21.2904006671
 30
0.0
 10
4.7110060963
 20
21.2915532452
 30
0.0
 10
4.7013201908
 20
21.2940388101
 30
0.0
 10
4.6920945339
 20
21.2977718935
 30
0.0
 10
4.6854405293
 20
21.3011846133
 30
0.0
 10
4.6791198874
 20
21.3051888864
 30
0.0
 10
4.6731981604
 20
21.3097708333
 30
0.0
 10
4.6677253796
 20
21.3148796029
 30
0.0
 10
4.6643885821
 20
21.3185927426
 30
0.0
 10
4.6628039784
 20
21.3205150645
 30
0.0
  0
SPLINE
  5
588
100
AcDbEntity
  8
0
100
AcDbSpline
 62
9
  6
CONTINUOUS
 70
0
 71
3
 72
34
 73
30
 74
0
 42
0.0000001
 43
0.0000001
 44
0.0000000001
 40
0.0
 40
0.0
 40
0.0
 40
0.0
 40
0.0313825484
 40
0.0627741313
 40
0.0784633266
 40
0.0941480021
 40
0.1255055696
 40
0.1568536519
 40
0.1881696179
 40
0.2194526907
 40
0.250717546
 40
0.2819632851
 40
0.3131798128
 40
0.3754830597
 40
0.4377260296
 40
0.4999310175
 40
0.5621441967
 40
0.6243939519
 40
0.6867143366
 40
0.7179470997
 40
0.7492027328
 40
0.7804795201
 40
0.8117831319
 40
0.8431146123
 40
0.8744679172
 40
0.905834484
 40
0.9372229872
 40
0.9686314822
 40
1.0
 40
1.0
 40
1.0
 40
1.0
 10
5.7203381339
 20
21.1655731379
 30
0.0
 10
5.7178417233
 20
21.1645616343
 30
0.0
 10
5.7129299908
 20
21.1623285186
 30
0.0
 10
5.7070705251
 20
21.1589861692
 30
0.0
 10
5.7026071658
 20
21.155965584
 30
0.0
 10
5.6983098835
 20
21.1527182057
 30
0.0
 10
5.693255601
 20
21.1482590486
 30
0.0
 10
5.687739106
 20
21.1423530792
 30
0.0
 10
5.6828072503
 20
21.1359583461
 30
0.0
 10
5.6785185307
 20
21.1291230867
 30
0.0
 10
5.6749310956
 20
21.1219017811
 30
0.0
 10
5.6720729892
 20
21.1143675361
 30
0.0
 10
5.6692780779
 20
21.1040149209
 30
0.0
 10
5.6677075627
 20
21.0906480889
 30
0.0
 10
5.6688924291
 20
21.0745651682
 30
0.0
 10
5.6731977548
 20
21.0590251164
 30
0.0
 10
5.6804302696
 20
21.0446158846
 30
0.0
 10
5.6903011096
 20
21.0318595836
 30
0.0
 10
5.7004405282
 20
21.0229992562
 30
0.0
 10
5.7094647904
 20
21.0172011722
 30
0.0
 10
5.7166384073
 20
21.0135237665
 30
0.0
 10
5.724143824
 20
21.0105672729
 30
0.0
 10
5.7319075928
 20
21.0083541069
 30
0.0
 10
5.7398547476
 20
21.0068978111
 30
0.0
 10
5.7479109292
 20
21.0062153226
 30
0.0
 10
5.7560010012
 20
21.0063253418
 30
0.0
 10
5.7640431037
 20
21.0072582865
 30
0.0
 10
5.7719520708
 20
21.0089785783
 30
0.0
 10
5.7770977286
 20
21.0106050815
 30
0.0
 10
5.7796266288
 20
21.0115288688
 30
0.0
  0
SPLINE
  5
589
100
AcDbEntity
  8
0
100
AcDbSpline
 62
9
  6
CONTINUOUS
 70
0
 71
3
 72
31
 73
27
 74
0
 42
0.0000001
 43
0.0000001
 44
0.0000000001
 40
0.0
 40
0.0
 40
0.0
 40
0.0
 40
0.0313784668
 40
0.062790836
 40
0.0941821693
 40
0.1255559881
 40
0.1569251255
 40
0.1882771629
 40
0.2195989435
 40
0.2508932835
 40
0.2821718804
 40
0.3134320629
 40
0.3446651055
 40
0.3758755512
 40
0.4070732718
 40
0.4382587242
 40
0.5005209758
 40
0.5627640396
 40
0.625017229
 40
0.6873055284
 40
0.749660582
 40
0.8121009789
 40
0.8433828181
 40
0.8746871272
 40
0.9373104426
 40
1.0
 40
1.0
 40
1.0
 40
1.0
 10
5.1065596894
 20
21.1822679627
 30
0.0
 10
5.1042823729
 20
21.1832345746
 30
0.0
 10
5.0996472588
 20
21.1849913284
 30
0.0
 10
5.092500114
 20
21.1870385291
 30
0.0
 10
5.0851949994
 20
21.1884294583
 30
0.0
 10
5.0777944052
 20
21.1891187989
 30
0.0
 10
5.0703660612
 20
21.189136873
 30
0.0
 10
5.0629689423
 20
21.1885057133
 30
0.0
 10
5.0556607787
 20
21.1872322016
 30
0.0
 10
5.0485003078
 20
21.1853135406
 30
0.0
 10
5.041549105
 20
21.1827516001
 30
0.0
 10
5.0348621146
 20
21.1795746213
 30
0.0
 10
5.0284953915
 20
21.1758067931
 30
0.0
 10
5.0224994017
 20
21.1714824539
 30
0.0
 10
5.0169125439
 20
21.1666463906
 30
0.0
 10
5.0100673036
 20
21.1595810903
 30
0.0
 10
5.002720144
 20
21.1496579642
 30
0.0
 10
4.9962059014
 20
21.1363652498
 30
0.0
 10
4.992151713
 20
21.1221267126
 30
0.0
 10
4.990680045
 20
21.1073862555
 30
0.0
 10
4.9918466088
 20
21.0926045754
 30
0.0
 10
4.9950144443
 20
21.0806389147
 30
0.0
 10
4.9987985785
 20
21.0715243801
 30
0.0
 10
5.0033953917
 20
21.0627745612
 30
0.0
 10
5.0105769489
 20
21.0526478731
 30
0.0
 10
5.0176777911
 20
21.0456872548
 30
0.0
 10
5.0215139175
 20
21.0425705853
 30
0.0
  0
SPLINE
  5
58A
100
AcDbEntity
  8
0
100
AcDbSpline
 62
9
  6
CONTINUOUS
 70
0
 71
3
 72
9
 73
5
 74
0
 42
0.0000001
 43
0.0000001
 44
0.0000000001
 40
0.0
 40
0.0
 40
0.0
 40
0.0
 40
0.2502098675
 40
1.0
 40
1.0
 40
1.0
 40
1.0
 10
5.0235307141
 20
21.0409855372
 30
0.0
 10
5.0247719812
 20
21.0400420711
 30
0.0
 10
5.0298427668
 20
21.0364171956
 30
0.0
 10
5.0353180704
 20
21.0333661216
 30
0.0
 10
5.0395604057
 20
21.0314086902
 30
0.0
  0
LINE
  5
58B
100
AcDbEntity
  8
0
100
AcDbLine
 62
7
  6
CONTINUOUS
 10
3.6998218438
 20
20.8446593742
 11
3.7028717867
 21
20.8464064428
  0
LINE
  5
58C
100
AcDbEntity
  8
0
100
AcDbLine
 62
7
  6
CONTINUOUS
 10
3.7028717867
 20
20.8464064428
 11
3.7125106068
 21
20.8519409973
  0
LINE
  5
58D
100
AcDbEntity
  8
0
100
AcDbLine
 62
7
  6
CONTINUOUS
 10
3.7125107958
 20
20.8519410355
 11
3.7592254711
 21
20.8788464741
  0
LINE
  5
58E
100
AcDbEntity
  8
0
100
AcDbLine
 62
7
  6
CONTINUOUS
 10
3.7592254711
 20
20.8788464741
 11
3.8250101404
 21
20.9168607886
  0
LINE
  5
58F
100
AcDbEntity
  8
0
100
AcDbLine
 62
7
  6
CONTINUOUS
 10
3.8250101404
 20
20.9168607886
 11
3.8616294343
 21
20.9380862998
  0
LINE
  5
590
100
AcDbEntity
  8
0
100
AcDbLine
 62
7
  6
CONTINUOUS
 10
3.6348276775
 20
20.98649173
 11
3.623608464
 21
20.9799768577
  0
LINE
  5
591
100
AcDbEntity
  8
0
100
AcDbLine
 62
7
  6
CONTINUOUS
 10
3.623608464
 20
20.9799768577
 11
3.6142722515
 21
20.974532953
  0
LINE
  5
592
100
AcDbEntity
  8
0
100
AcDbLine
 62
7
  6
CONTINUOUS
 10
3.7839912402
 20
21.0725595771
 11
3.7465514911
 21
21.0510287654
  0
LINE
  5
593
100
AcDbEntity
  8
0
100
AcDbLine
 62
7
  6
CONTINUOUS
 10
3.7465514911
 20
21.0510287654
 11
3.6737003802
 21
21.0089947553
  0
LINE
  5
594
100
AcDbEntity
  8
0
100
AcDbLine
 62
7
  6
CONTINUOUS
 10
3.6737003802
 20
21.0089947553
 11
3.6348279743
 21
20.9864916873
  0
LINE
  5
595
100
AcDbEntity
  8
0
100
AcDbLine
 62
7
  6
CONTINUOUS
 10
4.2328194532
 20
21.2290920206
 11
4.2271972679
 21
21.2387959791
  0
LINE
  5
596
100
AcDbEntity
  8
0
100
AcDbLine
 62
9
  6
CONTINUOUS
 10
3.9841961919
 20
20.98545527
 11
4.1992224305
 21
21.1101805101
  0
SPLINE
  5
597
100
AcDbEntity
  8
0
100
AcDbSpline
 62
9
  6
CONTINUOUS
 70
0
 71
3
 72
22
 73
18
 74
0
 42
0.0000001
 43
0.0000001
 44
0.0000000001
 40
0.0
 40
0.0
 40
0.0
 40
0.0
 40
0.0618487529
 40
0.1237882713
 40
0.1856632758
 40
0.2475722347
 40
0.309662027
 40
0.3719383507
 40
0.4343066567
 40
0.4967053066
 40
0.5279418329
 40
0.5592208741
 40
0.6219132703
 40
0.6847767086
 40
0.7477228656
 40
0.8737841393
 40
1.0
 40
1.0
 40
1.0
 40
1.0
 10
4.1992224305
 20
21.1101805101
 30
0.0
 10
4.2016294374
 20
21.1116668276
 30
0.0
 10
4.2063636987
 20
21.1147807317
 30
0.0
 10
4.2131106153
 20
21.11995178
 30
0.0
 10
4.2193830034
 20
21.1257015833
 30
0.0
 10
4.2250124677
 20
21.1320941453
 30
0.0
 10
4.2299749841
 20
21.1390361974
 30
0.0
 10
4.2342803551
 20
21.1464260463
 30
0.0
 10
4.2379228448
 20
21.154179772
 30
0.0
 10
4.2403287809
 20
21.1609112746
 30
0.0
 10
4.2418306716
 20
21.1664263124
 30
0.0
 10
4.2430363729
 20
21.1720273915
 30
0.0
 10
4.2439884815
 20
21.1791513352
 30
0.0
 10
4.244269915
 20
21.187782568
 30
0.0
 10
4.2435331114
 20
21.1992950175
 30
0.0
 10
4.2405089068
 20
21.2134883102
 30
0.0
 10
4.2358004927
 20
21.2241479569
 30
0.0
 10
4.2328394099
 20
21.2291037595
 30
0.0
  0
SPLINE
  5
598
100
AcDbEntity
  8
0
100
AcDbSpline
 62
9
  6
CONTINUOUS
 70
0
 71
3
 72
14
 73
10
 74
0
 42
0.0000001
 43
0.0000001
 44
0.0000000001
 40
0.0
 40
0.0
 40
0.0
 40
0.0
 40
0.2388185921
 40
0.3680980477
 40
0.5000614001
 40
0.6319167167
 40
0.7609059581
 40
0.884070901
 40
1.0
 40
1.0
 40
1.0
 40
1.0
 10
3.8639741908
 20
21.1436479525
 30
0.0
 10
3.8651192852
 20
21.1413842481
 30
0.0
 10
3.8675989398
 20
21.1381940179
 30
0.0
 10
3.8719878203
 20
21.1351537372
 30
0.0
 10
3.8758595411
 20
21.1334999625
 30
0.0
 10
3.8799959741
 20
21.1327465789
 30
0.0
 10
3.8841036354
 20
21.1328428464
 30
0.0
 10
3.8879321372
 20
21.133757781
 30
0.0
 10
3.8902594155
 20
21.1348172681
 30
0.0
 10
3.89132633
 20
21.1354322288
 30
0.0
  0
SPLINE
  5
599
100
AcDbEntity
  8
0
100
AcDbSpline
 62
9
  6
CONTINUOUS
 70
0
 71
3
 72
18
 73
14
 74
0
 42
0.0000001
 43
0.0000001
 44
0.0000000001
 40
0.0
 40
0.0
 40
0.0
 40
0.0
 40
0.1718617942
 40
0.3453268571
 40
0.5117225564
 40
0.6635150646
 40
0.7936970938
 40
0.8486768258
 40
0.8960858084
 40
0.9353490548
 40
0.9659685983
 40
0.9876184716
 40
1.0
 40
1.0
 40
1.0
 40
1.0
 10
3.939912807
 20
20.9826257006
 30
0.0
 10
3.941613727
 20
20.9836127583
 30
0.0
 10
3.9450334372
 20
20.9855926325
 30
0.0
 10
3.9501063112
 20
20.9885171992
 30
0.0
 10
3.9549856259
 20
20.9913176935
 30
0.0
 10
3.9594409467
 20
20.9938619289
 30
0.0
 10
3.9627942064
 20
20.995765102
 30
0.0
 10
3.9651128265
 20
20.9970713341
 30
0.0
 10
3.9665270802
 20
20.9978633065
 30
0.0
 10
3.9677006253
 20
20.9985144985
 30
0.0
 10
3.9686188724
 20
20.9990185263
 30
0.0
 10
3.9692714528
 20
20.9993666322
 30
0.0
 10
3.9696170727
 20
20.999546651
 30
0.0
 10
3.9697461382
 20
20.9996050891
 30
0.0
  0
SPLINE
  5
59A
100
AcDbEntity
  8
0
100
AcDbSpline
 62
9
  6
CONTINUOUS
 70
0
 71
3
 72
18
 73
14
 74
0
 42
0.0000001
 43
0.0000001
 44
0.0000000001
 40
0.0
 40
0.0
 40
0.0
 40
0.0
 40
0.1680541974
 40
0.3402395817
 40
0.5076173073
 40
0.6597729006
 40
0.787268274
 40
0.8401990665
 40
0.8853782684
 40
0.9227870032
 40
0.9533209739
 40
0.9784046784
 40
1.0
 40
1.0
 40
1.0
 40
1.0
 10
3.9538252567
 20
20.9682383622
 30
0.0
 10
3.9532381974
 20
20.9692425051
 30
0.0
 10
3.9520048269
 20
20.9712496185
 30
0.0
 10
3.9500304716
 20
20.9741574828
 30
0.0
 10
3.9479652214
 20
20.9768652134
 30
0.0
 10
3.9459339737
 20
20.9792022191
 30
0.0
 10
3.944267543
 20
20.9807987606
 30
0.0
 10
3.9430307504
 20
20.9817543247
 30
0.0
 10
3.9422391982
 20
20.9822607258
 30
0.0
 10
3.9415298629
 20
20.9825985337
 30
0.0
 10
3.9409057292
 20
20.9827733399
 30
0.0
 10
3.9403650873
 20
20.982792983
 30
0.0
 10
3.940047927
 20
20.9826977707
 30
0.0
 10
3.9399159867
 20
20.9826275382
 30
0.0
  0
LINE
  5
59B
100
AcDbEntity
  8
0
100
AcDbLine
 62
7
  6
CONTINUOUS
 10
4.2089160871
 20
21.2282413321
 11
4.2271972679
 21
21.2387959791
  0
SPLINE
  5
59C
100
AcDbEntity
  8
0
100
AcDbSpline
 62
9
  6
CONTINUOUS
 70
0
 71
3
 72
18
 73
14
 74
0
 42
0.0000001
 43
0.0000001
 44
0.0000000001
 40
0.0
 40
0.0
 40
0.0
 40
0.0
 40
0.0183998678
 40
0.0406174416
 40
0.0687599508
 40
0.1042547494
 40
0.1479683416
 40
0.1998638994
 40
0.3266582377
 40
0.4800381602
 40
0.6503509791
 40
0.8268586372
 40
1.0
 40
1.0
 40
1.0
 40
1.0
 10
4.1859682638
 20
21.1249470829
 30
0.0
 10
4.186079291
 20
21.1250052636
 30
0.0
 10
4.1863561911
 20
21.1250756715
 30
0.0
 10
4.1868278662
 20
21.1250210003
 30
0.0
 10
4.1873799547
 20
21.1248173084
 30
0.0
 10
4.1880177398
 20
21.1244549645
 30
0.0
 10
4.1887401925
 20
21.1239276268
 30
0.0
 10
4.189890077
 20
21.1229393489
 30
0.0
 10
4.1914627699
 20
21.1213070708
 30
0.0
 10
4.1934126203
 20
21.1189350457
 30
0.0
 10
4.1954297217
 20
21.1161866773
 30
0.0
 10
4.1973888384
 20
21.1132343348
 30
0.0
 10
4.1986282031
 20
21.1111994478
 30
0.0
 10
4.1992226644
 20
21.110180691
 30
0.0
  0
SPLINE
  5
59D
100
AcDbEntity
  8
0
100
AcDbSpline
 62
9
  6
CONTINUOUS
 70
0
 71
3
 72
18
 73
14
 74
0
 42
0.0000001
 43
0.0000001
 44
0.0000000001
 40
0.0
 40
0.0
 40
0.0
 40
0.0
 40
0.1821152424
 40
0.3581218117
 40
0.5208922839
 40
0.6651106194
 40
0.7863656934
 40
0.8374542214
 40
0.8818472736
 40
0.9195421194
 40
0.9509873454
 40
0.9771786578
 40
1.0
 40
1.0
 40
1.0
 40
1.0
 10
3.9841968843
 20
20.9854556972
 30
0.0
 10
3.983561789
 20
20.986542137
 30
0.0
 10
3.9822623144
 20
20.9886494523
 30
0.0
 10
3.9802295608
 20
20.9916216787
 30
0.0
 10
3.9781971847
 20
20.9942717632
 30
0.0
 10
3.9762474529
 20
20.9965006068
 30
0.0
 10
3.9746697587
 20
20.9980229441
 30
0.0
 10
3.9734915383
 20
20.9989496569
 30
0.0
 10
3.9727211116
 20
20.9994557069
 30
0.0
 10
3.972017672
 20
20.9998084266
 30
0.0
 10
3.9713850782
 20
21.0000060151
 30
0.0
 10
3.9708235452
 20
21.0000458731
 30
0.0
 10
3.9704879948
 20
20.9999517693
 30
0.0
 10
3.9703487628
 20
20.9998777174
 30
0.0
  0
LINE
  5
59E
100
AcDbEntity
  8
0
100
AcDbLine
 62
9
  6
CONTINUOUS
 10
4.1859686477
 20
21.1249473879
 11
3.9703488088
 21
20.9998776738
  0
LINE
  5
59F
100
AcDbEntity
  8
0
100
AcDbLine
 62
9
  6
CONTINUOUS
 10
3.939912807
 20
20.9826257006
 11
3.8620442757
 21
20.9374312513
  0
SPLINE
  5
5A0
100
AcDbEntity
  8
0
100
AcDbSpline
 62
9
  6
CONTINUOUS
 70
0
 71
3
 72
52
 73
48
 74
0
 42
0.0000001
 43
0.0000001
 44
0.0000000001
 40
0.0
 40
0.0
 40
0.0
 40
0.0
 40
0.1086786533
 40
0.2116862356
 40
0.3060366789
 40
0.3492427185
 40
0.3894534105
 40
0.4264162055
 40
0.4599179844
 40
0.4897560422
 40
0.515727729
 40
0.527202489
 40
0.5376478381
 40
0.5470518759
 40
0.5554027263
 40
0.5626885519
 40
0.5688975825
 40
0.5740181731
 40
0.5780389456
 40
0.5809514184
 40
0.582758223
 40
0.5832521467
 40
0.5834005867
 40
0.5834906191
 40
0.5835522677
 40
0.5836477153
 40
0.5838027207
 40
0.5840230421
 40
0.5846658208
 40
0.58558192
 40
0.5867728401
 40
0.5882391481
 40
0.5899810662
 40
0.5919986601
 40
0.5968607463
 40
0.6028222793
 40
0.6098701911
 40
0.6179890393
 40
0.6271633027
 40
0.6373774152
 40
0.6486157839
 40
0.6741028258
 40
0.7034858141
 40
0.7365746903
 40
0.8130612199
 40
0.9017412019
 40
1.0
 40
1.0
 40
1.0
 40
1.0
 10
3.7125954938
 20
20.8519928596
 30
0.0
 10
3.7094815163
 20
20.8502017618
 30
0.0
 10
3.7034135975
 20
20.8467172992
 30
0.0
 10
3.6946335364
 20
20.8416930685
 30
0.0
 10
3.6877248996
 20
20.8377558843
 30
0.0
 10
3.6826148535
 20
20.834854981
 30
0.0
 10
3.6791520105
 20
20.8328948762
 30
0.0
 10
3.6759656905
 20
20.8310974368
 30
0.0
 10
3.6730751774
 20
20.8294734621
 30
0.0
 10
3.6704983263
 20
20.8280329344
 30
0.0
 10
3.6685540646
 20
20.8269529615
 30
0.0
 10
3.6671679302
 20
20.8261883209
 30
0.0
 10
3.6662601804
 20
20.8256902604
 30
0.0
 10
3.6654417314
 20
20.8252441109
 30
0.0
 10
3.6647136413
 20
20.8248504244
 30
0.0
 10
3.6640769387
 20
20.8245097408
 30
0.0
 10
3.6635327599
 20
20.8242225901
 30
0.0
 10
3.6630819553
 20
20.8239894582
 30
0.0
 10
3.6627261441
 20
20.8238107544
 30
0.0
 10
3.6624645952
 20
20.8236864286
 30
0.0
 10
3.6623074272
 20
20.823618518
 30
0.0
 10
3.6622290264
 20
20.82359314
 30
0.0
 10
3.662205689
 20
20.8235903377
 30
0.0
 10
3.6621946416
 20
20.8235908598
 30
0.0
 10
3.6621905354
 20
20.8235993627
 30
0.0
 10
3.6621961792
 20
20.8236090723
 30
0.0
 10
3.6622053237
 20
20.823621168
 30
0.0
 10
3.6622292863
 20
20.8236452696
 30
0.0
 10
3.6622741201
 20
20.8236830887
 30
0.0
 10
3.662346408
 20
20.8237383771
 30
0.0
 10
3.6624422384
 20
20.8238073785
 30
0.0
 10
3.6625617908
 20
20.8238901885
 30
0.0
 10
3.6627050441
 20
20.82398671
 30
0.0
 10
3.6629428924
 20
20.8241437037
 30
0.0
 10
3.6632997587
 20
20.8243735363
 30
0.0
 10
3.6637992286
 20
20.8246889818
 30
0.0
 10
3.6643920535
 20
20.8250581845
 30
0.0
 10
3.665076982
 20
20.8254803605
 30
0.0
 10
3.6658527077
 20
20.8259546747
 30
0.0
 10
3.6667179102
 20
20.8264803111
 30
0.0
 10
3.6680458362
 20
20.8272827994
 30
0.0
 10
3.6699194652
 20
20.8284073423
 30
0.0
 10
3.6724165978
 20
20.8298965119
 30
0.0
 10
3.6763667725
 20
20.8322404095
 30
0.0
 10
3.6820116984
 20
20.835569113
 30
0.0
 10
3.6895230756
 20
20.8399735168
 30
0.0
 10
3.6948595037
 20
20.8430888177
 30
0.0
 10
3.6976657454
 20
20.8447240372
 30
0.0
  0
LINE
  5
5A1
100
AcDbEntity
  8
0
100
AcDbLine
 62
9
  6
CONTINUOUS
 10
3.6976657454
 20
20.8447240372
 11
3.711483493
 21
20.8527719231
  0
SPLINE
  5
5A2
100
AcDbEntity
  8
0
100
AcDbSpline
 62
9
  6
CONTINUOUS
 70
0
 71
3
 72
12
 73
8
 74
0
 42
0.0000001
 43
0.0000001
 44
0.0000000001
 40
0.0
 40
0.0
 40
0.0
 40
0.0
 40
0.295416982
 40
0.5717537221
 40
0.8116327431
 40
0.9131019827
 40
1.0
 40
1.0
 40
1.0
 40
1.0
 10
3.8608986076
 20
20.9393756539
 30
0.0
 10
3.8928208009
 20
20.9578034339
 30
0.0
 10
3.9546414071
 20
20.9934030399
 30
0.0
 10
4.0425141414
 20
21.0437375967
 30
0.0
 10
4.1094922794
 20
21.081863245
 30
0.0
 10
4.1560116336
 20
21.1081498438
 30
0.0
 10
4.1765041341
 20
21.1196579057
 30
0.0
 10
4.1859686477
 20
21.1249473879
 30
0.0
  0
LINE
  5
5A3
100
AcDbEntity
  8
0
100
AcDbLine
 62
9
  6
CONTINUOUS
 10
3.7836312481
 20
21.0732465633
 11
3.8617101062
 21
21.1180883661
  0
LINE
  5
5A4
100
AcDbEntity
  8
0
100
AcDbLine
 62
9
  6
CONTINUOUS
 10
3.8918637643
 20
21.135817864
 11
4.1079869848
 21
21.2600151221
  0
SPLINE
  5
5A5
100
AcDbEntity
  8
0
100
AcDbSpline
 62
9
  6
CONTINUOUS
 70
0
 71
3
 72
12
 73
8
 74
0
 42
0.0000001
 43
0.0000001
 44
0.0000000001
 40
0.0
 40
0.0
 40
0.0
 40
0.0
 40
0.0868977891
 40
0.1883668997
 40
0.4282459044
 40
0.7045828031
 40
1.0
 40
1.0
 40
1.0
 40
1.0
 10
4.1079869848
 20
21.2600151221
 30
0.0
 10
4.0986739362
 20
21.2544633732
 30
0.0
 10
4.078461471
 20
21.2424704116
 30
0.0
 10
4.032437018
 20
21.2153268177
 30
0.0
 10
3.9659302338
 20
21.1763849096
 30
0.0
 10
3.8784029099
 20
21.1254521957
 30
0.0
 10
3.8166624642
 20
21.0897137955
 30
0.0
 10
3.7847424501
 20
21.0712822602
 30
0.0
  0
SPLINE
  5
5A6
100
AcDbEntity
  8
0
100
AcDbSpline
 62
9
  6
CONTINUOUS
 70
0
 71
3
 72
52
 73
48
 74
0
 42
0.0000001
 43
0.0000001
 44
0.0000000001
 40
0.0
 40
0.0
 40
0.0
 40
0.0
 40
0.0982547878
 40
0.1869296776
 40
0.2634103437
 40
0.2964960605
 40
0.3258757223
 40
0.3513592953
 40
0.3625958851
 40
0.3728081852
 40
0.3819805996
 40
0.3900975592
 40
0.3971435401
 40
0.4031030971
 40
0.4079631779
 40
0.4099797652
 40
0.4117206739
 40
0.4131859699
 40
0.4143758759
 40
0.4152909604
 40
0.4159327293
 40
0.4161525549
 40
0.416307085
 40
0.4164021355
 40
0.4164637534
 40
0.4165541653
 40
0.4167030798
 40
0.4171980182
 40
0.4190069181
 40
0.4219215248
 40
0.4259444424
 40
0.4310671661
 40
0.4372783168
 40
0.4445662491
 40
0.4529191922
 40
0.4623253084
 40
0.4727727214
 40
0.4842495306
 40
0.5102251812
 40
0.5400669939
 40
0.5735723573
 40
0.6105386049
 40
0.6507525646
 40
0.6939615043
 40
0.7883160014
 40
0.8913241275
 40
1.0
 40
1.0
 40
1.0
 40
1.0
 10
3.6211543904
 20
20.9772437372
 30
0.0
 10
3.618334994
 20
20.9756309934
 30
0.0
 10
3.6129686369
 20
20.9725670402
 30
0.0
 10
3.605398382
 20
20.9682640653
 30
0.0
 10
3.5996930771
 20
20.9650397158
 30
0.0
 10
3.5956881145
 20
20.9627907182
 30
0.0
 10
3.5931499503
 20
20.9613727615
 30
0.0
 10
3.5912393298
 20
20.9603124703
 30
0.0
 10
3.5898804738
 20
20.9595637471
 30
0.0
 10
3.5889927355
 20
20.9590773246
 30
0.0
 10
3.5881941931
 20
20.9586427364
 30
0.0
 10
3.5874862137
 20
20.9582607184
 30
0.0
 10
3.5868701743
 20
20.9579319845
 30
0.0
 10
3.586347379
 20
20.9576572264
 30
0.0
 10
3.5859700148
 20
20.9574631523
 30
0.0
 10
3.5857152228
 20
20.9573357218
 30
0.0
 10
3.5855600796
 20
20.9572599645
 30
0.0
 10
3.5854286634
 20
20.9571978786
 30
0.0
 10
3.5853210705
 20
20.9571494326
 30
0.0
 10
3.5852371237
 20
20.9571145215
 30
0.0
 10
3.5851820279
 20
20.9570946403
 30
0.0
 10
3.5851492234
 20
20.9570859759
 30
0.0
 10
3.5851342261
 20
20.9570841217
 30
0.0
 10
3.5851230061
 20
20.9570841235
 30
0.0
 10
3.585117779
 20
20.9570919852
 30
0.0
 10
3.585122896
 20
20.9571018053
 30
0.0
 10
3.5851370461
 20
20.9571206633
 30
0.0
 10
3.5851983408
 20
20.9571759133
 30
0.0
 10
3.5853358942
 20
20.9572781894
 30
0.0
 10
3.5855745446
 20
20.957442642
 30
0.0
 10
3.5859074245
 20
20.9576615626
 30
0.0
 10
3.586334947
 20
20.9579355321
 30
0.0
 10
3.5868559448
 20
20.9582633634
 30
0.0
 10
3.5874695727
 20
20.958644559
 30
0.0
 10
3.5881748031
 20
20.9590784014
 30
0.0
 10
3.5889706541
 20
20.959564269
 30
0.0
 10
3.5898561185
 20
20.9601015215
 30
0.0
 10
3.5912117363
 20
20.9609198324
 30
0.0
 10
3.5931196011
 20
20.9620638858
 30
0.0
 10
3.5956561101
 20
20.9635755575
 30
0.0
 10
3.5985083333
 20
20.9652671521
 30
0.0
 10
3.6016586975
 20
20.967128197
 30
0.0
 10
3.6050882011
 20
20.9691473873
 30
0.0
 10
3.6101562249
 20
20.9721227901
 30
0.0
 10
3.6170210716
 20
20.9761377229
 30
0.0
 10
3.6257630432
 20
20.9812298354
 30
0.0
 10
3.6318151081
 20
20.9847428473
 30
0.0
 10
3.6349234283
 20
20.9865441952
 30
0.0
  0
LINE
  5
5A7
100
AcDbEntity
  8
0
100
AcDbLine
 62
9
  6
CONTINUOUS
 10
3.8725537774
 20
20.9210684869
 11
3.9538245573
 21
20.9682375017
  0
SPLINE
  5
5A8
100
AcDbEntity
  8
0
100
AcDbSpline
 62
9
  6
CONTINUOUS
 70
0
 71
3
 72
19
 73
15
 74
0
 42
0.0000001
 43
0.0000001
 44
0.0000000001
 40
0.0
 40
0.0
 40
0.0
 40
0.0
 40
0.167693736
 40
0.33050196
 40
0.4829727185
 40
0.6210289802
 40
0.6836737387
 40
0.7416349891
 40
0.7947912405
 40
0.843236445
 40
0.8872527899
 40
0.9274049804
 40
0.9645877355
 40
1.0
 40
1.0
 40
1.0
 40
1.0
 10
3.6400073479
 20
20.888715091
 30
0.0
 10
3.6421854161
 20
20.8849712364
 30
0.0
 10
3.6467795639
 20
20.877763371
 30
0.0
 10
3.65433596
 20
20.8678187549
 30
0.0
 10
3.6622523011
 20
20.8591677466
 30
0.0
 10
3.669110077
 20
20.8531144405
 30
0.0
 10
3.6745554472
 20
20.8492341042
 30
0.0
 10
3.6784095414
 20
20.8469235409
 30
0.0
 10
3.6821329383
 20
20.8451404229
 30
0.0
 10
3.6856929837
 20
20.8438986493
 30
0.0
 10
3.6890620976
 20
20.8432140575
 30
0.0
 10
3.692211752
 20
20.8431043857
 30
0.0
 10
3.69510658
 20
20.8435714068
 30
0.0
 10
3.6968637549
 20
20.8442810717
 30
0.0
 10
3.6976644067
 20
20.8447232865
 30
0.0
  0
SPLINE
  5
5A9
100
AcDbEntity
  8
0
100
AcDbSpline
 62
9
  6
CONTINUOUS
 70
0
 71
3
 72
17
 73
13
 74
0
 42
0.0000001
 43
0.0000001
 44
0.0000000001
 40
0.0
 40
0.0
 40
0.0
 40
0.0
 40
0.1239513696
 40
0.2479728478
 40
0.372171679
 40
0.4344865148
 40
0.4968776066
 40
0.6217802428
 40
0.7472368878
 40
0.8102192217
 40
0.8733539184
 40
1.0
 40
1.0
 40
1.0
 40
1.0
 10
4.2145415497
 20
21.2185034083
 30
0.0
 10
4.2167928847
 20
21.2146197188
 30
0.0
 10
4.2204652601
 20
21.2063364612
 30
0.0
 10
4.2232585797
 20
21.1930541429
 30
0.0
 10
4.2231972427
 20
21.1817181124
 30
0.0
 10
4.2217811832
 20
21.1728031637
 30
0.0
 10
4.219471387
 20
21.1640487417
 30
0.0
 10
4.2149340338
 20
21.1535860364
 30
0.0
 10
4.2084942103
 20
21.1441580124
 30
0.0
 10
4.2023568231
 20
21.1374087647
 30
0.0
 10
4.195607317
 20
21.131211517
 30
0.0
 10
4.189938298
 20
21.1272451069
 30
0.0
 10
4.1859687173
 20
21.1249473472
 30
0.0
  0
LINE
  5
5AA
100
AcDbEntity
  8
0
100
AcDbLine
 62
9
  6
CONTINUOUS
 10
4.101825591
 20
21.2788767921
 11
3.8862975842
 21
21.1550214477
  0
SPLINE
  5
5AB
100
AcDbEntity
  8
0
100
AcDbSpline
 62
9
  6
CONTINUOUS
 70
0
 71
3
 72
18
 73
14
 74
0
 42
0.0000001
 43
0.0000001
 44
0.0000000001
 40
0.0
 40
0.0
 40
0.0
 40
0.0
 40
0.1731413637
 40
0.3496490174
 40
0.5199618328
 40
0.6733417379
 40
0.8001360748
 40
0.852031639
 40
0.8957452323
 40
0.9312400354
 40
0.9593825579
 40
0.9816001409
 40
1.0
 40
1.0
 40
1.0
 40
1.0
 10
4.1018261194
 20
21.2788770508
 30
0.0
 10
4.1024111552
 20
21.2778528516
 30
0.0
 10
4.1035537308
 20
21.2757620823
 30
0.0
 10
4.1051309671
 20
21.2725892601
 30
0.0
 10
4.1065025645
 20
21.2694682094
 30
0.0
 10
4.1075818651
 20
21.2665935726
 30
0.0
 10
4.1082091068
 20
21.2644154389
 30
0.0
 10
4.1084900345
 20
21.2629254693
 30
0.0
 10
4.1085854937
 20
21.2620361373
 30
0.0
 10
4.1085803983
 20
21.2613026268
 30
0.0
 10
4.1084807553
 20
21.2607226579
 30
0.0
 10
4.1082922639
 20
21.2602868397
 30
0.0
 10
4.1080928387
 20
21.2600822411
 30
0.0
 10
4.1079869391
 20
21.260015179
 30
0.0
  0
SPLINE
  5
5AC
100
AcDbEntity
  8
0
100
AcDbSpline
 62
9
  6
CONTINUOUS
 70
0
 71
3
 72
18
 73
14
 74
0
 42
0.0000001
 43
0.0000001
 44
0.0000000001
 40
0.0
 40
0.0
 40
0.0
 40
0.0
 40
0.0230429502
 40
0.0493562737
 40
0.0808061373
 40
0.1183989449
 40
0.162612401
 40
0.2135190198
 40
0.3346360955
 40
0.4790240435
 40
0.6419353468
 40
0.8179348542
 40
1.0
 40
1.0
 40
1.0
 40
1.0
 10
3.8918638686
 20
21.1358178539
 30
0.0
 10
3.8919989722
 20
21.1359021755
 30
0.0
 10
3.8922507828
 20
21.1361464662
 30
0.0
 10
3.8925004128
 20
21.136653973
 30
0.0
 10
3.8926463886
 20
21.137300912
 30
0.0
 10
3.8926898819
 20
21.138085001
 30
0.0
 10
3.8926302837
 20
21.1390018373
 30
0.0
 10
3.892406294
 20
21.1404807221
 30
0.0
 10
3.8918702575
 20
21.1426051384
 30
0.0
 10
3.8909355009
 20
21.1454163515
 30
0.0
 10
3.8896755882
 20
21.1485126289
 30
0.0
 10
3.8881141656
 20
21.1517591185
 30
0.0
 10
3.8869278589
 20
21.153932306
 30
0.0
 10
3.8862980582
 20
21.1550216687
 30
0.0
  0
SPLINE
  5
5AD
100
AcDbEntity
  8
0
100
AcDbSpline
 62
9
  6
CONTINUOUS
 70
0
 71
3
 72
23
 73
19
 74
0
 42
0.0000001
 43
0.0000001
 44
0.0000000001
 40
0.0
 40
0.0
 40
0.0
 40
0.0
 40
0.0617825985
 40
0.1236469468
 40
0.1855075292
 40
0.2474377028
 40
0.3094917334
 40
0.3716776862
 40
0.4339786405
 40
0.4963910527
 40
0.5589481302
 40
0.6216457584
 40
0.6844430481
 40
0.7473356271
 40
0.8103831965
 40
0.8736241158
 40
0.9369000747
 40
1.0
 40
1.0
 40
1.0
 40
1.0
 10
4.101825591
 20
21.2788767921
 30
0.0
 10
4.1043046156
 20
21.280235509
 30
0.0
 10
4.1093590859
 20
21.2827899552
 30
0.0
 10
4.1172169263
 20
21.2860247732
 30
0.0
 10
4.1253437975
 20
21.2885439636
 30
0.0
 10
4.1336922067
 20
21.2902344196
 30
0.0
 10
4.1421787155
 20
21.2911089532
 30
0.0
 10
4.1507268746
 20
21.2911711909
 30
0.0
 10
4.1592585938
 20
21.2904166175
 30
0.0
 10
4.1676939858
 20
21.288832047
 30
0.0
 10
4.1759454513
 20
21.286402946
 30
0.0
 10
4.1839278846
 20
21.283152165
 30
0.0
 10
4.1915584611
 20
21.2791110253
 30
0.0
 10
4.1987546566
 20
21.274310241
 30
0.0
 10
4.205455125
 20
21.2688083712
 30
0.0
 10
4.2116063762
 20
21.2626733968
 30
0.0
 10
4.2171108291
 20
21.2559467137
 30
0.0
 10
4.2202351312
 20
21.2510592201
 30
0.0
 10
4.2216246284
 20
21.2485283306
 30
0.0
  0
SPLINE
  5
5AE
100
AcDbEntity
  8
0
100
AcDbSpline
 62
9
  6
CONTINUOUS
 70
0
 71
3
 72
17
 73
13
 74
0
 42
0.0000001
 43
0.0000001
 44
0.0000000001
 40
0.0
 40
0.0
 40
0.0
 40
0.0
 40
0.1266459785
 40
0.1897810331
 40
0.2527636795
 40
0.3782203432
 40
0.5031228216
 40
0.5655140395
 40
0.6278290729
 40
0.7520278299
 40
0.876048082
 40
1.0
 40
1.0
 40
1.0
 40
1.0
 10
4.1079870108
 20
21.2600152184
 30
0.0
 10
4.1119617181
 20
21.2623041057
 30
0.0
 10
4.1182312578
 20
21.2652304239
 30
0.0
 10
4.1269730112
 20
21.2679770756
 30
0.0
 10
4.1358867563
 20
21.2699176255
 30
0.0
 10
4.1472716
 20
21.2707807048
 30
0.0
 10
4.1586012648
 20
21.2694787998
 30
0.0
 10
4.1673377264
 20
21.2671018955
 30
0.0
 10
4.1757663412
 20
21.2638707334
 30
0.0
 10
4.1856142869
 20
21.2582558725
 30
0.0
 10
4.1957205165
 20
21.2491957033
 30
0.0
 10
4.20105781
 20
21.2418736865
 30
0.0
 10
4.2032955173
 20
21.2379820979
 30
0.0
  0
SPLINE
  5
5AF
100
AcDbEntity
  8
0
100
AcDbSpline
 62
7
  6
CONTINUOUS
 70
0
 71
3
 72
25
 73
21
 74
0
 42
0.0000001
 43
0.0000001
 44
0.0000000001
 40
0.0
 40
0.0
 40
0.0
 40
0.0
 40
0.0759612643
 40
0.1520128802
 40
0.2279195079
 40
0.3037688928
 40
0.3795643514
 40
0.4553984209
 40
0.5311680856
 40
0.5690669761
 40
0.6068742355
 40
0.644550308
 40
0.6819980314
 40
0.742862229
 40
0.7736473785
 40
0.8038135495
 40
0.8410540375
 40
0.8864564046
 40
0.9397156228
 40
1.0
 40
1.0
 40
1.0
 40
1.0
 10
3.5707649269
 20
20.8480889539
 30
0.0
 10
3.5724900089
 20
20.8451018553
 30
0.0
 10
3.5764154493
 20
20.8393843352
 30
0.0
 10
3.5835361735
 20
20.8318191258
 30
0.0
 10
3.5917420794
 20
20.8254507774
 30
0.0
 10
3.6008185423
 20
20.8204271284
 30
0.0
 10
3.6105567392
 20
20.816858425
 30
0.0
 10
3.6207236692
 20
20.8148346887
 30
0.0
 10
3.6293586388
 20
20.8144669023
 30
0.0
 10
3.6362240881
 20
20.8149747962
 30
0.0
 10
3.6413201776
 20
20.815744747
 30
0.0
 10
3.6463221642
 20
20.8168992747
 30
0.0
 10
3.6522194147
 20
20.8187489307
 30
0.0
 10
3.6576282566
 20
20.8210504778
 30
0.0
 10
3.6625247237
 20
20.8236254546
 30
0.0
 10
3.6664387349
 20
20.8257615887
 30
0.0
 10
3.6709155632
 20
20.828251707
 30
0.0
 10
3.6762963921
 20
20.8312737608
 30
0.0
 10
3.682579009
 20
20.8348270537
 30
0.0
 10
3.6870613997
 20
20.837375261
 30
0.0
 10
3.6894401067
 20
20.8387302228
 30
0.0
  0
LINE
  5
5B0
100
AcDbEntity
  8
0
100
AcDbLine
 62
7
  6
CONTINUOUS
 10
3.6998218824
 20
20.8446593917
 11
3.7028717877
 21
20.8464064433
  0
LINE
  5
5B1
100
AcDbEntity
  8
0
100
AcDbLine
 62
7
  6
CONTINUOUS
 10
3.7028717877
 20
20.8464064433
 11
3.7125106121
 21
20.8519410144
  0
LINE
  5
5B2
100
AcDbEntity
  8
0
100
AcDbLine
 62
7
  6
CONTINUOUS
 10
3.7125107074
 20
20.8519413516
 11
3.7592254744
 21
20.878846466
  0
LINE
  5
5B3
100
AcDbEntity
  8
0
100
AcDbLine
 62
7
  6
CONTINUOUS
 10
3.7592254744
 20
20.878846466
 11
3.8250101593
 21
20.9168607673
  0
LINE
  5
5B4
100
AcDbEntity
  8
0
100
AcDbLine
 62
7
  6
CONTINUOUS
 10
3.8250101593
 20
20.9168607673
 11
3.8616293332
 21
20.9380864592
  0
LINE
  5
5B5
100
AcDbEntity
  8
0
100
AcDbLine
 62
7
  6
CONTINUOUS
 10
3.6348278387
 20
20.9864918277
 11
3.6236085471
 21
20.9799769224
  0
LINE
  5
5B6
100
AcDbEntity
  8
0
100
AcDbLine
 62
7
  6
CONTINUOUS
 10
3.6236085471
 20
20.9799769224
 11
3.614272306
 21
20.9745330107
  0
SPLINE
  5
5B7
100
AcDbEntity
  8
0
100
AcDbSpline
 62
7
  6
CONTINUOUS
 70
0
 71
3
 72
26
 73
22
 74
0
 42
0.0000001
 43
0.0000001
 44
0.0000000001
 40
0.0
 40
0.0
 40
0.0
 40
0.0
 40
0.0622249944
 40
0.1176015646
 40
0.1651668589
 40
0.204413512
 40
0.2359321789
 40
0.2499339228
 40
0.2650716123
 40
0.2867799259
 40
0.3190054911
 40
0.355821122
 40
0.3934063302
 40
0.4690145309
 40
0.5447576128
 40
0.6205487721
 40
0.6963344724
 40
0.7721632006
 40
0.8480381093
 40
0.9240505014
 40
1.0
 40
1.0
 40
1.0
 40
1.0
 10
3.614272306
 20
20.9745330107
 30
0.0
 10
3.6117825933
 20
20.9730780883
 30
0.0
 10
3.6070794334
 20
20.9703245154
 30
0.0
 10
3.6004822205
 20
20.9664432717
 30
0.0
 10
3.5948119268
 20
20.9630865414
 30
0.0
 10
3.5901043852
 20
20.9602740172
 30
0.0
 10
3.5867443281
 20
20.958238755
 30
0.0
 10
3.5843564676
 20
20.9567554317
 30
0.0
 10
3.5823696298
 20
20.9554882954
 30
0.0
 10
3.5797198013
 20
20.9536913074
 30
0.0
 10
3.5763628769
 20
20.951153233
 30
0.0
 10
3.5726355249
 20
20.947901549
 30
0.0
 10
3.5677620686
 20
20.9429359868
 30
0.0
 10
3.5623765369
 20
20.9359827626
 30
0.0
 10
3.5572953683
 20
20.9267153433
 30
0.0
 10
3.5537261788
 20
20.9167572546
 30
0.0
 10
3.5517633787
 20
20.9063586056
 30
0.0
 10
3.5514573104
 20
20.8957771749
 30
0.0
 10
3.5528158178
 20
20.8852670052
 30
0.0
 10
3.5558187987
 20
20.8751009089
 30
0.0
 10
3.5588593813
 20
20.8687107307
 30
0.0
 10
3.5606188865
 20
20.8656624031
 30
0.0
  0
LINE
  5
5B8
100
AcDbEntity
  8
0
100
AcDbLine
 62
7
  6
CONTINUOUS
 10
3.7839913649
 20
21.0725593386
 11
3.7465514803
 21
21.0510287965
  0
LINE
  5
5B9
100
AcDbEntity
  8
0
100
AcDbLine
 62
7
  6
CONTINUOUS
 10
3.7465514803
 20
21.0510287965
 11
3.6737003601
 21
21.008994779
  0
LINE
  5
5BA
100
AcDbEntity
  8
0
100
AcDbLine
 62
7
  6
CONTINUOUS
 10
3.6737003601
 20
21.008994779
 11
3.6348283459
 21
20.9864915735
  0
LINE
  5
5BB
100
AcDbEntity
  8
0
100
AcDbLine
 62
9
  6
CONTINUOUS
 10
4.2328348579
 20
21.2291011661
 11
4.2271884062
 21
21.2387908604
  0
SPLINE
  5
5BC
100
AcDbEntity
  8
0
100
AcDbSpline
 62
9
  6
CONTINUOUS
 70
0
 71
3
 72
22
 73
18
 74
0
 42
0.0000001
 43
0.0000001
 44
0.0000000001
 40
0.0
 40
0.0
 40
0.0
 40
0.0
 40
0.061848694
 40
0.1237881668
 40
0.1856631701
 40
0.247572116
 40
0.3096618618
 40
0.371938173
 40
0.4343065301
 40
0.4967051532
 40
0.5279415976
 40
0.5592205056
 40
0.6219126897
 40
0.6847762514
 40
0.747722762
 40
0.8737837908
 40
1.0
 40
1.0
 40
1.0
 40
1.0
 10
4.1992224268
 20
21.1101805089
 30
0.0
 10
4.2016294485
 20
21.111666776
 30
0.0
 10
4.206363716
 20
21.1147806249
 30
0.0
 10
4.2131105912
 20
21.1199516667
 30
0.0
 10
4.2193829123
 20
21.1257014893
 30
0.0
 10
4.225012334
 20
21.1320940374
 30
0.0
 10
4.2299748502
 20
21.1390360426
 30
0.0
 10
4.2342802464
 20
21.1464258366
 30
0.0
 10
4.2379227697
 20
21.1541795098
 30
0.0
 10
4.24032872
 20
21.1609109756
 30
0.0
 10
4.2418305978
 20
21.1664259824
 30
0.0
 10
4.243036262
 20
21.1720270266
 30
0.0
 10
4.2439883251
 20
21.1791509363
 30
0.0
 10
4.2442698368
 20
21.187782136
 30
0.0
 10
4.243533626
 20
21.1992945709
 30
0.0
 10
4.2405094639
 20
21.2134880126
 30
0.0
 10
4.235797948
 20
21.2241465715
 30
0.0
 10
4.2328348579
 20
21.2291011661
 30
0.0
  0
SPLINE
  5
5BD
100
AcDbEntity
  8
0
100
AcDbSpline
 62
9
  6
CONTINUOUS
 70
0
 71
3
 72
18
 73
14
 74
0
 42
0.0000001
 43
0.0000001
 44
0.0000000001
 40
0.0
 40
0.0
 40
0.0
 40
0.0
 40
0.012385548
 40
0.0340448275
 40
0.064672637
 40
0.1039379809
 40
0.1513441419
 40
0.2063184385
 40
0.336492252
 40
0.4882804212
 40
0.6546700207
 40
0.8281335907
 40
1.0
 40
1.0
 40
1.0
 40
1.0
 10
3.8913270524
 20
21.1354326252
 30
0.0
 10
3.8912118625
 20
21.1353500937
 30
0.0
 10
3.8908830631
 20
21.1351407501
 30
0.0
 10
3.8902551854
 20
21.1347495711
 30
0.0
 10
3.889359515
 20
21.1342062912
 30
0.0
 10
3.888208892
 20
21.1335156097
 30
0.0
 10
3.886816158
 20
21.1326869712
 30
0.0
 10
3.8845261046
 20
21.1313324014
 30
0.0
 10
3.8812019354
 20
21.1293803619
 30
0.0
 10
3.8767717291
 20
21.1267945282
 30
0.0
 10
3.8719075887
 20
21.123969641
 30
0.0
 10
3.8668391746
 20
21.1210391003
 30
0.0
 10
3.863415165
 20
21.1190677369
 30
0.0
 10
3.8617100808
 20
21.1180883515
 30
0.0
  0
SPLINE
  5
5BE
100
AcDbEntity
  8
0
100
AcDbSpline
 62
9
  6
CONTINUOUS
 70
0
 71
3
 72
14
 73
10
 74
0
 42
0.0000001
 43
0.0000001
 44
0.0000000001
 40
0.0
 40
0.0
 40
0.0
 40
0.0
 40
0.2388183077
 40
0.3680976551
 40
0.5000609583
 40
0.6319163028
 40
0.7609056435
 40
0.8840707346
 40
1.0
 40
1.0
 40
1.0
 40
1.0
 10
3.8639741909
 20
21.1436479526
 30
0.0
 10
3.8651192804
 20
21.1413842526
 30
0.0
 10
3.8675989293
 20
21.1381940285
 30
0.0
 10
3.8719878032
 20
21.1351537578
 30
0.0
 10
3.8758595203
 20
21.1334999908
 30
0.0
 10
3.8799959502
 20
21.1327466146
 30
0.0
 10
3.8841036093
 20
21.1328428887
 30
0.0
 10
3.8879321094
 20
21.1337578282
 30
0.0
 10
3.8902593869
 20
21.1348173173
 30
0.0
 10
3.8913263013
 20
21.1354322787
 30
0.0
  0
SPLINE
  5
5BF
100
AcDbEntity
  8
0
100
AcDbSpline
 62
9
  6
CONTINUOUS
 70
0
 71
3
 72
18
 73
14
 74
0
 42
0.0000001
 43
0.0000001
 44
0.0000000001
 40
0.0
 40
0.0
 40
0.0
 40
0.0
 40
0.1710190871
 40
0.3435976921
 40
0.5096545933
 40
0.6611092953
 40
0.7905161311
 40
0.8453757989
 40
0.892959437
 40
0.9327339789
 40
0.9641703039
 40
0.9867502478
 40
1.0
 40
1.0
 40
1.0
 40
1.0
 10
3.9538251379
 20
20.9682385649
 30
0.0
 10
3.9543523731
 20
20.9684587984
 30
0.0
 10
3.9554135044
 20
20.9688968466
 30
0.0
 10
3.9569919958
 20
20.9695354998
 30
0.0
 10
3.9585141455
 20
20.9701390328
 30
0.0
 10
3.9599065153
 20
20.970678413
 30
0.0
 10
3.9609566632
 20
20.9710726376
 30
0.0
 10
3.9616849051
 20
20.971336638
 30
0.0
 10
3.9621330783
 20
20.9714946082
 30
0.0
 10
3.9625089791
 20
20.9716217509
 30
0.0
 10
3.9628075623
 20
20.971717678
 30
0.0
 10
3.9630234817
 20
20.9717784544
 30
0.0
 10
3.9631405568
 20
20.9718069039
 30
0.0
 10
3.9631847002
 20
20.9718102255
 30
0.0
  0
SPLINE
  5
5C0
100
AcDbEntity
  8
0
100
AcDbSpline
 62
9
  6
CONTINUOUS
 70
0
 71
3
 72
18
 73
14
 74
0
 42
0.0000001
 43
0.0000001
 44
0.0000000001
 40
0.0
 40
0.0
 40
0.0
 40
0.0
 40
0.013249784
 40
0.0358297591
 40
0.0672661141
 40
0.1070406842
 40
0.1546243483
 40
0.2094840395
 40
0.3388909117
 40
0.4903456335
 40
0.6564025224
 40
0.8289810594
 40
1.0
 40
1.0
 40
1.0
 40
1.0
 10
3.8639745436
 20
21.1436472557
 30
0.0
 10
3.8639495952
 20
21.1436106872
 30
0.0
 10
3.8638664195
 20
21.1435235218
 30
0.0
 10
3.8637058257
 20
21.143366918
 30
0.0
 10
3.8634734586
 20
21.1431563008
 30
0.0
 10
3.8631753991
 20
21.1428943324
 30
0.0
 10
3.8628145061
 20
21.142585188
 30
0.0
 10
3.8622217539
 20
21.142086512
 30
0.0
 10
3.8613552712
 20
21.1413741694
 30
0.0
 10
3.8601919692
 20
21.1404380319
 30
0.0
 10
3.8589082196
 20
21.1394215783
 30
0.0
 10
3.8575658846
 20
21.1383738917
 30
0.0
 10
3.8566559588
 20
21.1376739497
 30
0.0
 10
3.8562016138
 20
21.1373274676
 30
0.0
  0
SPLINE
  5
5C1
100
AcDbEntity
  8
0
100
AcDbSpline
 62
9
  6
CONTINUOUS
 70
0
 71
3
 72
14
 73
10
 74
0
 42
0.0000001
 43
0.0000001
 44
0.0000000001
 40
0.0
 40
0.0
 40
0.0
 40
0.0
 40
0.1159300682
 40
0.2390957174
 40
0.36808525
 40
0.4999405828
 40
0.6319035807
 40
0.7611825166
 40
1.0
 40
1.0
 40
1.0
 40
1.0
 10
3.9697458074
 20
20.9996048092
 30
0.0
 10
3.968679797
 20
20.998988294
 30
0.0
 10
3.9665986612
 20
20.9975025175
 30
0.0
 10
3.9638921303
 20
20.9946443747
 30
0.0
 10
3.9617550153
 20
20.9911351673
 30
0.0
 10
3.960339329
 20
20.9871762501
 30
0.0
 10
3.959835739
 20
20.9829964119
 30
0.0
 10
3.96027431
 20
20.9776754851
 30
0.0
 10
3.9617973001
 20
20.9739330045
 30
0.0
 10
3.9631851637
 20
20.9718095152
 30
0.0
  0
SPLINE
  5
5C2
100
AcDbEntity
  8
0
100
AcDbSpline
 62
9
  6
CONTINUOUS
 70
0
 71
3
 72
18
 73
14
 74
0
 42
0.0000001
 43
0.0000001
 44
0.0000000001
 40
0.0
 40
0.0
 40
0.0
 40
0.0
 40
0.1680542537
 40
0.3402396943
 40
0.5076174674
 40
0.6597730899
 40
0.7872684643
 40
0.8401992454
 40
0.8853784272
 40
0.9227871327
 40
0.9533210653
 40
0.978404725
 40
1.0
 40
1.0
 40
1.0
 40
1.0
 10
3.9538252581
 20
20.9682383631
 30
0.0
 10
3.9532381977
 20
20.9692425076
 30
0.0
 10
3.952004825
 20
20.9712496243
 30
0.0
 10
3.9500304664
 20
20.9741574935
 30
0.0
 10
3.9479652132
 20
20.9768652287
 30
0.0
 10
3.945933963
 20
20.9792022385
 30
0.0
 10
3.9442675307
 20
20.9807987829
 30
0.0
 10
3.9430307371
 20
20.9817543489
 30
0.0
 10
3.9422391846
 20
20.982260751
 30
0.0
 10
3.9415298491
 20
20.9825985596
 30
0.0
 10
3.9409057154
 20
20.9827733663
 30
0.0
 10
3.9403650737
 20
20.9827930096
 30
0.0
 10
3.9400479136
 20
20.9826977972
 30
0.0
 10
3.9399159734
 20
20.9826275647
 30
0.0
  0
LINE
  5
5C3
100
AcDbEntity
  8
0
100
AcDbLine
 62
9
  6
CONTINUOUS
 10
4.214540262
 20
21.2185026824
 11
4.2089173183
 21
21.2282420429
  0
SPLINE
  5
5C4
100
AcDbEntity
  8
0
100
AcDbSpline
 62
9
  6
CONTINUOUS
 70
0
 71
3
 72
18
 73
14
 74
0
 42
0.0000001
 43
0.0000001
 44
0.0000000001
 40
0.0
 40
0.0
 40
0.0
 40
0.0
 40
0.0183989396
 40
0.0406158199
 40
0.0687578675
 40
0.1042523864
 40
0.1479658356
 40
0.1998613546
 40
0.3266558528
 40
0.4800361664
 40
0.650349545
 40
0.8268578877
 40
1.0
 40
1.0
 40
1.0
 40
1.0
 10
4.1859683939
 20
21.1249471583
 30
0.0
 10
4.186079416
 20
21.1250053338
 30
0.0
 10
4.1863563066
 20
21.1250757297
 30
0.0
 10
4.1868279626
 20
21.1250210416
 30
0.0
 10
4.1873800318
 20
21.1248173352
 30
0.0
 10
4.1880177979
 20
21.1244549783
 30
0.0
 10
4.1887402324
 20
21.1239276291
 30
0.0
 10
4.1898900929
 20
21.1229393357
 30
0.0
 10
4.1914627591
 20
21.1213070443
 30
0.0
 10
4.1934125859
 20
21.1189350109
 30
0.0
 10
4.1954296717
 20
21.1161866394
 30
0.0
 10
4.1973887818
 20
21.1132342985
 30
0.0
 10
4.1986281474
 20
21.1111994152
 30
0.0
 10
4.1992226105
 20
21.1101806606
 30
0.0
  0
SPLINE
  5
5C5
100
AcDbEntity
  8
0
100
AcDbSpline
 62
9
  6
CONTINUOUS
 70
0
 71
3
 72
18
 73
14
 74
0
 42
0.0000001
 43
0.0000001
 44
0.0000000001
 40
0.0
 40
0.0
 40
0.0
 40
0.0
 40
0.1821152431
 40
0.3581218124
 40
0.5208922842
 40
0.6651106192
 40
0.7863656927
 40
0.8374542206
 40
0.8818472728
 40
0.9195421188
 40
0.950987345
 40
0.9771786576
 40
1.0
 40
1.0
 40
1.0
 40
1.0
 10
3.9841968844
 20
20.9854556969
 30
0.0
 10
3.9835617891
 20
20.9865421366
 30
0.0
 10
3.9822623145
 20
20.9886494519
 30
0.0
 10
3.980229561
 20
20.9916216782
 30
0.0
 10
3.9781971849
 20
20.9942717626
 30
0.0
 10
3.9762474532
 20
20.9965006061
 30
0.0
 10
3.974669759
 20
20.9980229433
 30
0.0
 10
3.9734915386
 20
20.9989496561
 30
0.0
 10
3.9727211119
 20
20.9994557061
 30
0.0
 10
3.9720176723
 20
20.9998084257
 30
0.0
 10
3.9713850785
 20
21.0000060142
 30
0.0
 10
3.9708235456
 20
21.0000458723
 30
0.0
 10
3.9704879951
 20
20.9999517685
 30
0.0
 10
3.9703487632
 20
20.9998777166
 30
0.0
  0
LINE
  5
5C6
100
AcDbEntity
  8
0
100
AcDbLine
 62
9
  6
CONTINUOUS
 10
3.9399128157
 20
20.9826257057
 11
3.8620442742
 21
20.9374312504
  0
LINE
  5
5C7
100
AcDbEntity
  8
0
100
AcDbLine
 62
9
  6
CONTINUOUS
 10
3.6976657471
 20
20.8447240381
 11
3.711483493
 21
20.8527719229
  0
SPLINE
  5
5C8
100
AcDbEntity
  8
0
100
AcDbSpline
 62
9
  6
CONTINUOUS
 70
0
 71
3
 72
11
 73
7
 74
0
 42
0.0000001
 43
0.0000001
 44
0.0000000001
 40
0.0
 40
0.0
 40
0.0
 40
0.0
 40
0.2495284333
 40
0.4992516916
 40
0.7495684194
 40
1.0
 40
1.0
 40
1.0
 40
1.0
 10
3.9703491063
 20
20.9998778549
 30
0.0
 10
3.9680635871
 20
20.9985561222
 30
0.0
 10
3.9639868963
 20
20.9949280995
 30
0.0
 10
3.9605681672
 20
20.987535457
 30
0.0
 10
3.9603196056
 20
20.9793854812
 30
0.0
 10
3.9623377862
 20
20.9742998069
 30
0.0
 10
3.9637886275
 20
20.9720825598
 30
0.0
  0
SPLINE
  5
5C9
100
AcDbEntity
  8
0
100
AcDbSpline
 62
9
  6
CONTINUOUS
 70
0
 71
3
 72
11
 73
7
 74
0
 42
0.0000001
 43
0.0000001
 44
0.0000000001
 40
0.0
 40
0.0
 40
0.0
 40
0.0
 40
0.2504079772
 40
0.5006299758
 40
0.7504785761
 40
1.0
 40
1.0
 40
1.0
 40
1.0
 10
3.8645123814
 20
21.1440340427
 30
0.0
 10
3.865708287
 20
21.1416697919
 30
0.0
 10
3.8691033887
 20
21.1373819724
 30
0.0
 10
3.8762827207
 20
21.133515859
 30
0.0
 10
3.8843957341
 20
21.1327842484
 30
0.0
 10
3.889577122
 20
21.1344998799
 30
0.0
 10
3.8918644918
 20
21.1358182853
 30
0.0
  0
LINE
  5
5CA
100
AcDbEntity
  8
0
100
AcDbLine
 62
9
  6
CONTINUOUS
 10
3.7836312513
 20
21.0732465651
 11
3.8617100808
 21
21.1180883515
  0
LINE
  5
5CB
100
AcDbEntity
  8
0
100
AcDbLine
 62
9
  6
CONTINUOUS
 10
3.6350338664
 20
20.9851868456
 11
3.6211543676
 21
20.9772437241
  0
SPLINE
  5
5CC
100
AcDbEntity
  8
0
100
AcDbSpline
 62
9
  6
CONTINUOUS
 70
0
 71
3
 72
52
 73
48
 74
0
 42
0.0000001
 43
0.0000001
 44
0.0000000001
 40
0.0
 40
0.0
 40
0.0
 40
0.0
 40
0.0982555675
 40
0.1869312575
 40
0.2634128016
 40
0.2964989921
 40
0.325879154
 40
0.3513632527
 40
0.3626001144
 40
0.3728126928
 40
0.3819853919
 40
0.3901026432
 40
0.3971489227
 40
0.4031087855
 40
0.4079691779
 40
0.4099859225
 40
0.4117269894
 40
0.4131924444
 40
0.4143825102
 40
0.415297755
 40
0.4159396838
 40
0.4161595881
 40
0.4163141936
 40
0.4164093072
 40
0.4164709298
 40
0.4165612813
 40
0.4167101203
 40
0.4172048972
 40
0.4190134629
 40
0.421927729
 40
0.425950303
 40
0.431072683
 40
0.4372834904
 40
0.4445710803
 40
0.4529236824
 40
0.4623294594
 40
0.4727765352
 40
0.4842530098
 40
0.5102280108
 40
0.5400692043
 40
0.5735739752
 40
0.6105396538
 40
0.6507530774
 40
0.6939615446
 40
0.7883154021
 40
0.8913235072
 40
1.0
 40
1.0
 40
1.0
 40
1.0
 10
3.6211543676
 20
20.9772437241
 30
0.0
 10
3.6183349995
 20
20.9756309983
 30
0.0
 10
3.612968695
 20
20.9725670757
 30
0.0
 10
3.6053985091
 20
20.9682641373
 30
0.0
 10
3.599693247
 20
20.9650398112
 30
0.0
 10
3.5956883043
 20
20.9627908245
 30
0.0
 10
3.5931501434
 20
20.9613728693
 30
0.0
 10
3.5912395206
 20
20.9603125763
 30
0.0
 10
3.5898806585
 20
20.9595638491
 30
0.0
 10
3.5889929126
 20
20.9590774217
 30
0.0
 10
3.5881943602
 20
20.9586428274
 30
0.0
 10
3.5874863687
 20
20.958260802
 30
0.0
 10
3.5868703147
 20
20.9579320594
 30
0.0
 10
3.5863475027
 20
20.9576572914
 30
0.0
 10
3.5859701232
 20
20.9574632081
 30
0.0
 10
3.5857153179
 20
20.9573357695
 30
0.0
 10
3.5855601638
 20
20.9572600058
 30
0.0
 10
3.5854287363
 20
20.9571979132
 30
0.0
 10
3.5853211314
 20
20.9571494604
 30
0.0
 10
3.5852371726
 20
20.9571145419
 30
0.0
 10
3.5851820654
 20
20.9570946551
 30
0.0
 10
3.5851492532
 20
20.9570859849
 30
0.0
 10
3.585134248
 20
20.957084128
 30
0.0
 10
3.5851230263
 20
20.9570841242
 30
0.0
 10
3.5851177859
 20
20.9570919773
 30
0.0
 10
3.5851228958
 20
20.9571017987
 30
0.0
 10
3.585137037
 20
20.9571206489
 30
0.0
 10
3.585198313
 20
20.957175892
 30
0.0
 10
3.5853358406
 20
20.9572781486
 30
0.0
 10
3.585574457
 20
20.9574425834
 30
0.0
 10
3.5859073015
 20
20.9576614821
 30
0.0
 10
3.5863347865
 20
20.95793543
 30
0.0
 10
3.5868557452
 20
20.9582632384
 30
0.0
 10
3.5874693323
 20
20.9586444103
 30
0.0
 10
3.5881745204
 20
20.9590782281
 30
0.0
 10
3.5889703276
 20
20.9595640702
 30
0.0
 10
3.5898557466
 20
20.9601012965
 30
0.0
 10
3.5912113016
 20
20.960919571
 30
0.0
 10
3.5931190852
 20
20.9620635775
 30
0.0
 10
3.5956554942
 20
20.9635751915
 30
0.0
 10
3.5985076138
 20
20.9652667264
 30
0.0
 10
3.6016578714
 20
20.96712771
 30
0.0
 10
3.6050872666
 20
20.969146838
 30
0.0
 10
3.61015515
 20
20.9721221602
 30
0.0
 10
3.6170198376
 20
20.9761370027
 30
0.0
 10
3.6257616461
 20
20.9812290251
 30
0.0
 10
3.6318136174
 20
20.9847419826
 30
0.0
 10
3.6349218993
 20
20.9865433064
 30
0.0
  0
SPLINE
  5
5CD
100
AcDbEntity
  8
0
100
AcDbSpline
 62
9
  6
CONTINUOUS
 70
0
 71
3
 72
18
 73
14
 74
0
 42
0.0000001
 43
0.0000001
 44
0.0000000001
 40
0.0
 40
0.0
 40
0.0
 40
0.0
 40
0.1680541921
 40
0.3402395392
 40
0.5076172058
 40
0.6597728627
 40
0.7872681677
 40
0.8401989284
 40
0.8853782267
 40
0.9227870482
 40
0.9533209921
 40
0.9784046636
 40
1.0
 40
1.0
 40
1.0
 40
1.0
 10
3.8562014943
 20
21.1373276772
 30
0.0
 10
3.8567775785
 20
21.1363171961
 30
0.0
 10
3.8578991054
 20
21.1342455067
 30
0.0
 10
3.8594302141
 20
21.1310817293
 30
0.0
 10
3.8607425534
 20
21.1279393007
 30
0.0
 10
3.8617508381
 20
21.1250116828
 30
0.0
 10
3.8623002702
 20
21.1227702383
 30
0.0
 10
3.8625094162
 20
21.1212213604
 30
0.0
 10
3.8625521978
 20
21.1202826534
 30
0.0
 10
3.8624900828
 20
21.1194994447
 30
0.0
 10
3.862329403
 20
21.1188715247
 30
0.0
 10
3.862076093
 20
21.1183934933
 30
0.0
 10
3.8618350572
 20
21.11816643
 30
0.0
 10
3.8617082643
 20
21.1180872813
 30
0.0
  0
LINE
  5
5CE
100
AcDbEntity
  8
0
100
AcDbLine
 62
9
  6
CONTINUOUS
 10
3.8562003085
 20
21.1373274496
 11
3.7747154679
 21
21.0905294108
  0
LINE
  5
5CF
100
AcDbEntity
  8
0
100
AcDbLine
 62
9
  6
CONTINUOUS
 10
3.872553778
 20
20.9210684872
 11
3.9538245573
 21
20.9682375018
  0
SPLINE
  5
5D0
100
AcDbEntity
  8
0
100
AcDbSpline
 62
9
  6
CONTINUOUS
 70
0
 71
3
 72
33
 73
29
 74
0
 42
0.0000001
 43
0.0000001
 44
0.0000000001
 40
0.0
 40
0.0
 40
0.0
 40
0.0
 40
0.2141699829
 40
0.3145749499
 40
0.4096984086
 40
0.4990605872
 40
0.5822430005
 40
0.6588301565
 40
0.7284469212
 40
0.7907492398
 40
0.8453953399
 40
0.8697539228
 40
0.8921001225
 40
0.9124081243
 40
0.930652124
 40
0.9468063343
 40
0.9608451756
 40
0.9727501235
 40
0.9825118456
 40
0.9865863253
 40
0.9901218254
 40
0.9931173562
 40
0.995572013
 40
0.9974850722
 40
0.9988562797
 40
0.999687079
 40
0.999903235
 40
1.0
 40
1.0
 40
1.0
 40
1.0
 10
3.6304230826
 20
20.9053148592
 30
0.0
 10
3.6254534158
 20
20.9024592703
 30
0.0
 10
3.6181523719
 20
20.8982676479
 30
0.0
 10
3.6086398663
 20
20.8928150181
 30
0.0
 10
3.6020232916
 20
20.8890267499
 30
0.0
 10
3.5958047228
 20
20.8854709681
 30
0.0
 10
3.5900146958
 20
20.8821651043
 30
0.0
 10
3.584681311
 20
20.8791252101
 30
0.0
 10
3.5798309669
 20
20.8763663015
 30
0.0
 10
3.5754883691
 20
20.8739023835
 30
0.0
 10
3.5721966934
 20
20.8720406483
 30
0.0
 10
3.5698338791
 20
20.8707086995
 30
0.0
 10
3.5682706387
 20
20.8698297207
 30
0.0
 10
3.5668490015
 20
20.869032787
 30
0.0
 10
3.5655707803
 20
20.868318908
 30
0.0
 10
3.5644377852
 20
20.8676890862
 30
0.0
 10
3.5634516664
 20
20.8671442191
 30
0.0
 10
3.5626136833
 20
20.8666849954
 30
0.0
 10
3.5620079787
 20
20.8663568358
 30
0.0
 10
3.5615978737
 20
20.8661378297
 30
0.0
 10
3.5613468659
 20
20.866005401
 30
0.0
 10
3.5611333343
 20
20.865894607
 30
0.0
 10
3.5609577947
 20
20.8658055767
 30
0.0
 10
3.5608192052
 20
20.8657379697
 30
0.0
 10
3.5607204443
 20
20.8656924095
 30
0.0
 10
3.5606580172
 20
20.8656676327
 30
0.0
 10
3.5606307457
 20
20.8656601252
 30
0.0
 10
3.560620237
 20
20.8656600687
 30
0.0
 10
3.5606189423
 20
20.8656623114
 30
0.0
  0
SPLINE
  5
5D1
100
AcDbEntity
  8
0
100
AcDbSpline
 62
9
  6
CONTINUOUS
 70
0
 71
3
 72
33
 73
29
 74
0
 42
0.0000001
 43
0.0000001
 44
0.0000000001
 40
0.0
 40
0.0
 40
0.0
 40
0.0
 40
0.2141695371
 40
0.3145742699
 40
0.4096975344
 40
0.4990595697
 40
0.5822418824
 40
0.6588289727
 40
0.7284457076
 40
0.7907480339
 40
0.8453941817
 40
0.8697528053
 40
0.892099057
 40
0.9124071218
 40
0.930651195
 40
0.9468054891
 40
0.9608444238
 40
0.9727494752
 40
0.9825113106
 40
0.9865858507
 40
0.9901214135
 40
0.9931170095
 40
0.9955717339
 40
0.9974848631
 40
0.9988561427
 40
0.9996870158
 40
0.999903208
 40
1.0
 40
1.0
 40
1.0
 40
1.0
 10
3.6400070595
 20
20.8887149243
 30
0.0
 10
3.6350492244
 20
20.8858388665
 30
0.0
 10
3.6277686653
 20
20.8816118003
 30
0.0
 10
3.618290315
 20
20.8761000589
 30
0.0
 10
3.6117013046
 20
20.872264079
 30
0.0
 10
3.6055126346
 20
20.8686565347
 30
0.0
 10
3.5997546688
 20
20.8652951564
 30
0.0
 10
3.5944553583
 20
20.8621962547
 30
0.0
 10
3.5896409065
 20
20.8593751838
 30
0.0
 10
3.5853357948
 20
20.8568463371
 30
0.0
 10
3.5820776478
 20
20.8549265235
 30
0.0
 10
3.5797427385
 20
20.8535462347
 30
0.0
 10
3.5781998982
 20
20.8526319137
 30
0.0
 10
3.5767989116
 20
20.8517992021
 30
0.0
 10
3.5755415592
 20
20.8510491656
 30
0.0
 10
3.5744296142
 20
20.8503828707
 30
0.0
 10
3.5734646787
 20
20.8498012981
 30
0.0
 10
3.5726479788
 20
20.849305194
 30
0.0
 10
3.5720609236
 20
20.8489447178
 30
0.0
 10
3.571666199
 20
20.8486990591
 30
0.0
 10
3.5714260029
 20
20.8485478937
 30
0.0
 10
3.571223281
 20
20.8484183662
 30
0.0
 10
3.571058403
 20
20.8483108583
 30
0.0
 10
3.5709305528
 20
20.848224639
 30
0.0
 10
3.5708417108
 20
20.8481618864
 30
0.0
 10
3.5707890342
 20
20.8481202118
 30
0.0
 10
3.5707688943
 20
20.848100344
 30
0.0
 10
3.5707635881
 20
20.8480912722
 30
0.0
 10
3.570764882
 20
20.8480890282
 30
0.0
  0
SPLINE
  5
5D2
100
AcDbEntity
  8
0
100
AcDbSpline
 62
9
  6
CONTINUOUS
 70
0
 71
3
 72
19
 73
15
 74
0
 42
0.0000001
 43
0.0000001
 44
0.0000000001
 40
0.0
 40
0.0
 40
0.0
 40
0.0
 40
0.1676937914
 40
0.3305020506
 40
0.4829728226
 40
0.6210290756
 40
0.6836738223
 40
0.7416350568
 40
0.7947912894
 40
0.8432364741
 40
0.8872528009
 40
0.9274049783
 40
0.9645877287
 40
1.0
 40
1.0
 40
1.0
 40
1.0
 10
3.6400073166
 20
20.8887150729
 30
0.0
 10
3.6421853869
 20
20.8849712165
 30
0.0
 10
3.6467795388
 20
20.8777633483
 30
0.0
 10
3.6543359413
 20
20.8678187294
 30
0.0
 10
3.6622522883
 20
20.8591677207
 30
0.0
 10
3.6691100686
 20
20.8531144162
 30
0.0
 10
3.6745554418
 20
20.8492340826
 30
0.0
 10
3.6784095377
 20
20.8469235221
 30
0.0
 10
3.6821329359
 20
20.8451404074
 30
0.0
 10
3.6856929822
 20
20.8438986378
 30
0.0
 10
3.6890620967
 20
20.8432140506
 30
0.0
 10
3.6922117513
 20
20.843104384
 30
0.0
 10
3.6951065789
 20
20.843571411
 30
0.0
 10
3.6968637528
 20
20.84428108
 30
0.0
 10
3.697664404
 20
20.8447232968
 30
0.0
  0
SPLINE
  5
5D3
100
AcDbEntity
  8
0
100
AcDbSpline
 62
9
  6
CONTINUOUS
 70
0
 71
3
 72
17
 73
13
 74
0
 42
0.0000001
 43
0.0000001
 44
0.0000000001
 40
0.0
 40
0.0
 40
0.0
 40
0.0
 40
0.1239513694
 40
0.2479728474
 40
0.3721716785
 40
0.4344865142
 40
0.496877606
 40
0.6217802423
 40
0.7472368874
 40
0.8102192213
 40
0.8733539181
 40
1.0
 40
1.0
 40
1.0
 40
1.0
 10
4.2145415496
 20
21.2185034084
 30
0.0
 10
4.2167928848
 20
21.2146197186
 30
0.0
 10
4.2204652606
 20
21.2063364601
 30
0.0
 10
4.22325858
 20
21.1930541404
 30
0.0
 10
4.2231972425
 20
21.1817181088
 30
0.0
 10
4.2217811823
 20
21.1728031593
 30
0.0
 10
4.2194713852
 20
21.1640487366
 30
0.0
 10
4.2149340307
 20
21.1535860306
 30
0.0
 10
4.2084942056
 20
21.1441580062
 30
0.0
 10
4.202356817
 20
21.1374087585
 30
0.0
 10
4.1956073095
 20
21.131211511
 30
0.0
 10
4.1899382894
 20
21.1272451013
 30
0.0
 10
4.1859687081
 20
21.1249473419
 30
0.0
  0
SPLINE
  5
5D4
100
AcDbEntity
  8
0
100
AcDbSpline
 62
9
  6
CONTINUOUS
 70
0
 71
3
 72
13
 73
9
 74
0
 42
0.0000001
 43
0.0000001
 44
0.0000000001
 40
0.0
 40
0.0
 40
0.0
 40
0.0
 40
0.0819626972
 40
0.1803327953
 40
0.2933021214
 40
0.4188909615
 40
0.6987351342
 40
1.0
 40
1.0
 40
1.0
 40
1.0
 10
4.214540262
 20
21.2185026824
 30
0.0
 10
4.2038350408
 20
21.2125179955
 30
0.0
 10
4.18031215
 20
21.1992959855
 30
0.0
 10
4.1421122361
 20
21.1776868214
 30
0.0
 10
4.0982811869
 20
21.15277395
 30
0.0
 10
4.0309041642
 20
21.1143338129
 30
0.0
 10
3.9391622349
 20
21.0617424029
 30
0.0
 10
3.8638145649
 20
21.0183395243
 30
0.0
 10
3.8247742896
 20
20.9957995585
 30
0.0
  0
SPLINE
  5
5D5
100
AcDbEntity
  8
0
100
AcDbSpline
 62
9
  6
CONTINUOUS
 70
0
 71
3
 72
14
 73
10
 74
0
 42
0.0000001
 43
0.0000001
 44
0.0000000001
 40
0.0
 40
0.0
 40
0.0
 40
0.0
 40
0.2795637387
 40
0.4241096672
 40
0.5650932029
 40
0.6975723339
 40
0.8169034187
 40
0.9189040872
 40
1.0
 40
1.0
 40
1.0
 40
1.0
 10
3.6304230848
 20
20.9053148554
 30
0.0
 10
3.683993011
 20
20.9359951238
 30
0.0
 10
3.7651799941
 20
20.9826795228
 30
0.0
 10
3.8732289742
 20
21.0451016387
 30
0.0
 10
3.9530882798
 20
21.0913908699
 30
0.0
 10
4.0280629743
 20
21.1350039215
 30
0.0
 10
4.0955257707
 20
21.174410505
 30
0.0
 10
4.1531126218
 20
21.208228093
 30
0.0
 10
4.1879112843
 20
21.2288138346
 30
0.0
 10
4.2032943692
 20
21.2379814126
 30
0.0
  0
LINE
  5
5D6
100
AcDbEntity
  8
0
100
AcDbLine
 62
7
  6
CONTINUOUS
 10
4.2216044081
 20
21.2485169743
 11
4.2271972363
 21
21.2387959585
  0
SPLINE
  5
5D7
100
AcDbEntity
  8
0
100
AcDbSpline
 62
9
  6
CONTINUOUS
 70
0
 71
3
 72
18
 73
14
 74
0
 42
0.0000001
 43
0.0000001
 44
0.0000000001
 40
0.0
 40
0.0
 40
0.0
 40
0.0
 40
0.1731421154
 40
0.3496504559
 40
0.5199638329
 40
0.6733441305
 40
0.8001386276
 40
0.8520341527
 40
0.8957476025
 40
0.9312421248
 40
0.9593841842
 40
0.9816010715
 40
1.0
 40
1.0
 40
1.0
 40
1.0
 10
4.1018260659
 20
21.2788770191
 30
0.0
 10
4.1024110988
 20
21.2778528195
 30
0.0
 10
4.1035536708
 20
21.2757620513
 30
0.0
 10
4.1051309091
 20
21.2725892356
 30
0.0
 10
4.106502517
 20
21.269468197
 30
0.0
 10
4.1075818366
 20
21.2665935764
 30
0.0
 10
4.1082091033
 20
21.2644154591
 30
0.0
 10
4.1084900564
 20
21.2629255027
 30
0.0
 10
4.1085855348
 20
21.2620361807
 30
0.0
 10
4.1085804602
 20
21.2613026802
 30
0.0
 10
4.1084808394
 20
21.2607227209
 30
0.0
 10
4.1082923723
 20
21.2602869107
 30
0.0
 10
4.1080929623
 20
21.2600823143
 30
0.0
 10
4.1079870698
 20
21.2600152541
 30
0.0
  0
SPLINE
  5
5D8
100
AcDbEntity
  8
0
100
AcDbSpline
 62
9
  6
CONTINUOUS
 70
0
 71
3
 72
18
 73
14
 74
0
 42
0.0000001
 43
0.0000001
 44
0.0000000001
 40
0.0
 40
0.0
 40
0.0
 40
0.0
 40
0.0230429505
 40
0.0493562744
 40
0.0808061382
 40
0.1183989459
 40
0.1626124019
 40
0.2135190205
 40
0.3346360963
 40
0.4790240444
 40
0.6419353472
 40
0.8179348539
 40
1.0
 40
1.0
 40
1.0
 40
1.0
 10
3.8918638681
 20
21.1358178546
 30
0.0
 10
3.8919989717
 20
21.1359021762
 30
0.0
 10
3.8922507822
 20
21.136146467
 30
0.0
 10
3.8925004123
 20
21.1366539737
 30
0.0
 10
3.8926463881
 20
21.1373009127
 30
0.0
 10
3.8926898813
 20
21.1380850017
 30
0.0
 10
3.8926302831
 20
21.1390018379
 30
0.0
 10
3.8924062934
 20
21.1404807227
 30
0.0
 10
3.891870257
 20
21.142605139
 30
0.0
 10
3.8909355005
 20
21.145416352
 30
0.0
 10
3.8896755878
 20
21.1485126293
 30
0.0
 10
3.888114165
 20
21.1517591187
 30
0.0
 10
3.886927858
 20
21.1539323059
 30
0.0
 10
3.8862980571
 20
21.1550216685
 30
0.0
  0
SPLINE
  5
5D9
100
AcDbEntity
  8
0
100
AcDbSpline
 62
9
  6
CONTINUOUS
 70
0
 71
3
 72
21
 73
17
 74
0
 42
0.0000001
 43
0.0000001
 44
0.0000000001
 40
0.0
 40
0.0
 40
0.0
 40
0.0
 40
0.0618014329
 40
0.1236846576
 40
0.1855641455
 40
0.2475132131
 40
0.3095861662
 40
0.3717911583
 40
0.4963939371
 40
0.6215285467
 40
0.6843452597
 40
0.7472573979
 40
0.8103242048
 40
0.8735845966
 40
0.9368805299
 40
1.0
 40
1.0
 40
1.0
 40
1.0
 10
4.1018255881
 20
21.2788767895
 30
0.0
 10
4.1043045794
 20
21.2802355322
 30
0.0
 10
4.1093590109
 20
21.282789993
 30
0.0
 10
4.1172168052
 20
21.2860247697
 30
0.0
 10
4.1253436926
 20
21.2885439041
 30
0.0
 10
4.1336918662
 20
21.2902343725
 30
0.0
 10
4.1421790169
 20
21.2911089075
 30
0.0
 10
4.1535768696
 20
21.2911921662
 30
0.0
 10
4.1678112553
 20
21.2892500773
 30
0.0
 10
4.1814028711
 20
21.2844901042
 30
0.0
 10
4.1915574403
 20
21.2791113813
 30
0.0
 10
4.1987545845
 20
21.2743108511
 30
0.0
 10
4.2054549703
 20
21.2688091569
 30
0.0
 10
4.2116057638
 20
21.2626736239
 30
0.0
 10
4.2171087352
 20
21.2559456888
 30
0.0
 10
4.220231351
 20
21.2510570556
 30
0.0
 10
4.2216197758
 20
21.248525581
 30
0.0
  0
SPLINE
  5
5DA
100
AcDbEntity
  8
0
100
AcDbSpline
 62
9
  6
CONTINUOUS
 70
0
 71
3
 72
17
 73
13
 74
0
 42
0.0000001
 43
0.0000001
 44
0.0000000001
 40
0.0
 40
0.0
 40
0.0
 40
0.0
 40
0.1266459788
 40
0.1897810335
 40
0.25276368
 40
0.3782203438
 40
0.5031228222
 40
0.5655140402
 40
0.6278290735
 40
0.7520278303
 40
0.8760480822
 40
1.0
 40
1.0
 40
1.0
 40
1.0
 10
4.1079870005
 20
21.2600152125
 30
0.0
 10
4.111961708
 20
21.2623041006
 30
0.0
 10
4.118231248
 20
21.2652304201
 30
0.0
 10
4.126973002
 20
21.2679770731
 30
0.0
 10
4.1358867478
 20
21.2699176244
 30
0.0
 10
4.1472715927
 20
21.2707807051
 30
0.0
 10
4.158601259
 20
21.2694788009
 30
0.0
 10
4.1673377217
 20
21.267101897
 30
0.0
 10
4.1757663376
 20
21.2638707352
 30
0.0
 10
4.1856142848
 20
21.2582558741
 30
0.0
 10
4.1957205158
 20
21.2491957042
 30
0.0
 10
4.2010578099
 20
21.2418736867
 30
0.0
 10
4.2032955175
 20
21.2379820976
 30
0.0
  0
SPLINE
  5
5DB
100
AcDbEntity
  8
0
100
AcDbSpline
 62
9
  6
CONTINUOUS
 70
0
 71
3
 72
19
 73
15
 74
0
 42
0.0000001
 43
0.0000001
 44
0.0000000001
 40
0.0
 40
0.0
 40
0.0
 40
0.0
 40
0.1676930349
 40
0.3305006624
 40
0.4829710362
 40
0.6210271997
 40
0.6836720259
 40
0.7416334199
 40
0.7947898884
 40
0.843235377
 40
0.8872520615
 40
0.9274046105
 40
0.9645876477
 40
1.0
 40
1.0
 40
1.0
 40
1.0
 10
3.6304235357
 20
20.9053151154
 30
0.0
 10
3.6282703093
 20
20.9090732809
 30
0.0
 10
3.6243252117
 20
20.9166558158
 30
0.0
 10
3.6194911446
 20
20.9281720893
 30
0.0
 10
3.6159573316
 20
20.9393532933
 30
0.0
 10
3.614143899
 20
20.9483189224
 30
0.0
 10
3.6135061002
 20
20.9549749066
 30
0.0
 10
3.6134321255
 20
20.9594679328
 30
0.0
 10
3.6137495781
 20
20.9635840573
 30
0.0
 10
3.6144541696
 20
20.967288052
 30
0.0
 10
3.6155458267
 20
20.9705481134
 30
0.0
 10
3.6170256457
 20
20.973330666
 30
0.0
 10
3.6188774749
 20
20.9756041949
 30
0.0
 10
3.6203706247
 20
20.976771161
 30
0.0
 10
3.6211539079
 20
20.977243459
 30
0.0
  0
SPLINE
  5
5DC
100
AcDbEntity
  8
0
100
AcDbSpline
 62
7
  6
CONTINUOUS
 70
0
 71
3
 72
9
 73
5
 74
0
 42
0.0000001
 43
0.0000001
 44
0.0000000001
 40
0.0
 40
0.0
 40
0.0
 40
0.0
 40
0.489306044
 40
1.0
 40
1.0
 40
1.0
 40
1.0
 10
11.137248796
 20
12.7686158361
 30
0.0
 10
11.1537720528
 20
12.5848475025
 30
0.0
 10
11.2018120747
 20
12.210485759
 30
0.0
 10
11.2731810927
 20
11.8399955359
 30
0.0
 10
11.3144621166
 20
11.6518974256
 30
0.0
  0
SPLINE
  5
5DD
100
AcDbEntity
  8
0
100
AcDbSpline
 62
7
  6
CONTINUOUS
 70
0
 71
3
 72
63
 73
59
 74
0
 42
0.0000001
 43
0.0000001
 44
0.0000000001
 40
0.0
 40
0.0
 40
0.0
 40
0.0
 40
0.017142359
 40
0.0346492882
 40
0.0525121243
 40
0.0707201299
 40
0.0892607882
 40
0.1081198709
 40
0.1467244134
 40
0.1863873574
 40
0.2269468013
 40
0.2682304254
 40
0.3100567248
 40
0.3522331934
 40
0.3945615239
 40
0.4788644317
 40
0.5204273661
 40
0.5613183328
 40
0.6013263393
 40
0.640240211
 40
0.6778491412
 40
0.7139410344
 40
0.7313529487
 40
0.7483073472
 40
0.7647783439
 40
0.7807407208
 40
0.7961700587
 40
0.8110414646
 40
0.825328857
 40
0.8390073186
 40
0.8520536644
 40
0.8644464351
 40
0.8761641309
 40
0.8871873754
 40
0.8974975919
 40
0.9070789371
 40
0.9159217438
 40
0.9240231631
 40
0.9313948921
 40
0.9348176174
 40
0.9380707031
 40
0.9441032038
 40
0.9469181972
 40
0.9496218751
 40
0.9522324942
 40
0.9547752733
 40
0.9572822613
 40
0.9597864967
 40
0.962320986
 40
0.964916902
 40
0.9676028112
 40
0.9704080136
 40
0.9733624532
 40
0.9764953415
 40
0.9833710741
 40
0.991167993
 40
0.9954498628
 40
1.0
 40
1.0
 40
1.0
 40
1.0
 10
11.3144621166
 20
11.6518974256
 30
0.0
 10
11.3372825434
 20
11.5479155291
 30
0.0
 10
11.3864107923
 20
11.3383896245
 30
0.0
 10
11.4690048503
 20
11.0228825672
 30
0.0
 10
11.5608293887
 20
10.7030484096
 30
0.0
 10
11.6614191238
 20
10.3791388386
 30
0.0
 10
11.7703111222
 20
10.0514021456
 30
0.0
 10
11.9271675629
 20
9.606208031
 30
0.0
 10
12.1417083625
 20
9.0423718264
 30
0.0
 10
12.4230609616
 20
8.3601006192
 30
0.0
 10
12.7267493616
 20
7.6692787165
 30
0.0
 10
13.0492193093
 20
6.9722112694
 30
0.0
 10
13.3869018471
 20
6.2712350994
 30
0.0
 10
13.736277849
 20
5.5687704158
 30
0.0
 10
14.2123230184
 20
4.6347549501
 30
0.0
 10
14.6966608018
 20
3.7093029332
 30
0.0
 10
15.1799120672
 20
2.793388932
 30
0.0
 10
15.5346056091
 20
2.1206602659
 30
0.0
 10
15.8796937812
 20
1.4614670615
 30
0.0
 10
16.2116060216
 20
0.8183904712
 30
0.0
 10
16.5267544188
 20
0.1940555656
 30
0.0
 10
16.7753486197
 20
-0.3142594051
 30
0.0
 10
16.9624962509
 20
-0.7097792644
 30
0.0
 10
17.0947226891
 20
-0.9964688508
 30
0.0
 10
17.2200486335
 20
-1.276408279
 30
0.0
 10
17.3380203686
 20
-1.5492389059
 30
0.0
 10
17.4481771432
 20
-1.8145952221
 30
0.0
 10
17.5500694084
 20
-2.0720811263
 30
0.0
 10
17.6432832441
 20
-2.3212605083
 30
0.0
 10
17.7273918235
 20
-2.5616871465
 30
0.0
 10
17.8019721218
 20
-2.7929108264
 30
0.0
 10
17.866587383
 20
-3.0144649365
 30
0.0
 10
17.9208715456
 20
-3.2258353419
 30
0.0
 10
17.9644257352
 20
-3.4264704098
 30
0.0
 10
17.9969946362
 20
-3.6157440604
 30
0.0
 10
18.0183407335
 20
-3.7929959292
 30
0.0
 10
18.0283813986
 20
-3.9575291622
 30
0.0
 10
18.0272311345
 20
-4.1086637641
 30
0.0
 10
18.0168407108
 20
-4.2257148325
 30
0.0
 10
18.0029385977
 20
-4.3118728555
 30
0.0
 10
17.9864571717
 20
-4.3890750572
 30
0.0
 10
17.9648998751
 20
-4.4612763578
 30
0.0
 10
17.9379407438
 20
-4.5277972754
 30
0.0
 10
17.9159682974
 20
-4.5732906845
 30
0.0
 10
17.8918423266
 20
-4.6157457763
 30
0.0
 10
17.8654513865
 20
-4.655377209
 30
0.0
 10
17.8365750166
 20
-4.6924051222
 30
0.0
 10
17.8050003048
 20
-4.7270909594
 30
0.0
 10
17.7705257203
 20
-4.7597005725
 30
0.0
 10
17.7329319666
 20
-4.7904731627
 30
0.0
 10
17.6918200122
 20
-4.8193949304
 30
0.0
 10
17.6468377582
 20
-4.8464489183
 30
0.0
 10
17.5976327031
 20
-4.8716113119
 30
0.0
 10
17.523702948
 20
-4.9035918143
 30
0.0
 10
17.4183088604
 20
-4.9379150196
 30
0.0
 10
17.3029299201
 20
-4.9622184682
 30
0.0
 10
17.2006389232
 20
-4.9765625244
 30
0.0
 10
17.1460233603
 20
-4.9818242667
 30
0.0
 10
17.1178492437
 20
-4.9839873104
 30
0.0
  0
SPLINE
  5
5DE
100
AcDbEntity
  8
0
100
AcDbSpline
 62
7
  6
CONTINUOUS
 70
0
 71
3
 72
9
 73
5
 74
0
 42
0.0000001
 43
0.0000001
 44
0.0000000001
 40
0.0
 40
0.0
 40
0.0
 40
0.0
 40
0.2390770448
 40
1.0
 40
1.0
 40
1.0
 40
1.0
 10
17.1178492437
 20
-4.9839873104
 30
0.0
 10
17.1027206227
 20
-4.9851487973
 30
0.0
 10
17.0393912311
 20
-4.9893447179
 30
0.0
 10
16.9758996071
 20
-4.9909633472
 30
0.0
 10
16.9276072601
 20
-4.9909688589
 30
0.0
  0
SPLINE
  5
5DF
100
AcDbEntity
  8
0
100
AcDbSpline
 62
7
  6
CONTINUOUS
 70
0
 71
3
 72
9
 73
5
 74
0
 42
0.0000001
 43
0.0000001
 44
0.0000000001
 40
0.0
 40
0.0
 40
0.0
 40
0.0
 40
0.4819207723
 40
1.0
 40
1.0
 40
1.0
 40
1.0
 10
16.7543740037
 20
-4.9860790723
 30
0.0
 10
16.7005533123
 20
-4.9831439089
 30
0.0
 10
16.5890032978
 20
-4.9745244332
 30
0.0
 10
16.4778849661
 20
-4.9615488537
 30
0.0
 10
16.4204543507
 20
-4.9538464152
 30
0.0
  0
SPLINE
  5
5E0
100
AcDbEntity
  8
0
100
AcDbSpline
 62
7
  6
CONTINUOUS
 70
0
 71
3
 72
9
 73
5
 74
0
 42
0.0000001
 43
0.0000001
 44
0.0000000001
 40
0.0
 40
0.0
 40
0.0
 40
0.0
 40
0.4797976532
 40
1.0
 40
1.0
 40
1.0
 40
1.0
 10
16.9279397168
 20
-5.5509944468
 30
0.0
 10
16.8346847792
 20
-5.5509941326
 30
0.0
 10
16.6402835494
 20
-5.5430907938
 30
0.0
 10
16.4469037021
 20
-5.5223619222
 30
0.0
 10
16.3466928368
 20
-5.5089219126
 30
0.0
  0
SPLINE
  5
5E1
100
AcDbEntity
  8
0
100
AcDbSpline
 62
7
  6
CONTINUOUS
 70
0
 71
3
 72
27
 73
23
 74
0
 42
0.0000001
 43
0.0000001
 44
0.0000000001
 40
0.0
 40
0.0
 40
0.0
 40
0.0
 40
0.0626229639
 40
0.125286042
 40
0.1879202271
 40
0.2505361371
 40
0.28184893
 40
0.3131573003
 40
0.3444597139
 40
0.3757554762
 40
0.4383084732
 40
0.5008319512
 40
0.563323937
 40
0.6257835045
 40
0.6570103771
 40
0.6882298354
 40
0.7194419346
 40
0.7506460329
 40
0.8130110517
 40
0.8753575987
 40
0.9377065204
 40
1.0
 40
1.0
 40
1.0
 40
1.0
 10
4.9779221456
 20
-0.345304023
 30
0.0
 10
4.9699481074
 20
-0.4467061132
 30
0.0
 10
4.9635929798
 20
-0.650458247
 30
0.0
 10
4.9828153754
 20
-0.9555157763
 30
0.0
 10
5.0307451296
 20
-1.2574015248
 30
0.0
 10
5.0942143885
 20
-1.5040744657
 30
0.0
 10
5.1587410356
 20
-1.6970502428
 30
0.0
 10
5.2139010036
 20
-1.8393467096
 30
0.0
 10
5.2757134611
 20
-1.9788524685
 30
0.0
 10
5.3667908099
 20
-2.1606529422
 30
0.0
 10
5.4965394477
 20
-2.3794784656
 30
0.0
 10
5.6762890028
 20
-2.6260125277
 30
0.0
 10
5.8784114085
 20
-2.8543613392
 30
0.0
 10
6.0641002838
 20
-3.0277966883
 30
0.0
 10
6.2218697274
 20
-3.155443194
 30
0.0
 10
6.3445957591
 20
-3.245433452
 30
0.0
 10
6.4714265274
 20
-3.3294720532
 30
0.0
 10
6.6455462971
 20
-3.4333232121
 30
0.0
 10
6.8721029495
 20
-3.5474091113
 30
0.0
 10
7.1556459572
 20
-3.6578362881
 30
0.0
 10
7.4482864972
 20
-3.7407343149
 30
0.0
 10
7.6477815753
 20
-3.7772564018
 30
0.0
 10
7.7480636593
 20
-3.790705963
 30
0.0
  0
SPLINE
  5
5E2
100
AcDbEntity
  8
0
100
AcDbSpline
 62
7
  6
CONTINUOUS
 70
0
 71
3
 72
29
 73
25
 74
0
 42
0.0000001
 43
0.0000001
 44
0.0000000001
 40
0.0
 40
0.0
 40
0.0
 40
0.0
 40
0.0625805874
 40
0.1252015533
 40
0.187795601
 40
0.2190945801
 40
0.2503923266
 40
0.2816885639
 40
0.3129817893
 40
0.3442706359
 40
0.3755545481
 40
0.4380894407
 40
0.5006029669
 40
0.5630936508
 40
0.6255608105
 40
0.6567947703
 40
0.6880234764
 40
0.7192469256
 40
0.7504643893
 40
0.7816750745
 40
0.8128794723
 40
0.8752649529
 40
0.9376579854
 40
1.0
 40
1.0
 40
1.0
 40
1.0
 10
4.4196456497
 20
-0.3014023822
 30
0.0
 10
4.4102887992
 20
-0.4203890434
 30
0.0
 10
4.402836386
 20
-0.659479201
 30
0.0
 10
4.4254023617
 20
-1.0174261602
 30
0.0
 10
4.4723189674
 20
-1.3127178996
 30
0.0
 10
4.5263725535
 20
-1.5453568168
 30
0.0
 10
4.5751205011
 20
-1.7177398981
 30
0.0
 10
4.6319420658
 20
-1.8876165429
 30
0.0
 10
4.696701884
 20
-2.0546103306
 30
0.0
 10
4.769273983
 20
-2.2183392515
 30
0.0
 10
4.8762122108
 20
-2.4317206891
 30
0.0
 10
5.0285669072
 20
-2.6885776093
 30
0.0
 10
5.2396466994
 20
-2.9779788621
 30
0.0
 10
5.4770224084
 20
-3.2460616988
 30
0.0
 10
5.6951132389
 20
-3.4496914258
 30
0.0
 10
5.8804265888
 20
-3.5995742089
 30
0.0
 10
6.0245919635
 20
-3.7052511592
 30
0.0
 10
6.1735829877
 20
-3.8039436277
 30
0.0
 10
6.3270539113
 20
-3.8954469662
 30
0.0
 10
6.4846666351
 20
-3.9795484927
 30
0.0
 10
6.6998211353
 20
-4.0815121865
 30
0.0
 10
6.9775002573
 20
-4.1896389036
 30
0.0
 10
7.3213538169
 20
-4.28701799
 30
0.0
 10
7.5557806225
 20
-4.3299315217
 30
0.0
 10
7.6736244791
 20
-4.3457364202
 30
0.0
  0
SPLINE
  5
5E3
100
AcDbEntity
  8
0
100
AcDbSpline
 62
7
  6
CONTINUOUS
 70
0
 71
3
 72
66
 73
62
 74
0
 42
0.0000001
 43
0.0000001
 44
0.0000000001
 40
0.0
 40
0.0
 40
0.0
 40
0.0
 40
0.0140949974
 40
0.0286738645
 40
0.0437290186
 40
0.0592493462
 40
0.0752208504
 40
0.091627339
 40
0.1084504607
 40
0.1256699179
 40
0.143263881
 40
0.1612101379
 40
0.1980658506
 40
0.2360429786
 40
0.2749331811
 40
0.3145190596
 40
0.3545808832
 40
0.3948960819
 40
0.4352381157
 40
0.4753778462
 40
0.5150868675
 40
0.5541380198
 40
0.59230568
 40
0.6293669089
 40
0.6651052694
 40
0.682413356
 40
0.6993135147
 40
0.7157818502
 40
0.7317954976
 40
0.7473324386
 40
0.7623719046
 40
0.7768969999
 40
0.7908942515
 40
0.804352417
 40
0.8172631026
 40
0.8296237459
 40
0.841438711
 40
0.8527214793
 40
0.8581713212
 40
0.8634984964
 40
0.8687080045
 40
0.8738059042
 40
0.8787994329
 40
0.8836969866
 40
0.8932359395
 40
0.9025101115
 40
0.9070803858
 40
0.9116160194
 40
0.9161277911
 40
0.920629886
 40
0.9251340671
 40
0.9296461626
 40
0.9341728505
 40
0.93872248
 40
0.9479326976
 40
0.9573851412
 40
0.9671780442
 40
0.9774563111
 40
0.9828195043
 40
0.9883535533
 40
1.0
 40
1.0
 40
1.0
 40
1.0
 10
11.6971590651
 20
12.7686158361
 30
0.0
 10
11.7066724334
 20
12.6712201353
 30
0.0
 10
11.7302681008
 20
12.4734814244
 30
0.0
 10
11.7776605067
 20
12.1735379804
 30
0.0
 10
11.8371954423
 20
11.8656857719
 30
0.0
 10
11.9084127899
 20
11.5504143557
 30
0.0
 10
11.9908597884
 20
11.2282049315
 30
0.0
 10
12.0840168429
 20
10.8995224521
 30
0.0
 10
12.1873575505
 20
10.5648247763
 30
0.0
 10
12.3003575663
 20
10.2245698285
 30
0.0
 10
12.4224970919
 20
9.8792087779
 30
0.0
 10
12.5983770452
 20
9.4083294117
 30
0.0
 10
12.8382279194
 20
8.8103903529
 30
0.0
 10
13.1512382565
 20
8.0854499495
 30
0.0
 10
13.4876253277
 20
7.3501784103
 30
0.0
 10
13.8430794157
 20
6.6078727713
 30
0.0
 10
14.2132390574
 20
5.8617430357
 30
0.0
 10
14.5937320766
 20
5.1149431539
 30
0.0
 10
14.980198626
 20
4.3706144926
 30
0.0
 10
15.3682866465
 20
3.6318850305
 30
0.0
 10
15.7536446775
 20
2.9018487961
 30
0.0
 10
16.1319310913
 20
2.1835616328
 30
0.0
 10
16.4988201999
 20
1.480051766
 30
0.0
 10
16.8500113837
 20
0.7943133844
 30
0.0
 10
17.1289110171
 20
0.2342943697
 30
0.0
 10
17.3401501734
 20
-0.2029901522
 30
0.0
 10
17.4902388531
 20
-0.5212169201
 30
0.0
 10
17.6331479262
 20
-0.8328732679
 30
0.0
 10
17.7683443278
 20
-1.1376282785
 30
0.0
 10
17.8952954172
 20
-1.4351553403
 30
0.0
 10
18.0134856897
 20
-1.7251428938
 30
0.0
 10
18.1223570933
 20
-2.0073322733
 30
0.0
 10
18.2213379616
 20
-2.2815024676
 30
0.0
 10
18.3098636801
 20
-2.5474443563
 30
0.0
 10
18.3873873395
 20
-2.8049638994
 30
0.0
 10
18.4533068554
 20
-3.0539255993
 30
0.0
 10
18.507007504
 20
-3.2942490178
 30
0.0
 10
18.5413722151
 20
-3.4895416775
 30
0.0
 10
18.5617251637
 20
-3.6413590192
 30
0.0
 10
18.5732614404
 20
-3.7517671611
 30
0.0
 10
18.5811009077
 20
-3.860052131
 30
0.0
 10
18.5850864383
 20
-3.9662318896
 30
0.0
 10
18.5850596236
 20
-4.0703267596
 30
0.0
 10
18.5795302179
 20
-4.2051425354
 30
0.0
 10
18.561911742
 20
-4.3690790704
 30
0.0
 10
18.5275730093
 20
-4.5281464671
 30
0.0
 10
18.4893619942
 20
-4.6499792856
 30
0.0
 10
18.4552551233
 20
-4.7382357634
 30
0.0
 10
18.4153367486
 20
-4.8235056927
 30
0.0
 10
18.3693783441
 20
-4.9054378305
 30
0.0
 10
18.3173258219
 20
-4.9836472032
 30
0.0
 10
18.2593162479
 20
-5.0577644474
 30
0.0
 10
18.1954764965
 20
-5.127364015
 30
0.0
 10
18.1023956912
 20
-5.2138797002
 30
0.0
 10
17.971420687
 20
-5.3089908748
 30
0.0
 10
17.7955930625
 20
-5.4004904908
 30
0.0
 10
17.6020553764
 20
-5.4696996494
 30
0.0
 10
17.4295164482
 20
-5.5090114538
 30
0.0
 10
17.2840865009
 20
-5.5308542339
 30
0.0
 10
17.1283324199
 20
-5.5467707966
 30
0.0
 10
17.0089545142
 20
-5.5509910397
 30
0.0
 10
16.9280951745
 20
-5.5509944438
 30
0.0
  0
SPLINE
  5
5E4
100
AcDbEntity
  8
0
100
AcDbSpline
 62
9
  6
CONTINUOUS
 70
0
 71
3
 72
42
 73
38
 74
0
 42
0.0000001
 43
0.0000001
 44
0.0000000001
 40
0.0
 40
0.0
 40
0.0
 40
0.0
 40
0.0068155241
 40
0.0180866091
 40
0.0336994419
 40
0.0535322359
 40
0.0773949764
 40
0.1050573845
 40
0.1708101402
 40
0.2484039239
 40
0.3350562464
 40
0.4276155615
 40
0.5227539908
 40
0.6170231241
 40
0.6627693097
 40
0.7070299196
 40
0.7494001306
 40
0.7895091903
 40
0.8269910289
 40
0.8614904
 40
0.8927115083
 40
0.9203788942
 40
0.9442211508
 40
0.9546392855
 40
0.9640281862
 40
0.9723677606
 40
0.9796379387
 40
0.9858186891
 40
0.9908906509
 40
0.9930073188
 40
0.9948440562
 40
0.996400669
 40
0.9976770328
 40
0.9986731715
 40
0.9993894899
 40
0.9998277471
 40
1.0
 40
1.0
 40
1.0
 40
1.0
 10
4.4209383269
 20
-0.3013015122
 30
0.0
 10
4.4222077533
 20
-0.3013015122
 30
0.0
 10
4.4255753106
 20
-0.301427506
 30
0.0
 10
4.431844066
 20
-0.3017311781
 30
0.0
 10
4.4405311233
 20
-0.3022342013
 30
0.0
 10
4.4515560969
 20
-0.3029216338
 30
0.0
 10
4.4648182894
 20
-0.3037939216
 30
0.0
 10
4.486611378
 20
-0.3052786612
 30
0.0
 10
4.5183827661
 20
-0.3075343943
 30
0.0
 10
4.561106439
 20
-0.3106687107
 30
0.0
 10
4.608802938
 20
-0.314257958
 30
0.0
 10
4.6597519154
 20
-0.3181723698
 30
0.0
 10
4.712109527
 20
-0.3222711057
 30
0.0
 10
4.7557696515
 20
-0.3257513235
 30
0.0
 10
4.7899803463
 20
-0.3285174639
 30
0.0
 10
4.814554447
 20
-0.3305242109
 30
0.0
 10
4.8380804098
 20
-0.332465939
 30
0.0
 10
4.8603463196
 20
-0.3343249064
 30
0.0
 10
4.8811494624
 20
-0.3360841157
 30
0.0
 10
4.9003010234
 20
-0.3377278207
 30
0.0
 10
4.9176290654
 20
-0.3392409107
 30
0.0
 10
4.9329772113
 20
-0.3406094251
 30
0.0
 10
4.9444635557
 20
-0.341661065
 30
0.0
 10
4.9525576386
 20
-0.3424234559
 30
0.0
 10
4.9577759732
 20
-0.3429257903
 30
0.0
 10
4.9624095272
 20
-0.3433837311
 30
0.0
 10
4.9664471449
 20
-0.3437960801
 30
0.0
 10
4.9698776695
 20
-0.3441616736
 30
0.0
 10
4.9723522377
 20
-0.3444407461
 30
0.0
 10
4.9740210023
 20
-0.3446419734
 30
0.0
 10
4.9750395046
 20
-0.3447713782
 30
0.0
 10
4.9759001471
 20
-0.3448884341
 30
0.0
 10
4.976609035
 20
-0.3449930006
 30
0.0
 10
4.9771494646
 20
-0.3450846374
 30
0.0
 10
4.9775623427
 20
-0.3451628458
 30
0.0
 10
4.9777655021
 20
-0.3452253377
 30
0.0
 10
4.9779117906
 20
-0.345271093
 30
0.0
 10
4.9779113326
 20
-0.3453031727
 30
0.0
  0
SPLINE
  5
5E5
100
AcDbEntity
  8
0
100
AcDbSpline
 62
9
  6
CONTINUOUS
 70
0
 71
3
 72
38
 73
34
 74
0
 42
0.0000001
 43
0.0000001
 44
0.0000000001
 40
0.0
 40
0.0
 40
0.0
 40
0.0
 40
0.0023599276
 40
0.0052497223
 40
0.0089682239
 40
0.0136523606
 40
0.0193651597
 40
0.0261368818
 40
0.0339804503
 40
0.0428898274
 40
0.063839468
 40
0.0888333174
 40
0.1176867751
 40
0.1501357418
 40
0.1858698426
 40
0.2245730606
 40
0.3094076399
 40
0.4014425304
 40
0.4972123323
 40
0.5931012392
 40
0.6854850035
 40
0.7708886696
 40
0.8460868441
 40
0.8789820756
 40
0.9083144622
 40
0.9338210421
 40
0.9553087746
 40
0.9726086252
 40
0.9796568872
 40
0.9856439682
 40
0.9905931335
 40
0.9945545467
 40
1.0
 40
1.0
 40
1.0
 40
1.0
 10
7.748063613
 20
-3.7907063087
 30
0.0
 10
7.7485061408
 20
-3.7907665503
 30
0.0
 10
7.749454696
 20
-3.791190987
 30
0.0
 10
7.7506067185
 20
-3.7924723803
 30
0.0
 10
7.7516411045
 20
-3.794353848
 30
0.0
 10
7.752577216
 20
-3.796862446
 30
0.0
 10
7.7534198949
 20
-3.8000035974
 30
0.0
 10
7.7541648742
 20
-3.8037800001
 30
0.0
 10
7.754808311
 20
-3.8081865989
 30
0.0
 10
7.7555697675
 20
-3.8152822635
 30
0.0
 10
7.7562009163
 20
-3.8256486439
 30
0.0
 10
7.7565137572
 20
-3.8398023327
 30
0.0
 10
7.7563991808
 20
-3.856135166
 30
0.0
 10
7.7558596502
 20
-3.87449226
 30
0.0
 10
7.7548989988
 20
-3.8946983196
 30
0.0
 10
7.7530016519
 20
-3.9247812347
 30
0.0
 10
7.7496059722
 20
-3.9654405774
 30
0.0
 10
7.7442198973
 20
-4.0167580104
 30
0.0
 10
7.7376029121
 20
-4.0700400563
 30
0.0
 10
7.7300005533
 20
-4.1232569726
 30
0.0
 10
7.7217090365
 20
-4.1743849998
 30
0.0
 10
7.7130476107
 20
-4.2214755101
 30
0.0
 10
7.7055066398
 20
-4.2573159689
 30
0.0
 10
7.699460646
 20
-4.2826125374
 30
0.0
 10
7.6952481616
 20
-4.2986743225
 30
0.0
 10
7.6911949223
 20
-4.3125414303
 30
0.0
 10
7.6873426129
 20
-4.3240862227
 30
0.0
 10
7.6841617332
 20
-4.3321645207
 30
0.0
 10
7.6816769998
 20
-4.3373451844
 30
0.0
 10
7.6800219295
 20
-4.3403165799
 30
0.0
 10
7.6784241214
 20
-4.3426639392
 30
0.0
 10
7.6766632474
 20
-4.34467917
 30
0.0
 10
7.6749938484
 20
-4.3457589403
 30
0.0
 10
7.6739633122
 20
-4.3457589403
 30
0.0
  0
SPLINE
  5
5E6
100
AcDbEntity
  8
0
100
AcDbSpline
 62
9
  6
CONTINUOUS
 70
0
 71
3
 72
42
 73
38
 74
0
 42
0.0000001
 43
0.0000001
 44
0.0000000001
 40
0.0
 40
0.0
 40
0.0
 40
0.0
 40
0.0001722529
 40
0.0006105101
 40
0.0013268285
 40
0.0023229672
 40
0.003599331
 40
0.0051559438
 40
0.0069926812
 40
0.0091093491
 40
0.0141813109
 40
0.0203620613
 40
0.0276322394
 40
0.0359718138
 40
0.0453607145
 40
0.0557788492
 40
0.0796211058
 40
0.1072884917
 40
0.1385096
 40
0.1730089711
 40
0.2104908097
 40
0.2505998694
 40
0.2929700804
 40
0.3372306903
 40
0.3829768759
 40
0.4772460092
 40
0.5723844385
 40
0.6649437536
 40
0.7515960761
 40
0.8291898598
 40
0.8949426155
 40
0.9226050236
 40
0.9464677641
 40
0.9663005581
 40
0.9819133909
 40
0.9931844759
 40
1.0
 40
1.0
 40
1.0
 40
1.0
 10
5.7086920166
 20
8.9476907142
 30
0.0
 10
5.7086924747
 20
8.9477227939
 30
0.0
 10
5.7085461862
 20
8.9477685493
 30
0.0
 10
5.7083430268
 20
8.9478310412
 30
0.0
 10
5.7079301486
 20
8.9479092496
 30
0.0
 10
5.707389719
 20
8.9480008864
 30
0.0
 10
5.7066808312
 20
8.9481054528
 30
0.0
 10
5.7058201887
 20
8.9482225087
 30
0.0
 10
5.7048016863
 20
8.9483519135
 30
0.0
 10
5.7031329218
 20
8.9485531408
 30
0.0
 10
5.7006583535
 20
8.9488322133
 30
0.0
 10
5.6972278289
 20
8.9491978068
 30
0.0
 10
5.6931902112
 20
8.9496101558
 30
0.0
 10
5.6885566572
 20
8.9500680966
 30
0.0
 10
5.6833383226
 20
8.950570431
 30
0.0
 10
5.6752442397
 20
8.951332822
 30
0.0
 10
5.6637578954
 20
8.9523844618
 30
0.0
 10
5.6484097494
 20
8.9537529762
 30
0.0
 10
5.6310817074
 20
8.9552660662
 30
0.0
 10
5.6119301464
 20
8.9569097713
 30
0.0
 10
5.5911270037
 20
8.9586689806
 30
0.0
 10
5.5688610938
 20
8.9605279479
 30
0.0
 10
5.545335131
 20
8.962469676
 30
0.0
 10
5.5207610304
 20
8.964476423
 30
0.0
 10
5.4865503356
 20
8.9672425635
 30
0.0
 10
5.4428902111
 20
8.9707227813
 30
0.0
 10
5.3905325995
 20
8.9748215171
 30
0.0
 10
5.339583622
 20
8.978735929
 30
0.0
 10
5.291887123
 20
8.9823251762
 30
0.0
 10
5.2491634501
 20
8.9854594927
 30
0.0
 10
5.217392062
 20
8.9877152257
 30
0.0
 10
5.1955989735
 20
8.9891999653
 30
0.0
 10
5.1823367809
 20
8.9900722532
 30
0.0
 10
5.1713118073
 20
8.9907596857
 30
0.0
 10
5.1626247501
 20
8.9912627088
 30
0.0
 10
5.1563559947
 20
8.991566381
 30
0.0
 10
5.1529884374
 20
8.9916923748
 30
0.0
 10
5.151719011
 20
8.9916923748
 30
0.0
  0
SPLINE
  5
5E7
100
AcDbEntity
  8
0
100
AcDbSpline
 62
7
  6
CONTINUOUS
 70
0
 71
3
 72
11
 73
7
 74
0
 42
0.0000001
 43
0.0000001
 44
0.0000000001
 40
0.0
 40
0.0
 40
0.0
 40
0.0
 40
0.2882146872
 40
0.5440179877
 40
0.7782177914
 40
1.0
 40
1.0
 40
1.0
 40
1.0
 10
11.9005734933
 20
14.226291056
 30
0.0
 10
11.895929863
 20
14.2322526702
 30
0.0
 10
11.8861829363
 20
14.2428020397
 30
0.0
 10
11.8696371341
 20
14.2549414404
 30
0.0
 10
11.8527170903
 20
14.2630582085
 30
0.0
 10
11.8411047741
 20
14.2661880272
 30
0.0
 10
11.835383633
 20
14.2672281919
 30
0.0
  0
SPLINE
  5
5E8
100
AcDbEntity
  8
0
100
AcDbSpline
 62
7
  6
CONTINUOUS
 70
0
 71
3
 72
9
 73
5
 74
0
 42
0.0000001
 43
0.0000001
 44
0.0000000001
 40
0.0
 40
0.0
 40
0.0
 40
0.0
 40
0.485949004
 40
1.0
 40
1.0
 40
1.0
 40
1.0
 10
11.7945721642
 20
14.2664195834
 30
0.0
 10
11.7892238392
 20
14.2652290607
 30
0.0
 10
11.7783955665
 20
14.2618841758
 30
0.0
 10
11.7682992694
 20
14.2567209921
 30
0.0
 10
11.7633750302
 20
14.253663792
 30
0.0
  0
SPLINE
  5
5E9
100
AcDbEntity
  8
0
100
AcDbSpline
 62
7
  6
CONTINUOUS
 70
0
 71
3
 72
9
 73
5
 74
0
 42
0.0000001
 43
0.0000001
 44
0.0000000001
 40
0.0
 40
0.0
 40
0.0
 40
0.0
 40
0.47140481
 40
1.0
 40
1.0
 40
1.0
 40
1.0
 10
11.7633750302
 20
14.253663792
 30
0.0
 10
11.7579324409
 20
14.2502847756
 30
0.0
 10
11.7470270029
 20
14.2420393136
 30
0.0
 10
11.7377943747
 20
14.2319581502
 30
0.0
 10
11.7333801524
 20
14.226291056
 30
0.0
  0
SPLINE
  5
5EA
100
AcDbEntity
  8
0
100
AcDbSpline
 62
7
  6
CONTINUOUS
 70
0
 71
3
 72
19
 73
15
 74
0
 42
0.0000001
 43
0.0000001
 44
0.0000000001
 40
0.0
 40
0.0
 40
0.0
 40
0.0
 40
0.1249737599
 40
0.1876182376
 40
0.2501538699
 40
0.3126289048
 40
0.3750989391
 40
0.4999999648
 40
0.6249011395
 40
0.6873711824
 40
0.7498461178
 40
0.8123816344
 40
0.8750260893
 40
1.0
 40
1.0
 40
1.0
 40
1.0
 10
11.6504609066
 20
14.226291056
 30
0.0
 10
11.6352528262
 20
14.2344254084
 30
0.0
 10
11.6111833733
 20
14.2444103997
 30
0.0
 10
11.5780276551
 20
14.2540558699
 30
0.0
 10
11.5527390588
 20
14.2597228675
 30
0.0
 10
11.5271975382
 20
14.2639282098
 30
0.0
 10
11.4929203392
 20
14.2677656331
 30
0.0
 10
11.4498074415
 20
14.2696533134
 30
0.0
 10
11.4066946443
 20
14.2677645014
 30
0.0
 10
11.3724173922
 20
14.263927586
 30
0.0
 10
11.3468758022
 20
14.2597228448
 30
0.0
 10
11.3215871252
 20
14.2540563285
 30
0.0
 10
11.2884314043
 20
14.2444107918
 30
0.0
 10
11.2643621052
 20
14.2344254182
 30
0.0
 10
11.2491540064
 20
14.226291056
 30
0.0
  0
SPLINE
  5
5EB
100
AcDbEntity
  8
0
100
AcDbSpline
 62
7
  6
CONTINUOUS
 70
0
 71
3
 72
14
 73
10
 74
0
 42
0.0000001
 43
0.0000001
 44
0.0000000001
 40
0.0
 40
0.0
 40
0.0
 40
0.0
 40
0.1386098209
 40
0.270323335
 40
0.5197176765
 40
0.6407515539
 40
0.7606750493
 40
0.880196579
 40
1.0
 40
1.0
 40
1.0
 40
1.0
 10
11.1564740365
 20
14.226291056
 30
0.0
 10
11.151253648
 20
14.2310773731
 30
0.0
 10
11.1404044543
 20
14.2397175661
 30
0.0
 10
11.1175128749
 20
14.2532934738
 30
0.0
 10
11.0931859591
 20
14.2622532204
 30
0.0
 10
11.068567656
 20
14.26704775
 30
0.0
 10
11.0502121003
 20
14.2688867478
 30
0.0
 10
11.0318323057
 20
14.2690357935
 30
0.0
 10
11.0196265237
 20
14.2680067462
 30
0.0
 10
11.0135563194
 20
14.2672157506
 30
0.0
  0
SPLINE
  5
5EC
100
AcDbEntity
  8
0
100
AcDbSpline
 62
7
  6
CONTINUOUS
 70
0
 71
3
 72
11
 73
7
 74
0
 42
0.0000001
 43
0.0000001
 44
0.0000000001
 40
0.0
 40
0.0
 40
0.0
 40
0.0
 40
0.2364619451
 40
0.4786563015
 40
0.7313597561
 40
1.0
 40
1.0
 40
1.0
 40
1.0
 10
11.0135563194
 20
14.2672157506
 30
0.0
 10
11.0056261797
 20
14.2661823907
 30
0.0
 10
10.9896755156
 20
14.2631299454
 30
0.0
 10
10.9661764564
 20
14.2551450724
 30
0.0
 10
10.9431589922
 20
14.2432058406
 30
0.0
 10
10.929057247
 20
14.2324309944
 30
0.0
 10
10.9223604772
 20
14.226291056
 30
0.0
  0
SPLINE
  5
5ED
100
AcDbEntity
  8
0
100
AcDbSpline
 62
7
  6
CONTINUOUS
 70
0
 71
3
 72
11
 73
7
 74
0
 42
0.0000001
 43
0.0000001
 44
0.0000000001
 40
0.0
 40
0.0
 40
0.0
 40
0.0
 40
0.2686623078
 40
0.5213681772
 40
0.76355555
 40
1.0
 40
1.0
 40
1.0
 40
1.0
 10
10.9223604772
 20
13.8209406162
 30
0.0
 10
10.9290866209
 20
13.8147737463
 30
0.0
 10
10.9432547279
 20
13.8039566314
 30
0.0
 10
10.9663872597
 20
13.791994175
 30
0.0
 10
10.9899982527
 20
13.7840086772
 30
0.0
 10
11.0060227155
 20
13.7809719305
 30
0.0
 10
11.0139886395
 20
13.7799515683
 30
0.0
  0
SPLINE
  5
5EE
100
AcDbEntity
  8
0
100
AcDbSpline
 62
7
  6
CONTINUOUS
 70
0
 71
3
 72
14
 73
10
 74
0
 42
0.0000001
 43
0.0000001
 44
0.0000000001
 40
0.0
 40
0.0
 40
0.0
 40
0.0
 40
0.1197675207
 40
0.239271374
 40
0.3591839639
 40
0.4802108119
 40
0.729660569
 40
0.8613939416
 40
1.0
 40
1.0
 40
1.0
 40
1.0
 10
11.0139886395
 20
13.7799515683
 30
0.0
 10
11.0200415967
 20
13.7791762397
 30
0.0
 10
11.032212288
 20
13.7781761175
 30
0.0
 10
11.0505363323
 20
13.7783594845
 30
0.0
 10
11.0688355567
 20
13.7802187016
 30
0.0
 10
11.0933791871
 20
13.7850359978
 30
0.0
 10
11.1176305754
 20
13.7939952191
 30
0.0
 10
11.1404521269
 20
13.8075487112
 30
0.0
 10
11.1512685284
 20
13.8161679422
 30
0.0
 10
11.1564740365
 20
13.8209406162
 30
0.0
  0
SPLINE
  5
5EF
100
AcDbEntity
  8
0
100
AcDbSpline
 62
7
  6
CONTINUOUS
 70
0
 71
3
 72
19
 73
15
 74
0
 42
0.0000001
 43
0.0000001
 44
0.0000000001
 40
0.0
 40
0.0
 40
0.0
 40
0.0
 40
0.1249731625
 40
0.1876502887
 40
0.2502217558
 40
0.312688708
 40
0.3751311162
 40
0.4999996608
 40
0.6248689365
 40
0.6873119457
 40
0.7497791897
 40
0.8123502885
 40
0.8750270263
 40
1.0
 40
1.0
 40
1.0
 40
1.0
 10
11.2491540064
 20
13.8209406162
 30
0.0
 10
11.2643621371
 20
13.8128062369
 30
0.0
 10
11.2884321506
 20
13.8028103981
 30
0.0
 10
11.3215993274
 20
13.7931682377
 30
0.0
 10
11.3468976434
 20
13.7875064
 30
0.0
 10
11.3724383268
 20
13.783295372
 30
0.0
 10
11.4067066251
 20
13.7794577554
 30
0.0
 10
11.4498074548
 20
13.7775865713
 30
0.0
 10
11.492908375
 20
13.7794575292
 30
0.0
 10
11.5271769227
 20
13.7832949502
 30
0.0
 10
11.5527176729
 20
13.7875060517
 30
0.0
 10
11.5780158664
 20
13.7931681474
 30
0.0
 10
11.6111828528
 20
13.8028104748
 30
0.0
 10
11.6352527989
 20
13.8128062492
 30
0.0
 10
11.6504609066
 20
13.8209406162
 30
0.0
  0
SPLINE
  5
5F0
100
AcDbEntity
  8
0
100
AcDbSpline
 62
7
  6
CONTINUOUS
 70
0
 71
3
 72
11
 73
7
 74
0
 42
0.0000001
 43
0.0000001
 44
0.0000000001
 40
0.0
 40
0.0
 40
0.0
 40
0.0
 40
0.2885776699
 40
0.5443266443
 40
0.7783378422
 40
1.0
 40
1.0
 40
1.0
 40
1.0
 10
11.7333801524
 20
13.8209406162
 30
0.0
 10
11.7381094543
 20
13.8148690145
 30
0.0
 10
11.7480438819
 20
13.8041400414
 30
0.0
 10
11.7649517452
 20
13.7918844078
 30
0.0
 10
11.7822305434
 20
13.7837878615
 30
0.0
 10
11.7940733083
 20
13.7807451755
 30
0.0
 10
11.7999032334
 20
13.7797661407
 30
0.0
  0
SPLINE
  5
5F1
100
AcDbEntity
  8
0
100
AcDbSpline
 62
7
  6
CONTINUOUS
 70
0
 71
3
 72
11
 73
7
 74
0
 42
0.0000001
 43
0.0000001
 44
0.0000000001
 40
0.0
 40
0.0
 40
0.0
 40
0.0
 40
0.2436636041
 40
0.4873361826
 40
0.7368165739
 40
1.0
 40
1.0
 40
1.0
 40
1.0
 10
11.7999032334
 20
13.7797661407
 30
0.0
 10
11.8055434933
 20
13.7788189569
 30
0.0
 10
11.8170047228
 20
13.7778491989
 30
0.0
 10
11.8343129716
 20
13.7793208748
 30
0.0
 10
11.8515929141
 20
13.7837517548
 30
0.0
 10
11.8625752475
 20
13.7888702454
 30
0.0
 10
11.8679192441
 20
13.7919689602
 30
0.0
  0
SPLINE
  5
5F2
100
AcDbEntity
  8
0
100
AcDbSpline
 62
7
  6
CONTINUOUS
 70
0
 71
3
 72
9
 73
5
 74
0
 42
0.0000001
 43
0.0000001
 44
0.0000000001
 40
0.0
 40
0.0
 40
0.0
 40
0.0
 40
0.4696674429
 40
1.0
 40
1.0
 40
1.0
 40
1.0
 10
11.8679192441
 20
13.7919689602
 30
0.0
 10
11.8738592571
 20
13.7954132749
 30
0.0
 10
11.885800605
 20
13.8040271127
 30
0.0
 10
11.8958090853
 20
13.8148239443
 30
0.0
 10
11.9005734933
 20
13.8209406162
 30
0.0
  0
SPLINE
  5
5F3
100
AcDbEntity
  8
0
100
AcDbSpline
 62
9
  6
CONTINUOUS
 70
0
 71
3
 72
15
 73
11
 74
0
 42
0.0000001
 43
0.0000001
 44
0.0000000001
 40
0.0
 40
0.0
 40
0.0
 40
0.0
 40
0.0808791864
 40
0.1128483252
 40
0.1509752227
 40
0.2482228295
 40
0.3773783434
 40
0.5428468062
 40
0.7489626208
 40
1.0
 40
1.0
 40
1.0
 40
1.0
 10
16.3466928368
 20
-5.5089219126
 30
0.0
 10
16.3480266438
 20
-5.5089219126
 30
0.0
 10
16.3497096223
 20
-5.507559203
 30
0.0
 10
16.3512637079
 20
-5.5056721089
 30
0.0
 10
16.3528427076
 20
-5.5033882693
 30
0.0
 10
16.354931469
 20
-5.4995578704
 30
0.0
 10
16.3575757168
 20
-5.4936532216
 30
0.0
 10
16.3605149188
 20
-5.4859336676
 30
0.0
 10
16.3637581032
 20
-5.476188657
 30
0.0
 10
16.3659000012
 20
-5.4689590105
 30
0.0
 10
16.367028113
 20
-5.4649757315
 30
0.0
  0
SPLINE
  5
5F4
100
AcDbEntity
  8
0
100
AcDbSpline
 62
9
  6
CONTINUOUS
 70
0
 71
3
 72
9
 73
5
 74
0
 42
0.0000001
 43
0.0000001
 44
0.0000000001
 40
0.0
 40
0.0
 40
0.0
 40
0.0
 40
0.4475446057
 40
1.0
 40
1.0
 40
1.0
 40
1.0
 10
16.367028113
 20
-5.4649757315
 30
0.0
 10
16.368997798
 20
-5.4580209198
 30
0.0
 10
16.3730753056
 20
-5.442389409
 30
0.0
 10
16.3767207158
 20
-5.4266534448
 30
0.0
 10
16.3786450248
 20
-5.4179406367
 30
0.0
  0
SPLINE
  5
5F5
100
AcDbEntity
  8
0
100
AcDbSpline
 62
9
  6
CONTINUOUS
 70
0
 71
3
 72
14
 73
10
 74
0
 42
0.0000001
 43
0.0000001
 44
0.0000000001
 40
0.0
 40
0.0
 40
0.0
 40
0.0
 40
0.2115950464
 40
0.3376132469
 40
0.4720200529
 40
0.6101199314
 40
0.747238272
 40
0.8787415971
 40
1.0
 40
1.0
 40
1.0
 40
1.0
 10
16.3786450248
 20
-5.4179406367
 30
0.0
 10
16.3835297758
 20
-5.3958236599
 30
0.0
 10
16.3904260175
 20
-5.3603352616
 30
0.0
 10
16.3988658351
 20
-5.3105180134
 30
0.0
 10
16.4053557635
 20
-5.268352848
 30
0.0
 10
16.411376174
 20
-5.2249185566
 30
0.0
 10
16.416669118
 20
-5.1817025603
 30
0.0
 10
16.4211247301
 20
-5.1402053648
 30
0.0
 10
16.4235896392
 20
-5.113259606
 30
0.0
 10
16.4246428722
 20
-5.1003224251
 30
0.0
  0
SPLINE
  5
5F6
100
AcDbEntity
  8
0
100
AcDbSpline
 62
9
  6
CONTINUOUS
 70
0
 71
3
 72
9
 73
5
 74
0
 42
0.0000001
 43
0.0000001
 44
0.0000000001
 40
0.0
 40
0.0
 40
0.0
 40
0.0
 40
0.5502533577
 40
1.0
 40
1.0
 40
1.0
 40
1.0
 10
16.4246428722
 20
-5.1003224251
 30
0.0
 10
16.4257888164
 20
-5.0862464435
 30
0.0
 10
16.4275911137
 20
-5.0606415186
 30
0.0
 10
16.4286982421
 20
-5.0349949408
 30
0.0
 10
16.4289722212
 20
-5.0234552012
 30
0.0
  0
SPLINE
  5
5F7
100
AcDbEntity
  8
0
100
AcDbSpline
 62
9
  6
CONTINUOUS
 70
0
 71
3
 72
17
 73
13
 74
0
 42
0.0000001
 43
0.0000001
 44
0.0000000001
 40
0.0
 40
0.0
 40
0.0
 40
0.0
 40
0.2625285932
 40
0.4757014081
 40
0.6441300661
 40
0.7131523027
 40
0.7728963218
 40
0.82401377
 40
0.8671642883
 40
0.903015452
 40
0.9322845994
 40
1.0
 40
1.0
 40
1.0
 40
1.0
 10
16.4289722212
 20
-5.0234552012
 30
0.0
 10
16.4291207274
 20
-5.0172002642
 30
0.0
 10
16.4292694229
 20
-5.0058624506
 30
0.0
 10
16.4290077482
 20
-4.9905109923
 30
0.0
 10
16.4284058684
 20
-4.9797840037
 30
0.0
 10
16.4277024972
 20
-4.9727346768
 30
0.0
 10
16.4271361418
 20
-4.9684851898
 30
0.0
 10
16.4265038533
 20
-4.9648654546
 30
0.0
 10
16.4258240538
 20
-4.9618468749
 30
0.0
 10
16.4250802102
 20
-4.9593479903
 30
0.0
 10
16.4239720317
 20
-4.9564874032
 30
0.0
 10
16.4223938704
 20
-4.9540767694
 30
0.0
 10
16.4207935696
 20
-4.9538682867
 30
0.0
  0
ELLIPSE
  5
5F8
100
AcDbEntity
  8
0
100
AcDbEllipse
 62
7
  6
CONTINUOUS
 10
6.8317056
 20
22.7425095634
 30
0.0
 11
0.0150088799
 21
0.0086653808
 31
0.0
 40
0.9900227071
 41
0.0
 42
6.2831853072
  0
ELLIPSE
  5
5F9
100
AcDbEntity
  8
0
100
AcDbEllipse
 62
7
  6
CONTINUOUS
 10
3.8753256875
 20
21.5179369081
 30
0.0
 11
0.0167402303
 21
0.0044855312
 31
0.0
 40
0.9900227071
 41
0.0
 42
6.2831853072
  0
ELLIPSE
  5
5FA
100
AcDbEntity
  8
0
100
AcDbEllipse
 62
7
  6
CONTINUOUS
 10
3.8203372134
 20
21.9356158361
 30
0.0
 11
0.0173307617
 21
0.0
 31
0.0
 40
0.9900227071
 41
0.0
 42
6.2831853072
  0
ELLIPSE
  5
5FB
100
AcDbEntity
  8
0
100
AcDbEllipse
 62
7
  6
CONTINUOUS
 10
3.8753256875
 20
22.3532947641
 30
0.0
 11
0.0167402303
 21
-0.0044855312
 31
0.0
 40
0.9900227071
 41
0.0
 42
6.2831853072
  0
ELLIPSE
  5
5FC
100
AcDbEntity
  8
0
100
AcDbEllipse
 62
7
  6
CONTINUOUS
 10
6.7269685733
 20
22.4711293157
 30
0.0
 11
0.0161442363
 21
0.0066871616
 31
0.0
 40
0.9960990528
 41
0.0
 42
6.2831853072
  0
ELLIPSE
  5
5FD
100
AcDbEntity
  8
0
100
AcDbEllipse
 62
7
  6
CONTINUOUS
 10
4.036543736
 20
22.7425095634
 30
0.0
 11
0.0150088799
 21
-0.0086653808
 31
0.0
 40
0.9900227071
 41
0.0
 42
6.2831853072
  0
ELLIPSE
  5
5FE
100
AcDbEntity
  8
0
100
AcDbEllipse
 62
7
  6
CONTINUOUS
 10
4.5822457427
 20
20.8254256061
 30
0.0
 11
0.010637738
 21
0.01386337
 31
0.0
 40
0.9960990528
 41
0.0
 42
6.2831853072
  0
ELLIPSE
  5
5FF
100
AcDbEntity
  8
0
100
AcDbEllipse
 62
7
  6
CONTINUOUS
 10
5.2514709928
 20
20.5482234312
 30
0.0
 11
0.0022808663
 21
0.0173248996
 31
0.0
 40
0.9960990528
 41
0.0
 42
6.2831853072
  0
ELLIPSE
  5
600
100
AcDbEntity
  8
0
100
AcDbEllipse
 62
7
  6
CONTINUOUS
 10
5.9696381476
 20
20.6427719308
 30
0.0
 11
-0.0066871616
 21
0.0161442363
 31
0.0
 40
0.9960990528
 41
0.0
 42
6.2831853072
  0
ELLIPSE
  5
601
100
AcDbEntity
  8
0
100
AcDbEllipse
 62
7
  6
CONTINUOUS
 10
6.544314898
 20
21.0837369108
 30
0.0
 11
0.01386337
 21
-0.010637738
 31
0.0
 40
0.9960990528
 41
0.0
 42
6.2831853072
  0
ELLIPSE
  5
602
100
AcDbEntity
  8
0
100
AcDbEllipse
 62
7
  6
CONTINUOUS
 10
6.8215170729
 20
21.7529621609
 30
0.0
 11
0.0173248996
 21
-0.0022808663
 31
0.0
 40
0.9960990528
 41
0.0
 42
6.2831853072
  0
ELLIPSE
  5
603
100
AcDbEntity
  8
0
100
AcDbEllipse
 62
7
  6
CONTINUOUS
 10
4.2930046155
 20
23.0767358886
 30
0.0
 11
-0.0122546991
 21
0.0122546991
 31
0.0
 40
0.9900227071
 41
0.0
 42
6.2831853072
  0
ELLIPSE
  5
604
100
AcDbEntity
  8
0
100
AcDbEllipse
 62
7
  6
CONTINUOUS
 10
6.9929236485
 20
22.3532947641
 30
0.0
 11
0.0167402303
 21
0.0044855312
 31
0.0
 40
0.9900227071
 41
0.0
 42
6.2831853072
  0
ELLIPSE
  5
605
100
AcDbEntity
  8
0
100
AcDbEllipse
 62
7
  6
CONTINUOUS
 10
7.0479121226
 20
21.9356158361
 30
0.0
 11
0.0173307617
 21
0.0
 31
0.0
 40
0.9900227071
 41
0.0
 42
6.2831853072
  0
ELLIPSE
  5
606
100
AcDbEntity
  8
0
100
AcDbEllipse
 62
7
  6
CONTINUOUS
 10
6.9929236485
 20
21.5179369081
 30
0.0
 11
0.0167402303
 21
-0.0044855312
 31
0.0
 40
0.9900227071
 41
0.0
 42
6.2831853072
  0
ELLIPSE
  5
607
100
AcDbEntity
  8
0
100
AcDbEllipse
 62
7
  6
CONTINUOUS
 10
6.8317056
 20
21.1287221088
 30
0.0
 11
0.0150088799
 21
-0.0086653808
 31
0.0
 40
0.9900227071
 41
0.0
 42
6.2831853072
  0
ELLIPSE
  5
608
100
AcDbEntity
  8
0
100
AcDbEllipse
 62
7
  6
CONTINUOUS
 10
6.5752447205
 20
20.7944957836
 30
0.0
 11
-0.0122546991
 21
0.0122546991
 31
0.0
 40
0.9900227071
 41
0.0
 42
6.2831853072
  0
ELLIPSE
  5
609
100
AcDbEntity
  8
0
100
AcDbEllipse
 62
7
  6
CONTINUOUS
 10
4.6272309407
 20
23.3331967681
 30
0.0
 11
-0.0086653808
 21
0.0150088799
 31
0.0
 40
0.9900227071
 41
0.0
 42
6.2831853072
  0
ELLIPSE
  5
60A
100
AcDbEntity
  8
0
100
AcDbEllipse
 62
7
  6
CONTINUOUS
 10
6.2410183953
 20
20.5380349041
 30
0.0
 11
-0.0086653808
 21
0.0150088799
 31
0.0
 40
0.9900227071
 41
0.0
 42
6.2831853072
  0
ELLIPSE
  5
60B
100
AcDbEntity
  8
0
100
AcDbEllipse
 62
7
  6
CONTINUOUS
 10
5.851803596
 20
20.3768168556
 30
0.0
 11
-0.0044855312
 21
0.0167402303
 31
0.0
 40
0.9900227071
 41
0.0
 42
6.2831853072
  0
ELLIPSE
  5
60C
100
AcDbEntity
  8
0
100
AcDbEllipse
 62
7
  6
CONTINUOUS
 10
5.434124668
 20
20.3218283815
 30
0.0
 11
-0.0
 21
0.0173307617
 31
0.0
 40
0.9900227071
 41
0.0
 42
6.2831853072
  0
ELLIPSE
  5
60D
100
AcDbEntity
  8
0
100
AcDbEllipse
 62
7
  6
CONTINUOUS
 10
5.01644574
 20
20.3768168556
 30
0.0
 11
0.0044855312
 21
0.0167402303
 31
0.0
 40
0.9900227071
 41
0.0
 42
6.2831853072
  0
ELLIPSE
  5
60E
100
AcDbEntity
  8
0
100
AcDbEllipse
 62
7
  6
CONTINUOUS
 10
4.6272309407
 20
20.5380349041
 30
0.0
 11
0.0086653808
 21
0.0150088799
 31
0.0
 40
0.9900227071
 41
0.0
 42
6.2831853072
  0
ELLIPSE
  5
60F
100
AcDbEntity
  8
0
100
AcDbEllipse
 62
7
  6
CONTINUOUS
 10
5.01644574
 20
23.4944148166
 30
0.0
 11
-0.0044855312
 21
0.0167402303
 31
0.0
 40
0.9900227071
 41
0.0
 42
6.2831853072
  0
ELLIPSE
  5
610
100
AcDbEntity
  8
0
100
AcDbEllipse
 62
7
  6
CONTINUOUS
 10
4.2930046155
 20
20.7944957836
 30
0.0
 11
0.0122546991
 21
0.0122546991
 31
0.0
 40
0.9900227071
 41
0.0
 42
6.2831853072
  0
ELLIPSE
  5
611
100
AcDbEntity
  8
0
100
AcDbEllipse
 62
7
  6
CONTINUOUS
 10
5.434124668
 20
23.5494032907
 30
0.0
 11
-0.0
 21
0.0173307617
 31
0.0
 40
0.9900227071
 41
0.0
 42
6.2831853072
  0
ELLIPSE
  5
612
100
AcDbEntity
  8
0
100
AcDbEllipse
 62
7
  6
CONTINUOUS
 10
6.2860035933
 20
23.0458060661
 30
0.0
 11
0.010637738
 21
0.01386337
 31
0.0
 40
0.9960990528
 41
0.0
 42
6.2831853072
  0
ELLIPSE
  5
613
100
AcDbEntity
  8
0
100
AcDbEllipse
 62
7
  6
CONTINUOUS
 10
5.6167783432
 20
23.323008241
 30
0.0
 11
0.0022808663
 21
0.0173248996
 31
0.0
 40
0.9960990528
 41
0.0
 42
6.2831853072
  0
ELLIPSE
  5
614
100
AcDbEntity
  8
0
100
AcDbEllipse
 62
7
  6
CONTINUOUS
 10
4.8986111884
 20
23.2284597414
 30
0.0
 11
-0.0066871616
 21
0.0161442363
 31
0.0
 40
0.9960990528
 41
0.0
 42
6.2831853072
  0
ELLIPSE
  5
615
100
AcDbEntity
  8
0
100
AcDbEllipse
 62
7
  6
CONTINUOUS
 10
4.323934438
 20
22.7874947614
 30
0.0
 11
0.01386337
 21
-0.010637738
 31
0.0
 40
0.9960990528
 41
0.0
 42
6.2831853072
  0
ELLIPSE
  5
616
100
AcDbEntity
  8
0
100
AcDbEllipse
 62
7
  6
CONTINUOUS
 10
5.851803596
 20
23.4944148166
 30
0.0
 11
0.0044855312
 21
0.0167402303
 31
0.0
 40
0.9900227071
 41
0.0
 42
6.2831853072
  0
ELLIPSE
  5
617
100
AcDbEntity
  8
0
100
AcDbEllipse
 62
7
  6
CONTINUOUS
 10
4.0467322631
 20
22.1182695113
 30
0.0
 11
0.0173248996
 21
-0.0022808663
 31
0.0
 40
0.9960990528
 41
0.0
 42
6.2831853072
  0
ELLIPSE
  5
618
100
AcDbEntity
  8
0
100
AcDbEllipse
 62
7
  6
CONTINUOUS
 10
4.1412807627
 20
21.4001023565
 30
0.0
 11
0.0161442363
 21
0.0066871616
 31
0.0
 40
0.9960990528
 41
0.0
 42
6.2831853072
  0
ELLIPSE
  5
619
100
AcDbEntity
  8
0
100
AcDbEllipse
 62
7
  6
CONTINUOUS
 10
6.5752447205
 20
23.0767358886
 30
0.0
 11
0.0122546991
 21
0.0122546991
 31
0.0
 40
0.9900227071
 41
0.0
 42
6.2831853072
  0
ELLIPSE
  5
61A
100
AcDbEntity
  8
0
100
AcDbEllipse
 62
7
  6
CONTINUOUS
 10
6.2410183953
 20
23.3331967681
 30
0.0
 11
0.0086653808
 21
0.0150088799
 31
0.0
 40
0.9900227071
 41
0.0
 42
6.2831853072
  0
ENDSEC
  0
SECTION
  2
OBJECTS
  0
DICTIONARY
  5
C
100
AcDbDictionary
280
0
281
1
  3
ACAD_GROUP
350
D
  3
ACAD_MLINESTYLE
350
17
  3
ACAD_LAYOUT
350
1A
  3
ACAD_PLOTSETTINGS
350
19
  3
ACAD_PLOTSTYLENAME
350
E
  0
DICTIONARY
  5
D
102
{ACAD_REACTORS
330
C
102
}
100
AcDbDictionary
280
0
281
1
  0
ACDBDICTIONARYWDFLT
  5
E
102
{ACAD_REACTORS
330
C
102
}
100
AcDbDictionary
281
1
  3
Normal
350
F
100
AcDbDictionaryWithDefault
340
F
  0
DICTIONARY
  5
17
102
{ACAD_REACTORS
330
C
102
}
100
AcDbDictionary
280
0
281
1
  3
Standard
350
18
  0
DICTIONARY
  5
19
102
{ACAD_REACTORS
330
C
102
}
100
AcDbDictionary
281
1
  0
DICTIONARY
  5
1A
102
{ACAD_REACTORS
330
C
102
}
100
AcDbDictionary
281
1
  3
Model
350
61B
  3
Layout1
350
61C
  0
ACDBPLACEHOLDER
  5
F
102
{ACAD_REACTORS
330
E
102
}
  0
MLINESTYLE
  5
18
102
{ACAD_REACTORS
330
17
102
}
100
AcDbMlineStyle
  2
STANDARD
 70
0
  3

 62
256
 51
90.0
 52
90.0
 71
2
 49
0.5
 62
256
  6
BYLAYER
 49
-0.5
 62
256
  6
BYLAYER
  0
LAYOUT
  5
61B
102
{ACAD_REACTORS
330
1A
102
}
100
AcDbPlotSettings
  1

  2
none_device
  4
ANSI_C_(22.00_x_17.00_Inches)
  6

 40
0.0
 41
0.0
 42
0.0
 43
0.0
 44
558.8
 45
431.8
 46
0.0
 47
0.0
 48
0.0
 49
0.0
140
0.0
141
0.0
142
1.0
143
1.0
 70
1024
 72
0
 73
0
 74
0
  7

 75
0
147
1.0
148
0.0
149
0.0
100
AcDbLayout
  1
Model
 70
0
 71
0
 10
0.0
 20
0.0
 11
22.0
 21
17.0
 12
0.0
 22
0.0
 32
0.0
 14
0.0
 24
0.0
 34
0.0
 15
0.0
 25
0.0
 35
0.0
146
0.0
 13
0.0
 23
0.0
 33
0.0
 16
1.0
 26
0.0
 36
0.0
 17
0.0
 27
1.0
 37
0.0
 76
0
330
202
345
0
346
0
  0
LAYOUT
  5
61C
102
{ACAD_REACTORS
330
1A
102
}
100
AcDbPlotSettings
  1

  2
none_device
  4
ANSI_C_(22.00_x_17.00_Inches)
  6

 40
0.0
 41
0.0
 42
0.0
 43
0.0
 44
558.8
 45
431.8
 46
0.0
 47
0.0
 48
0.0
 49
0.0
140
0.0
141
0.0
142
1.0
143
1.0
 70
0
 72
0
 73
0
 74
0
  7

 75
0
147
1.0
148
0.0
149
0.0
100
AcDbLayout
  1
Layout1
 70
0
 71
1
 10
0.0
 20
0.0
 11
22.0
 21
17.0
 12
0.0
 22
0.0
 32
0.0
 14
0.0
 24
0.0
 34
0.0
 15
0.0
 25
0.0
 35
0.0
146
0.0
 13
0.0
 23
0.0
 33
0.0
 16
1.0
 26
0.0
 36
0.0
 17
0.0
 27
1.0
 37
0.0
 76
0
330
203
345
0
346
0
  0
ENDSEC
  0
EOF
