999
DXF file: 930b_TOP.dxf
999
Pro/ENGINEER 2018400 by Parametric Technology Corporation
  0
SECTION
  2
HEADER
  9
$ACADVER
  1
AC1027
  9
$DWGCODEPAGE
  3
ANSI_1252
  9
$EXTMAX
 10
11.0
 20
8.5
 30
0.0
  9
$EXTMIN
 10
0.0
 20
0.0
 30
0.0
  9
$LIMMIN
 10
0.0
 20
0.0
  9
$LIMMAX
 10
11.0
 20
8.5
  9
$VIEWCTR
 10
5.5
 20
4.25
  9
$VIEWSIZE
 40
8.5
  9
$CLAYER
  8
0
  9
$LTSCALE
 40
0.605
  9
$CELTYPE
  6
BYLAYER
  9
$DIMSCALE
 40
1.0
  9
$DIMASZ
 40
0.1
  9
$DIMEXO
 40
0.0625
  9
$DIMDLI
 40
0.418
  9
$DIMEXE
 40
0.125
  9
$DIMCEN
 40
0.099
  9
$DIMLFAC
 40
1.0
  9
$DIMBLK
  1
_FILLED
  9
$DIMALT
 70
1
  9
$DIMALTD
 70
2
  9
$DIMALTTD
 70
2
  9
$DIMALTF
 40
25.4
  9
$DIMTXT
 40
0.08
  9
$DIMTOL
 70
1
  9
$DIMLIM
 70
0
  9
$DIMTFAC
 40
1.0
  9
$DIMTP
 40
0.001
  9
$DIMTM
 40
0.001
  9
$DIMGAP
 40
0.09
  9
$DIMDSEP
 70
46
  9
$AUNITS
 70
0
  9
$PDMODE
 70
3
  9
$PDSIZE
 40
0.3125
  9
$HANDSEED
  5
3C8
  9
$TILEMODE
 70
1
  9
$MEASUREMENT
 70
0
  9
$INSUNITS
 70
1
  0
ENDSEC
  0
SECTION
  2
CLASSES
  0
CLASS
  1
ACDBDICTIONARYWDFLT
  2
AcDbDictionaryWithDefault
  3
AutoCAD 2000
 90
0
 91
1
280
0
281
0
  0
CLASS
  1
ACDBPLACEHOLDER
  2
AcDbPlaceHolder
  3
AutoCAD 2000
 90
0
 91
1
280
0
281
0
  0
CLASS
  1
LAYOUT
  2
AcDbLayout
  3
AutoCAD 2000
 90
0
 91
0
280
0
281
0
  0
ENDSEC
  0
SECTION
  2
TABLES
  0
TABLE
  2
VPORT
  5
8
100
AcDbSymbolTable
 70
2
  0
VPORT
  5
1F4
100
AcDbSymbolTableRecord
100
AcDbViewportTableRecord
  2
*ACTIVE
 70
0
 10
0.0
 20
0.0
 11
1.0
 21
1.0
 12
5.5
 22
4.25
 13
0.0
 23
0.0
 14
1.0
 24
1.0
 15
0.0
 25
0.0
 16
0.0
 26
0.0
 36
1.0
 17
0.0
 27
0.0
 37
0.0
 40
8.5
 41
1.2941176471
 42
50.0
 43
0.0
 44
0.0
 50
0.0
 51
0.0
 71
0
 72
100
 73
1
 74
1
 75
0
 76
0
 77
0
 78
0
  0
ENDTAB
  0
TABLE
  2
LTYPE
  5
5
100
AcDbSymbolTable
 70
6
  0
LTYPE
  5
14
100
AcDbSymbolTableRecord
100
AcDbLinetypeTableRecord
  2
BYBLOCK
 70
0
  3

 72
65
 73
0
 40
0.0
  0
LTYPE
  5
15
100
AcDbSymbolTableRecord
100
AcDbLinetypeTableRecord
  2
BYLAYER
 70
0
  3

 72
65
 73
0
 40
0.0
  0
LTYPE
  5
16
100
AcDbSymbolTableRecord
100
AcDbLinetypeTableRecord
  2
CONTINUOUS
 70
64
  3
Solid line
 72
65
 73
0
 40
0.0
  0
LTYPE
  5
1F5
100
AcDbSymbolTableRecord
100
AcDbLinetypeTableRecord
  2
CENTER
 70
64
  3
____ _ ____ _ ____ _ ____ _ ____ _ ____ _ ____
 72
65
 73
4
 40
0.6
 49
0.375
 74
0
 49
-0.075
 74
0
 49
0.075
 74
0
 49
-0.075
 74
0
  0
LTYPE
  5
1F6
100
AcDbSymbolTableRecord
100
AcDbLinetypeTableRecord
  2
HIDDEN
 70
64
  3
- - - - - - - - - - - - - - - - - - - -
 72
65
 73
2
 40
0.2
 49
0.1
 74
0
 49
-0.1
 74
0
  0
LTYPE
  5
1F7
100
AcDbSymbolTableRecord
100
AcDbLinetypeTableRecord
  2
PHANTOM
 70
64
  3
_____ _ _ _____ _ _ _____ _ _ _____
 72
65
 73
6
 40
0.8
 49
0.45
 74
0
 49
-0.05
 74
0
 49
0.1
 74
0
 49
-0.05
 74
0
 49
0.1
 74
0
 49
-0.05
 74
0
  0
LTYPE
  5
1F8
100
AcDbSymbolTableRecord
100
AcDbLinetypeTableRecord
  2
DOT
 70
64
  3
. . . . . . . . . . . . . . . . . . . .
 72
65
 73
2
 40
0.2
 49
0.1
 74
0
 49
-0.1
 74
0
  0
LTYPE
  5
1F9
100
AcDbSymbolTableRecord
100
AcDbLinetypeTableRecord
  2
DASHED
 70
64
  3
- - - - - - - - - - - - - - - - - - - -
 72
65
 73
2
 40
0.2
 49
0.1
 74
0
 49
-0.1
 74
0
  0
ENDTAB
  0
TABLE
  2
LAYER
  5
2
100
AcDbSymbolTable
 70
36
  0
LAYER
  5
10
100
AcDbSymbolTableRecord
100
AcDbLayerTableRecord
  2
0
 70
0
 62
7
  6
CONTINUOUS
370
-3
390
F
  0
LAYER
  5
1FA
100
AcDbSymbolTableRecord
100
AcDbLayerTableRecord
  2
DEFAULT_1
 70
0
 62
7
  6
CENTER
370
-3
390
F
  0
LAYER
  5
1FB
100
AcDbSymbolTableRecord
100
AcDbLayerTableRecord
  2
DEFAULT_2
 70
0
 62
8
  6
HIDDEN
370
-3
390
F
  0
LAYER
  5
1FC
100
AcDbSymbolTableRecord
100
AcDbLayerTableRecord
  2
DEFAULT_3
 70
0
 62
7
  6
PHANTOM
370
-3
390
F
  0
LAYER
  5
1FD
100
AcDbSymbolTableRecord
100
AcDbLayerTableRecord
  2
DEFAULT_COORDINATE_SYSTEM
 70
0
 62
7
  6
CONTINUOUS
370
-3
390
F
  0
LAYER
  5
1FE
100
AcDbSymbolTableRecord
100
AcDbLayerTableRecord
  2
DEFAULT_DATUM_AXES
 70
0
 62
7
  6
CONTINUOUS
370
-3
390
F
  0
LAYER
  5
1FF
100
AcDbSymbolTableRecord
100
AcDbLayerTableRecord
  2
DEFAULT_DATUM_PLANES
 70
0
 62
7
  6
CONTINUOUS
370
-3
390
F
  0
ENDTAB
  0
TABLE
  2
STYLE
  5
3
100
AcDbSymbolTable
 70
1
  0
STYLE
  5
11
100
AcDbSymbolTableRecord
100
AcDbTextStyleTableRecord
  2
STANDARD
 70
0
 40
0.0
 41
0.8
 50
0.0
 71
0
 42
0.2
  3
txt
  4

  0
STYLE
  5
200
100
AcDbSymbolTableRecord
100
AcDbTextStyleTableRecord
  2
TEXTSTYLE_1
 70
0
 40
0.0
 41
0.8
 50
0.0
 71
0
 42
0.2
  3
gdt
  4

  0
ENDTAB
  0
TABLE
  2
VIEW
  5
6
100
AcDbSymbolTable
 70
0
  0
ENDTAB
  0
TABLE
  2
UCS
  5
7
100
AcDbSymbolTable
 70
0
  0
ENDTAB
  0
TABLE
  2
APPID
  5
9
100
AcDbSymbolTable
 70
1
  0
APPID
  5
201
100
AcDbSymbolTableRecord
100
AcDbRegAppTableRecord
  2
ACAD
 70
0
  0
ENDTAB
  0
TABLE
  2
BLOCK_RECORD
  5
1
100
AcDbSymbolTable
 70
0
  0
BLOCK_RECORD
  5
202
100
AcDbSymbolTableRecord
100
AcDbBlockTableRecord
  2
*Model_Space
  0
BLOCK_RECORD
  5
203
100
AcDbSymbolTableRecord
100
AcDbBlockTableRecord
  2
*Paper_Space
  0
BLOCK_RECORD
  5
204
100
AcDbSymbolTableRecord
100
AcDbBlockTableRecord
  2
_FILLED
  0
ENDTAB
  0
TABLE
  2
DIMSTYLE
  5
A
100
AcDbSymbolTable
 70
1
100
AcDbDimStyleTable
 71
0
  0
DIMSTYLE
105
205
100
AcDbSymbolTableRecord
100
AcDbDimStyleTableRecord
  2
STANDARD
 70
0
  3

  4

 40
1.0
 41
0.1
 42
0.0625
 43
0.38
 44
0.125
 45
0.0
 46
0.0
 47
0.001
 48
0.001
140
0.08
141
0.09
142
0.0
143
25.4
144
1.0
145
0.0
146
1.0
147
0.09
 71
1.0
 72
0.0
 73
1
 74
1
 75
0
 76
0
 77
0
 78
4
 79
1
170
1
171
2
172
0
173
0
174
0
175
0
176
0
177
0
178
0
270
2
179
3
271
3
272
3
273
2
274
2
275
0
280
0
281
0
282
0
283
1
284
4
285
0
286
0
287
3
288
0
340
11
278
46
341
204
342
204
343
204
344
204
  0
ENDTAB
  0
ENDSEC
  0
SECTION
  2
BLOCKS
  0
BLOCK
  5
20
100
AcDbEntity
  8
0
100
AcDbBlockBegin
  2
*Model_Space
 70
0
 10
0.0
 20
0.0
 30
0.0
  3
*Model_Space
  1

  0
ENDBLK
  5
21
100
AcDbEntity
  8
0
100
AcDbBlockEnd
  0
BLOCK
  5
1C
100
AcDbEntity
  8
0
100
AcDbBlockBegin
  2
*Paper_Space
 70
0
 10
0.0
 20
0.0
 30
0.0
  3
*Paper_Space
  1

  0
ENDBLK
  5
1D
100
AcDbEntity
  8
0
100
AcDbBlockEnd
  0
BLOCK
  5
206
100
AcDbEntity
  8
0
100
AcDbBlockBegin
  2
_FILLED
 70
64
 10
0.0
 20
0.0
  3
_FILLED
  1

  0
SOLID
  5
207
100
AcDbEntity
  8
0
  6
BYBLOCK
 62
0
100
AcDbTrace
 10
0.0
 20
0.0
 11
-1.0
 21
0.2
 12
-1.0
 22
-0.2
 13
-1.0
 23
-0.2
  0
ENDBLK
  5
208
100
AcDbEntity
  8
0
  6
BYBLOCK
 62
0
100
AcDbBlockEnd
  0
ENDSEC
  0
SECTION
  2
ENTITIES
  0
MTEXT
  5
209
100
AcDbEntity
  8
0
100
AcDbMText
 62
2
  6
CONTINUOUS
  7
STANDARD
 71
3
 72
1
 10
5.8112965839
 20
1.198978955
 30
0.0
 11
1.0
 21
0.0
 31
0.0
 73
2
 44
0.9
  1
SCALE  .500
 40
0.08
 41
0.704
  0
LINE
  5
20A
100
AcDbEntity
  8
0
100
AcDbLine
 62
7
  6
CONTINUOUS
 10
0.0
 20
0.0
 11
0.0
 21
8.5
  0
LINE
  5
20B
100
AcDbEntity
  8
0
100
AcDbLine
 62
7
  6
CONTINUOUS
 10
0.0
 20
0.0
 11
11.0
 21
0.0
  0
LINE
  5
20C
100
AcDbEntity
  8
0
100
AcDbLine
 62
7
  6
CONTINUOUS
 10
0.0
 20
8.5
 11
11.0
 21
8.5
  0
LINE
  5
20D
100
AcDbEntity
  8
0
100
AcDbLine
 62
7
  6
CONTINUOUS
 10
11.0
 20
0.0
 11
11.0
 21
8.5
  0
LINE
  5
20E
100
AcDbEntity
  8
0
100
AcDbLine
 62
7
  6
CONTINUOUS
 10
2.6302021637
 20
5.1736950316
 11
2.6302021637
 21
5.3989618438
  0
LINE
  5
20F
100
AcDbEntity
  8
0
100
AcDbLine
 62
7
  6
CONTINUOUS
 10
2.6712467922
 20
5.2024347899
 11
2.6712467922
 21
5.3702220855
  0
LINE
  5
210
100
AcDbEntity
  8
0
100
AcDbLine
 62
7
  6
CONTINUOUS
 10
2.6838354037
 20
5.1917829929
 11
2.6838354037
 21
5.3808738826
  0
LINE
  5
211
100
AcDbEntity
  8
0
100
AcDbLine
 62
7
  6
CONTINUOUS
 10
2.696266983
 20
5.1908697911
 11
2.696266983
 21
5.3817870843
  0
LINE
  5
212
100
AcDbEntity
  8
0
100
AcDbLine
 62
7
  6
CONTINUOUS
 10
2.8424875837
 20
5.3974205875
 11
3.0024335928
 21
5.57400472
  0
LINE
  5
213
100
AcDbEntity
  8
0
100
AcDbLine
 62
7
  6
CONTINUOUS
 10
3.7461135405
 20
6.4265787834
 11
3.946557267
 21
6.5423050228
  0
LINE
  5
214
100
AcDbEntity
  8
0
100
AcDbLine
 62
7
  6
CONTINUOUS
 10
2.8770023988
 20
5.3796674057
 11
2.8770023988
 21
5.3709615729
  0
LINE
  5
215
100
AcDbEntity
  8
0
100
AcDbLine
 62
7
  6
CONTINUOUS
 10
2.8770023988
 20
5.2016953366
 11
2.8770023988
 21
5.1929894698
  0
LINE
  5
216
100
AcDbEntity
  8
0
100
AcDbLine
 62
7
  6
CONTINUOUS
 10
3.0100854037
 20
5.2438284377
 11
3.0100854037
 21
5.2558284377
  0
LINE
  5
217
100
AcDbEntity
  8
0
100
AcDbLine
 62
7
  6
CONTINUOUS
 10
3.0100854037
 20
5.3193284377
 11
3.0100854037
 21
5.3283284377
  0
LINE
  5
218
100
AcDbEntity
  8
0
100
AcDbLine
 62
7
  6
CONTINUOUS
 10
3.0183354037
 20
5.2672274508
 11
3.0183354037
 21
5.3079294246
  0
LINE
  5
219
100
AcDbEntity
  8
0
100
AcDbLine
 62
7
  6
CONTINUOUS
 10
3.0383354037
 20
5.2813284377
 11
3.0383354037
 21
5.2672274508
  0
LINE
  5
21A
100
AcDbEntity
  8
0
100
AcDbLine
 62
7
  6
CONTINUOUS
 10
3.0388354037
 20
5.3081062499
 11
3.0388354037
 21
5.2961062499
  0
LINE
  5
21B
100
AcDbEntity
  8
0
100
AcDbLine
 62
7
  6
CONTINUOUS
 10
3.0465854037
 20
5.3283284377
 11
3.0465854037
 21
5.3193284377
  0
LINE
  5
21C
100
AcDbEntity
  8
0
100
AcDbLine
 62
7
  6
CONTINUOUS
 10
3.0465854037
 20
5.2558284377
 11
3.0465854037
 21
5.2438284377
  0
LINE
  5
21D
100
AcDbEntity
  8
0
100
AcDbLine
 62
7
  6
CONTINUOUS
 10
3.0550854037
 20
5.2438284377
 11
3.0550854037
 21
5.2558284377
  0
LINE
  5
21E
100
AcDbEntity
  8
0
100
AcDbLine
 62
7
  6
CONTINUOUS
 10
3.0550854037
 20
5.3193284377
 11
3.0550854037
 21
5.3283284377
  0
LINE
  5
21F
100
AcDbEntity
  8
0
100
AcDbLine
 62
7
  6
CONTINUOUS
 10
3.0628354037
 20
5.2961062499
 11
3.0628354037
 21
5.3081062499
  0
LINE
  5
220
100
AcDbEntity
  8
0
100
AcDbLine
 62
7
  6
CONTINUOUS
 10
3.0633354037
 20
5.2672274508
 11
3.0633354037
 21
5.2813284377
  0
LINE
  5
221
100
AcDbEntity
  8
0
100
AcDbLine
 62
7
  6
CONTINUOUS
 10
3.1875854037
 20
5.3175710784
 11
3.1920854037
 21
5.3283284377
  0
LINE
  5
222
100
AcDbEntity
  8
0
100
AcDbLine
 62
7
  6
CONTINUOUS
 10
3.2264790515
 20
5.7576670492
 11
3.2552188098
 21
5.7987116777
  0
LINE
  5
223
100
AcDbEntity
  8
0
100
AcDbLine
 62
7
  6
CONTINUOUS
 10
3.2606167652
 20
5.7145550975
 11
3.6978354037
 21
6.1972546939
  0
LWPOLYLINE
  5
224
100
AcDbEntity
  8
0
100
AcDbPolyline
 62
7
  6
CONTINUOUS
 90
21
 70
0
 10
3.2606167266
 20
5.7145550524
 10
3.2588263849
 20
5.7126108314
 10
3.256336076
 20
5.7100096286
 10
3.2537825926
 20
5.7074592402
 10
3.2511668337
 20
5.7049611972
 10
3.2484903292
 20
5.7025175607
 10
3.2457552887
 20
5.7001308435
 10
3.24296311
 20
5.6978026784
 10
3.2401152113
 20
5.695534636
 10
3.2372139876
 20
5.6933289394
 10
3.2342609986
 20
5.6911870199
 10
3.2312578356
 20
5.6891102576
 10
3.2282070823
 20
5.6871006002
 10
3.2251104533
 20
5.6851592753
 10
3.2219696813
 20
5.6832874511
 10
3.2187875066
 20
5.681486785
 10
3.2155657093
 20
5.6797582535
 10
3.2123062102
 20
5.6781028435
 10
3.2090120873
 20
5.6765220092
 10
3.2056844853
 20
5.6750161633
 10
3.2026291823
 20
5.6737154116
  0
LINE
  5
225
100
AcDbEntity
  8
0
100
AcDbLine
 62
7
  6
CONTINUOUS
 10
3.0833354037
 20
5.3079294246
 11
3.0833354037
 21
5.2672274508
  0
LINE
  5
226
100
AcDbEntity
  8
0
100
AcDbLine
 62
7
  6
CONTINUOUS
 10
3.0915854037
 20
5.3283284377
 11
3.0915854037
 21
5.3193284377
  0
LINE
  5
227
100
AcDbEntity
  8
0
100
AcDbLine
 62
7
  6
CONTINUOUS
 10
3.0915854037
 20
5.2558284377
 11
3.0915854037
 21
5.2438284377
  0
LINE
  5
228
100
AcDbEntity
  8
0
100
AcDbLine
 62
7
  6
CONTINUOUS
 10
3.2115854037
 20
5.2438284377
 11
3.2115854037
 21
5.2558284377
  0
LINE
  5
229
100
AcDbEntity
  8
0
100
AcDbLine
 62
7
  6
CONTINUOUS
 10
3.2208354037
 20
5.2715585839
 11
3.2208354037
 21
5.3178784377
  0
LINE
  5
22A
100
AcDbEntity
  8
0
100
AcDbLine
 62
7
  6
CONTINUOUS
 10
3.2388354037
 20
5.3178784377
 11
3.2388354037
 21
5.2715585839
  0
LINE
  5
22B
100
AcDbEntity
  8
0
100
AcDbLine
 62
7
  6
CONTINUOUS
 10
3.2480854037
 20
5.2558284377
 11
3.2480854037
 21
5.2438284377
  0
LINE
  5
22C
100
AcDbEntity
  8
0
100
AcDbLine
 62
7
  6
CONTINUOUS
 10
3.0586917559
 20
4.8149898262
 11
3.0299519976
 21
4.7739451977
  0
LINE
  5
22D
100
AcDbEntity
  8
0
100
AcDbLine
 62
7
  6
CONTINUOUS
 10
3.2720854037
 20
5.3175710784
 11
3.267842763
 21
5.3133284377
  0
LINE
  5
22E
100
AcDbEntity
  8
0
100
AcDbLine
 62
7
  6
CONTINUOUS
 10
2.6302021637
 20
5.1736950316
 11
2.6712467922
 21
5.2024347899
  0
LINE
  5
22F
100
AcDbEntity
  8
0
100
AcDbLine
 62
7
  6
CONTINUOUS
 10
2.8963279675
 20
5.0819818734
 11
2.8548346633
 21
5.2109830995
  0
LINE
  5
230
100
AcDbEntity
  8
0
100
AcDbLine
 62
7
  6
CONTINUOUS
 10
3.4081684086
 20
5.1929894698
 11
3.4081684086
 21
5.2016953282
  0
LINE
  5
231
100
AcDbEntity
  8
0
100
AcDbLine
 62
7
  6
CONTINUOUS
 10
3.4081684086
 20
5.3709615372
 11
3.4081684086
 21
5.3796674057
  0
LWPOLYLINE
  5
232
100
AcDbEntity
  8
0
100
AcDbPolyline
 62
7
  6
CONTINUOUS
 90
33
 70
0
 10
3.5152090813
 20
5.3433460408
 10
3.5152894326
 20
5.3454831639
 10
3.515491696
 20
5.3489115246
 10
3.5157700159
 20
5.3523639197
 10
3.516126071
 20
5.3558383874
 10
3.5165606188
 20
5.3593263895
 10
3.5170747967
 20
5.3628256805
 10
3.5176696992
 20
5.3663340885
 10
3.5183451136
 20
5.3698432605
 10
3.5191015946
 20
5.37335095
 10
3.5199396413
 20
5.3768549255
 10
3.5208580611
 20
5.380347012
 10
3.5218566471
 20
5.3838244462
 10
3.522935454
 20
5.3872856462
 10
3.5240929189
 20
5.3907244112
 10
3.5253282252
 20
5.3941378015
 10
3.5266411075
 20
5.3975246414
 10
3.5280303771
 20
5.4008815366
 10
3.5294952442
 20
5.40420644
 10
3.531034918
 20
5.4074974584
 10
3.5326479562
 20
5.4107515409
 10
3.5343333574
 20
5.4139668227
 10
3.5360900568
 20
5.4171414495
 10
3.5379162822
 20
5.420272507
 10
3.5398107932
 20
5.423358258
 10
3.5417722924
 20
5.4263969906
 10
3.5437986903
 20
5.4293859624
 10
3.5458885269
 20
5.4323236004
 10
3.5480402745
 20
5.435208344
 10
3.5502515123
 20
5.438037619
 10
3.5525202564
 20
5.4408096636
 10
3.5548450522
 20
5.4435234797
 10
3.5565828363
 20
5.4454740046
  0
LINE
  5
233
100
AcDbEntity
  8
0
100
AcDbLine
 62
7
  6
CONTINUOUS
 10
3.5565828803
 20
5.4454740508
 11
3.9764592071
 21
5.9090273298
  0
LINE
  5
234
100
AcDbEntity
  8
0
100
AcDbLine
 62
7
  6
CONTINUOUS
 10
3.2827372147
 20
4.9986521554
 11
3.4426832238
 21
5.175236288
  0
LINE
  5
235
100
AcDbEntity
  8
0
100
AcDbLine
 62
7
  6
CONTINUOUS
 10
4.2103762401
 20
6.0087288582
 11
4.0431135405
 21
5.9121596935
  0
LINE
  5
236
100
AcDbEntity
  8
0
100
AcDbLine
 62
7
  6
CONTINUOUS
 10
3.5889038244
 20
5.3817870843
 11
3.5889038244
 21
5.1908697911
  0
LINE
  5
237
100
AcDbEntity
  8
0
100
AcDbLine
 62
7
  6
CONTINUOUS
 10
3.6013354037
 20
5.3808738826
 11
3.6013354037
 21
5.1917829929
  0
LINE
  5
238
100
AcDbEntity
  8
0
100
AcDbLine
 62
7
  6
CONTINUOUS
 10
3.6139240152
 20
5.3702220855
 11
3.6139240152
 21
5.2024347899
  0
LINE
  5
239
100
AcDbEntity
  8
0
100
AcDbLine
 62
7
  6
CONTINUOUS
 10
3.6549686437
 20
5.3989618438
 11
3.6549686437
 21
5.1736950316
  0
LINE
  5
23A
100
AcDbEntity
  8
0
100
AcDbLine
 62
7
  6
CONTINUOUS
 10
3.6978354037
 20
6.1115061187
 11
3.6978354037
 21
6.3429585976
  0
LINE
  5
23B
100
AcDbEntity
  8
0
100
AcDbLine
 62
7
  6
CONTINUOUS
 10
3.6549686437
 20
5.3989618438
 11
3.6139240152
 21
5.3702220855
  0
LINE
  5
23C
100
AcDbEntity
  8
0
100
AcDbLine
 62
7
  6
CONTINUOUS
 10
3.2264790515
 20
4.8149898262
 11
3.2552188098
 21
4.7739451977
  0
LINE
  5
23D
100
AcDbEntity
  8
0
100
AcDbLine
 62
7
  6
CONTINUOUS
 10
3.2675854037
 20
5.3283284377
 11
3.2720854037
 21
5.3175710784
  0
LINE
  5
23E
100
AcDbEntity
  8
0
100
AcDbLine
 62
7
  6
CONTINUOUS
 10
3.4303361442
 20
5.361673776
 11
3.38884284
 21
5.4906750021
  0
LINE
  5
23F
100
AcDbEntity
  8
0
100
AcDbLine
 62
7
  6
CONTINUOUS
 10
6.0747945674
 20
6.4457358582
 11
6.242057267
 21
6.5423050228
  0
LINE
  5
240
100
AcDbEntity
  8
0
100
AcDbLine
 62
7
  6
CONTINUOUS
 10
5.0460681236
 20
6.3850595251
 11
4.9576444277
 21
6.2319051912
  0
LINE
  5
241
100
AcDbEntity
  8
0
100
AcDbLine
 62
7
  6
CONTINUOUS
 10
3.0586917559
 20
5.7576670492
 11
3.0299519976
 21
5.7987116777
  0
LINE
  5
242
100
AcDbEntity
  8
0
100
AcDbLine
 62
7
  6
CONTINUOUS
 10
5.2391026839
 20
6.0694051912
 11
5.3275263798
 21
6.2225595251
  0
LINE
  5
243
100
AcDbEntity
  8
0
100
AcDbLine
 62
7
  6
CONTINUOUS
 10
2.6302021637
 20
5.3989618438
 11
2.6712467922
 21
5.3702220855
  0
LINE
  5
244
100
AcDbEntity
  8
0
100
AcDbLine
 62
7
  6
CONTINUOUS
 10
3.1918280444
 20
5.3133284377
 11
3.1875854037
 21
5.3175710784
  0
LINE
  5
245
100
AcDbEntity
  8
0
100
AcDbLine
 62
7
  6
CONTINUOUS
 10
4.5573354037
 20
6.0087288582
 11
4.5573354037
 21
6.4457358582
  0
LINE
  5
246
100
AcDbEntity
  8
0
100
AcDbLine
 62
7
  6
CONTINUOUS
 10
6.539057267
 20
6.027885933
 11
6.3386135405
 21
5.9121596935
  0
LINE
  5
247
100
AcDbEntity
  8
0
100
AcDbLine
 62
7
  6
CONTINUOUS
 10
4.9055854037
 20
5.624351653
 11
4.9055854037
 21
5.7483829166
  0
LINE
  5
248
100
AcDbEntity
  8
0
100
AcDbLine
 62
7
  6
CONTINUOUS
 10
3.6549686437
 20
5.1736950316
 11
3.6139240152
 21
5.2024347899
  0
LINE
  5
249
100
AcDbEntity
  8
0
100
AcDbLine
 62
7
  6
CONTINUOUS
 10
4.9550854037
 20
5.5483829166
 11
4.9550854037
 21
2.6213829166
  0
LINE
  5
24A
100
AcDbEntity
  8
0
100
AcDbLine
 62
7
  6
CONTINUOUS
 10
6.4358088901
 20
5.7687089512
 11
6.7322732998
 21
6.0372398688
  0
LINE
  5
24B
100
AcDbEntity
  8
0
100
AcDbLine
 62
7
  6
CONTINUOUS
 10
7.2330854037
 20
5.2723583906
 11
7.2417398169
 21
5.2748284377
  0
LINE
  5
24C
100
AcDbEntity
  8
0
100
AcDbLine
 62
7
  6
CONTINUOUS
 10
7.2180610252
 20
4.9987772781
 11
7.3216444915
 21
5.0211152732
  0
LINE
  5
24D
100
AcDbEntity
  8
0
100
AcDbLine
 62
7
  6
CONTINUOUS
 10
2.9635260504
 20
5.0211153305
 11
3.0671097822
 21
4.9987772781
  0
LINE
  5
24E
100
AcDbEntity
  8
0
100
AcDbLine
 62
7
  6
CONTINUOUS
 10
5.3300854037
 20
5.5483829166
 11
5.3300854037
 21
2.6213829166
  0
LINE
  5
24F
100
AcDbEntity
  8
0
100
AcDbLine
 62
7
  6
CONTINUOUS
 10
5.3795854037
 20
5.624351653
 11
5.3795854037
 21
5.7483829166
  0
LINE
  5
250
100
AcDbEntity
  8
0
100
AcDbLine
 62
7
  6
CONTINUOUS
 10
5.3300854037
 20
4.7133829166
 11
4.9550854037
 21
4.7133829166
  0
LINE
  5
251
100
AcDbEntity
  8
0
100
AcDbLine
 62
7
  6
CONTINUOUS
 10
3.0299519976
 20
4.7739451977
 11
3.2552188098
 21
4.7739451977
  0
LINE
  5
252
100
AcDbEntity
  8
0
100
AcDbLine
 62
7
  6
CONTINUOUS
 10
7.0299519976
 20
4.7739451977
 11
7.2552188098
 21
4.7739451977
  0
LINE
  5
253
100
AcDbEntity
  8
0
100
AcDbLine
 62
7
  6
CONTINUOUS
 10
3.5528975076
 20
6.0372398688
 11
3.8493619174
 21
5.7687089512
  0
LINE
  5
254
100
AcDbEntity
  8
0
100
AcDbLine
 62
7
  6
CONTINUOUS
 10
6.6302021637
 20
5.1736950316
 11
6.6712467922
 21
5.2024347899
  0
LINE
  5
255
100
AcDbEntity
  8
0
100
AcDbLine
 62
7
  6
CONTINUOUS
 10
3.0586917559
 20
4.8149898262
 11
3.2264790515
 21
4.8149898262
  0
LINE
  5
256
100
AcDbEntity
  8
0
100
AcDbLine
 62
7
  6
CONTINUOUS
 10
7.0586917559
 20
4.8149898262
 11
7.2264790515
 21
4.8149898262
  0
LINE
  5
257
100
AcDbEntity
  8
0
100
AcDbLine
 62
7
  6
CONTINUOUS
 10
3.0480399491
 20
4.8275784377
 11
3.2371308584
 21
4.8275784377
  0
LINE
  5
258
100
AcDbEntity
  8
0
100
AcDbLine
 62
7
  6
CONTINUOUS
 10
7.0480399491
 20
4.8275784377
 11
7.2371308584
 21
4.8275784377
  0
LINE
  5
259
100
AcDbEntity
  8
0
100
AcDbLine
 62
7
  6
CONTINUOUS
 10
3.0471267571
 20
4.840010017
 11
3.2380440503
 21
4.840010017
  0
LINE
  5
25A
100
AcDbEntity
  8
0
100
AcDbLine
 62
7
  6
CONTINUOUS
 10
7.0471267571
 20
4.840010017
 11
7.2380440503
 21
4.840010017
  0
LINE
  5
25B
100
AcDbEntity
  8
0
100
AcDbLine
 62
7
  6
CONTINUOUS
 10
5.7278354037
 20
6.0087288582
 11
5.7278354037
 21
6.4457358582
  0
LINE
  5
25C
100
AcDbEntity
  8
0
100
AcDbLine
 62
7
  6
CONTINUOUS
 10
7.6549686437
 20
5.3989618438
 11
7.6139240152
 21
5.3702220855
  0
LINE
  5
25D
100
AcDbEntity
  8
0
100
AcDbLine
 62
7
  6
CONTINUOUS
 10
6.9635263159
 20
5.5515416022
 11
7.0671097822
 21
5.5738795974
  0
LINE
  5
25E
100
AcDbEntity
  8
0
100
AcDbLine
 62
7
  6
CONTINUOUS
 10
3.0492464358
 20
5.0207454328
 11
3.0579522984
 21
5.0207454328
  0
LINE
  5
25F
100
AcDbEntity
  8
0
100
AcDbLine
 62
7
  6
CONTINUOUS
 10
3.227218507
 20
5.0207454328
 11
3.2359243717
 21
5.0207454328
  0
LINE
  5
260
100
AcDbEntity
  8
0
100
AcDbLine
 62
7
  6
CONTINUOUS
 10
7.0492464358
 20
5.0207454328
 11
7.057952298
 21
5.0207454328
  0
LINE
  5
261
100
AcDbEntity
  8
0
100
AcDbLine
 62
7
  6
CONTINUOUS
 10
7.2272185347
 20
5.0207454328
 11
7.2359243717
 21
5.0207454328
  0
LINE
  5
262
100
AcDbEntity
  8
0
100
AcDbLine
 62
7
  6
CONTINUOUS
 10
3.2480854037
 20
5.2438284377
 11
3.2115854037
 21
5.2438284377
  0
LINE
  5
263
100
AcDbEntity
  8
0
100
AcDbLine
 62
7
  6
CONTINUOUS
 10
3.0915854037
 20
5.2438284377
 11
3.0550854037
 21
5.2438284377
  0
LINE
  5
264
100
AcDbEntity
  8
0
100
AcDbLine
 62
7
  6
CONTINUOUS
 10
3.0465854037
 20
5.2438284377
 11
3.0100854037
 21
5.2438284377
  0
LINE
  5
265
100
AcDbEntity
  8
0
100
AcDbLine
 62
7
  6
CONTINUOUS
 10
7.2500854037
 20
5.2443284377
 11
7.2410854037
 21
5.2443284377
  0
LINE
  5
266
100
AcDbEntity
  8
0
100
AcDbLine
 62
7
  6
CONTINUOUS
 10
7.1375854037
 20
5.2443284377
 11
7.0980854037
 21
5.2443284377
  0
LINE
  5
267
100
AcDbEntity
  8
0
100
AcDbLine
 62
7
  6
CONTINUOUS
 10
7.0475854037
 20
5.2443284377
 11
7.0053354037
 21
5.2443284377
  0
LINE
  5
268
100
AcDbEntity
  8
0
100
AcDbLine
 62
7
  6
CONTINUOUS
 10
3.2180610252
 20
5.5738795974
 11
3.3216447571
 21
5.551541545
  0
LINE
  5
269
100
AcDbEntity
  8
0
100
AcDbLine
 62
7
  6
CONTINUOUS
 10
3.946557267
 20
5.9121596935
 11
3.7461135405
 21
6.027885933
  0
LINE
  5
26A
100
AcDbEntity
  8
0
100
AcDbLine
 62
7
  6
CONTINUOUS
 10
4.9576444277
 20
6.2225595251
 11
5.0460681236
 21
6.0694051912
  0
LINE
  5
26B
100
AcDbEntity
  8
0
100
AcDbLine
 62
7
  6
CONTINUOUS
 10
7.0075130097
 20
5.2533284377
 11
7.0214444636
 21
5.2533284377
  0
LINE
  5
26C
100
AcDbEntity
  8
0
100
AcDbLine
 62
7
  6
CONTINUOUS
 10
3.0603354037
 20
5.2843284377
 11
3.0413354037
 21
5.2843284377
  0
LINE
  5
26D
100
AcDbEntity
  8
0
100
AcDbLine
 62
7
  6
CONTINUOUS
 10
3.0418354037
 20
5.2931062499
 11
3.0598354037
 21
5.2931062499
  0
LINE
  5
26E
100
AcDbEntity
  8
0
100
AcDbLine
 62
7
  6
CONTINUOUS
 10
7.0214444636
 20
5.3168284377
 11
7.0075130097
 21
5.3168284377
  0
LINE
  5
26F
100
AcDbEntity
  8
0
100
AcDbLine
 62
7
  6
CONTINUOUS
 10
7.0938354037
 20
5.3174431153
 11
7.0818354037
 21
5.3174431153
  0
LINE
  5
270
100
AcDbEntity
  8
0
100
AcDbLine
 62
7
  6
CONTINUOUS
 10
3.253236771
 20
5.3193784377
 11
3.2403354037
 21
5.3193784377
  0
LINE
  5
271
100
AcDbEntity
  8
0
100
AcDbLine
 62
7
  6
CONTINUOUS
 10
3.2193354037
 20
5.3193784377
 11
3.2064340365
 21
5.3193784377
  0
LINE
  5
272
100
AcDbEntity
  8
0
100
AcDbLine
 62
7
  6
CONTINUOUS
 10
3.0100854037
 20
5.3283284377
 11
3.0465854037
 21
5.3283284377
  0
LINE
  5
273
100
AcDbEntity
  8
0
100
AcDbLine
 62
7
  6
CONTINUOUS
 10
3.0550854037
 20
5.3283284377
 11
3.0915854037
 21
5.3283284377
  0
LINE
  5
274
100
AcDbEntity
  8
0
100
AcDbLine
 62
7
  6
CONTINUOUS
 10
3.1920854037
 20
5.3283284377
 11
3.2675854037
 21
5.3283284377
  0
LINE
  5
275
100
AcDbEntity
  8
0
100
AcDbLine
 62
7
  6
CONTINUOUS
 10
7.0053354037
 20
5.3288284377
 11
7.0475854037
 21
5.3288284377
  0
LINE
  5
276
100
AcDbEntity
  8
0
100
AcDbLine
 62
7
  6
CONTINUOUS
 10
7.0628462322
 20
5.3288284377
 11
7.1375854037
 21
5.3288284377
  0
LINE
  5
277
100
AcDbEntity
  8
0
100
AcDbLine
 62
7
  6
CONTINUOUS
 10
7.2264790515
 20
5.7576670492
 11
7.2552188098
 21
5.7987116777
  0
LINE
  5
278
100
AcDbEntity
  8
0
100
AcDbLine
 62
7
  6
CONTINUOUS
 10
4.9230854037
 20
5.5483829166
 11
5.3620854037
 21
5.5483829166
  0
LINE
  5
279
100
AcDbEntity
  8
0
100
AcDbLine
 62
7
  6
CONTINUOUS
 10
7.2359243717
 20
5.5519114426
 11
7.227218509
 21
5.5519114426
  0
LINE
  5
27A
100
AcDbEntity
  8
0
100
AcDbLine
 62
7
  6
CONTINUOUS
 10
7.0579523004
 20
5.5519114426
 11
7.0492464358
 21
5.5519114426
  0
LINE
  5
27B
100
AcDbEntity
  8
0
100
AcDbLine
 62
7
  6
CONTINUOUS
 10
3.2359243717
 20
5.5519114426
 11
3.2272185094
 21
5.5519114426
  0
LINE
  5
27C
100
AcDbEntity
  8
0
100
AcDbLine
 62
7
  6
CONTINUOUS
 10
3.0579522727
 20
5.5519114426
 11
3.0492464358
 21
5.5519114426
  0
LINE
  5
27D
100
AcDbEntity
  8
0
100
AcDbLine
 62
7
  6
CONTINUOUS
 10
4.9055854037
 20
5.624351653
 11
5.3795854037
 21
5.624351653
  0
LINE
  5
27E
100
AcDbEntity
  8
0
100
AcDbLine
 62
7
  6
CONTINUOUS
 10
5.3275263798
 20
6.2319051912
 11
5.2391026839
 21
6.3850595251
  0
LINE
  5
27F
100
AcDbEntity
  8
0
100
AcDbLine
 62
7
  6
CONTINUOUS
 10
6.8548346633
 20
5.361673776
 11
6.8963278857
 21
5.4906747478
  0
LINE
  5
280
100
AcDbEntity
  8
0
100
AcDbLine
 62
7
  6
CONTINUOUS
 10
7.0690028088
 20
5.3102100006
 11
7.0623629354
 21
5.299239476
  0
LINE
  5
281
100
AcDbEntity
  8
0
100
AcDbLine
 62
7
  6
CONTINUOUS
 10
7.0586917559
 20
4.8149898262
 11
7.0299519976
 21
4.7739451977
  0
LINE
  5
282
100
AcDbEntity
  8
0
100
AcDbLine
 62
7
  6
CONTINUOUS
 10
3.0471267571
 20
5.7326468584
 11
3.2380440503
 21
5.7326468584
  0
LINE
  5
283
100
AcDbEntity
  8
0
100
AcDbLine
 62
7
  6
CONTINUOUS
 10
7.0471267571
 20
5.7326468584
 11
7.2380440503
 21
5.7326468584
  0
LINE
  5
284
100
AcDbEntity
  8
0
100
AcDbLine
 62
7
  6
CONTINUOUS
 10
3.0480399491
 20
5.7450784377
 11
3.2371308584
 21
5.7450784377
  0
LINE
  5
285
100
AcDbEntity
  8
0
100
AcDbLine
 62
7
  6
CONTINUOUS
 10
7.0480399491
 20
5.7450784377
 11
7.2371308584
 21
5.7450784377
  0
LINE
  5
286
100
AcDbEntity
  8
0
100
AcDbLine
 62
7
  6
CONTINUOUS
 10
4.9055854037
 20
5.7483829166
 11
5.3795854037
 21
5.7483829166
  0
LINE
  5
287
100
AcDbEntity
  8
0
100
AcDbLine
 62
7
  6
CONTINUOUS
 10
3.0586917559
 20
5.7576670492
 11
3.2264790515
 21
5.7576670492
  0
LINE
  5
288
100
AcDbEntity
  8
0
100
AcDbLine
 62
7
  6
CONTINUOUS
 10
7.0586917559
 20
5.7576670492
 11
7.2264790515
 21
5.7576670492
  0
LINE
  5
289
100
AcDbEntity
  8
0
100
AcDbLine
 62
7
  6
CONTINUOUS
 10
4.9192104037
 20
5.7743200401
 11
5.3659604037
 21
5.7743200401
  0
LINE
  5
28A
100
AcDbEntity
  8
0
100
AcDbLine
 62
7
  6
CONTINUOUS
 10
3.0299519976
 20
5.7987116777
 11
3.2552188098
 21
5.7987116777
  0
LINE
  5
28B
100
AcDbEntity
  8
0
100
AcDbLine
 62
7
  6
CONTINUOUS
 10
7.0299519976
 20
5.7987116777
 11
7.2552188098
 21
5.7987116777
  0
LINE
  5
28C
100
AcDbEntity
  8
0
100
AcDbLine
 62
7
  6
CONTINUOUS
 10
4.0431135405
 20
6.5423050228
 11
4.2103762401
 21
6.4457358582
  0
LINE
  5
28D
100
AcDbEntity
  8
0
100
AcDbLine
 62
7
  6
CONTINUOUS
 10
6.5873354037
 20
6.3429585976
 11
6.5873354037
 21
6.1115061187
  0
LINE
  5
28E
100
AcDbEntity
  8
0
100
AcDbLine
 62
7
  6
CONTINUOUS
 10
6.6302021637
 20
5.1736950316
 11
6.6302021637
 21
5.3989618438
  0
LINE
  5
28F
100
AcDbEntity
  8
0
100
AcDbLine
 62
7
  6
CONTINUOUS
 10
6.6712467922
 20
5.2024347899
 11
6.6712467922
 21
5.3702220855
  0
LINE
  5
290
100
AcDbEntity
  8
0
100
AcDbLine
 62
7
  6
CONTINUOUS
 10
6.6838354037
 20
5.1917829929
 11
6.6838354037
 21
5.3808738826
  0
LINE
  5
291
100
AcDbEntity
  8
0
100
AcDbLine
 62
7
  6
CONTINUOUS
 10
6.696266983
 20
5.1908697911
 11
6.696266983
 21
5.3817870843
  0
LINE
  5
292
100
AcDbEntity
  8
0
100
AcDbLine
 62
7
  6
CONTINUOUS
 10
6.2903354037
 20
6.0087288582
 11
5.5473532929
 21
6.0087288582
  0
LINE
  5
293
100
AcDbEntity
  8
0
100
AcDbLine
 62
7
  6
CONTINUOUS
 10
4.7378175145
 20
6.0087288582
 11
3.9948354037
 21
6.0087288582
  0
LINE
  5
294
100
AcDbEntity
  8
0
100
AcDbLine
 62
7
  6
CONTINUOUS
 10
5.0541617078
 20
6.0647323582
 11
5.2310090996
 21
6.0647323582
  0
LINE
  5
295
100
AcDbEntity
  8
0
100
AcDbLine
 62
7
  6
CONTINUOUS
 10
7.2413604595
 20
5.2983284377
 11
7.2330854037
 21
5.3018672866
  0
LINE
  5
296
100
AcDbEntity
  8
0
100
AcDbLine
 62
7
  6
CONTINUOUS
 10
6.6302021637
 20
5.3989618438
 11
6.6712467922
 21
5.3702220855
  0
LINE
  5
297
100
AcDbEntity
  8
0
100
AcDbLine
 62
7
  6
CONTINUOUS
 10
6.8770023988
 20
5.3796674057
 11
6.8770023988
 21
5.3709615472
  0
LINE
  5
298
100
AcDbEntity
  8
0
100
AcDbLine
 62
7
  6
CONTINUOUS
 10
6.8770023988
 20
5.2016953383
 11
6.8770023988
 21
5.1929894698
  0
LINE
  5
299
100
AcDbEntity
  8
0
100
AcDbLine
 62
7
  6
CONTINUOUS
 10
7.0244444636
 20
5.3138284377
 11
7.0244444636
 21
5.2563284377
  0
LINE
  5
29A
100
AcDbEntity
  8
0
100
AcDbLine
 62
7
  6
CONTINUOUS
 10
7.0580854037
 20
5.3018284377
 11
7.0628462322
 21
5.3288284377
  0
LINE
  5
29B
100
AcDbEntity
  8
0
100
AcDbLine
 62
7
  6
CONTINUOUS
 10
5.2310090996
 20
6.3897323582
 11
5.0541617078
 21
6.3897323582
  0
LWPOLYLINE
  5
29C
100
AcDbEntity
  8
0
100
AcDbPolyline
 62
7
  6
CONTINUOUS
 90
21
 70
0
 10
7.0825927436
 20
5.6735294597
 10
7.0796397188
 20
5.6747812208
 10
7.0763317905
 20
5.6762722408
 10
7.073056792
 20
5.6778382242
 10
7.0698158673
 20
5.6794787908
 10
7.0666122772
 20
5.6811924229
 10
7.0634479808
 20
5.6829781325
 10
7.0603247846
 20
5.684834946
 10
7.0572455822
 20
5.6867611269
 10
7.0542121311
 20
5.6887554949
 10
7.0512261713
 20
5.6908168072
 10
7.0482904286
 20
5.6929430127
 10
7.0454065093
 20
5.6951327058
 10
7.0425759892
 20
5.6973844261
 10
7.0398013915
 20
5.699695824
 10
7.0370841375
 20
5.7020652911
 10
7.0344256298
 20
5.7044911533
 10
7.0318281913
 20
5.7069707473
 10
7.0292933797
 20
5.7095019249
 10
7.0268220448
 20
5.7120831402
 10
7.0250523785
 20
5.7140049202
  0
LINE
  5
29D
100
AcDbEntity
  8
0
100
AcDbLine
 62
7
  6
CONTINUOUS
 10
6.242057267
 20
5.9121596935
 11
6.0747945674
 21
6.0087288582
  0
LINE
  5
29E
100
AcDbEntity
  8
0
100
AcDbLine
 62
7
  6
CONTINUOUS
 10
7.0623629354
 20
5.299239476
 11
7.0580854037
 21
5.3018284377
  0
LINE
  5
29F
100
AcDbEntity
  8
0
100
AcDbLine
 62
7
  6
CONTINUOUS
 10
6.8424877798
 20
5.1752360715
 11
7.0024333778
 21
4.9986523927
  0
LINE
  5
2A0
100
AcDbEntity
  8
0
100
AcDbLine
 62
7
  6
CONTINUOUS
 10
6.7280896325
 20
5.4460241798
 11
6.3087116003
 21
5.9090273298
  0
LWPOLYLINE
  5
2A1
100
AcDbEntity
  8
0
100
AcDbPolyline
 62
7
  6
CONTINUOUS
 90
33
 70
0
 10
6.7280896735
 20
5.4460241369
 10
6.729847829
 20
5.4440507335
 10
6.7321907192
 20
5.4413159695
 10
6.7344768106
 20
5.4385233505
 10
6.736704668
 20
5.4356739224
 10
6.7388723916
 20
5.4327694109
 10
6.7409776986
 20
5.4298122626
 10
6.7430191021
 20
5.4268040298
 10
6.744995179
 20
5.4237462786
 10
6.7469039531
 20
5.4206416117
 10
6.7487441541
 20
5.4174917224
 10
6.7505145655
 20
5.4142983304
 10
6.7522135038
 20
5.411064199
 10
6.7538399168
 20
5.4077911556
 10
6.7553928126
 20
5.4044810395
 10
6.7568708124
 20
5.4011367416
 10
6.7582731199
 20
5.3977601292
 10
6.7595989425
 20
5.3943532115
 10
6.7608471366
 20
5.3909191947
 10
6.7620174047
 20
5.387459259
 10
6.763108921
 20
5.3839762685
 10
6.7641201684
 20
5.3804761062
 10
6.765051154
 20
5.3769603213
 10
6.7659016225
 20
5.3734316322
 10
6.7666703817
 20
5.369897869
 10
6.7673578553
 20
5.3663612254
 10
6.7679645208
 20
5.3628239132
 10
6.7684901172
 20
5.3592939421
 10
6.7689356366
 20
5.355773463
 10
6.7693021149
 20
5.3522646873
 10
6.7695902182
 20
5.348775792
 10
6.7698014991
 20
5.3453087373
 10
6.7698785855
 20
5.3433577572
  0
LINE
  5
2A2
100
AcDbEntity
  8
0
100
AcDbLine
 62
7
  6
CONTINUOUS
 10
7.2264790515
 20
4.8149898262
 11
7.2552188098
 21
4.7739451977
  0
LINE
  5
2A3
100
AcDbEntity
  8
0
100
AcDbLine
 62
7
  6
CONTINUOUS
 10
7.0425854037
 20
5.30876618
 11
7.0425854037
 21
5.2613906955
  0
LINE
  5
2A4
100
AcDbEntity
  8
0
100
AcDbLine
 62
7
  6
CONTINUOUS
 10
7.0475854037
 20
5.3288284377
 11
7.0475854037
 21
5.3168284377
  0
LINE
  5
2A5
100
AcDbEntity
  8
0
100
AcDbLine
 62
7
  6
CONTINUOUS
 10
7.0475854037
 20
5.2533284377
 11
7.0475854037
 21
5.2443284377
  0
LINE
  5
2A6
100
AcDbEntity
  8
0
100
AcDbLine
 62
7
  6
CONTINUOUS
 10
7.0980854037
 20
5.2443284377
 11
7.0980854037
 21
5.2533284377
  0
LINE
  5
2A7
100
AcDbEntity
  8
0
100
AcDbLine
 62
7
  6
CONTINUOUS
 10
7.1088354037
 20
5.2677137601
 11
7.1088354037
 21
5.3024431153
  0
LINE
  5
2A8
100
AcDbEntity
  8
0
100
AcDbLine
 62
7
  6
CONTINUOUS
 10
7.1268354037
 20
5.3024431153
 11
7.1268354037
 21
5.2677137601
  0
LINE
  5
2A9
100
AcDbEntity
  8
0
100
AcDbLine
 62
7
  6
CONTINUOUS
 10
7.1375854037
 20
5.3288284377
 11
7.1375854037
 21
5.3168284377
  0
LINE
  5
2AA
100
AcDbEntity
  8
0
100
AcDbLine
 62
7
  6
CONTINUOUS
 10
7.1375854037
 20
5.2533284377
 11
7.1375854037
 21
5.2443284377
  0
LINE
  5
2AB
100
AcDbEntity
  8
0
100
AcDbLine
 62
7
  6
CONTINUOUS
 10
7.3888429218
 20
5.0819821277
 11
7.4303361442
 21
5.2109830995
  0
LINE
  5
2AC
100
AcDbEntity
  8
0
100
AcDbLine
 62
7
  6
CONTINUOUS
 10
6.2903354037
 20
6.4457358582
 11
5.5473532929
 21
6.4457358582
  0
LINE
  5
2AD
100
AcDbEntity
  8
0
100
AcDbLine
 62
7
  6
CONTINUOUS
 10
4.7378175145
 20
6.4457358582
 11
3.9948354037
 21
6.4457358582
  0
LINE
  5
2AE
100
AcDbEntity
  8
0
100
AcDbLine
 62
7
  6
CONTINUOUS
 10
7.6549686437
 20
5.1736950316
 11
7.6139240152
 21
5.2024347899
  0
LINE
  5
2AF
100
AcDbEntity
  8
0
100
AcDbLine
 62
7
  6
CONTINUOUS
 10
7.4081684086
 20
5.1929894698
 11
7.4081684086
 21
5.2016953026
  0
LINE
  5
2B0
100
AcDbEntity
  8
0
100
AcDbLine
 62
7
  6
CONTINUOUS
 10
7.4081684086
 20
5.3709615388
 11
7.4081684086
 21
5.3796674057
  0
LINE
  5
2B1
100
AcDbEntity
  8
0
100
AcDbLine
 62
7
  6
CONTINUOUS
 10
6.3386135405
 20
6.5423050228
 11
6.539057267
 21
6.4265787834
  0
LINE
  5
2B2
100
AcDbEntity
  8
0
100
AcDbLine
 62
7
  6
CONTINUOUS
 10
7.0250523369
 20
5.7140049685
 11
6.5873354037
 21
6.1972546939
  0
LINE
  5
2B3
100
AcDbEntity
  8
0
100
AcDbLine
 62
7
  6
CONTINUOUS
 10
7.2827374296
 20
5.5740044827
 11
7.4426830277
 21
5.397420804
  0
LINE
  5
2B4
100
AcDbEntity
  8
0
100
AcDbLine
 62
7
  6
CONTINUOUS
 10
7.0586917559
 20
5.7576670492
 11
7.0299519976
 21
5.7987116777
  0
LINE
  5
2B5
100
AcDbEntity
  8
0
100
AcDbLine
 62
7
  6
CONTINUOUS
 10
7.2410854037
 20
5.2443284377
 11
7.2330854037
 21
5.2723583906
  0
LINE
  5
2B6
100
AcDbEntity
  8
0
100
AcDbLine
 62
7
  6
CONTINUOUS
 10
7.5889038244
 20
5.3817870843
 11
7.5889038244
 21
5.1908697911
  0
LINE
  5
2B7
100
AcDbEntity
  8
0
100
AcDbLine
 62
7
  6
CONTINUOUS
 10
7.6013354037
 20
5.3808738826
 11
7.6013354037
 21
5.1917829929
  0
LINE
  5
2B8
100
AcDbEntity
  8
0
100
AcDbLine
 62
7
  6
CONTINUOUS
 10
7.6139240152
 20
5.3702220855
 11
7.6139240152
 21
5.2024347899
  0
LINE
  5
2B9
100
AcDbEntity
  8
0
100
AcDbLine
 62
7
  6
CONTINUOUS
 10
7.6549686437
 20
5.3989618438
 11
7.6549686437
 21
5.1736950316
  0
ARC
  5
2BA
100
AcDbEntity
  8
0
100
AcDbCircle
 62
7
  6
CONTINUOUS
 10
0.5676015118
 20
2.6764267895
 40
3.9444444738
100
AcDbArc
 50
47.5324770497
 51
48.1025299337
  0
ARC
  5
2BB
100
AcDbEntity
  8
0
100
AcDbCircle
 62
7
  6
CONTINUOUS
 10
2.9618354037
 20
4.9313904582
 40
0.125
100
AcDbArc
 50
313.0260516848
 51
45.6300714454
  0
ARC
  5
2BC
100
AcDbEntity
  8
0
100
AcDbCircle
 62
7
  6
CONTINUOUS
 10
3.0600854037
 20
5.0318254497
 40
0.0155
100
AcDbArc
 50
207.1842500698
 51
225.6300714454
  0
ARC
  5
2BD
100
AcDbEntity
  8
0
100
AcDbCircle
 62
7
  6
CONTINUOUS
 10
3.0521385396
 20
4.8195784377
 40
0.008
100
AcDbArc
 50
325.0
 51
90.0
  0
ARC
  5
2BE
100
AcDbEntity
  8
0
100
AcDbCircle
 62
7
  6
CONTINUOUS
 10
3.0525854037
 20
4.8341616688
 40
0.008
100
AcDbArc
 50
133.0260516848
 51
235.3765489003
  0
ARC
  5
2BF
100
AcDbEntity
  8
0
100
AcDbCircle
 62
7
  6
CONTINUOUS
 10
2.5513354037
 20
5.2863284377
 40
0.1375
100
AcDbArc
 50
55.0
 51
305.0
  0
ARC
  5
2C0
100
AcDbEntity
  8
0
100
AcDbCircle
 62
7
  6
CONTINUOUS
 10
2.7876474242
 20
5.1055784377
 40
0.125
100
AcDbArc
 50
44.3699285546
 51
136.9739483152
  0
ARC
  5
2C1
100
AcDbEntity
  8
0
100
AcDbCircle
 62
7
  6
CONTINUOUS
 10
2.8880824157
 20
5.2038284377
 40
0.0155
100
AcDbArc
 50
224.3699285546
 51
242.815756542
  0
ARC
  5
2C2
100
AcDbEntity
  8
0
100
AcDbCircle
 62
7
  6
CONTINUOUS
 10
2.8880824157
 20
5.3688284377
 40
0.0155
100
AcDbArc
 50
117.1843350707
 51
135.6300714454
  0
ARC
  5
2C3
100
AcDbEntity
  8
0
100
AcDbCircle
 62
7
  6
CONTINUOUS
 10
3.0063354037
 20
5.3079294246
 40
0.012
100
AcDbArc
 50
0.0
 51
71.7900431357
  0
ARC
  5
2C4
100
AcDbEntity
  8
0
100
AcDbCircle
 62
7
  6
CONTINUOUS
 10
3.0508354037
 20
5.3081062499
 40
0.012
100
AcDbArc
 50
110.7423799545
 51
180.0
  0
ARC
  5
2C5
100
AcDbEntity
  8
0
100
AcDbCircle
 62
7
  6
CONTINUOUS
 10
3.0508354037
 20
5.3081062499
 40
0.012
100
AcDbArc
 50
0.0
 51
69.2576200455
  0
ARC
  5
2C6
100
AcDbEntity
  8
0
100
AcDbCircle
 62
7
  6
CONTINUOUS
 10
3.0953354037
 20
5.3079294246
 40
0.012
100
AcDbArc
 50
108.2099568643
 51
180.0
  0
ARC
  5
2C7
100
AcDbEntity
  8
0
100
AcDbCircle
 62
7
  6
CONTINUOUS
 10
3.0953354037
 20
5.2672274508
 40
0.012
100
AcDbArc
 50
180.0
 51
251.7900431357
  0
ARC
  5
2C8
100
AcDbEntity
  8
0
100
AcDbCircle
 62
7
  6
CONTINUOUS
 10
3.0513354037
 20
5.2672274508
 40
0.012
100
AcDbArc
 50
288.2099568643
 51
360.0
  0
ARC
  5
2C9
100
AcDbEntity
  8
0
100
AcDbCircle
 62
7
  6
CONTINUOUS
 10
3.0503354037
 20
5.2672274508
 40
0.012
100
AcDbArc
 50
180.0
 51
251.7900431357
  0
ARC
  5
2CA
100
AcDbEntity
  8
0
100
AcDbCircle
 62
7
  6
CONTINUOUS
 10
3.0063354037
 20
5.2672274508
 40
0.012
100
AcDbArc
 50
288.2099568643
 51
360.0
  0
ARC
  5
2CB
100
AcDbEntity
  8
0
100
AcDbCircle
 62
7
  6
CONTINUOUS
 10
2.6904186348
 20
5.1963284377
 40
0.008
100
AcDbArc
 50
214.6234510997
 51
316.9739483152
  0
ARC
  5
2CC
100
AcDbEntity
  8
0
100
AcDbCircle
 62
7
  6
CONTINUOUS
 10
2.6904186348
 20
5.3763284377
 40
0.008
100
AcDbArc
 50
43.0260516848
 51
145.3765489003
  0
ARC
  5
2CD
100
AcDbEntity
  8
0
100
AcDbCircle
 62
7
  6
CONTINUOUS
 10
2.6758354037
 20
5.1958815736
 40
0.008
100
AcDbArc
 50
0.0
 51
125.0
  0
ARC
  5
2CE
100
AcDbEntity
  8
0
100
AcDbCircle
 62
7
  6
CONTINUOUS
 10
2.6758354037
 20
5.3767753019
 40
0.008
100
AcDbArc
 50
235.0
 51
360.0
  0
ARC
  5
2CF
100
AcDbEntity
  8
0
100
AcDbCircle
 62
7
  6
CONTINUOUS
 10
3.0418354037
 20
5.2961062499
 40
0.003
100
AcDbArc
 50
180.0
 51
270.0
  0
ARC
  5
2D0
100
AcDbEntity
  8
0
100
AcDbCircle
 62
7
  6
CONTINUOUS
 10
3.0598354037
 20
5.2961062499
 40
0.003
100
AcDbArc
 50
270.0
 51
360.0
  0
ARC
  5
2D1
100
AcDbEntity
  8
0
100
AcDbCircle
 62
7
  6
CONTINUOUS
 10
3.0603354037
 20
5.2813284377
 40
0.003
100
AcDbArc
 50
0.0
 51
90.0
  0
ARC
  5
2D2
100
AcDbEntity
  8
0
100
AcDbCircle
 62
7
  6
CONTINUOUS
 10
3.0413354037
 20
5.2813284377
 40
0.003
100
AcDbArc
 50
90.0
 51
180.0
  0
ARC
  5
2D3
100
AcDbEntity
  8
0
100
AcDbCircle
 62
7
  6
CONTINUOUS
 10
3.1425854037
 20
4.6950784377
 40
0.1375
100
AcDbArc
 50
145.0
 51
35.0
  0
ARC
  5
2D4
100
AcDbEntity
  8
0
100
AcDbCircle
 62
7
  6
CONTINUOUS
 10
3.3233354037
 20
4.9313904582
 40
0.125
100
AcDbArc
 50
134.3699285546
 51
226.9739483152
  0
ARC
  5
2D5
100
AcDbEntity
  8
0
100
AcDbCircle
 62
7
  6
CONTINUOUS
 10
3.2250854037
 20
5.0318254497
 40
0.0155
100
AcDbArc
 50
314.3699285546
 51
332.815753539
  0
ARC
  5
2D6
100
AcDbEntity
  8
0
100
AcDbCircle
 62
7
  6
CONTINUOUS
 10
3.2330322679
 20
4.8195784377
 40
0.008
100
AcDbArc
 50
90.0
 51
215.0
  0
ARC
  5
2D7
100
AcDbEntity
  8
0
100
AcDbCircle
 62
7
  6
CONTINUOUS
 10
3.2325854037
 20
4.8341616688
 40
0.008
100
AcDbArc
 50
304.6234510997
 51
46.9739483152
  0
ARC
  5
2D8
100
AcDbEntity
  8
0
100
AcDbCircle
 62
7
  6
CONTINUOUS
 10
3.3970883918
 20
5.2038284377
 40
0.0155
100
AcDbArc
 50
297.1842562388
 51
315.6300714454
  0
ARC
  5
2D9
100
AcDbEntity
  8
0
100
AcDbCircle
 62
7
  6
CONTINUOUS
 10
3.1425854037
 20
5.2863284377
 40
0.47925
100
AcDbArc
 50
72.4975265453
 51
79.879892437
  0
ARC
  5
2DA
100
AcDbEntity
  8
0
100
AcDbCircle
 62
7
  6
CONTINUOUS
 10
3.1425854037
 20
5.2863284377
 40
0.47925
100
AcDbArc
 50
100.1183794165
 51
169.8816231468
  0
ARC
  5
2DB
100
AcDbEntity
  8
0
100
AcDbCircle
 62
7
  6
CONTINUOUS
 10
3.1425854037
 20
5.2863284377
 40
0.47925
100
AcDbArc
 50
10.1201413359
 51
23.1632957821
  0
ARC
  5
2DC
100
AcDbEntity
  8
0
100
AcDbCircle
 62
7
  6
CONTINUOUS
 10
3.1425854037
 20
5.2863284377
 40
0.47925
100
AcDbArc
 50
280.1183794165
 51
349.8816231468
  0
ARC
  5
2DD
100
AcDbEntity
  8
0
100
AcDbCircle
 62
7
  6
CONTINUOUS
 10
3.1425854037
 20
5.2863284377
 40
0.47925
100
AcDbArc
 50
190.1201413359
 51
259.879892437
  0
ARC
  5
2DE
100
AcDbEntity
  8
0
100
AcDbCircle
 62
7
  6
CONTINUOUS
 10
3.1425854037
 20
5.2863284377
 40
0.4646873857
100
AcDbArc
 50
12.1402975599
 51
22.3360485849
  0
ARC
  5
2DF
100
AcDbEntity
  8
0
100
AcDbCircle
 62
7
  6
CONTINUOUS
 10
3.1425854037
 20
5.2863284377
 40
0.4646873857
100
AcDbArc
 50
282.1388466364
 51
347.8615749145
  0
ARC
  5
2E0
100
AcDbEntity
  8
0
100
AcDbCircle
 62
7
  6
CONTINUOUS
 10
3.1425854037
 20
5.2863284377
 40
0.4646873857
100
AcDbArc
 50
73.3247737424
 51
77.859658963
  0
ARC
  5
2E1
100
AcDbEntity
  8
0
100
AcDbCircle
 62
7
  6
CONTINUOUS
 10
3.1425854037
 20
5.2863284377
 40
0.4646873857
100
AcDbArc
 50
102.1388466364
 51
167.8615749145
  0
ARC
  5
2E2
100
AcDbEntity
  8
0
100
AcDbCircle
 62
7
  6
CONTINUOUS
 10
3.1425854037
 20
5.2863284377
 40
0.4646873857
100
AcDbArc
 50
192.1402975599
 51
257.859658963
  0
ARC
  5
2E3
100
AcDbEntity
  8
0
100
AcDbCircle
 62
7
  6
CONTINUOUS
 10
3.1425854037
 20
5.2863284377
 40
0.375
100
AcDbArc
 50
278.7038165259
 51
351.2962068743
  0
ARC
  5
2E4
100
AcDbEntity
  8
0
100
AcDbCircle
 62
7
  6
CONTINUOUS
 10
3.1425854037
 20
5.2863284377
 40
0.375
100
AcDbArc
 50
188.7038075459
 51
261.2961895115
  0
ARC
  5
2E5
100
AcDbEntity
  8
0
100
AcDbCircle
 62
7
  6
CONTINUOUS
 10
3.1425854037
 20
5.2863284377
 40
0.375
100
AcDbArc
 50
98.7037879764
 51
171.2961830677
  0
ARC
  5
2E6
100
AcDbEntity
  8
0
100
AcDbCircle
 62
7
  6
CONTINUOUS
 10
3.1425854037
 20
5.2863284377
 40
0.32
100
AcDbArc
 50
339.686013208
 51
348.6959132335
  0
ARC
  5
2E7
100
AcDbEntity
  8
0
100
AcDbCircle
 62
7
  6
CONTINUOUS
 10
3.1425854037
 20
5.2863284377
 40
0.32
100
AcDbArc
 50
39.686013208
 51
55.9748091193
  0
ARC
  5
2E8
100
AcDbEntity
  8
0
100
AcDbCircle
 62
7
  6
CONTINUOUS
 10
3.1425854037
 20
5.2863284377
 40
0.32
100
AcDbArc
 50
101.304420069
 51
115.9748091193
  0
ARC
  5
2E9
100
AcDbEntity
  8
0
100
AcDbCircle
 62
7
  6
CONTINUOUS
 10
3.1425854037
 20
5.2863284377
 40
0.32
100
AcDbArc
 50
159.686013208
 51
168.6959132335
  0
ARC
  5
2EA
100
AcDbEntity
  8
0
100
AcDbCircle
 62
7
  6
CONTINUOUS
 10
3.1425854037
 20
5.2863284377
 40
0.32
100
AcDbArc
 50
219.686013208
 51
235.9748091193
  0
ARC
  5
2EB
100
AcDbEntity
  8
0
100
AcDbCircle
 62
7
  6
CONTINUOUS
 10
3.1425854037
 20
5.2863284377
 40
0.32
100
AcDbArc
 50
281.304420069
 51
295.9748091193
  0
ARC
  5
2EC
100
AcDbEntity
  8
0
100
AcDbCircle
 62
7
  6
CONTINUOUS
 10
3.1425854037
 20
5.2863284377
 40
0.3124631454
100
AcDbArc
 50
192.1927747969
 51
215.9163061799
  0
ARC
  5
2ED
100
AcDbEntity
  8
0
100
AcDbCircle
 62
7
  6
CONTINUOUS
 10
3.1425854037
 20
5.2863284377
 40
0.3124631454
100
AcDbArc
 50
119.7450319165
 51
155.9223974293
  0
ARC
  5
2EE
100
AcDbEntity
  8
0
100
AcDbCircle
 62
7
  6
CONTINUOUS
 10
3.1425854037
 20
5.2863284377
 40
0.3124631454
100
AcDbArc
 50
73.6049676567
 51
77.8056940899
  0
ARC
  5
2EF
100
AcDbEntity
  8
0
100
AcDbCircle
 62
7
  6
CONTINUOUS
 10
3.1425854037
 20
5.2863284377
 40
0.3124631454
100
AcDbArc
 50
12.1946500708
 51
22.1432424753
  0
ARC
  5
2F0
100
AcDbEntity
  8
0
100
AcDbCircle
 62
7
  6
CONTINUOUS
 10
3.1425854037
 20
5.2863284377
 40
0.3124631454
100
AcDbArc
 50
299.737201113
 51
335.9164659589
  0
ARC
  5
2F1
100
AcDbEntity
  8
0
100
AcDbCircle
 62
7
  6
CONTINUOUS
 10
3.1425854037
 20
5.2863284377
 40
0.3124631454
100
AcDbArc
 50
239.7446134892
 51
257.8062253858
  0
ARC
  5
2F2
100
AcDbEntity
  8
0
100
AcDbCircle
 62
7
  6
CONTINUOUS
 10
3.1425854037
 20
5.2863284377
 40
0.3101065748
100
AcDbArc
 50
334.5477964848
 51
347.4864610033
  0
ARC
  5
2F3
100
AcDbEntity
  8
0
100
AcDbCircle
 62
7
  6
CONTINUOUS
 10
3.1425854037
 20
5.2863284377
 40
0.3101065748
100
AcDbArc
 50
282.5143977565
 51
301.1130258426
  0
ARC
  5
2F4
100
AcDbEntity
  8
0
100
AcDbCircle
 62
7
  6
CONTINUOUS
 10
3.1425854037
 20
5.2863284377
 40
0.3101065748
100
AcDbArc
 50
214.5477964848
 51
241.1130258426
  0
ARC
  5
2F5
100
AcDbEntity
  8
0
100
AcDbCircle
 62
7
  6
CONTINUOUS
 10
3.1425854037
 20
5.2863284377
 40
0.3101065748
100
AcDbArc
 50
154.5477964848
 51
167.4864610033
  0
ARC
  5
2F6
100
AcDbEntity
  8
0
100
AcDbCircle
 62
7
  6
CONTINUOUS
 10
3.1425854037
 20
5.2863284377
 40
0.3101065748
100
AcDbArc
 50
102.5143977565
 51
121.1130258426
  0
ARC
  5
2F7
100
AcDbEntity
  8
0
100
AcDbCircle
 62
7
  6
CONTINUOUS
 10
3.1425854037
 20
5.2863284377
 40
0.3101065748
100
AcDbArc
 50
34.5477964848
 51
61.1130258426
  0
CIRCLE
  5
2F8
100
AcDbEntity
  8
0
100
AcDbCircle
 62
7
  6
CONTINUOUS
 10
3.1425854037
 20
5.2863284377
 40
0.27875
  0
CIRCLE
  5
2F9
100
AcDbEntity
  8
0
100
AcDbCircle
 62
7
  6
CONTINUOUS
 10
3.1425854037
 20
5.2863284377
 40
0.26375
  0
CIRCLE
  5
2FA
100
AcDbEntity
  8
0
100
AcDbCircle
 62
7
  6
CONTINUOUS
 10
3.1425854037
 20
5.2863284377
 40
0.2566170761
  0
CIRCLE
  5
2FB
100
AcDbEntity
  8
0
100
AcDbCircle
 62
7
  6
CONTINUOUS
 10
3.1425854037
 20
5.2863284377
 40
0.2272549781
  0
CIRCLE
  5
2FC
100
AcDbEntity
  8
0
100
AcDbCircle
 62
7
  6
CONTINUOUS
 10
3.1425854037
 20
5.2863284377
 40
0.2085229279
  0
CIRCLE
  5
2FD
100
AcDbEntity
  8
0
100
AcDbCircle
 62
7
  6
CONTINUOUS
 10
3.1425854037
 20
5.2863284377
 40
0.1975723198
  0
ARC
  5
2FE
100
AcDbEntity
  8
0
100
AcDbCircle
 62
7
  6
CONTINUOUS
 10
3.2568354037
 20
5.2715585839
 40
0.018
100
AcDbArc
 50
180.0
 51
240.9147049393
  0
ARC
  5
2FF
100
AcDbEntity
  8
0
100
AcDbCircle
 62
7
  6
CONTINUOUS
 10
3.2028354037
 20
5.2715585839
 40
0.018
100
AcDbArc
 50
299.0852950607
 51
360.0
  0
ARC
  5
300
100
AcDbEntity
  8
0
100
AcDbCircle
 62
7
  6
CONTINUOUS
 10
3.2064340365
 20
5.2987224457
 40
0.0206559921
100
AcDbArc
 50
90.0
 51
135.0
  0
ARC
  5
301
100
AcDbEntity
  8
0
100
AcDbCircle
 62
7
  6
CONTINUOUS
 10
3.253236771
 20
5.2987224457
 40
0.0206559921
100
AcDbArc
 50
45.0
 51
90.0
  0
ARC
  5
302
100
AcDbEntity
  8
0
100
AcDbCircle
 62
7
  6
CONTINUOUS
 10
3.2193354037
 20
5.3178784377
 40
0.0015
100
AcDbArc
 50
0.0
 51
90.0
  0
ARC
  5
303
100
AcDbEntity
  8
0
100
AcDbCircle
 62
7
  6
CONTINUOUS
 10
3.2403354037
 20
5.3178784377
 40
0.0015
100
AcDbArc
 50
90.0
 51
180.0
  0
ARC
  5
304
100
AcDbEntity
  8
0
100
AcDbCircle
 62
7
  6
CONTINUOUS
 10
3.3970883918
 20
5.3688284377
 40
0.0155
100
AcDbArc
 50
44.3699285546
 51
62.8157590247
  0
ARC
  5
305
100
AcDbEntity
  8
0
100
AcDbCircle
 62
7
  6
CONTINUOUS
 10
3.4975233832
 20
5.1055784377
 40
0.125
100
AcDbArc
 50
43.0260516848
 51
135.6300714454
  0
ARC
  5
306
100
AcDbEntity
  8
0
100
AcDbCircle
 62
7
  6
CONTINUOUS
 10
3.5947521727
 20
5.1963284377
 40
0.008
100
AcDbArc
 50
223.0260516848
 51
325.3765489003
  0
ARC
  5
307
100
AcDbEntity
  8
0
100
AcDbCircle
 62
7
  6
CONTINUOUS
 10
3.6093354037
 20
5.1958815736
 40
0.008
100
AcDbArc
 50
55.0
 51
180.0
  0
ARC
  5
308
100
AcDbEntity
  8
0
100
AcDbCircle
 62
7
  6
CONTINUOUS
 10
3.7338354037
 20
5.2863284377
 40
0.1375
100
AcDbArc
 50
235.0
 51
125.0
  0
ARC
  5
309
100
AcDbEntity
  8
0
100
AcDbCircle
 62
7
  6
CONTINUOUS
 10
3.5947521727
 20
5.3763284377
 40
0.008
100
AcDbArc
 50
34.6234510997
 51
136.9739483152
  0
ARC
  5
30A
100
AcDbEntity
  8
0
100
AcDbCircle
 62
7
  6
CONTINUOUS
 10
3.6093354037
 20
5.3767753019
 40
0.008
100
AcDbArc
 50
180.0
 51
305.0
  0
ARC
  5
30B
100
AcDbEntity
  8
0
100
AcDbCircle
 62
7
  6
CONTINUOUS
 10
3.1425854037
 20
5.8775784377
 40
0.1375
100
AcDbArc
 50
325.0
 51
215.0
  0
ARC
  5
30C
100
AcDbEntity
  8
0
100
AcDbCircle
 62
7
  6
CONTINUOUS
 10
2.9618354037
 20
5.6412664172
 40
0.125
100
AcDbArc
 50
314.3699285546
 51
46.9739483152
  0
ARC
  5
30D
100
AcDbEntity
  8
0
100
AcDbCircle
 62
7
  6
CONTINUOUS
 10
3.3233354037
 20
5.6412664172
 40
0.125
100
AcDbArc
 50
133.0260516848
 51
225.6300714454
  0
ARC
  5
30E
100
AcDbEntity
  8
0
100
AcDbCircle
 62
7
  6
CONTINUOUS
 10
3.4975233832
 20
5.4670784377
 40
0.125
100
AcDbArc
 50
224.3699285546
 51
316.9739483152
  0
ARC
  5
30F
100
AcDbEntity
  8
0
100
AcDbCircle
 62
7
  6
CONTINUOUS
 10
2.7876474242
 20
5.4670784377
 40
0.125
100
AcDbArc
 50
223.0260516848
 51
315.6300714454
  0
ARC
  5
310
100
AcDbEntity
  8
0
100
AcDbCircle
 62
7
  6
CONTINUOUS
 10
3.2250854037
 20
5.5408314258
 40
0.0155
100
AcDbArc
 50
27.1842507639
 51
45.6300714454
  0
ARC
  5
311
100
AcDbEntity
  8
0
100
AcDbCircle
 62
7
  6
CONTINUOUS
 10
3.0600854037
 20
5.5408314258
 40
0.0155
100
AcDbArc
 50
134.3699285546
 51
152.8156715156
  0
ARC
  5
312
100
AcDbEntity
  8
0
100
AcDbCircle
 62
7
  6
CONTINUOUS
 10
3.0521385396
 20
5.7530784377
 40
0.008
100
AcDbArc
 50
270.0
 51
35.0
  0
ARC
  5
313
100
AcDbEntity
  8
0
100
AcDbCircle
 62
7
  6
CONTINUOUS
 10
3.2330322679
 20
5.7530784377
 40
0.008
100
AcDbArc
 50
145.0
 51
270.0
  0
ARC
  5
314
100
AcDbEntity
  8
0
100
AcDbCircle
 62
7
  6
CONTINUOUS
 10
3.0525854037
 20
5.7384952067
 40
0.008
100
AcDbArc
 50
124.6234510997
 51
226.9739483152
  0
ARC
  5
315
100
AcDbEntity
  8
0
100
AcDbCircle
 62
7
  6
CONTINUOUS
 10
3.2325854037
 20
5.7384952067
 40
0.008
100
AcDbArc
 50
313.0260516848
 51
55.3765489003
  0
ARC
  5
316
100
AcDbEntity
  8
0
100
AcDbCircle
 62
7
  6
CONTINUOUS
 10
3.9948354037
 20
6.2272323582
 40
0.31875
100
AcDbArc
 50
261.2884072271
 51
278.7115927729
  0
ARC
  5
317
100
AcDbEntity
  8
0
100
AcDbCircle
 62
7
  6
CONTINUOUS
 10
3.9948354037
 20
6.2272323582
 40
0.31875
100
AcDbArc
 50
201.2884072271
 51
218.7115927729
  0
ARC
  5
318
100
AcDbEntity
  8
0
100
AcDbCircle
 62
7
  6
CONTINUOUS
 10
3.9948354037
 20
6.2272323582
 40
0.31875
100
AcDbArc
 50
81.2884072271
 51
98.7115927729
  0
ARC
  5
319
100
AcDbEntity
  8
0
100
AcDbCircle
 62
7
  6
CONTINUOUS
 10
3.9948354037
 20
6.2272323582
 40
0.31875
100
AcDbArc
 50
141.2884072271
 51
158.7115927729
  0
ARC
  5
31A
100
AcDbEntity
  8
0
100
AcDbCircle
 62
7
  6
CONTINUOUS
 10
3.9948354037
 20
6.2272323582
 40
0.285
100
AcDbArc
 50
50.0593556632
 51
309.9406443368
  0
ARC
  5
31B
100
AcDbEntity
  8
0
100
AcDbCircle
 62
7
  6
CONTINUOUS
 10
3.9948354037
 20
6.2272323582
 40
0.2185035
100
AcDbArc
 50
90.0
 51
270.0
  0
ARC
  5
31C
100
AcDbEntity
  8
0
100
AcDbCircle
 62
7
  6
CONTINUOUS
 10
4.9230854037
 20
5.5883829166
 40
0.04
100
AcDbArc
 50
115.9444797724
 51
270.0
  0
ARC
  5
31D
100
AcDbEntity
  8
0
100
AcDbCircle
 62
7
  6
CONTINUOUS
 10
4.9370854037
 20
5.7483829166
 40
0.0315
100
AcDbArc
 50
124.5733151689
 51
180.0
  0
ARC
  5
31E
100
AcDbEntity
  8
0
100
AcDbCircle
 62
7
  6
CONTINUOUS
 10
4.9013354037
 20
5.8002571636
 40
0.0315
100
AcDbArc
 50
304.5733151689
 51
45.9547506429
  0
ARC
  5
31F
100
AcDbEntity
  8
0
100
AcDbCircle
 62
7
  6
CONTINUOUS
 10
9.4053188162
 20
3.0391513209
 40
3.4662958557
100
AcDbArc
 50
132.0514253684
 51
132.7153756317
  0
ARC
  5
320
100
AcDbEntity
  8
0
100
AcDbCircle
 62
7
  6
CONTINUOUS
 10
5.1425854037
 20
2.6213829166
 40
0.26675
100
AcDbArc
 50
134.6632107629
 51
45.3367892371
  0
ARC
  5
321
100
AcDbEntity
  8
0
100
AcDbCircle
 62
7
  6
CONTINUOUS
 10
5.1425854037
 20
2.6213829166
 40
0.21975
100
AcDbArc
 50
148.5681651771
 51
31.4318348229
  0
ARC
  5
322
100
AcDbEntity
  8
0
100
AcDbCircle
 62
7
  6
CONTINUOUS
 10
5.1425854037
 20
2.6213829166
 40
0.1875
100
AcDbArc
 50
180.0
 51
360.0
  0
ARC
  5
323
100
AcDbEntity
  8
0
100
AcDbCircle
 62
7
  6
CONTINUOUS
 10
5.1425854037
 20
5.2863284377
 40
0.435
100
AcDbArc
 50
295.5333385119
 51
56.9855926185
  0
ARC
  5
324
100
AcDbEntity
  8
0
100
AcDbCircle
 62
7
  6
CONTINUOUS
 10
5.1425854037
 20
5.2863284377
 40
0.435
100
AcDbArc
 50
123.0144073815
 51
244.4666614881
  0
ARC
  5
325
100
AcDbEntity
  8
0
100
AcDbCircle
 62
7
  6
CONTINUOUS
 10
5.1425854037
 20
5.2863284377
 40
0.3467886062
100
AcDbArc
 50
302.7314123175
 51
49.2375897891
  0
ARC
  5
326
100
AcDbEntity
  8
0
100
AcDbCircle
 62
7
  6
CONTINUOUS
 10
5.1425854037
 20
5.2863284377
 40
0.3467886062
100
AcDbArc
 50
130.7624102109
 51
237.2685876825
  0
ARC
  5
327
100
AcDbEntity
  8
0
100
AcDbCircle
 62
7
  6
CONTINUOUS
 10
5.1425854037
 20
5.2863284377
 40
0.3459613938
100
AcDbArc
 50
302.8196734543
 51
49.352797052
  0
ARC
  5
328
100
AcDbEntity
  8
0
100
AcDbCircle
 62
7
  6
CONTINUOUS
 10
5.1425854037
 20
5.2863284377
 40
0.3459613938
100
AcDbArc
 50
130.647202948
 51
237.1803265457
  0
ARC
  5
329
100
AcDbEntity
  8
0
100
AcDbCircle
 62
7
  6
CONTINUOUS
 10
5.1425854037
 20
5.2863284377
 40
0.29
100
AcDbArc
 50
310.2847809989
 51
49.7152190011
  0
ARC
  5
32A
100
AcDbEntity
  8
0
100
AcDbCircle
 62
7
  6
CONTINUOUS
 10
5.1425854037
 20
5.2863284377
 40
0.29
100
AcDbArc
 50
130.2847809989
 51
229.7152190011
  0
ARC
  5
32B
100
AcDbEntity
  8
0
100
AcDbCircle
 62
7
  6
CONTINUOUS
 10
5.1425854037
 20
6.2272323582
 40
0.46
100
AcDbArc
 50
298.4797677551
 51
241.5202322449
  0
ARC
  5
32C
100
AcDbEntity
  8
0
100
AcDbCircle
 62
7
  6
CONTINUOUS
 10
6.2903354037
 20
6.2272323582
 40
0.31875
100
AcDbArc
 50
321.2884072271
 51
338.7115927729
  0
ARC
  5
32D
100
AcDbEntity
  8
0
100
AcDbCircle
 62
7
  6
CONTINUOUS
 10
6.2903354037
 20
6.2272323582
 40
0.31875
100
AcDbArc
 50
261.2884072271
 51
278.7115927729
  0
ARC
  5
32E
100
AcDbEntity
  8
0
100
AcDbCircle
 62
7
  6
CONTINUOUS
 10
6.2903354037
 20
6.2272323582
 40
0.31875
100
AcDbArc
 50
81.2884072271
 51
98.7115927729
  0
ARC
  5
32F
100
AcDbEntity
  8
0
100
AcDbCircle
 62
7
  6
CONTINUOUS
 10
6.2903354037
 20
6.2272323582
 40
0.31875
100
AcDbArc
 50
21.2884072271
 51
38.7115927729
  0
ARC
  5
330
100
AcDbEntity
  8
0
100
AcDbCircle
 62
7
  6
CONTINUOUS
 10
6.2903354037
 20
6.2272323582
 40
0.285
100
AcDbArc
 50
230.0593556633
 51
129.9406443368
  0
ARC
  5
331
100
AcDbEntity
  8
0
100
AcDbCircle
 62
7
  6
CONTINUOUS
 10
6.2903354037
 20
6.2272323582
 40
0.2185035
100
AcDbArc
 50
270.0
 51
90.0
  0
ARC
  5
332
100
AcDbEntity
  8
0
100
AcDbCircle
 62
7
  6
CONTINUOUS
 10
5.1425854037
 20
6.2272323582
 40
0.185
100
AcDbArc
 50
118.5526373602
 51
121.4473626398
  0
ARC
  5
333
100
AcDbEntity
  8
0
100
AcDbCircle
 62
7
  6
CONTINUOUS
 10
5.1425854037
 20
6.2272323582
 40
0.185
100
AcDbArc
 50
58.5526373602
 51
61.4473626398
  0
ARC
  5
334
100
AcDbEntity
  8
0
100
AcDbCircle
 62
7
  6
CONTINUOUS
 10
5.1425854037
 20
6.2272323582
 40
0.185
100
AcDbArc
 50
178.5526373602
 51
181.4473626398
  0
ARC
  5
335
100
AcDbEntity
  8
0
100
AcDbCircle
 62
7
  6
CONTINUOUS
 10
5.1425854037
 20
6.2272323582
 40
0.185
100
AcDbArc
 50
358.5526373602
 51
1.4473626398
  0
ARC
  5
336
100
AcDbEntity
  8
0
100
AcDbCircle
 62
7
  6
CONTINUOUS
 10
5.1425854037
 20
6.2272323582
 40
0.185
100
AcDbArc
 50
298.5526373602
 51
301.4473626398
  0
ARC
  5
337
100
AcDbEntity
  8
0
100
AcDbCircle
 62
7
  6
CONTINUOUS
 10
5.1425854037
 20
6.2272323582
 40
0.185
100
AcDbArc
 50
238.5526373602
 51
241.4473626398
  0
ARC
  5
338
100
AcDbEntity
  8
0
100
AcDbCircle
 62
7
  6
CONTINUOUS
 10
5.1425854037
 20
6.2272323582
 40
0.167
100
AcDbArc
 50
136.6766871516
 51
163.3236713709
  0
ARC
  5
339
100
AcDbEntity
  8
0
100
AcDbCircle
 62
7
  6
CONTINUOUS
 10
5.1425854037
 20
6.2272323582
 40
0.167
100
AcDbArc
 50
196.6763286291
 51
223.3233128484
  0
ARC
  5
33A
100
AcDbEntity
  8
0
100
AcDbCircle
 62
7
  6
CONTINUOUS
 10
5.1425854037
 20
6.2272323582
 40
0.167
100
AcDbArc
 50
76.6765155391
 51
103.3234844609
  0
ARC
  5
33B
100
AcDbEntity
  8
0
100
AcDbCircle
 62
7
  6
CONTINUOUS
 10
5.1425854037
 20
6.2272323582
 40
0.167
100
AcDbArc
 50
16.6763286292
 51
43.3233128484
  0
ARC
  5
33C
100
AcDbEntity
  8
0
100
AcDbCircle
 62
7
  6
CONTINUOUS
 10
5.1425854037
 20
6.2272323582
 40
0.167
100
AcDbArc
 50
316.6766871516
 51
343.3236713708
  0
ARC
  5
33D
100
AcDbEntity
  8
0
100
AcDbCircle
 62
7
  6
CONTINUOUS
 10
5.1425854037
 20
6.2272323582
 40
0.167
100
AcDbArc
 50
256.6765155391
 51
283.3234844609
  0
CIRCLE
  5
33E
100
AcDbEntity
  8
0
100
AcDbCircle
 62
7
  6
CONTINUOUS
 10
5.1425854037
 20
6.2272323582
 40
0.1326489937
  0
ARC
  5
33F
100
AcDbEntity
  8
0
100
AcDbCircle
 62
7
  6
CONTINUOUS
 10
5.3620854037
 20
5.5883829166
 40
0.04
100
AcDbArc
 50
270.0
 51
64.0555202276
  0
ARC
  5
340
100
AcDbEntity
  8
0
100
AcDbCircle
 62
7
  6
CONTINUOUS
 10
5.3480854037
 20
5.7483829166
 40
0.0315
100
AcDbArc
 50
0.0
 51
55.4266848311
  0
ARC
  5
341
100
AcDbEntity
  8
0
100
AcDbCircle
 62
7
  6
CONTINUOUS
 10
5.3838354037
 20
5.8002571636
 40
0.0315
100
AcDbArc
 50
134.0452493571
 51
235.4266848311
  0
CIRCLE
  5
342
100
AcDbEntity
  8
0
100
AcDbCircle
 62
7
  6
CONTINUOUS
 10
5.1425854037
 20
6.2272323582
 40
0.01325
  0
ARC
  5
343
100
AcDbEntity
  8
0
100
AcDbCircle
 62
7
  6
CONTINUOUS
 10
6.9618354037
 20
4.9313904582
 40
0.125
100
AcDbArc
 50
313.0260516848
 51
45.6300714454
  0
ARC
  5
344
100
AcDbEntity
  8
0
100
AcDbCircle
 62
7
  6
CONTINUOUS
 10
7.0600854037
 20
5.0318254497
 40
0.0155
100
AcDbArc
 50
207.1842507639
 51
225.6300714454
  0
ARC
  5
345
100
AcDbEntity
  8
0
100
AcDbCircle
 62
7
  6
CONTINUOUS
 10
7.0521385396
 20
4.8195784377
 40
0.008
100
AcDbArc
 50
325.0
 51
90.0
  0
ARC
  5
346
100
AcDbEntity
  8
0
100
AcDbCircle
 62
7
  6
CONTINUOUS
 10
7.0525854037
 20
4.8341616688
 40
0.008
100
AcDbArc
 50
133.0260516849
 51
235.3765489003
  0
ARC
  5
347
100
AcDbEntity
  8
0
100
AcDbCircle
 62
7
  6
CONTINUOUS
 10
6.5513354037
 20
5.2863284377
 40
0.1375
100
AcDbArc
 50
55.0
 51
305.0
  0
ARC
  5
348
100
AcDbEntity
  8
0
100
AcDbCircle
 62
7
  6
CONTINUOUS
 10
6.7876474242
 20
5.1055784377
 40
0.125
100
AcDbArc
 50
44.3699285546
 51
136.9739483152
  0
ARC
  5
349
100
AcDbEntity
  8
0
100
AcDbCircle
 62
7
  6
CONTINUOUS
 10
7.0307549437
 20
5.2850784377
 40
0.0485
100
AcDbArc
 50
161.5590861804
 51
198.4409138196
  0
ARC
  5
34A
100
AcDbEntity
  8
0
100
AcDbCircle
 62
7
  6
CONTINUOUS
 10
7.0053354037
 20
5.2865784377
 40
0.04225
100
AcDbArc
 50
90.0
 51
270.0
  0
ARC
  5
34B
100
AcDbEntity
  8
0
100
AcDbCircle
 62
7
  6
CONTINUOUS
 10
7.0075130097
 20
5.2928284377
 40
0.024
100
AcDbArc
 50
90.0
 51
161.5590861804
  0
ARC
  5
34C
100
AcDbEntity
  8
0
100
AcDbCircle
 62
7
  6
CONTINUOUS
 10
7.0075130097
 20
5.2773284377
 40
0.024
100
AcDbArc
 50
198.4409138196
 51
270.0
  0
ARC
  5
34D
100
AcDbEntity
  8
0
100
AcDbCircle
 62
7
  6
CONTINUOUS
 10
6.8880824157
 20
5.2038284377
 40
0.0155
100
AcDbArc
 50
224.3699285546
 51
242.8157590247
  0
ARC
  5
34E
100
AcDbEntity
  8
0
100
AcDbCircle
 62
7
  6
CONTINUOUS
 10
6.8880824157
 20
5.3688284377
 40
0.0155
100
AcDbArc
 50
117.1842562388
 51
135.6300714454
  0
ARC
  5
34F
100
AcDbEntity
  8
0
100
AcDbCircle
 62
7
  6
CONTINUOUS
 10
7.1418354037
 20
5.2677137601
 40
0.015
100
AcDbArc
 50
180.0
 51
253.5407503717
  0
ARC
  5
350
100
AcDbEntity
  8
0
100
AcDbCircle
 62
7
  6
CONTINUOUS
 10
7.0938354037
 20
5.2677137601
 40
0.015
100
AcDbArc
 50
286.4592496283
 51
360.0
  0
ARC
  5
351
100
AcDbEntity
  8
0
100
AcDbCircle
 62
7
  6
CONTINUOUS
 10
7.0938354037
 20
5.3024431153
 40
0.015
100
AcDbArc
 50
0.0
 51
90.0
  0
ARC
  5
352
100
AcDbEntity
  8
0
100
AcDbCircle
 62
7
  6
CONTINUOUS
 10
7.0818354037
 20
5.3024431153
 40
0.015
100
AcDbArc
 50
90.0
 51
148.815717175
  0
ARC
  5
353
100
AcDbEntity
  8
0
100
AcDbCircle
 62
7
  6
CONTINUOUS
 10
7.1418354037
 20
5.3024431153
 40
0.015
100
AcDbArc
 50
106.4592496283
 51
180.0
  0
ARC
  5
354
100
AcDbEntity
  8
0
100
AcDbCircle
 62
7
  6
CONTINUOUS
 10
7.0515854037
 20
5.2613906955
 40
0.009
100
AcDbArc
 50
180.0
 51
243.6122000388
  0
ARC
  5
355
100
AcDbEntity
  8
0
100
AcDbCircle
 62
7
  6
CONTINUOUS
 10
7.0515854037
 20
5.30876618
 40
0.009
100
AcDbArc
 50
116.3877999612
 51
180.0
  0
ARC
  5
356
100
AcDbEntity
  8
0
100
AcDbCircle
 62
7
  6
CONTINUOUS
 10
6.6904186348
 20
5.1963284377
 40
0.008
100
AcDbArc
 50
214.6234510997
 51
316.9739483152
  0
ARC
  5
357
100
AcDbEntity
  8
0
100
AcDbCircle
 62
7
  6
CONTINUOUS
 10
6.6904186348
 20
5.3763284377
 40
0.008
100
AcDbArc
 50
43.0260516849
 51
145.3765489003
  0
ARC
  5
358
100
AcDbEntity
  8
0
100
AcDbCircle
 62
7
  6
CONTINUOUS
 10
6.6758354037
 20
5.1958815736
 40
0.008
100
AcDbArc
 50
0.0
 51
125.0
  0
ARC
  5
359
100
AcDbEntity
  8
0
100
AcDbCircle
 62
7
  6
CONTINUOUS
 10
6.6758354037
 20
5.3767753019
 40
0.008
100
AcDbArc
 50
235.0
 51
360.0
  0
ARC
  5
35A
100
AcDbEntity
  8
0
100
AcDbCircle
 62
7
  6
CONTINUOUS
 10
7.0214444636
 20
5.3138284377
 40
0.003
100
AcDbArc
 50
0.0
 51
90.0
  0
ARC
  5
35B
100
AcDbEntity
  8
0
100
AcDbCircle
 62
7
  6
CONTINUOUS
 10
7.0214444636
 20
5.2563284377
 40
0.003
100
AcDbArc
 50
270.0
 51
360.0
  0
ARC
  5
35C
100
AcDbEntity
  8
0
100
AcDbCircle
 62
7
  6
CONTINUOUS
 10
7.1425854037
 20
4.6950784377
 40
0.1375
100
AcDbArc
 50
145.0
 51
35.0
  0
ARC
  5
35D
100
AcDbEntity
  8
0
100
AcDbCircle
 62
7
  6
CONTINUOUS
 10
7.3233354037
 20
4.9313904582
 40
0.125
100
AcDbArc
 50
134.3699285546
 51
226.9739483152
  0
ARC
  5
35E
100
AcDbEntity
  8
0
100
AcDbCircle
 62
7
  6
CONTINUOUS
 10
7.2250854037
 20
5.0318254497
 40
0.0155
100
AcDbArc
 50
314.3699285546
 51
332.8156715156
  0
ARC
  5
35F
100
AcDbEntity
  8
0
100
AcDbCircle
 62
7
  6
CONTINUOUS
 10
7.2330322679
 20
4.8195784377
 40
0.008
100
AcDbArc
 50
90.0
 51
215.0
  0
ARC
  5
360
100
AcDbEntity
  8
0
100
AcDbCircle
 62
7
  6
CONTINUOUS
 10
7.2325854037
 20
4.8341616688
 40
0.008
100
AcDbArc
 50
304.6234510997
 51
46.9739483152
  0
ARC
  5
361
100
AcDbEntity
  8
0
100
AcDbCircle
 62
7
  6
CONTINUOUS
 10
7.3970883918
 20
5.2038284377
 40
0.0155
100
AcDbArc
 50
297.1843350707
 51
315.6300714454
  0
ARC
  5
362
100
AcDbEntity
  8
0
100
AcDbCircle
 62
7
  6
CONTINUOUS
 10
7.1425854037
 20
5.2863284377
 40
0.47925
100
AcDbArc
 50
100.119304368
 51
107.5039851023
  0
ARC
  5
363
100
AcDbEntity
  8
0
100
AcDbCircle
 62
7
  6
CONTINUOUS
 10
7.1425854037
 20
5.2863284377
 40
0.47925
100
AcDbArc
 50
10.1192792545
 51
79.8810395472
  0
ARC
  5
364
100
AcDbEntity
  8
0
100
AcDbCircle
 62
7
  6
CONTINUOUS
 10
7.1425854037
 20
5.2863284377
 40
0.47925
100
AcDbArc
 50
156.8351925703
 51
169.8799470617
  0
ARC
  5
365
100
AcDbEntity
  8
0
100
AcDbCircle
 62
7
  6
CONTINUOUS
 10
7.1425854037
 20
5.2863284377
 40
0.47925
100
AcDbArc
 50
190.1192792545
 51
259.8810395472
  0
ARC
  5
366
100
AcDbEntity
  8
0
100
AcDbCircle
 62
7
  6
CONTINUOUS
 10
7.1425854037
 20
5.2863284377
 40
0.47925
100
AcDbArc
 50
280.119304368
 51
349.8799470617
  0
ARC
  5
367
100
AcDbEntity
  8
0
100
AcDbCircle
 62
7
  6
CONTINUOUS
 10
7.1425854037
 20
5.2863284377
 40
0.4646873857
100
AcDbArc
 50
102.1383997389
 51
106.6757228749
  0
ARC
  5
368
100
AcDbEntity
  8
0
100
AcDbCircle
 62
7
  6
CONTINUOUS
 10
7.1425854037
 20
5.2863284377
 40
0.4646873857
100
AcDbArc
 50
12.1383997389
 51
77.8605601279
  0
ARC
  5
369
100
AcDbEntity
  8
0
100
AcDbCircle
 62
7
  6
CONTINUOUS
 10
7.1425854037
 20
5.2863284377
 40
0.4646873857
100
AcDbArc
 50
157.6634547978
 51
167.8605601279
  0
ARC
  5
36A
100
AcDbEntity
  8
0
100
AcDbCircle
 62
7
  6
CONTINUOUS
 10
7.1425854037
 20
5.2863284377
 40
0.4646873857
100
AcDbArc
 50
192.1383997389
 51
257.8605601279
  0
ARC
  5
36B
100
AcDbEntity
  8
0
100
AcDbCircle
 62
7
  6
CONTINUOUS
 10
7.1425854037
 20
5.2863284377
 40
0.4646873857
100
AcDbArc
 50
282.1383997389
 51
347.8605601279
  0
ARC
  5
36C
100
AcDbEntity
  8
0
100
AcDbCircle
 62
7
  6
CONTINUOUS
 10
7.1425854037
 20
5.2863284377
 40
0.375
100
AcDbArc
 50
8.7038145733
 51
81.2962296565
  0
ARC
  5
36D
100
AcDbEntity
  8
0
100
AcDbCircle
 62
7
  6
CONTINUOUS
 10
7.1425854037
 20
5.2863284377
 40
0.375
100
AcDbArc
 50
278.7038160031
 51
351.2962040219
  0
ARC
  5
36E
100
AcDbEntity
  8
0
100
AcDbCircle
 62
7
  6
CONTINUOUS
 10
7.1425854037
 20
5.2863284377
 40
0.375
100
AcDbArc
 50
188.703805546
 51
261.2961880091
  0
ARC
  5
36F
100
AcDbEntity
  8
0
100
AcDbCircle
 62
7
  6
CONTINUOUS
 10
7.1425854037
 20
5.2863284377
 40
0.32
100
AcDbArc
 50
64.0251908807
 51
78.695579931
  0
ARC
  5
370
100
AcDbEntity
  8
0
100
AcDbCircle
 62
7
  6
CONTINUOUS
 10
7.1425854037
 20
5.2863284377
 40
0.32
100
AcDbArc
 50
124.0251908807
 51
140.313986792
  0
ARC
  5
371
100
AcDbEntity
  8
0
100
AcDbCircle
 62
7
  6
CONTINUOUS
 10
7.1425854037
 20
5.2863284377
 40
0.32
100
AcDbArc
 50
191.3040867665
 51
200.313986792
  0
ARC
  5
372
100
AcDbEntity
  8
0
100
AcDbCircle
 62
7
  6
CONTINUOUS
 10
7.1425854037
 20
5.2863284377
 40
0.32
100
AcDbArc
 50
244.0251908807
 51
258.695579931
  0
ARC
  5
373
100
AcDbEntity
  8
0
100
AcDbCircle
 62
7
  6
CONTINUOUS
 10
7.1425854037
 20
5.2863284377
 40
0.32
100
AcDbArc
 50
304.0251908807
 51
320.313986792
  0
ARC
  5
374
100
AcDbEntity
  8
0
100
AcDbCircle
 62
7
  6
CONTINUOUS
 10
7.1425854037
 20
5.2863284377
 40
0.32
100
AcDbArc
 50
11.3040867665
 51
20.313986792
  0
ARC
  5
375
100
AcDbEntity
  8
0
100
AcDbCircle
 62
7
  6
CONTINUOUS
 10
7.1425854037
 20
5.2863284377
 40
0.3124631454
100
AcDbArc
 50
102.1931454578
 51
106.4824201479
  0
ARC
  5
376
100
AcDbEntity
  8
0
100
AcDbCircle
 62
7
  6
CONTINUOUS
 10
7.1425854037
 20
5.2863284377
 40
0.3124631454
100
AcDbArc
 50
24.0805076236
 51
60.2685076159
  0
ARC
  5
377
100
AcDbEntity
  8
0
100
AcDbCircle
 62
7
  6
CONTINUOUS
 10
7.1425854037
 20
5.2863284377
 40
0.3124631454
100
AcDbArc
 50
324.0699601536
 51
347.8086266985
  0
ARC
  5
378
100
AcDbEntity
  8
0
100
AcDbCircle
 62
7
  6
CONTINUOUS
 10
7.1425854037
 20
5.2863284377
 40
0.3124631454
100
AcDbArc
 50
282.1932022319
 51
300.2689865393
  0
ARC
  5
379
100
AcDbEntity
  8
0
100
AcDbCircle
 62
7
  6
CONTINUOUS
 10
7.1425854037
 20
5.2863284377
 40
0.3124631454
100
AcDbArc
 50
204.0692902796
 51
240.2587939276
  0
ARC
  5
37A
100
AcDbEntity
  8
0
100
AcDbCircle
 62
7
  6
CONTINUOUS
 10
7.1425854037
 20
5.2863284377
 40
0.3124631454
100
AcDbArc
 50
157.9441453294
 51
167.8061956493
  0
ARC
  5
37B
100
AcDbEntity
  8
0
100
AcDbCircle
 62
7
  6
CONTINUOUS
 10
7.1425854037
 20
5.2863284377
 40
0.3101065748
100
AcDbArc
 50
12.5128139241
 51
25.4522035152
  0
ARC
  5
37C
100
AcDbEntity
  8
0
100
AcDbCircle
 62
7
  6
CONTINUOUS
 10
7.1425854037
 20
5.2863284377
 40
0.3101065748
100
AcDbArc
 50
298.8869741574
 51
325.4522035152
  0
ARC
  5
37D
100
AcDbEntity
  8
0
100
AcDbCircle
 62
7
  6
CONTINUOUS
 10
7.1425854037
 20
5.2863284377
 40
0.3101065748
100
AcDbArc
 50
238.8869741574
 51
257.4868299293
  0
ARC
  5
37E
100
AcDbEntity
  8
0
100
AcDbCircle
 62
7
  6
CONTINUOUS
 10
7.1425854037
 20
5.2863284377
 40
0.3101065748
100
AcDbArc
 50
192.5128139241
 51
205.4522035152
  0
ARC
  5
37F
100
AcDbEntity
  8
0
100
AcDbCircle
 62
7
  6
CONTINUOUS
 10
7.1425854037
 20
5.2863284377
 40
0.3101065748
100
AcDbArc
 50
118.8869741574
 51
145.4522035152
  0
ARC
  5
380
100
AcDbEntity
  8
0
100
AcDbCircle
 62
7
  6
CONTINUOUS
 10
7.1425854037
 20
5.2863284377
 40
0.3101065748
100
AcDbArc
 50
58.8869741574
 51
77.4868299293
  0
CIRCLE
  5
381
100
AcDbEntity
  8
0
100
AcDbCircle
 62
7
  6
CONTINUOUS
 10
7.1425854037
 20
5.2863284377
 40
0.27875
  0
CIRCLE
  5
382
100
AcDbEntity
  8
0
100
AcDbCircle
 62
7
  6
CONTINUOUS
 10
7.1425854037
 20
5.2863284377
 40
0.26375
  0
CIRCLE
  5
383
100
AcDbEntity
  8
0
100
AcDbCircle
 62
7
  6
CONTINUOUS
 10
7.1425854037
 20
5.2863284377
 40
0.2566170761
  0
CIRCLE
  5
384
100
AcDbEntity
  8
0
100
AcDbCircle
 62
7
  6
CONTINUOUS
 10
7.1425854037
 20
5.2863284377
 40
0.2272549781
  0
CIRCLE
  5
385
100
AcDbEntity
  8
0
100
AcDbCircle
 62
7
  6
CONTINUOUS
 10
7.1425854037
 20
5.2863284377
 40
0.2085229177
  0
CIRCLE
  5
386
100
AcDbEntity
  8
0
100
AcDbCircle
 62
7
  6
CONTINUOUS
 10
7.1425854037
 20
5.2863284377
 40
0.1975723283
  0
ARC
  5
387
100
AcDbEntity
  8
0
100
AcDbCircle
 62
7
  6
CONTINUOUS
 10
7.1643696806
 20
5.2863385565
 40
0.058215724
100
AcDbArc
 50
359.9900411225
 51
3.6011017141
  0
ARC
  5
388
100
AcDbEntity
  8
0
100
AcDbCircle
 62
7
  6
CONTINUOUS
 10
7.2009015826
 20
5.2863295687
 40
0.0568161789
100
AcDbArc
 50
180.0011404818
 51
181.1276002592
  0
ARC
  5
389
100
AcDbEntity
  8
0
100
AcDbCircle
 62
7
  6
CONTINUOUS
 10
7.2530854037
 20
5.2443284377
 40
0.003
100
AcDbArc
 50
72.3178031512
 51
180.0
  0
ARC
  5
38A
100
AcDbEntity
  8
0
100
AcDbCircle
 62
7
  6
CONTINUOUS
 10
7.2540854037
 20
5.2860181232
 40
0.0425
100
AcDbArc
 50
338.3999655658
 51
21.6000344342
  0
ARC
  5
38B
100
AcDbEntity
  8
0
100
AcDbCircle
 62
7
  6
CONTINUOUS
 10
7.2696830438
 20
5.2862162116
 40
0.0308038115
100
AcDbArc
 50
76.3709027892
 51
156.8459014309
  0
ARC
  5
38C
100
AcDbEntity
  8
0
100
AcDbCircle
 62
7
  6
CONTINUOUS
 10
7.2685208526
 20
5.2803027146
 40
0.0269742769
100
AcDbArc
 50
211.2636680057
 51
338.3999655658
  0
ARC
  5
38D
100
AcDbEntity
  8
0
100
AcDbCircle
 62
7
  6
CONTINUOUS
 10
7.2723727052
 20
5.3048284377
 40
0.0605
100
AcDbArc
 50
252.3178031512
 51
280.863388708
  0
ARC
  5
38E
100
AcDbEntity
  8
0
100
AcDbCircle
 62
7
  6
CONTINUOUS
 10
7.273938518
 20
5.2843963471
 40
0.0444320906
100
AcDbArc
 50
44.2338173193
 51
156.8459014309
  0
ARC
  5
38F
100
AcDbEntity
  8
0
100
AcDbCircle
 62
7
  6
CONTINUOUS
 10
7.2759229856
 20
5.2863284377
 40
0.0416624181
100
AcDbArc
 50
280.863388708
 51
44.2338173193
  0
ARC
  5
390
100
AcDbEntity
  8
0
100
AcDbCircle
 62
7
  6
CONTINUOUS
 10
7.275263323
 20
5.2843963471
 40
0.0348621622
100
AcDbArc
 50
195.9292215989
 51
211.2636680057
  0
ARC
  5
391
100
AcDbEntity
  8
0
100
AcDbCircle
 62
7
  6
CONTINUOUS
 10
7.2712862646
 20
5.2928284377
 40
0.024
100
AcDbArc
 50
21.6000344342
 51
76.3709027892
  0
ARC
  5
392
100
AcDbEntity
  8
0
100
AcDbCircle
 62
7
  6
CONTINUOUS
 10
7.3970883918
 20
5.3688284377
 40
0.0155
100
AcDbArc
 50
44.3699285546
 51
62.8157565419
  0
ARC
  5
393
100
AcDbEntity
  8
0
100
AcDbCircle
 62
7
  6
CONTINUOUS
 10
7.4975233832
 20
5.1055784377
 40
0.125
100
AcDbArc
 50
43.0260516848
 51
135.6300714454
  0
ARC
  5
394
100
AcDbEntity
  8
0
100
AcDbCircle
 62
7
  6
CONTINUOUS
 10
7.6093354037
 20
5.1958815736
 40
0.008
100
AcDbArc
 50
55.0
 51
180.0
  0
ARC
  5
395
100
AcDbEntity
  8
0
100
AcDbCircle
 62
7
  6
CONTINUOUS
 10
7.5947521727
 20
5.1963284377
 40
0.008
100
AcDbArc
 50
223.0260516848
 51
325.3765489003
  0
ARC
  5
396
100
AcDbEntity
  8
0
100
AcDbCircle
 62
7
  6
CONTINUOUS
 10
7.7338354037
 20
5.2863284377
 40
0.1375
100
AcDbArc
 50
235.0
 51
125.0
  0
ARC
  5
397
100
AcDbEntity
  8
0
100
AcDbCircle
 62
7
  6
CONTINUOUS
 10
7.6093354037
 20
5.3767753019
 40
0.008
100
AcDbArc
 50
180.0
 51
305.0
  0
ARC
  5
398
100
AcDbEntity
  8
0
100
AcDbCircle
 62
7
  6
CONTINUOUS
 10
7.5947521727
 20
5.3763284377
 40
0.008
100
AcDbArc
 50
34.6234510997
 51
136.9739483152
  0
ARC
  5
399
100
AcDbEntity
  8
0
100
AcDbCircle
 62
7
  6
CONTINUOUS
 10
7.1425854037
 20
5.8775784377
 40
0.1375
100
AcDbArc
 50
325.0
 51
215.0
  0
ARC
  5
39A
100
AcDbEntity
  8
0
100
AcDbCircle
 62
7
  6
CONTINUOUS
 10
7.3233354037
 20
5.6412664172
 40
0.125
100
AcDbArc
 50
133.0260516848
 51
225.6300714454
  0
ARC
  5
39B
100
AcDbEntity
  8
0
100
AcDbCircle
 62
7
  6
CONTINUOUS
 10
6.9618354037
 20
5.6412664172
 40
0.125
100
AcDbArc
 50
314.3699285546
 51
46.9739483152
  0
ARC
  5
39C
100
AcDbEntity
  8
0
100
AcDbCircle
 62
7
  6
CONTINUOUS
 10
7.4975233832
 20
5.4670784377
 40
0.125
100
AcDbArc
 50
224.3699285546
 51
316.9739483152
  0
ARC
  5
39D
100
AcDbEntity
  8
0
100
AcDbCircle
 62
7
  6
CONTINUOUS
 10
6.7876474242
 20
5.4670784377
 40
0.125
100
AcDbArc
 50
223.0260516848
 51
315.6300714454
  0
ARC
  5
39E
100
AcDbEntity
  8
0
100
AcDbCircle
 62
7
  6
CONTINUOUS
 10
7.0600854037
 20
5.5408314258
 40
0.0155
100
AcDbArc
 50
134.3699285546
 51
152.815753539
  0
ARC
  5
39F
100
AcDbEntity
  8
0
100
AcDbCircle
 62
7
  6
CONTINUOUS
 10
7.2250854037
 20
5.5408314258
 40
0.0155
100
AcDbArc
 50
27.1842500698
 51
45.6300714454
  0
ARC
  5
3A0
100
AcDbEntity
  8
0
100
AcDbCircle
 62
7
  6
CONTINUOUS
 10
7.2330322679
 20
5.7530784377
 40
0.008
100
AcDbArc
 50
145.0
 51
270.0
  0
ARC
  5
3A1
100
AcDbEntity
  8
0
100
AcDbCircle
 62
7
  6
CONTINUOUS
 10
7.0521385396
 20
5.7530784377
 40
0.008
100
AcDbArc
 50
270.0
 51
35.0
  0
ARC
  5
3A2
100
AcDbEntity
  8
0
100
AcDbCircle
 62
7
  6
CONTINUOUS
 10
7.2325854037
 20
5.7384952067
 40
0.008
100
AcDbArc
 50
313.0260516848
 51
55.3765489003
  0
ARC
  5
3A3
100
AcDbEntity
  8
0
100
AcDbCircle
 62
7
  6
CONTINUOUS
 10
7.0525854037
 20
5.7384952067
 40
0.008
100
AcDbArc
 50
124.6234510997
 51
226.9739483151
  0
SPLINE
  5
3A4
100
AcDbEntity
  8
0
100
AcDbSpline
 62
7
  6
CONTINUOUS
 70
0
 71
3
 72
11
 73
7
 74
0
 42
0.0000001
 43
0.0000001
 44
0.0000000001
 40
0.0
 40
0.0
 40
0.0
 40
0.0
 40
0.275397654
 40
0.5040070876
 40
0.7326682453
 40
1.0
 40
1.0
 40
1.0
 40
1.0
 10
7.2225854037
 20
5.2863284377
 30
0.0
 10
7.2225857724
 20
5.2744330638
 30
0.0
 10
7.2160396041
 20
5.2526632708
 30
0.0
 10
7.1834136669
 20
5.2401810244
 30
0.0
 10
7.1512701141
 20
5.2525399492
 30
0.0
 10
7.1443232646
 20
5.2736942401
 30
0.0
 10
7.1440964063
 20
5.2852114793
 30
0.0
  0
SPLINE
  5
3A5
100
AcDbEntity
  8
0
100
AcDbSpline
 62
7
  6
CONTINUOUS
 70
0
 71
3
 72
11
 73
7
 74
0
 42
0.0000001
 43
0.0000001
 44
0.0000000001
 40
0.0
 40
0.0
 40
0.0
 40
0.0
 40
0.2895273334
 40
0.4992134133
 40
0.7088994931
 40
1.0
 40
1.0
 40
1.0
 40
1.0
 10
3.1207354037
 20
5.2863284377
 30
0.0
 10
3.1207354037
 20
5.2779665565
 30
0.0
 10
3.1220426499
 20
5.2635487008
 30
0.0
 10
3.141772493
 20
5.2529353584
 30
0.0
 10
3.1612947835
 20
5.2635976545
 30
0.0
 10
3.1632354037
 20
5.2779725211
 30
0.0
 10
3.1632354037
 20
5.2863284377
 30
0.0
  0
SPLINE
  5
3A6
100
AcDbEntity
  8
0
100
AcDbSpline
 62
7
  6
CONTINUOUS
 70
0
 71
3
 72
11
 73
7
 74
0
 42
0.0000001
 43
0.0000001
 44
0.0000000001
 40
0.0
 40
0.0
 40
0.0
 40
0.0
 40
0.2911005069
 40
0.5007865867
 40
0.7104726666
 40
1.0
 40
1.0
 40
1.0
 40
1.0
 10
3.1632354037
 20
5.2863284377
 30
0.0
 10
3.1632354037
 20
5.2946843544
 30
0.0
 10
3.1612947835
 20
5.309059221
 30
0.0
 10
3.141772493
 20
5.3197215171
 30
0.0
 10
3.1220426499
 20
5.3091081746
 30
0.0
 10
3.1207354037
 20
5.294690319
 30
0.0
 10
3.1207354037
 20
5.2863284377
 30
0.0
  0
SPLINE
  5
3A7
100
AcDbEntity
  8
0
100
AcDbSpline
 62
7
  6
CONTINUOUS
 70
0
 71
3
 72
11
 73
7
 74
0
 42
0.0000001
 43
0.0000001
 44
0.0000000001
 40
0.0
 40
0.0
 40
0.0
 40
0.0
 40
0.2730385444
 40
0.4996896654
 40
0.7263920674
 40
1.0
 40
1.0
 40
1.0
 40
1.0
 10
3.1025854037
 20
5.2863284377
 30
0.0
 10
3.102585035
 20
5.2982238117
 30
0.0
 10
3.1091312033
 20
5.3199936046
 30
0.0
 10
3.1417571406
 20
5.332475851
 30
0.0
 10
3.1742839752
 20
5.3199695576
 30
0.0
 10
3.1810850026
 20
5.2982217667
 30
0.0
 10
3.1810854037
 20
5.2863284377
 30
0.0
  0
SPLINE
  5
3A8
100
AcDbEntity
  8
0
100
AcDbSpline
 62
7
  6
CONTINUOUS
 70
0
 71
3
 72
11
 73
7
 74
0
 42
0.0000001
 43
0.0000001
 44
0.0000000001
 40
0.0
 40
0.0
 40
0.0
 40
0.0
 40
0.2736088651
 40
0.5002793729
 40
0.726960525
 40
1.0
 40
1.0
 40
1.0
 40
1.0
 10
3.1810854037
 20
5.2863284377
 30
0.0
 10
3.1810858048
 20
5.2744351088
 30
0.0
 10
3.1742866882
 20
5.2526888308
 30
0.0
 10
3.141751925
 20
5.2401809906
 30
0.0
 10
3.1091337003
 20
5.2526619751
 30
0.0
 10
3.1025857724
 20
5.2744330638
 30
0.0
 10
3.1025854037
 20
5.2863284377
 30
0.0
  0
SPLINE
  5
3A9
100
AcDbEntity
  8
0
100
AcDbSpline
 62
7
  6
CONTINUOUS
 70
0
 71
3
 72
11
 73
7
 74
0
 42
0.0000001
 43
0.0000001
 44
0.0000000001
 40
0.0
 40
0.0
 40
0.0
 40
0.0
 40
0.2911005069
 40
0.5007865867
 40
0.7104726666
 40
1.0
 40
1.0
 40
1.0
 40
1.0
 10
7.1619354037
 20
5.2863284377
 30
0.0
 10
7.1619354037
 20
5.2779725211
 30
0.0
 10
7.163876024
 20
5.2635976545
 30
0.0
 10
7.1833983145
 20
5.2529353584
 30
0.0
 10
7.2031281576
 20
5.2635487008
 30
0.0
 10
7.2044354037
 20
5.2779665565
 30
0.0
 10
7.2044354037
 20
5.2863284377
 30
0.0
  0
SPLINE
  5
3AA
100
AcDbEntity
  8
0
100
AcDbSpline
 62
7
  6
CONTINUOUS
 70
0
 71
3
 72
11
 73
7
 74
0
 42
0.0000001
 43
0.0000001
 44
0.0000000001
 40
0.0
 40
0.0
 40
0.0
 40
0.0
 40
0.2895273334
 40
0.4992134133
 40
0.7088994931
 40
1.0
 40
1.0
 40
1.0
 40
1.0
 10
7.2044354037
 20
5.2863284377
 30
0.0
 10
7.2044354037
 20
5.294690319
 30
0.0
 10
7.2031281576
 20
5.3091081746
 30
0.0
 10
7.1833983145
 20
5.3197215171
 30
0.0
 10
7.163876024
 20
5.309059221
 30
0.0
 10
7.1619354037
 20
5.2946843544
 30
0.0
 10
7.1619354037
 20
5.2863284377
 30
0.0
  0
SPLINE
  5
3AB
100
AcDbEntity
  8
0
100
AcDbSpline
 62
7
  6
CONTINUOUS
 70
0
 71
3
 72
11
 73
7
 74
0
 42
0.0000001
 43
0.0000001
 44
0.0000000001
 40
0.0
 40
0.0
 40
0.0
 40
0.0
 40
0.2815157086
 40
0.514736619
 40
0.7479684814
 40
1.0
 40
1.0
 40
1.0
 40
1.0
 10
7.1440854037
 20
5.2863284377
 30
0.0
 10
7.1440850026
 20
5.2982217667
 30
0.0
 10
7.1508841193
 20
5.3199680447
 30
0.0
 10
7.1834188825
 20
5.3324758849
 30
0.0
 10
7.2147758888
 20
5.3204774909
 30
0.0
 10
7.2217987836
 20
5.3006294396
 30
0.0
 10
7.2224704589
 20
5.2899950693
 30
0.0
  0
SPLINE
  5
3AC
100
AcDbEntity
  8
0
100
AcDbSpline
 62
7
  6
CONTINUOUS
 70
0
 71
3
 72
15
 73
11
 74
0
 42
0.0000001
 43
0.0000001
 44
0.0000000001
 40
0.0
 40
0.0
 40
0.0
 40
0.0
 40
0.154269556
 40
0.3016553351
 40
0.4413901459
 40
0.5727311507
 40
0.6949467417
 40
0.8073350175
 40
0.9092274056
 40
1.0
 40
1.0
 40
1.0
 40
1.0
 10
3.432003008
 20
5.4041029255
 30
0.0
 10
3.4355142175
 20
5.4009783549
 30
0.0
 10
3.4423718702
 20
5.394859534
 30
0.0
 10
3.4523752813
 20
5.3858717998
 30
0.0
 10
3.4618224439
 20
5.377310348
 30
0.0
 10
3.4706589217
 20
5.3692172396
 30
0.0
 10
3.4788324641
 20
5.3616341959
 30
0.0
 10
3.4862933272
 20
5.3546025597
 30
0.0
 10
3.4929949801
 20
5.3481627271
 30
0.0
 10
3.4971780306
 20
5.344044316
 30
0.0
 10
3.4991324438
 20
5.342087598
 30
0.0
  0
SPLINE
  5
3AD
100
AcDbEntity
  8
0
100
AcDbSpline
 62
7
  6
CONTINUOUS
 70
0
 71
3
 72
15
 73
11
 74
0
 42
0.0000001
 43
0.0000001
 44
0.0000000001
 40
0.0
 40
0.0
 40
0.0
 40
0.0
 40
0.0915035689
 40
0.193887533
 40
0.306538745
 40
0.4288046337
 40
0.5600009707
 40
0.6994193509
 40
0.8463318644
 40
1.0
 40
1.0
 40
1.0
 40
1.0
 10
6.7866346862
 20
5.3420838325
 30
0.0
 10
6.7885892493
 20
5.3440344431
 30
0.0
 10
6.7927619555
 20
5.348136406
 30
0.0
 10
6.7994300242
 20
5.3545484288
 30
0.0
 10
6.806829257
 20
5.3615388318
 30
0.0
 10
6.8149145695
 20
5.3690686825
 30
0.0
 10
6.8236378582
 20
5.3770984204
 30
0.0
 10
6.8329485009
 20
5.385588072
 30
0.0
 10
6.8427939402
 20
5.3944975388
 30
0.0
 10
6.8495377558
 20
5.400563979
 30
0.0
 10
6.8529888645
 20
5.4036615605
 30
0.0
  0
SPLINE
  5
3AE
100
AcDbEntity
  8
0
100
AcDbSpline
 62
7
  6
CONTINUOUS
 70
0
 71
3
 72
32
 73
28
 74
0
 42
0.0000001
 43
0.0000001
 44
0.0000000001
 40
0.0
 40
0.0
 40
0.0
 40
0.0
 40
0.0070590455
 40
0.0109839475
 40
0.0152254934
 40
0.0198154404
 40
0.0247782154
 40
0.0358875361
 40
0.0486582678
 40
0.0631459791
 40
0.0793783669
 40
0.0973666313
 40
0.1171099203
 40
0.1385993359
 40
0.1618204976
 40
0.186754034
 40
0.2133778979
 40
0.2416668139
 40
0.3031277518
 40
0.3709059965
 40
0.4447520351
 40
0.5244047337
 40
0.6095934131
 40
0.7000394665
 40
0.7954531953
 40
0.8955448147
 40
1.0
 40
1.0
 40
1.0
 40
1.0
 10
6.7280896732
 20
5.4460241403
 30
0.0
 10
6.7282425048
 20
5.4458554061
 30
0.0
 10
6.7285221055
 20
5.4456294696
 30
0.0
 10
6.7289498274
 20
5.4453877928
 30
0.0
 10
6.7293265576
 20
5.4452207514
 30
0.0
 10
6.7297472093
 20
5.4450747434
 30
0.0
 10
6.7303911339
 20
5.4449014285
 30
0.0
 10
6.7313100166
 20
5.444744565
 30
0.0
 10
6.732544623
 20
5.4446463483
 30
0.0
 10
6.7339480945
 20
5.4446326578
 30
0.0
 10
6.7355179717
 20
5.4447042105
 30
0.0
 10
6.7372516848
 20
5.4448618654
 30
0.0
 10
6.7391462723
 20
5.4451063457
 30
0.0
 10
6.7411985838
 20
5.4454383258
 30
0.0
 10
6.7434052756
 20
5.4458584251
 30
0.0
 10
6.745762871
 20
5.4463672253
 30
0.0
 10
6.7482677643
 20
5.4469652359
 30
0.0
 10
6.7519005692
 20
5.4479087812
 30
0.0
 10
6.7567815773
 20
5.4493219372
 30
0.0
 10
6.7630143479
 20
5.4513373312
 30
0.0
 10
6.7697419427
 20
5.4537203739
 30
0.0
 10
6.776931153
 20
5.4564742388
 30
0.0
 10
6.7845479016
 20
5.4596020212
 30
0.0
 10
6.792556843
 20
5.4631068254
 30
0.0
 10
6.8009215838
 20
5.4669917991
 30
0.0
 10
6.8096038134
 20
5.4712601152
 30
0.0
 10
6.8154582803
 20
5.4743017267
 30
0.0
 10
6.8184302113
 20
5.4758879581
 30
0.0
  0
SPLINE
  5
3AF
100
AcDbEntity
  8
0
100
AcDbSpline
 62
7
  6
CONTINUOUS
 70
0
 71
3
 72
16
 73
12
 74
0
 42
0.0000001
 43
0.0000001
 44
0.0000000001
 40
0.0
 40
0.0
 40
0.0
 40
0.0
 40
0.0538888998
 40
0.1094556212
 40
0.225189061
 40
0.3464060796
 40
0.4721863089
 40
0.6015239458
 40
0.7333501516
 40
0.8665536064
 40
1.0
 40
1.0
 40
1.0
 40
1.0
 10
3.4320025913
 20
5.4041032786
 30
0.0
 10
3.4323107046
 20
5.4055049591
 30
0.0
 10
3.4329876254
 20
5.4083409602
 30
0.0
 10
3.4345723006
 20
5.4141258231
 30
0.0
 10
3.436985459
 20
5.4215381943
 30
0.0
 10
3.4404879617
 20
5.4305457147
 30
0.0
 10
3.4445998459
 20
5.4396904075
 30
0.0
 10
3.4492781553
 20
5.4488764507
 30
0.0
 10
3.4544742157
 20
5.4580078901
 30
0.0
 10
3.460133557
 20
5.4669888777
 30
0.0
 10
3.4641840817
 20
5.4728250743
 30
0.0
 10
3.4662752574
 20
5.4756985883
 30
0.0
  0
SPLINE
  5
3B0
100
AcDbEntity
  8
0
100
AcDbSpline
 62
7
  6
CONTINUOUS
 70
0
 71
3
 72
32
 73
28
 74
0
 42
0.0000001
 43
0.0000001
 44
0.0000000001
 40
0.0
 40
0.0
 40
0.0
 40
0.0
 40
0.1043306603
 40
0.2042958088
 40
0.2995676936
 40
0.3898653289
 40
0.4749039862
 40
0.5544076283
 40
0.628112038
 40
0.6957638795
 40
0.7571235539
 40
0.7853750178
 40
0.8119727861
 40
0.8368933649
 40
0.860115771
 40
0.8816228039
 40
0.9014007573
 40
0.9194423373
 40
0.9357496198
 40
0.9503355627
 40
0.9632321308
 40
0.9745001368
 40
0.9795563527
 40
0.984250054
 40
0.9886062904
 40
0.9926571124
 40
1.0
 40
1.0
 40
1.0
 40
1.0
 10
3.4662752574
 20
5.4756985883
 30
0.0
 10
3.4692335178
 20
5.4740806628
 30
0.0
 10
3.4750628165
 20
5.4709788031
 30
0.0
 10
3.4837125365
 20
5.4666279589
 30
0.0
 10
3.4920497443
 20
5.4626704191
 30
0.0
 10
3.500035431
 20
5.4591027644
 30
0.0
 10
3.5076330793
 20
5.4559214762
 30
0.0
 10
3.5148072447
 20
5.4531232796
 30
0.0
 10
3.5215238242
 20
5.4507048001
 30
0.0
 10
3.5277499241
 20
5.4486628969
 30
0.0
 10
3.5326288947
 20
5.4472349477
 30
0.0
 10
3.5362625964
 20
5.4462846839
 30
0.0
 10
3.5387699003
 20
5.4456840919
 30
0.0
 10
3.5411314037
 20
5.4451751244
 30
0.0
 10
3.5433435207
 20
5.4447572053
 30
0.0
 10
3.5454027277
 20
5.4444296019
 30
0.0
 10
3.5473056416
 20
5.4441915562
 30
0.0
 10
3.5490490796
 20
5.4440422825
 30
0.0
 10
3.5506300565
 20
5.443980962
 30
0.0
 10
3.5520460212
 20
5.4440067382
 30
0.0
 10
3.5532945409
 20
5.4441188638
 30
0.0
 10
3.5542255027
 20
5.4442892384
 30
0.0
 10
3.5548796015
 20
5.4444742156
 30
0.0
 10
3.5553087153
 20
5.4446293541
 30
0.0
 10
3.5556942518
 20
5.444806026
 30
0.0
 10
3.556134893
 20
5.4450614002
 30
0.0
 10
3.5564235178
 20
5.4452981302
 30
0.0
 10
3.5565828388
 20
5.4454740075
 30
0.0
  0
SPLINE
  5
3B1
100
AcDbEntity
  8
0
100
AcDbSpline
 62
7
  6
CONTINUOUS
 70
0
 71
3
 72
32
 73
28
 74
0
 42
0.0000001
 43
0.0000001
 44
0.0000000001
 40
0.0
 40
0.0
 40
0.0
 40
0.0
 40
0.0070591924
 40
0.0109840811
 40
0.0152255789
 40
0.0198154848
 40
0.0247782727
 40
0.0358877261
 40
0.0486584432
 40
0.0631461422
 40
0.0793788953
 40
0.0973669809
 40
0.1171103084
 40
0.138599884
 40
0.1618207781
 40
0.1867545967
 40
0.2133785694
 40
0.2416673536
 40
0.3031283443
 40
0.370906583
 40
0.4447524795
 40
0.5244050909
 40
0.6095943018
 40
0.700039332
 40
0.7954520426
 40
0.8955488383
 40
1.0
 40
1.0
 40
1.0
 40
1.0
 10
3.2606167301
 20
5.7145550553
 30
0.0
 10
3.2604639024
 20
5.7143863112
 30
0.0
 10
3.2602666565
 20
5.71408578
 30
0.0
 10
3.2600683387
 20
5.7136363065
 30
0.0
 10
3.259939266
 20
5.7132449423
 30
0.0
 10
3.2598354583
 20
5.7128119433
 30
0.0
 10
3.2597265083
 20
5.7121540591
 30
0.0
 10
3.2596610634
 20
5.7112241794
 30
0.0
 10
3.2596851019
 20
5.7099859033
 30
0.0
 10
3.2598098995
 20
5.708587913
 30
0.0
 10
3.2600359664
 20
5.7070327455
 30
0.0
 10
3.2603638519
 20
5.7053230287
 30
0.0
 10
3.2607940322
 20
5.7034617977
 30
0.0
 10
3.2613268508
 20
5.7014522486
 30
0.0
 10
3.2619625774
 20
5.6992977539
 30
0.0
 10
3.2627014239
 20
5.6970018319
 30
0.0
 10
3.2635435913
 20
5.69456813
 30
0.0
 10
3.2648408868
 20
5.6910461164
 30
0.0
 10
3.2667286157
 20
5.68632831
 30
0.0
 10
3.2693489822
 20
5.6803247377
 30
0.0
 10
3.2723840223
 20
5.6738650288
 30
0.0
 10
3.2758335605
 20
5.6669824896
 30
0.0
 10
3.2796974119
 20
5.6597114354
 30
0.0
 10
3.283975106
 20
5.6520873117
 30
0.0
 10
3.2886662531
 20
5.6441464736
 30
0.0
 10
3.2937701868
 20
5.6359276188
 30
0.0
 10
3.2973744665
 20
5.6304016949
 30
0.0
 10
3.2992460393
 20
5.6276008301
 30
0.0
  0
SPLINE
  5
3B2
100
AcDbEntity
  8
0
100
AcDbSpline
 62
7
  6
CONTINUOUS
 70
0
 71
3
 72
10
 73
6
 74
0
 42
0.0000001
 43
0.0000001
 44
0.0000000001
 40
0.0
 40
0.0
 40
0.0
 40
0.0
 40
0.2459045889
 40
0.4939621459
 40
1.0
 40
1.0
 40
1.0
 40
1.0
 10
7.0468930276
 20
5.5695077208
 30
0.0
 10
7.0476077524
 20
5.570790431
 30
0.0
 10
7.0489773681
 20
5.5734046986
 30
0.0
 10
7.051470596
 20
5.5788327248
 30
0.0
 10
7.0530267467
 20
5.5830690586
 30
0.0
 10
7.0539329301
 20
5.5859517321
 30
0.0
  0
SPLINE
  5
3B3
100
AcDbEntity
  8
0
100
AcDbSpline
 62
7
  6
CONTINUOUS
 70
0
 71
3
 72
31
 73
27
 74
0
 42
0.0000001
 43
0.0000001
 44
0.0000000001
 40
0.0
 40
0.0
 40
0.0
 40
0.0
 40
0.0662484862
 40
0.1324076117
 40
0.1983748244
 40
0.2640687392
 40
0.2967886511
 40
0.3294090128
 40
0.3943161874
 40
0.4587141719
 40
0.5225289904
 40
0.5856766241
 40
0.6169727864
 40
0.6480667499
 40
0.6789441284
 40
0.7095909504
 40
0.7399891577
 40
0.7701221909
 40
0.7999711885
 40
0.8295169942
 40
0.8587429505
 40
0.8876346059
 40
0.9161852253
 40
0.9444025014
 40
0.9723201963
 40
1.0
 40
1.0
 40
1.0
 40
1.0
 10
6.8904374877
 20
5.5647056307
 30
0.0
 10
6.8923180252
 20
5.5664089814
 30
0.0
 10
6.8961538205
 20
5.5697291741
 30
0.0
 10
6.902115498
 20
5.5744427877
 30
0.0
 10
6.9082564826
 20
5.5788839555
 30
0.0
 10
6.9135041572
 20
5.5823652022
 30
0.0
 10
6.9177613369
 20
5.5850230939
 30
0.0
 10
6.9220381476
 20
5.5875912476
 30
0.0
 10
6.9274293906
 20
5.5906583093
 30
0.0
 10
6.9339489806
 20
5.5941525568
 30
0.0
 10
6.9404699655
 20
5.5974984119
 30
0.0
 10
6.9458902342
 20
5.600211244
 30
0.0
 10
6.9501908656
 20
5.6023610778
 30
0.0
 10
6.9533822787
 20
5.6039657161
 30
0.0
 10
6.9565428121
 20
5.605576331
 30
0.0
 10
6.9596661018
 20
5.6072011448
 30
0.0
 10
6.9627439624
 20
5.6088510576
 30
0.0
 10
6.9657676223
 20
5.6105365849
 30
0.0
 10
6.9687264993
 20
5.6122699373
 30
0.0
 10
6.9716076815
 20
5.6140650569
 30
0.0
 10
6.9743961453
 20
5.6159365255
 30
0.0
 10
6.9770726927
 20
5.6179017821
 30
0.0
 10
6.9796143478
 20
5.6199789542
 30
0.0
 10
6.9819928413
 20
5.6221880437
 30
0.0
 10
6.9841723627
 20
5.6245495199
 30
0.0
 10
6.985469296
 20
5.6262437314
 30
0.0
 10
6.9860673137
 20
5.6271190814
 30
0.0
  0
SPLINE
  5
3B4
100
AcDbEntity
  8
0
100
AcDbSpline
 62
7
  6
CONTINUOUS
 70
0
 71
3
 72
10
 73
6
 74
0
 42
0.0000001
 43
0.0000001
 44
0.0000000001
 40
0.0
 40
0.0
 40
0.0
 40
0.0
 40
0.5060375169
 40
0.7540781404
 40
1.0
 40
1.0
 40
1.0
 40
1.0
 10
6.8529888645
 20
5.4036615605
 30
0.0
 10
6.8559538854
 20
5.4042747817
 30
0.0
 10
6.8603335987
 20
5.4054011242
 30
0.0
 10
6.8659930888
 20
5.4073486946
 30
0.0
 10
6.8687346972
 20
5.408457247
 30
0.0
 10
6.870083918
 20
5.4090443467
 30
0.0
  0
SPLINE
  5
3B5
100
AcDbEntity
  8
0
100
AcDbSpline
 62
7
  6
CONTINUOUS
 70
0
 71
3
 72
15
 73
11
 74
0
 42
0.0000001
 43
0.0000001
 44
0.0000000001
 40
0.0
 40
0.0
 40
0.0
 40
0.0
 40
0.1093224518
 40
0.2250053782
 40
0.346224097
 40
0.4720388551
 40
0.601427562
 40
0.7333058542
 40
0.8665447435
 40
1.0
 40
1.0
 40
1.0
 40
1.0
 10
6.8529889136
 20
5.4036616051
 30
0.0
 10
6.8523453381
 20
5.4065261592
 30
0.0
 10
6.8508107995
 20
5.4123760705
 30
0.0
 10
6.8479073742
 20
5.4212143309
 30
0.0
 10
6.8443618997
 20
5.4302922258
 30
0.0
 10
6.8402112607
 20
5.4395143972
 30
0.0
 10
6.8354986592
 20
5.4487844431
 30
0.0
 10
6.8302733165
 20
5.4580051475
 30
0.0
 10
6.8245900976
 20
5.4670796554
 30
0.0
 10
6.8205268972
 20
5.4729811622
 30
0.0
 10
6.8184302113
 20
5.4758879581
 30
0.0
  0
SPLINE
  5
3B6
100
AcDbEntity
  8
0
100
AcDbSpline
 62
7
  6
CONTINUOUS
 70
0
 71
3
 72
30
 73
26
 74
0
 42
0.0000001
 43
0.0000001
 44
0.0000000001
 40
0.0
 40
0.0
 40
0.0
 40
0.0
 40
0.0276807231
 40
0.0555913279
 40
0.0837969687
 40
0.1123337057
 40
0.141210465
 40
0.1704216811
 40
0.199953279
 40
0.2297892633
 40
0.2599104983
 40
0.2902985977
 40
0.3209369144
 40
0.3518076001
 40
0.3828967369
 40
0.4141898158
 40
0.4773367005
 40
0.5411571088
 40
0.6055662692
 40
0.6704887586
 40
0.7358457001
 40
0.8015598205
 40
0.8675481186
 40
0.9337292875
 40
1.0
 40
1.0
 40
1.0
 40
1.0
 10
6.8184302113
 20
5.4758879581
 30
0.0
 10
6.8193666246
 20
5.4763878451
 30
0.0
 10
6.8211933944
 20
5.477495139
 30
0.0
 10
6.8237777855
 20
5.4794107962
 30
0.0
 10
6.8262299729
 20
5.4815421521
 30
0.0
 10
6.8285669502
 20
5.4838508713
 30
0.0
 10
6.8308060638
 20
5.486306306
 30
0.0
 10
6.8329631364
 20
5.488883512
 30
0.0
 10
6.8350538101
 20
5.4915613362
 30
0.0
 10
6.8370910072
 20
5.4943233157
 30
0.0
 10
6.8390874524
 20
5.4971550141
 30
0.0
 10
6.8410540383
 20
5.5000447245
 30
0.0
 10
6.8430003959
 20
5.5029825654
 30
0.0
 10
6.844936366
 20
5.5059593407
 30
0.0
 10
6.8468693326
 20
5.5089679336
 30
0.0
 10
6.8494612705
 20
5.5130242712
 30
0.0
 10
6.8527297423
 20
5.518137862
 30
0.0
 10
6.8567398785
 20
5.5242844107
 30
0.0
 10
6.8608921851
 20
5.5304186014
 30
0.0
 10
6.8652248087
 20
5.5364997665
 30
0.0
 10
6.8697683191
 20
5.5424885081
 30
0.0
 10
6.8745473293
 20
5.548344523
 30
0.0
 10
6.8795794018
 20
5.554027441
 30
0.0
 10
6.8848658617
 20
5.5595043143
 30
0.0
 10
6.8885539624
 20
5.5629995712
 30
0.0
 10
6.8904374877
 20
5.5647056307
 30
0.0
  0
SPLINE
  5
3B7
100
AcDbEntity
  8
0
100
AcDbSpline
 62
7
  6
CONTINUOUS
 70
0
 71
3
 72
16
 73
12
 74
0
 42
0.0000001
 43
0.0000001
 44
0.0000000001
 40
0.0
 40
0.0
 40
0.0
 40
0.0
 40
0.0538914858
 40
0.1094565225
 40
0.2251887594
 40
0.3464062488
 40
0.4721863793
 40
0.6015238601
 40
0.733350617
 40
0.8665525197
 40
1.0
 40
1.0
 40
1.0
 40
1.0
 10
7.0539328382
 20
5.5859514413
 30
0.0
 10
7.0525683197
 20
5.586396333
 30
0.0
 10
7.0498128898
 20
5.5873496805
 30
0.0
 10
7.0442125706
 20
5.5894972762
 30
0.0
 10
7.0370744428
 20
5.5926297967
 30
0.0
 10
7.0284563494
 20
5.5970036958
 30
0.0
 10
7.0197618471
 20
5.6019975661
 30
0.0
 10
7.0110820547
 20
5.6075591605
 30
0.0
 10
7.0025077151
 20
5.6136305919
 30
0.0
 10
6.9941287441
 20
5.6201481962
 30
0.0
 10
6.9887205637
 20
5.6247546431
 30
0.0
 10
6.9860673137
 20
5.6271190814
 30
0.0
  0
SPLINE
  5
3B8
100
AcDbEntity
  8
0
100
AcDbSpline
 62
7
  6
CONTINUOUS
 70
0
 71
3
 72
32
 73
28
 74
0
 42
0.0000001
 43
0.0000001
 44
0.0000000001
 40
0.0
 40
0.0
 40
0.0
 40
0.0
 40
0.1043346254
 40
0.204294589
 40
0.2995675149
 40
0.389866109
 40
0.4749042599
 40
0.5544079906
 40
0.6281125286
 40
0.695764411
 40
0.7571239971
 40
0.7853755383
 40
0.8119732191
 40
0.8368936118
 40
0.8601161711
 40
0.8816230715
 40
0.9014012644
 40
0.9194431039
 40
0.9357498043
 40
0.9503356238
 40
0.9632321994
 40
0.9745001465
 40
0.979556389
 40
0.9842501563
 40
0.9886064511
 40
0.9926572847
 40
1.0
 40
1.0
 40
1.0
 40
1.0
 10
6.9860673137
 20
5.6271190814
 30
0.0
 10
6.9879692221
 20
5.6299034299
 30
0.0
 10
6.9916309362
 20
5.6353982998
 30
0.0
 10
6.9968137322
 20
5.6435766872
 30
0.0
 10
7.0015743215
 20
5.6514827639
 30
0.0
 10
7.0059123002
 20
5.6590776408
 30
0.0
 10
7.0098274841
 20
5.666324466
 30
0.0
 10
7.0133197242
 20
5.6731876048
 30
0.0
 10
7.0163889194
 20
5.6796328863
 30
0.0
 10
7.0190349918
 20
5.6856272195
 30
0.0
 10
7.0209372267
 20
5.6903415491
 30
0.0
 10
7.0222412996
 20
5.6938637871
 30
0.0
 10
7.0230862848
 20
5.6962996139
 30
0.0
 10
7.0238257004
 20
5.6985993947
 30
0.0
 10
7.0244598054
 20
5.7007594885
 30
0.0
 10
7.0249889115
 20
5.702776353
 30
0.0
 10
7.0254134495
 20
5.7046465295
 30
0.0
 10
7.0257339528
 20
5.7063667402
 30
0.0
 10
7.0259509495
 20
5.7079339394
 30
0.0
 10
7.0260650052
 20
5.7093455161
 30
0.0
 10
7.0260765794
 20
5.7105990027
 30
0.0
 10
7.025998844
 20
5.7115422276
 30
0.0
 10
7.0258792823
 20
5.7122113823
 30
0.0
 10
7.025767231
 20
5.7126537118
 30
0.0
 10
7.0256294552
 20
5.7130548015
 30
0.0
 10
7.0254188006
 20
5.7135184847
 30
0.0
 10
7.0252116849
 20
5.7138290429
 30
0.0
 10
7.0250523737
 20
5.7140049215
 30
0.0
  0
SPLINE
  5
3B9
100
AcDbEntity
  8
0
100
AcDbSpline
 62
7
  6
CONTINUOUS
 70
0
 71
3
 72
34
 73
30
 74
0
 42
0.0000001
 43
0.0000001
 44
0.0000000001
 40
0.0
 40
0.0
 40
0.0
 40
0.0
 40
0.0150461596
 40
0.0303617919
 40
0.0462001266
 40
0.0627858016
 40
0.0803080219
 40
0.0989191928
 40
0.1187371626
 40
0.1398489402
 40
0.16231512
 40
0.1861741946
 40
0.2114459641
 40
0.2381344684
 40
0.2662306421
 40
0.2957141354
 40
0.3265547401
 40
0.3587139152
 40
0.3921457682
 40
0.4267977232
 40
0.4626114754
 40
0.4995236205
 40
0.5374660063
 40
0.5763663765
 40
0.6567301928
 40
0.7399748943
 40
0.825415074
 40
0.9123344487
 40
1.0
 40
1.0
 40
1.0
 40
1.0
 10
5.3300854037
 20
3.4601455061
 30
0.0
 10
5.3300854037
 20
3.461197088
 30
0.0
 10
5.3299315489
 20
3.4633221335
 30
0.0
 10
5.3292428139
 20
3.466486835
 30
0.0
 10
5.3280994852
 20
3.46963142
 30
0.0
 10
5.3265070222
 20
3.4727467793
 30
0.0
 10
5.3244715641
 20
3.4758262229
 30
0.0
 10
5.3219994785
 20
3.4788634261
 30
0.0
 10
5.3190974029
 20
3.4818523169
 30
0.0
 10
5.3157725454
 20
3.4847867825
 30
0.0
 10
5.3120328405
 20
3.4876606172
 30
0.0
 10
5.3078870478
 20
3.4904674845
 30
0.0
 10
5.3033448784
 20
3.4932010374
 30
0.0
 10
5.2984170175
 20
3.4958549933
 30
0.0
 10
5.2931150783
 20
3.4984231246
 30
0.0
 10
5.2874516119
 20
3.5008993411
 30
0.0
 10
5.2814400921
 20
3.5032777685
 30
0.0
 10
5.2750948449
 20
3.505552707
 30
0.0
 10
5.2684310218
 20
3.5077186719
 30
0.0
 10
5.26146458
 20
3.5097704706
 30
0.0
 10
5.2542122135
 20
3.5117031602
 30
0.0
 10
5.2466913211
 20
3.5135120468
 30
0.0
 10
5.2389199377
 20
3.5151928098
 30
0.0
 10
5.2281320546
 20
3.5172800759
 30
0.0
 10
5.2141543019
 20
3.5195296096
 30
0.0
 10
5.1968720856
 20
3.5216346658
 30
0.0
 10
5.1790686465
 20
3.5231530817
 30
0.0
 10
5.160915198
 20
3.5240701257
 30
0.0
 10
5.1487123824
 20
3.524274283
 30
0.0
 10
5.1425854037
 20
3.524274283
 30
0.0
  0
SPLINE
  5
3BA
100
AcDbEntity
  8
0
100
AcDbSpline
 62
7
  6
CONTINUOUS
 70
0
 71
3
 72
34
 73
30
 74
0
 42
0.0000001
 43
0.0000001
 44
0.0000000001
 40
0.0
 40
0.0
 40
0.0
 40
0.0
 40
0.0150461596
 40
0.0303617919
 40
0.0462001266
 40
0.0627858016
 40
0.0803080219
 40
0.0989191928
 40
0.1187371626
 40
0.1398489402
 40
0.16231512
 40
0.1861741946
 40
0.2114459641
 40
0.2381344684
 40
0.2662306421
 40
0.2957141354
 40
0.3265547401
 40
0.3587139152
 40
0.3921457682
 40
0.4267977232
 40
0.4626114754
 40
0.4995236205
 40
0.5374660063
 40
0.5763663765
 40
0.6567301928
 40
0.7399748943
 40
0.825415074
 40
0.9123344487
 40
1.0
 40
1.0
 40
1.0
 40
1.0
 10
5.3300854037
 20
4.499620327
 30
0.0
 10
5.3300854037
 20
4.5006719088
 30
0.0
 10
5.3299315489
 20
4.5027969544
 30
0.0
 10
5.3292428139
 20
4.5059616559
 30
0.0
 10
5.3280994852
 20
4.5091062408
 30
0.0
 10
5.3265070222
 20
4.5122216002
 30
0.0
 10
5.3244715641
 20
4.5153010438
 30
0.0
 10
5.3219994785
 20
4.518338247
 30
0.0
 10
5.3190974029
 20
4.5213271377
 30
0.0
 10
5.3157725454
 20
4.5242616033
 30
0.0
 10
5.3120328405
 20
4.527135438
 30
0.0
 10
5.3078870478
 20
4.5299423054
 30
0.0
 10
5.3033448784
 20
4.5326758582
 30
0.0
 10
5.2984170175
 20
4.5353298142
 30
0.0
 10
5.2931150783
 20
4.5378979454
 30
0.0
 10
5.2874516119
 20
4.540374162
 30
0.0
 10
5.2814400921
 20
4.5427525894
 30
0.0
 10
5.2750948449
 20
4.5450275278
 30
0.0
 10
5.2684310218
 20
4.5471934927
 30
0.0
 10
5.26146458
 20
4.5492452915
 30
0.0
 10
5.2542122135
 20
4.5511779811
 30
0.0
 10
5.2466913211
 20
4.5529868676
 30
0.0
 10
5.2389199377
 20
4.5546676306
 30
0.0
 10
5.2281320546
 20
4.5567548967
 30
0.0
 10
5.2141543019
 20
4.5590044305
 30
0.0
 10
5.1968720856
 20
4.5611094866
 30
0.0
 10
5.1790686465
 20
4.5626279025
 30
0.0
 10
5.160915198
 20
4.5635449465
 30
0.0
 10
5.1487123824
 20
4.5637491039
 30
0.0
 10
5.1425854037
 20
4.5637491039
 30
0.0
  0
SPLINE
  5
3BB
100
AcDbEntity
  8
0
100
AcDbSpline
 62
7
  6
CONTINUOUS
 70
0
 71
3
 72
10
 73
6
 74
0
 42
0.0000001
 43
0.0000001
 44
0.0000000001
 40
0.0
 40
0.0
 40
0.0
 40
0.0
 40
0.2458947534
 40
0.4939556526
 40
1.0
 40
1.0
 40
1.0
 40
1.0
 10
3.4149433267
 20
5.4094866851
 30
0.0
 10
3.4162903259
 20
5.4089019761
 30
0.0
 10
3.4190271527
 20
5.4077969754
 30
0.0
 10
3.4246754009
 20
5.4058523718
 30
0.0
 10
3.4290446543
 20
5.4047206841
 30
0.0
 10
3.4320028898
 20
5.4041032159
 30
0.0
  0
SPLINE
  5
3BC
100
AcDbEntity
  8
0
100
AcDbSpline
 62
7
  6
CONTINUOUS
 70
0
 71
3
 72
34
 73
30
 74
0
 42
0.0000001
 43
0.0000001
 44
0.0000000001
 40
0.0
 40
0.0
 40
0.0
 40
0.0
 40
0.0662467347
 40
0.1324137574
 40
0.1654305808
 40
0.1983883189
 40
0.2312767177
 40
0.2640849986
 40
0.2968050534
 40
0.3294279066
 40
0.3619423044
 40
0.3943362561
 40
0.4587308921
 40
0.522541034
 40
0.5542009649
 40
0.585683464
 40
0.6480687167
 40
0.6789435153
 40
0.709588162
 40
0.7701129862
 40
0.7999614239
 40
0.8295056824
 40
0.8587319754
 40
0.8732217618
 40
0.8876257199
 40
0.9161762542
 40
0.944395112
 40
0.9723201696
 40
1.0
 40
1.0
 40
1.0
 40
1.0
 10
3.3947333197
 20
5.5647056307
 30
0.0
 10
3.3966138242
 20
5.5630023126
 30
0.0
 10
3.4002959929
 20
5.5595121891
 30
0.0
 10
3.4046986858
 20
5.5549528951
 30
0.0
 10
3.4080949512
 20
5.5512002474
 30
0.0
 10
3.4105770544
 20
5.548340465
 30
0.0
 10
3.4129958562
 20
5.5454373711
 30
0.0
 10
3.4153516121
 20
5.5424945641
 30
0.0
 10
3.4176468139
 20
5.5395171622
 30
0.0
 10
3.4198843656
 20
5.5365102509
 30
0.0
 10
3.422067201
 20
5.5334787912
 30
0.0
 10
3.4249029476
 20
5.5294186094
 30
0.0
 10
3.4283295893
 20
5.5243099303
 30
0.0
 10
3.4316481127
 20
5.5191642385
 30
0.0
 10
3.434252796
 20
5.5150584767
 30
0.0
 10
3.4368177901
 20
5.5109921876
 30
0.0
 10
3.4393638182
 20
5.506949464
 30
0.0
 10
3.441925083
 20
5.5029543923
 30
0.0
 10
3.4444809499
 20
5.499040795
 30
0.0
 10
3.4470863944
 20
5.4952061852
 30
0.0
 10
3.4497871974
 20
5.4914908503
 30
0.0
 10
3.451857789
 20
5.488800886
 30
0.0
 10
3.4536441522
 20
5.486636179
 30
0.0
 10
3.4551146737
 20
5.4849648263
 30
0.0
 10
3.4566067524
 20
5.4833477644
 30
0.0
 10
3.4585325648
 20
5.4814163556
 30
0.0
 10
3.4609657324
 20
5.4792671079
 30
0.0
 10
3.4635311551
 20
5.4773311657
 30
0.0
 10
3.4653451797
 20
5.4762073503
 30
0.0
 10
3.4662752574
 20
5.4756985883
 30
0.0
  0
SPLINE
  5
3BD
100
AcDbEntity
  8
0
100
AcDbSpline
 62
7
  6
CONTINUOUS
 70
0
 71
3
 72
10
 73
6
 74
0
 42
0.0000001
 43
0.0000001
 44
0.0000000001
 40
0.0
 40
0.0
 40
0.0
 40
0.0
 40
0.5060435688
 40
0.7540868723
 40
1.0
 40
1.0
 40
1.0
 40
1.0
 10
3.2307807141
 20
5.5860863475
 30
0.0
 10
3.2316834112
 20
5.583196278
 30
0.0
 10
3.2332371582
 20
5.5789493954
 30
0.0
 10
3.2357321948
 20
5.5735091307
 30
0.0
 10
3.2371056203
 20
5.5708902304
 30
0.0
 10
3.2378228798
 20
5.5696055475
 30
0.0
  0
LINE
  5
3BE
100
AcDbEntity
  8
0
100
AcDbLine
 62
7
  6
CONTINUOUS
 10
5.3619358756
 20
5.8228991396
 11
5.3499482903
 21
5.8229929217
  0
SPLINE
  5
3BF
100
AcDbEntity
  8
0
100
AcDbSpline
 62
7
  6
CONTINUOUS
 70
0
 71
3
 72
17
 73
13
 74
0
 42
0.0000001
 43
0.0000001
 44
0.0000000001
 40
0.0
 40
0.0
 40
0.0
 40
0.0
 40
0.0538176265
 40
0.1093329713
 40
0.1664355241
 40
0.2250262128
 40
0.3462414306
 40
0.4720529111
 40
0.6014382105
 40
0.7333126004
 40
0.8665495206
 40
1.0
 40
1.0
 40
1.0
 40
1.0
 10
3.2307807634
 20
5.586086303
 30
0.0
 10
3.2321528449
 20
5.5865406878
 30
0.0
 10
3.2349242318
 20
5.5875129273
 30
0.0
 10
3.2390926081
 20
5.5891287351
 30
0.0
 10
3.2433276565
 20
5.590921327
 30
0.0
 10
3.2491132858
 20
5.5935705134
 30
0.0
 10
3.2564306256
 20
5.5972981435
 30
0.0
 10
3.2651983102
 20
5.6023381178
 30
0.0
 10
3.2739583205
 20
5.6079421485
 30
0.0
 10
3.2826186608
 20
5.6140515343
 30
0.0
 10
3.2910883146
 20
5.6206021586
 30
0.0
 10
3.2965602595
 20
5.6252276665
 30
0.0
 10
3.2992460393
 20
5.6276008301
 30
0.0
  0
SPLINE
  5
3C0
100
AcDbEntity
  8
0
100
AcDbSpline
 62
7
  6
CONTINUOUS
 70
0
 71
3
 72
35
 73
31
 74
0
 42
0.0000001
 43
0.0000001
 44
0.0000000001
 40
0.0
 40
0.0
 40
0.0
 40
0.0
 40
0.0276806926
 40
0.0555986436
 40
0.0838058015
 40
0.1123422473
 40
0.1267388377
 40
0.1412211669
 40
0.1557872195
 40
0.1704337753
 40
0.1999638281
 40
0.229799038
 40
0.2903017806
 40
0.3209377633
 40
0.351805758
 40
0.3828923385
 40
0.4141829719
 40
0.477324412
 40
0.5091531214
 40
0.5411399616
 40
0.6055450975
 40
0.6704675738
 40
0.7358262109
 40
0.7686443262
 40
0.8015430761
 40
0.8345112673
 40
0.8675385106
 40
0.9006159567
 40
0.9337310125
 40
1.0
 40
1.0
 40
1.0
 40
1.0
 10
3.2992460393
 20
5.6276008301
 30
0.0
 10
3.2998358622
 20
5.6267182823
 30
0.0
 10
3.3011182913
 20
5.6250095271
 30
0.0
 10
3.3032795425
 20
5.6226261982
 30
0.0
 10
3.3056426896
 20
5.6203960174
 30
0.0
 10
3.3077432754
 20
5.6186528791
 30
0.0
 10
3.3094912677
 20
5.6173138508
 30
0.0
 10
3.3108376544
 20
5.6163323177
 30
0.0
 10
3.3122124255
 20
5.6153741654
 30
0.0
 10
3.3140845974
 20
5.6141211812
 30
0.0
 10
3.3164835942
 20
5.6126035719
 30
0.0
 10
3.3204346119
 20
5.6102535075
 30
0.0
 10
3.3244962304
 20
5.6080097406
 30
0.0
 10
3.3286323841
 20
5.605822867
 30
0.0
 10
3.3317853786
 20
5.6041900203
 30
0.0
 10
3.3349697556
 20
5.6025633989
 30
0.0
 10
3.339261743
 20
5.6003845079
 30
0.0
 10
3.3435786049
 20
5.5981916903
 30
0.0
 10
3.3479041381
 20
5.5959572194
 30
0.0
 10
3.3522574175
 20
5.5936711377
 30
0.0
 10
3.3576976464
 20
5.5907254252
 30
0.0
 10
3.364176635
 20
5.5870140708
 30
0.0
 10
3.3695091975
 20
5.5837431843
 30
0.0
 10
3.3737226771
 20
5.5810018874
 30
0.0
 10
3.3768549324
 20
5.5788776568
 30
0.0
 10
3.3799509101
 20
5.5766869595
 30
0.0
 10
3.38300646
 20
5.5744286409
 30
0.0
 10
3.3860170806
 20
5.5721014496
 30
0.0
 10
3.3899666677
 20
5.5689067353
 30
0.0
 10
3.3928498169
 20
5.5664116622
 30
0.0
 10
3.3947333197
 20
5.5647056307
 30
0.0
  0
LINE
  5
3C1
100
AcDbEntity
  8
0
100
AcDbLine
 62
7
  6
CONTINUOUS
 10
5.3499482903
 20
5.8229929217
 11
5.1425854037
 21
5.8230428498
  0
LINE
  5
3C2
100
AcDbEntity
  8
0
100
AcDbLine
 62
7
  6
CONTINUOUS
 10
5.1425854037
 20
5.8230428498
 11
4.934895355
 21
5.8229912088
  0
LINE
  5
3C3
100
AcDbEntity
  8
0
100
AcDbLine
 62
7
  6
CONTINUOUS
 10
4.934895355
 20
5.8229912088
 11
4.9232349063
 21
5.8228991554
  0
SPLINE
  5
3C4
100
AcDbEntity
  8
0
100
AcDbSpline
 62
7
  6
CONTINUOUS
 70
0
 71
3
 72
34
 73
30
 74
0
 42
0.0000001
 43
0.0000001
 44
0.0000000001
 40
0.0
 40
0.0
 40
0.0
 40
0.0
 40
0.0876655513
 40
0.174584926
 40
0.2600251057
 40
0.3432698072
 40
0.4236336235
 40
0.4625339937
 40
0.5004763795
 40
0.5373885246
 40
0.5732022768
 40
0.6078542318
 40
0.6412860848
 40
0.6734452599
 40
0.7042858646
 40
0.7337693579
 40
0.7618655316
 40
0.7885540359
 40
0.8138258054
 40
0.83768488
 40
0.8601510598
 40
0.8812628374
 40
0.9010808072
 40
0.9196919781
 40
0.9372141984
 40
0.9537998734
 40
0.9696382081
 40
0.9849538404
 40
1.0
 40
1.0
 40
1.0
 40
1.0
 10
5.1425854037
 20
4.5637491039
 30
0.0
 10
5.136458425
 20
4.5637491039
 30
0.0
 10
5.1242556095
 20
4.5635449465
 30
0.0
 10
5.1061021609
 20
4.5626279025
 30
0.0
 10
5.0882987219
 20
4.5611094866
 30
0.0
 10
5.0710165056
 20
4.5590044305
 30
0.0
 10
5.0570387529
 20
4.5567548967
 30
0.0
 10
5.0462508698
 20
4.5546676306
 30
0.0
 10
5.0384794863
 20
4.5529868676
 30
0.0
 10
5.030958594
 20
4.5511779811
 30
0.0
 10
5.0237062274
 20
4.5492452915
 30
0.0
 10
5.0167397857
 20
4.5471934927
 30
0.0
 10
5.0100759626
 20
4.5450275278
 30
0.0
 10
5.0037307154
 20
4.5427525894
 30
0.0
 10
4.9977191956
 20
4.540374162
 30
0.0
 10
4.9920557292
 20
4.5378979454
 30
0.0
 10
4.98675379
 20
4.5353298142
 30
0.0
 10
4.981825929
 20
4.5326758582
 30
0.0
 10
4.9772837597
 20
4.5299423054
 30
0.0
 10
4.973137967
 20
4.527135438
 30
0.0
 10
4.969398262
 20
4.5242616033
 30
0.0
 10
4.9660734045
 20
4.5213271377
 30
0.0
 10
4.963171329
 20
4.518338247
 30
0.0
 10
4.9606992433
 20
4.5153010438
 30
0.0
 10
4.9586637852
 20
4.5122216002
 30
0.0
 10
4.9570713222
 20
4.5091062408
 30
0.0
 10
4.9559279935
 20
4.5059616559
 30
0.0
 10
4.9552392586
 20
4.5027969544
 30
0.0
 10
4.9550854037
 20
4.5006719088
 30
0.0
 10
4.9550854037
 20
4.499620327
 30
0.0
  0
SPLINE
  5
3C5
100
AcDbEntity
  8
0
100
AcDbSpline
 62
7
  6
CONTINUOUS
 70
0
 71
3
 72
34
 73
30
 74
0
 42
0.0000001
 43
0.0000001
 44
0.0000000001
 40
0.0
 40
0.0
 40
0.0
 40
0.0
 40
0.0876655513
 40
0.174584926
 40
0.2600251057
 40
0.3432698072
 40
0.4236336235
 40
0.4625339937
 40
0.5004763795
 40
0.5373885246
 40
0.5732022768
 40
0.6078542318
 40
0.6412860848
 40
0.6734452599
 40
0.7042858646
 40
0.7337693579
 40
0.7618655316
 40
0.7885540359
 40
0.8138258054
 40
0.83768488
 40
0.8601510598
 40
0.8812628374
 40
0.9010808072
 40
0.9196919781
 40
0.9372141984
 40
0.9537998734
 40
0.9696382081
 40
0.9849538404
 40
1.0
 40
1.0
 40
1.0
 40
1.0
 10
5.1425854037
 20
3.524274283
 30
0.0
 10
5.136458425
 20
3.524274283
 30
0.0
 10
5.1242556095
 20
3.5240701257
 30
0.0
 10
5.1061021609
 20
3.5231530817
 30
0.0
 10
5.0882987219
 20
3.5216346658
 30
0.0
 10
5.0710165056
 20
3.5195296096
 30
0.0
 10
5.0570387529
 20
3.5172800759
 30
0.0
 10
5.0462508698
 20
3.5151928098
 30
0.0
 10
5.0384794863
 20
3.5135120468
 30
0.0
 10
5.030958594
 20
3.5117031602
 30
0.0
 10
5.0237062274
 20
3.5097704706
 30
0.0
 10
5.0167397857
 20
3.5077186719
 30
0.0
 10
5.0100759626
 20
3.505552707
 30
0.0
 10
5.0037307154
 20
3.5032777685
 30
0.0
 10
4.9977191956
 20
3.5008993411
 30
0.0
 10
4.9920557292
 20
3.4984231246
 30
0.0
 10
4.98675379
 20
3.4958549933
 30
0.0
 10
4.981825929
 20
3.4932010374
 30
0.0
 10
4.9772837597
 20
3.4904674845
 30
0.0
 10
4.973137967
 20
3.4876606172
 30
0.0
 10
4.969398262
 20
3.4847867825
 30
0.0
 10
4.9660734045
 20
3.4818523169
 30
0.0
 10
4.963171329
 20
3.4788634261
 30
0.0
 10
4.9606992433
 20
3.4758262229
 30
0.0
 10
4.9586637852
 20
3.4727467793
 30
0.0
 10
4.9570713222
 20
3.46963142
 30
0.0
 10
4.9559279935
 20
3.466486835
 30
0.0
 10
4.9552392586
 20
3.4633221335
 30
0.0
 10
4.9550854037
 20
3.461197088
 30
0.0
 10
4.9550854037
 20
3.4601455061
 30
0.0
  0
ENDSEC
  0
SECTION
  2
OBJECTS
  0
DICTIONARY
  5
C
100
AcDbDictionary
280
0
281
1
  3
ACAD_GROUP
350
D
  3
ACAD_MLINESTYLE
350
17
  3
ACAD_LAYOUT
350
1A
  3
ACAD_PLOTSETTINGS
350
19
  3
ACAD_PLOTSTYLENAME
350
E
  0
DICTIONARY
  5
D
102
{ACAD_REACTORS
330
C
102
}
100
AcDbDictionary
280
0
281
1
  0
ACDBDICTIONARYWDFLT
  5
E
102
{ACAD_REACTORS
330
C
102
}
100
AcDbDictionary
281
1
  3
Normal
350
F
100
AcDbDictionaryWithDefault
340
F
  0
DICTIONARY
  5
17
102
{ACAD_REACTORS
330
C
102
}
100
AcDbDictionary
280
0
281
1
  3
Standard
350
18
  0
DICTIONARY
  5
19
102
{ACAD_REACTORS
330
C
102
}
100
AcDbDictionary
281
1
  0
DICTIONARY
  5
1A
102
{ACAD_REACTORS
330
C
102
}
100
AcDbDictionary
281
1
  3
Model
350
3C6
  3
Layout1
350
3C7
  0
ACDBPLACEHOLDER
  5
F
102
{ACAD_REACTORS
330
E
102
}
  0
MLINESTYLE
  5
18
102
{ACAD_REACTORS
330
17
102
}
100
AcDbMlineStyle
  2
STANDARD
 70
0
  3

 62
256
 51
90.0
 52
90.0
 71
2
 49
0.5
 62
256
  6
BYLAYER
 49
-0.5
 62
256
  6
BYLAYER
  0
LAYOUT
  5
3C6
102
{ACAD_REACTORS
330
1A
102
}
100
AcDbPlotSettings
  1

  2
none_device
  4
ANSI_A_(11.00_x_8.50_Inches)
  6

 40
0.0
 41
0.0
 42
0.0
 43
0.0
 44
279.4
 45
215.9
 46
0.0
 47
0.0
 48
0.0
 49
0.0
140
0.0
141
0.0
142
1.0
143
1.0
 70
1024
 72
0
 73
0
 74
0
  7

 75
0
147
1.0
148
0.0
149
0.0
100
AcDbLayout
  1
Model
 70
0
 71
0
 10
0.0
 20
0.0
 11
11.0
 21
8.5
 12
0.0
 22
0.0
 32
0.0
 14
0.0
 24
0.0
 34
0.0
 15
0.0
 25
0.0
 35
0.0
146
0.0
 13
0.0
 23
0.0
 33
0.0
 16
1.0
 26
0.0
 36
0.0
 17
0.0
 27
1.0
 37
0.0
 76
0
330
202
345
0
346
0
  0
LAYOUT
  5
3C7
102
{ACAD_REACTORS
330
1A
102
}
100
AcDbPlotSettings
  1

  2
none_device
  4
ANSI_A_(11.00_x_8.50_Inches)
  6

 40
0.0
 41
0.0
 42
0.0
 43
0.0
 44
279.4
 45
215.9
 46
0.0
 47
0.0
 48
0.0
 49
0.0
140
0.0
141
0.0
142
1.0
143
1.0
 70
0
 72
0
 73
0
 74
0
  7

 75
0
147
1.0
148
0.0
149
0.0
100
AcDbLayout
  1
Layout1
 70
0
 71
1
 10
0.0
 20
0.0
 11
11.0
 21
8.5
 12
0.0
 22
0.0
 32
0.0
 14
0.0
 24
0.0
 34
0.0
 15
0.0
 25
0.0
 35
0.0
146
0.0
 13
0.0
 23
0.0
 33
0.0
 16
1.0
 26
0.0
 36
0.0
 17
0.0
 27
1.0
 37
0.0
 76
0
330
203
345
0
346
0
  0
ENDSEC
  0
EOF
