999
DXF file: E:\BT Custom\CADOUTPUT\_FRONT.dxf
999
Pro/ENGINEER 2018400 by Parametric Technology Corporation
  0
SECTION
  2
HEADER
  9
$ACADVER
  1
AC1018
  9
$DWGCODEPAGE
  3
ANSI_1252
  9
$EXTMAX
 10
22.0
 20
17.0
 30
0.0
  9
$EXTMIN
 10
0.0
 20
0.0
 30
0.0
  9
$LIMMIN
 10
0.0
 20
0.0
  9
$LIMMAX
 10
22.0
 20
17.0
  9
$VIEWCTR
 10
11.0
 20
8.5
  9
$VIEWSIZE
 40
17.0
  9
$CLAYER
  8
0
  9
$LTSCALE
 40
1.21
  9
$CELTYPE
  6
BYLAYER
  9
$DIMSCALE
 40
1.0
  9
$DIMASZ
 40
0.1
  9
$DIMEXO
 40
0.0625
  9
$DIMDLI
 40
0.836
  9
$DIMEXE
 40
0.125
  9
$DIMCEN
 40
0.198
  9
$DIMLFAC
 40
1.0
  9
$DIMBLK
  1
_FILLED
  9
$DIMALT
 70
1
  9
$DIMALTD
 70
2
  9
$DIMALTTD
 70
2
  9
$DIMALTF
 40
25.4
  9
$DIMTXT
 40
0.08
  9
$DIMTOL
 70
1
  9
$DIMLIM
 70
0
  9
$DIMTFAC
 40
1.0
  9
$DIMTP
 40
0.001
  9
$DIMTM
 40
0.001
  9
$DIMGAP
 40
0.09
  9
$DIMDSEP
 70
46
  9
$AUNITS
 70
0
  9
$PDMODE
 70
3
  9
$PDSIZE
 40
0.06
  9
$HANDSEED
  5
38F
  9
$TILEMODE
 70
1
  9
$MEASUREMENT
 70
0
  9
$INSUNITS
 70
1
  0
ENDSEC
  0
SECTION
  2
CLASSES
  0
CLASS
  1
ACDBDICTIONARYWDFLT
  2
AcDbDictionaryWithDefault
  3
AutoCAD 2000
 90
0
 91
1
280
0
281
0
  0
CLASS
  1
ACDBPLACEHOLDER
  2
AcDbPlaceHolder
  3
AutoCAD 2000
 90
0
 91
1
280
0
281
0
  0
CLASS
  1
LAYOUT
  2
AcDbLayout
  3
AutoCAD 2000
 90
0
 91
0
280
0
281
0
  0
ENDSEC
  0
SECTION
  2
TABLES
  0
TABLE
  2
VPORT
  5
8
100
AcDbSymbolTable
 70
2
  0
VPORT
  5
1F4
100
AcDbSymbolTableRecord
100
AcDbViewportTableRecord
  2
*ACTIVE
 70
0
 10
0.0
 20
0.0
 11
1.0
 21
1.0
 12
11.0
 22
8.5
 13
0.0
 23
0.0
 14
1.0
 24
1.0
 15
0.0
 25
0.0
 16
0.0
 26
0.0
 36
1.0
 17
0.0
 27
0.0
 37
0.0
 40
17.0
 41
1.2941176471
 42
50.0
 43
0.0
 44
0.0
 50
0.0
 51
0.0
 71
0
 72
100
 73
1
 74
1
 75
0
 76
0
 77
0
 78
0
  0
ENDTAB
  0
TABLE
  2
LTYPE
  5
5
100
AcDbSymbolTable
 70
6
  0
LTYPE
  5
14
100
AcDbSymbolTableRecord
100
AcDbLinetypeTableRecord
  2
BYBLOCK
 70
0
  3

 72
65
 73
0
 40
0.0
  0
LTYPE
  5
15
100
AcDbSymbolTableRecord
100
AcDbLinetypeTableRecord
  2
BYLAYER
 70
0
  3

 72
65
 73
0
 40
0.0
  0
LTYPE
  5
16
100
AcDbSymbolTableRecord
100
AcDbLinetypeTableRecord
  2
CONTINUOUS
 70
64
  3
Solid line
 72
65
 73
0
 40
0.0
  0
LTYPE
  5
1F5
100
AcDbSymbolTableRecord
100
AcDbLinetypeTableRecord
  2
CENTER
 70
64
  3
____ _ ____ _ ____ _ ____ _ ____ _ ____ _ ____
 72
65
 73
4
 40
0.6
 49
0.375
 74
0
 49
-0.075
 74
0
 49
0.075
 74
0
 49
-0.075
 74
0
  0
LTYPE
  5
1F6
100
AcDbSymbolTableRecord
100
AcDbLinetypeTableRecord
  2
HIDDEN
 70
64
  3
- - - - - - - - - - - - - - - - - - - -
 72
65
 73
2
 40
0.2
 49
0.1
 74
0
 49
-0.1
 74
0
  0
LTYPE
  5
1F7
100
AcDbSymbolTableRecord
100
AcDbLinetypeTableRecord
  2
PHANTOM
 70
64
  3
_____ _ _ _____ _ _ _____ _ _ _____
 72
65
 73
6
 40
0.8
 49
0.45
 74
0
 49
-0.05
 74
0
 49
0.1
 74
0
 49
-0.05
 74
0
 49
0.1
 74
0
 49
-0.05
 74
0
  0
LTYPE
  5
1F8
100
AcDbSymbolTableRecord
100
AcDbLinetypeTableRecord
  2
DOT
 70
64
  3
. . . . . . . . . . . . . . . . . . . .
 72
65
 73
2
 40
0.2
 49
0.1
 74
0
 49
-0.1
 74
0
  0
LTYPE
  5
1F9
100
AcDbSymbolTableRecord
100
AcDbLinetypeTableRecord
  2
DASHED
 70
64
  3
- - - - - - - - - - - - - - - - - - - -
 72
65
 73
2
 40
0.2
 49
0.1
 74
0
 49
-0.1
 74
0
  0
ENDTAB
  0
TABLE
  2
LAYER
  5
2
100
AcDbSymbolTable
 70
36
  0
LAYER
  5
10
100
AcDbSymbolTableRecord
100
AcDbLayerTableRecord
  2
0
 70
0
 62
7
  6
CONTINUOUS
370
-3
390
F
  0
LAYER
  5
1FA
100
AcDbSymbolTableRecord
100
AcDbLayerTableRecord
  2
DEFAULT_1
 70
0
 62
7
  6
CENTER
370
-3
390
F
  0
LAYER
  5
1FB
100
AcDbSymbolTableRecord
100
AcDbLayerTableRecord
  2
DEFAULT_2
 70
0
 62
8
  6
HIDDEN
370
-3
390
F
  0
LAYER
  5
1FC
100
AcDbSymbolTableRecord
100
AcDbLayerTableRecord
  2
DEFAULT_3
 70
0
 62
7
  6
PHANTOM
370
-3
390
F
  0
LAYER
  5
1FD
100
AcDbSymbolTableRecord
100
AcDbLayerTableRecord
  2
ALL_FEATURES
 70
0
 62
7
  6
CONTINUOUS
370
-3
390
F
  0
LAYER
  5
1FE
100
AcDbSymbolTableRecord
100
AcDbLayerTableRecord
  2
AXES_FEATURES
 70
0
 62
7
  6
CONTINUOUS
370
-3
390
F
  0
LAYER
  5
1FF
100
AcDbSymbolTableRecord
100
AcDbLayerTableRecord
  2
DIMENSIONS
 70
0
 62
7
  6
CONTINUOUS
370
-3
390
F
  0
ENDTAB
  0
TABLE
  2
STYLE
  5
3
100
AcDbSymbolTable
 70
1
  0
STYLE
  5
11
100
AcDbSymbolTableRecord
100
AcDbTextStyleTableRecord
  2
STANDARD
 70
0
 40
0.0
 41
0.8
 50
0.0
 71
0
 42
0.2
  3
txt
  4

  0
STYLE
  5
200
100
AcDbSymbolTableRecord
100
AcDbTextStyleTableRecord
  2
TEXTSTYLE_1
 70
0
 40
0.0
 41
0.8
 50
0.0
 71
0
 42
0.2
  3
gdt
  4

  0
ENDTAB
  0
TABLE
  2
VIEW
  5
6
100
AcDbSymbolTable
 70
0
  0
ENDTAB
  0
TABLE
  2
UCS
  5
7
100
AcDbSymbolTable
 70
0
  0
ENDTAB
  0
TABLE
  2
APPID
  5
9
100
AcDbSymbolTable
 70
1
  0
APPID
  5
201
100
AcDbSymbolTableRecord
100
AcDbRegAppTableRecord
  2
ACAD
 70
0
  0
ENDTAB
  0
TABLE
  2
BLOCK_RECORD
  5
1
100
AcDbSymbolTable
 70
0
  0
BLOCK_RECORD
  5
202
100
AcDbSymbolTableRecord
100
AcDbBlockTableRecord
  2
*Model_Space
  0
BLOCK_RECORD
  5
203
100
AcDbSymbolTableRecord
100
AcDbBlockTableRecord
  2
*Paper_Space
  0
BLOCK_RECORD
  5
204
100
AcDbSymbolTableRecord
100
AcDbBlockTableRecord
  2
_FILLED
  0
ENDTAB
  0
TABLE
  2
DIMSTYLE
  5
A
100
AcDbSymbolTable
 70
1
100
AcDbDimStyleTable
 71
0
  0
DIMSTYLE
105
205
100
AcDbSymbolTableRecord
100
AcDbDimStyleTableRecord
  2
STANDARD
 70
0
  3

  4

 40
1.0
 41
0.1
 42
0.0625
 43
0.38
 44
0.125
 45
0.0
 46
0.0
 47
0.001
 48
0.001
140
0.08
141
0.09
142
0.0
143
25.4
144
1.0
145
0.0
146
1.0
147
0.09
 71
1.0
 72
0.0
 73
1
 74
1
 75
0
 76
0
 77
0
 78
4
 79
1
170
1
171
2
172
0
173
0
174
0
175
0
176
0
177
0
178
0
270
2
179
3
271
3
272
3
273
2
274
2
275
0
280
0
281
0
282
0
283
1
284
4
285
0
286
0
287
3
288
0
340
11
278
46
341
204
342
204
343
204
344
204
  0
ENDTAB
  0
ENDSEC
  0
SECTION
  2
BLOCKS
  0
BLOCK
  5
20
100
AcDbEntity
  8
0
100
AcDbBlockBegin
  2
*Model_Space
 70
0
 10
0.0
 20
0.0
 30
0.0
  3
*Model_Space
  1

  0
ENDBLK
  5
21
100
AcDbEntity
  8
0
100
AcDbBlockEnd
  0
BLOCK
  5
1C
100
AcDbEntity
  8
0
100
AcDbBlockBegin
  2
*Paper_Space
 70
0
 10
0.0
 20
0.0
 30
0.0
  3
*Paper_Space
  1

  0
ENDBLK
  5
1D
100
AcDbEntity
  8
0
100
AcDbBlockEnd
  0
BLOCK
  5
206
100
AcDbEntity
  8
0
100
AcDbBlockBegin
  2
_FILLED
 70
64
 10
0.0
 20
0.0
  3
_FILLED
  1

  0
SOLID
  5
207
100
AcDbEntity
  8
0
  6
BYBLOCK
 62
0
100
AcDbTrace
 10
0.0
 20
0.0
 11
-1.0
 21
0.2
 12
-1.0
 22
-0.2
 13
-1.0
 23
-0.2
  0
ENDBLK
  5
208
100
AcDbEntity
  8
0
  6
BYBLOCK
 62
0
100
AcDbBlockEnd
  0
ENDSEC
  0
SECTION
  2
ENTITIES
  0
LINE
  5
209
100
AcDbEntity
  8
0
100
AcDbLine
 62
7
  6
CONTINUOUS
 10
3.9726923427
 20
8.8604189453
 11
3.9726923427
 21
8.3854189453
  0
LINE
  5
20A
100
AcDbEntity
  8
0
100
AcDbLine
 62
9
  6
CONTINUOUS
 10
4.1027501782
 20
8.406722417
 11
4.1027501782
 21
8.8391154737
  0
LINE
  5
20B
100
AcDbEntity
  8
0
100
AcDbLine
 62
7
  6
CONTINUOUS
 10
4.2956923427
 20
8.8414189453
 11
4.2956923427
 21
8.4044189453
  0
LINE
  5
20C
100
AcDbEntity
  8
0
100
AcDbLine
 62
9
  6
CONTINUOUS
 10
4.6394520876
 20
9.0171682537
 11
4.6394520876
 21
8.2286696369
  0
LINE
  5
20D
100
AcDbEntity
  8
0
100
AcDbLine
 62
9
  6
CONTINUOUS
 10
5.6942882597
 20
8.4337090181
 11
5.6942882597
 21
8.8121288725
  0
LINE
  5
20E
100
AcDbEntity
  8
0
100
AcDbLine
 62
7
  6
CONTINUOUS
 10
6.1796320909
 20
6.9398624887
 11
6.1796314393
 21
6.6899189453
  0
LINE
  5
20F
100
AcDbEntity
  8
0
100
AcDbLine
 62
7
  6
CONTINUOUS
 10
6.1966923427
 20
6.6899189453
 11
6.1966923427
 21
6.6279189453
  0
LINE
  5
210
100
AcDbEntity
  8
0
100
AcDbLine
 62
7
  6
CONTINUOUS
 10
6.4876923427
 20
8.8729189453
 11
6.4876923427
 21
8.3729189453
  0
LINE
  5
211
100
AcDbEntity
  8
0
100
AcDbLine
 62
7
  6
CONTINUOUS
 10
6.5326923427
 20
8.3729189453
 11
6.5326923427
 21
8.8729189453
  0
LINE
  5
212
100
AcDbEntity
  8
0
100
AcDbLine
 62
7
  6
CONTINUOUS
 10
6.5576923427
 20
8.3978404174
 11
6.5576923427
 21
8.8479189453
  0
LINE
  5
213
100
AcDbEntity
  8
0
100
AcDbLine
 62
7
  6
CONTINUOUS
 10
6.5586611396
 20
6.939864164
 11
6.558661891
 21
6.6899189453
  0
LINE
  5
214
100
AcDbEntity
  8
0
100
AcDbLine
 62
7
  6
CONTINUOUS
 10
6.5851923427
 20
7.9899189453
 11
6.5851923427
 21
7.9399189453
  0
LINE
  5
215
100
AcDbEntity
  8
0
100
AcDbLine
 62
7
  6
CONTINUOUS
 10
6.6071923427
 20
8.9729189453
 11
6.6071923427
 21
8.9019189453
  0
LINE
  5
216
100
AcDbEntity
  8
0
100
AcDbLine
 62
7
  6
CONTINUOUS
 10
6.6656923427
 20
9.0439189453
 11
6.6656923427
 21
9.0199189453
  0
LINE
  5
217
100
AcDbEntity
  8
0
100
AcDbLine
 62
7
  6
CONTINUOUS
 10
7.2096923427
 20
9.0439189453
 11
7.2096923427
 21
9.0199189453
  0
LINE
  5
218
100
AcDbEntity
  8
0
100
AcDbLine
 62
7
  6
CONTINUOUS
 10
7.2681923427
 20
8.9729189453
 11
7.2681923427
 21
8.9019189453
  0
LINE
  5
219
100
AcDbEntity
  8
0
100
AcDbLine
 62
7
  6
CONTINUOUS
 10
7.2901923427
 20
7.9899189453
 11
7.2901923427
 21
7.9399189453
  0
LINE
  5
21A
100
AcDbEntity
  8
0
100
AcDbLine
 62
7
  6
CONTINUOUS
 10
7.3167216946
 20
6.9398641641
 11
7.3167227945
 21
6.6899189453
  0
LINE
  5
21B
100
AcDbEntity
  8
0
100
AcDbLine
 62
7
  6
CONTINUOUS
 10
7.2309237874
 20
8.1394484523
 11
7.2311268028
 21
8.1436183801
  0
LINE
  5
21C
100
AcDbEntity
  8
0
100
AcDbLine
 62
7
  6
CONTINUOUS
 10
7.1555026539
 20
8.1571916744
 11
7.1574929353
 21
8.1740463412
  0
LINE
  5
21D
100
AcDbEntity
  8
0
100
AcDbLine
 62
7
  6
CONTINUOUS
 10
7.5788557824
 20
7.0564189453
 11
7.6957488268
 21
6.939862624
  0
LINE
  5
21E
100
AcDbEntity
  8
0
100
AcDbLine
 62
7
  6
CONTINUOUS
 10
6.5576923427
 20
8.397858468
 11
6.5612350698
 21
8.3932107262
  0
LINE
  5
21F
100
AcDbEntity
  8
0
100
AcDbLine
 62
7
  6
CONTINUOUS
 10
7.1937471871
 20
8.1905417333
 11
7.1892864898
 21
8.1968501119
  0
LINE
  5
220
100
AcDbEntity
  8
0
100
AcDbLine
 62
7
  6
CONTINUOUS
 10
7.4781923427
 20
7.6055353841
 11
7.5523263369
 21
7.4996177569
  0
LINE
  5
221
100
AcDbEntity
  8
0
100
AcDbLine
 62
7
  6
CONTINUOUS
 10
7.1594911828
 20
8.1165852251
 11
7.1619344259
 21
8.1081215827
  0
LINE
  5
222
100
AcDbEntity
  8
0
100
AcDbLine
 62
7
  6
CONTINUOUS
 10
7.1989433395
 20
8.1399189453
 11
7.1873963342
 21
8.1799189453
  0
LINE
  5
223
100
AcDbEntity
  8
0
100
AcDbLine
 62
7
  6
CONTINUOUS
 10
7.6786923427
 20
6.6899189453
 11
7.6786923427
 21
6.6279189453
  0
LINE
  5
224
100
AcDbEntity
  8
0
100
AcDbLine
 62
7
  6
CONTINUOUS
 10
7.6957524105
 20
6.939863704
 11
7.6957532462
 21
6.6899189453
  0
LINE
  5
225
100
AcDbEntity
  8
0
100
AcDbLine
 62
7
  6
CONTINUOUS
 10
7.1643023234
 20
8.1799189453
 11
7.1553843203
 21
8.1490260763
  0
LINE
  5
226
100
AcDbEntity
  8
0
100
AcDbLine
 62
7
  6
CONTINUOUS
 10
7.1873963342
 20
8.0999189453
 11
7.1989433395
 21
8.1399189453
  0
LINE
  5
227
100
AcDbEntity
  8
0
100
AcDbLine
 62
7
  6
CONTINUOUS
 10
6.5576923427
 20
8.8479189453
 11
6.5326923427
 21
8.8729189453
  0
LINE
  5
228
100
AcDbEntity
  8
0
100
AcDbLine
 62
7
  6
CONTINUOUS
 10
6.3971923427
 20
7.6055353841
 11
6.3230583485
 21
7.4996177569
  0
LINE
  5
229
100
AcDbEntity
  8
0
100
AcDbLine
 62
7
  6
CONTINUOUS
 10
6.7676923427
 20
9.1099189453
 11
6.7576923427
 21
9.0999189453
  0
LINE
  5
22A
100
AcDbEntity
  8
0
100
AcDbLine
 62
7
  6
CONTINUOUS
 10
5.7576923427
 20
6.2529189453
 11
8.1176923427
 21
6.2529189453
  0
LINE
  5
22B
100
AcDbEntity
  8
0
100
AcDbLine
 62
7
  6
CONTINUOUS
 10
9.7826923427
 20
6.2529189453
 11
12.0926923427
 21
6.2529189453
  0
LINE
  5
22C
100
AcDbEntity
  8
0
100
AcDbLine
 62
7
  6
CONTINUOUS
 10
13.7576923427
 20
6.2529189453
 11
16.1176923427
 21
6.2529189453
  0
LINE
  5
22D
100
AcDbEntity
  8
0
100
AcDbLine
 62
7
  6
CONTINUOUS
 10
9.7626923427
 20
6.2729189453
 11
12.1126923427
 21
6.2729189453
  0
LINE
  5
22E
100
AcDbEntity
  8
0
100
AcDbLine
 62
9
  6
CONTINUOUS
 10
12.1126923427
 20
6.3579189453
 11
9.7626923427
 21
6.3579189453
  0
LINE
  5
22F
100
AcDbEntity
  8
0
100
AcDbLine
 62
7
  6
CONTINUOUS
 10
12.0826923427
 20
6.3879189453
 11
9.7926923427
 21
6.3879189453
  0
LINE
  5
230
100
AcDbEntity
  8
0
100
AcDbLine
 62
7
  6
CONTINUOUS
 10
5.9376923427
 20
6.4399189453
 11
7.9376923427
 21
6.4399189453
  0
LINE
  5
231
100
AcDbEntity
  8
0
100
AcDbLine
 62
7
  6
CONTINUOUS
 10
13.9376923427
 20
6.4399189453
 11
15.9376923427
 21
6.4399189453
  0
LINE
  5
232
100
AcDbEntity
  8
0
100
AcDbLine
 62
7
  6
CONTINUOUS
 10
15.7506950166
 20
6.6279189453
 11
14.1246896689
 21
6.6279189453
  0
LINE
  5
233
100
AcDbEntity
  8
0
100
AcDbLine
 62
7
  6
CONTINUOUS
 10
11.8076923427
 20
6.6279189453
 11
10.0676923427
 21
6.6279189453
  0
LINE
  5
234
100
AcDbEntity
  8
0
100
AcDbLine
 62
7
  6
CONTINUOUS
 10
7.7506950166
 20
6.6279189453
 11
6.1246896689
 21
6.6279189453
  0
LINE
  5
235
100
AcDbEntity
  8
0
100
AcDbLine
 62
7
  6
CONTINUOUS
 10
6.1796314393
 20
6.6899189453
 11
6.1966923427
 21
6.6899189453
  0
LINE
  5
236
100
AcDbEntity
  8
0
100
AcDbLine
 62
7
  6
CONTINUOUS
 10
6.1992451276
 20
6.6899189453
 11
7.6761458868
 21
6.6899189453
  0
LINE
  5
237
100
AcDbEntity
  8
0
100
AcDbLine
 62
7
  6
CONTINUOUS
 10
7.6786923427
 20
6.6899189453
 11
7.6957532462
 21
6.6899189453
  0
LINE
  5
238
100
AcDbEntity
  8
0
100
AcDbLine
 62
7
  6
CONTINUOUS
 10
14.1796314393
 20
6.6899189453
 11
14.1966923427
 21
6.6899189453
  0
LINE
  5
239
100
AcDbEntity
  8
0
100
AcDbLine
 62
7
  6
CONTINUOUS
 10
14.1992451276
 20
6.6899189453
 11
15.6761458868
 21
6.6899189453
  0
LINE
  5
23A
100
AcDbEntity
  8
0
100
AcDbLine
 62
7
  6
CONTINUOUS
 10
15.6786923427
 20
6.6899189453
 11
15.6957532462
 21
6.6899189453
  0
LINE
  5
23B
100
AcDbEntity
  8
0
100
AcDbLine
 62
7
  6
CONTINUOUS
 10
9.7826923427
 20
6.2529189453
 11
9.7626923427
 21
6.2729189453
  0
LINE
  5
23C
100
AcDbEntity
  8
0
100
AcDbLine
 62
7
  6
CONTINUOUS
 10
7.1076923427
 20
9.1099189453
 11
7.1176923427
 21
9.0999189453
  0
LINE
  5
23D
100
AcDbEntity
  8
0
100
AcDbLine
 62
7
  6
CONTINUOUS
 10
6.5576923427
 20
8.3979189453
 11
6.5326923427
 21
8.3729189453
  0
LINE
  5
23E
100
AcDbEntity
  8
0
100
AcDbLine
 62
7
  6
CONTINUOUS
 10
11.4686923427
 20
6.9629189453
 11
10.4066923427
 21
6.9629189453
  0
LINE
  5
23F
100
AcDbEntity
  8
0
100
AcDbLine
 62
9
  6
CONTINUOUS
 10
15.5788557824
 20
7.0564189453
 11
14.2965289031
 21
7.0564189453
  0
LINE
  5
240
100
AcDbEntity
  8
0
100
AcDbLine
 62
9
  6
CONTINUOUS
 10
7.5788557824
 20
7.0564189453
 11
6.2965289031
 21
7.0564189453
  0
LINE
  5
241
100
AcDbEntity
  8
0
100
AcDbLine
 62
7
  6
CONTINUOUS
 10
10.4846923427
 20
7.0903769312
 11
11.3906923427
 21
7.0903769312
  0
LINE
  5
242
100
AcDbEntity
  8
0
100
AcDbLine
 62
7
  6
CONTINUOUS
 10
6.2965289031
 20
7.0564189453
 11
6.179634882
 21
6.9398616501
  0
LINE
  5
243
100
AcDbEntity
  8
0
100
AcDbLine
 62
9
  6
CONTINUOUS
 10
6.3191923427
 20
7.2714189453
 11
7.5561923427
 21
7.2714189453
  0
LINE
  5
244
100
AcDbEntity
  8
0
100
AcDbLine
 62
9
  6
CONTINUOUS
 10
14.3191923427
 20
7.2714189453
 11
15.5561923427
 21
7.2714189453
  0
LINE
  5
245
100
AcDbEntity
  8
0
100
AcDbLine
 62
9
  6
CONTINUOUS
 10
6.3230583485
 20
7.4996177569
 11
7.5523263369
 21
7.4996177569
  0
LINE
  5
246
100
AcDbEntity
  8
0
100
AcDbLine
 62
9
  6
CONTINUOUS
 10
14.3230583485
 20
7.4996177569
 11
15.5523263369
 21
7.4996177569
  0
LINE
  5
247
100
AcDbEntity
  8
0
100
AcDbLine
 62
9
  6
CONTINUOUS
 10
15.4781923427
 20
7.6055353841
 11
14.3971923427
 21
7.6055353841
  0
LINE
  5
248
100
AcDbEntity
  8
0
100
AcDbLine
 62
9
  6
CONTINUOUS
 10
7.4781923427
 20
7.6055353841
 11
6.3971923427
 21
7.6055353841
  0
LINE
  5
249
100
AcDbEntity
  8
0
100
AcDbLine
 62
7
  6
CONTINUOUS
 10
9.7626923427
 20
6.3579189453
 11
9.7626923427
 21
6.2729189453
  0
LINE
  5
24A
100
AcDbEntity
  8
0
100
AcDbLine
 62
7
  6
CONTINUOUS
 10
17.2359325978
 20
9.0171682537
 11
16.1810964257
 21
8.8121288725
  0
LINE
  5
24B
100
AcDbEntity
  8
0
100
AcDbLine
 62
9
  6
CONTINUOUS
 10
15.3674320701
 20
7.9115181899
 11
14.5079526153
 21
7.9115181899
  0
LINE
  5
24C
100
AcDbEntity
  8
0
100
AcDbLine
 62
9
  6
CONTINUOUS
 10
7.3674320701
 20
7.9115181899
 11
6.5079526153
 21
7.9115181899
  0
LINE
  5
24D
100
AcDbEntity
  8
0
100
AcDbLine
 62
7
  6
CONTINUOUS
 10
15.3365412107
 20
7.9399189453
 11
14.5388434747
 21
7.9399189453
  0
LINE
  5
24E
100
AcDbEntity
  8
0
100
AcDbLine
 62
7
  6
CONTINUOUS
 10
7.3365412107
 20
7.9399189453
 11
6.5388434747
 21
7.9399189453
  0
LINE
  5
24F
100
AcDbEntity
  8
0
100
AcDbLine
 62
7
  6
CONTINUOUS
 10
15.2901923427
 20
7.9899189453
 11
14.5851923427
 21
7.9899189453
  0
LINE
  5
250
100
AcDbEntity
  8
0
100
AcDbLine
 62
7
  6
CONTINUOUS
 10
7.2901923427
 20
7.9899189453
 11
6.5851923427
 21
7.9899189453
  0
LINE
  5
251
100
AcDbEntity
  8
0
100
AcDbLine
 62
7
  6
CONTINUOUS
 10
14.7021250546
 20
8.0999189453
 11
14.6879883513
 21
8.0999189453
  0
LINE
  5
252
100
AcDbEntity
  8
0
100
AcDbLine
 62
7
  6
CONTINUOUS
 10
7.1873963342
 20
8.0999189453
 11
7.1654384776
 21
8.0999189453
  0
LINE
  5
253
100
AcDbEntity
  8
0
100
AcDbLine
 62
7
  6
CONTINUOUS
 10
14.7226293675
 20
8.1399189453
 11
14.6764413459
 21
8.1399189453
  0
LINE
  5
254
100
AcDbEntity
  8
0
100
AcDbLine
 62
7
  6
CONTINUOUS
 10
7.1555082479
 20
8.1399189453
 11
7.1989433395
 21
8.1399189453
  0
LINE
  5
255
100
AcDbEntity
  8
0
100
AcDbLine
 62
7
  6
CONTINUOUS
 10
7.1643023234
 20
8.1799189453
 11
7.1873963342
 21
8.1799189453
  0
LINE
  5
256
100
AcDbEntity
  8
0
100
AcDbLine
 62
7
  6
CONTINUOUS
 10
14.6879883513
 20
8.1799189453
 11
14.7110823621
 21
8.1799189453
  0
LINE
  5
257
100
AcDbEntity
  8
0
100
AcDbLine
 62
7
  6
CONTINUOUS
 10
10.4846923427
 20
8.2637498472
 11
11.3906923427
 21
8.2637498472
  0
LINE
  5
258
100
AcDbEntity
  8
0
100
AcDbLine
 62
7
  6
CONTINUOUS
 10
11.3906923427
 20
8.2942103312
 11
10.4846923427
 21
8.2942103312
  0
LINE
  5
259
100
AcDbEntity
  8
0
100
AcDbLine
 62
7
  6
CONTINUOUS
 10
4.6394520876
 20
9.0171682537
 11
5.6942882597
 21
8.8121288725
  0
LINE
  5
25A
100
AcDbEntity
  8
0
100
AcDbLine
 62
7
  6
CONTINUOUS
 10
10.4846923427
 20
8.9120880434
 11
10.4846923427
 21
8.8816275594
  0
LINE
  5
25B
100
AcDbEntity
  8
0
100
AcDbLine
 62
7
  6
CONTINUOUS
 10
10.4846923427
 20
8.2942103312
 11
10.4846923427
 21
8.2637498472
  0
LINE
  5
25C
100
AcDbEntity
  8
0
100
AcDbLine
 62
7
  6
CONTINUOUS
 10
15.3876923427
 20
8.3729189453
 11
15.3426923427
 21
8.3729189453
  0
LINE
  5
25D
100
AcDbEntity
  8
0
100
AcDbLine
 62
7
  6
CONTINUOUS
 10
6.4876923427
 20
8.3729189453
 11
6.5326923427
 21
8.3729189453
  0
LINE
  5
25E
100
AcDbEntity
  8
0
100
AcDbLine
 62
9
  6
CONTINUOUS
 10
15.3141496157
 20
8.3932107262
 11
14.5612350698
 21
8.3932107262
  0
LINE
  5
25F
100
AcDbEntity
  8
0
100
AcDbLine
 62
9
  6
CONTINUOUS
 10
7.3141496157
 20
8.3932107262
 11
6.5612350698
 21
8.3932107262
  0
LINE
  5
260
100
AcDbEntity
  8
0
100
AcDbLine
 62
7
  6
CONTINUOUS
 10
10.5897052797
 20
9.5622382139
 11
10.5207078448
 21
10.2596283736
  0
LINE
  5
261
100
AcDbEntity
  8
0
100
AcDbLine
 62
7
  6
CONTINUOUS
 10
10.6251923427
 20
11.459761923
 11
10.6251923427
 21
10.4058507185
  0
LINE
  5
262
100
AcDbEntity
  8
0
100
AcDbLine
 62
7
  6
CONTINUOUS
 10
10.6876923427
 20
11.895420059
 11
10.6876923427
 21
11.832420059
  0
LINE
  5
263
100
AcDbEntity
  8
0
100
AcDbLine
 62
7
  6
CONTINUOUS
 10
15.3876923427
 20
8.8729189453
 11
15.3426923427
 21
8.8729189453
  0
LINE
  5
264
100
AcDbEntity
  8
0
100
AcDbLine
 62
7
  6
CONTINUOUS
 10
6.4876923427
 20
8.8729189453
 11
6.5326923427
 21
8.8729189453
  0
LINE
  5
265
100
AcDbEntity
  8
0
100
AcDbLine
 62
7
  6
CONTINUOUS
 10
10.4846923427
 20
8.8816275594
 11
11.3906923427
 21
8.8816275594
  0
LINE
  5
266
100
AcDbEntity
  8
0
100
AcDbLine
 62
7
  6
CONTINUOUS
 10
6.6071923427
 20
8.9019189453
 11
7.2681923427
 21
8.9019189453
  0
LINE
  5
267
100
AcDbEntity
  8
0
100
AcDbLine
 62
7
  6
CONTINUOUS
 10
14.6071923427
 20
8.9019189453
 11
15.2681923427
 21
8.9019189453
  0
LINE
  5
268
100
AcDbEntity
  8
0
100
AcDbLine
 62
7
  6
CONTINUOUS
 10
11.3906923427
 20
8.9120880434
 11
10.4846923427
 21
8.9120880434
  0
LINE
  5
269
100
AcDbEntity
  8
0
100
AcDbLine
 62
9
  6
CONTINUOUS
 10
15.2681923427
 20
8.9729189453
 11
14.6071923427
 21
8.9729189453
  0
LINE
  5
26A
100
AcDbEntity
  8
0
100
AcDbLine
 62
9
  6
CONTINUOUS
 10
7.2681923427
 20
8.9729189453
 11
6.6071923427
 21
8.9729189453
  0
LINE
  5
26B
100
AcDbEntity
  8
0
100
AcDbLine
 62
7
  6
CONTINUOUS
 10
15.2211875269
 20
9.0199189453
 11
14.6541971586
 21
9.0199189453
  0
LINE
  5
26C
100
AcDbEntity
  8
0
100
AcDbLine
 62
7
  6
CONTINUOUS
 10
7.2211875269
 20
9.0199189453
 11
6.6541971586
 21
9.0199189453
  0
LINE
  5
26D
100
AcDbEntity
  8
0
100
AcDbLine
 62
7
  6
CONTINUOUS
 10
15.2096878115
 20
9.0439189453
 11
14.665696874
 21
9.0439189453
  0
LINE
  5
26E
100
AcDbEntity
  8
0
100
AcDbLine
 62
7
  6
CONTINUOUS
 10
7.2096878115
 20
9.0439189453
 11
6.665696874
 21
9.0439189453
  0
LINE
  5
26F
100
AcDbEntity
  8
0
100
AcDbLine
 62
7
  6
CONTINUOUS
 10
6.7576923427
 20
9.0999189453
 11
7.1176923427
 21
9.0999189453
  0
LINE
  5
270
100
AcDbEntity
  8
0
100
AcDbLine
 62
7
  6
CONTINUOUS
 10
14.7576923427
 20
9.0999189453
 11
15.1176923427
 21
9.0999189453
  0
LINE
  5
271
100
AcDbEntity
  8
0
100
AcDbLine
 62
7
  6
CONTINUOUS
 10
15.1076878939
 20
9.1099189453
 11
14.7676967916
 21
9.1099189453
  0
LINE
  5
272
100
AcDbEntity
  8
0
100
AcDbLine
 62
7
  6
CONTINUOUS
 10
7.1076878939
 20
9.1099189453
 11
6.7676967916
 21
9.1099189453
  0
LINE
  5
273
100
AcDbEntity
  8
0
100
AcDbLine
 62
7
  6
CONTINUOUS
 10
11.1876923427
 20
11.895420059
 11
11.1876923427
 21
11.832420059
  0
LINE
  5
274
100
AcDbEntity
  8
0
100
AcDbLine
 62
7
  6
CONTINUOUS
 10
11.2501923427
 20
11.4597594372
 11
11.2501923427
 21
10.4058532129
  0
LINE
  5
275
100
AcDbEntity
  8
0
100
AcDbLine
 62
7
  6
CONTINUOUS
 10
11.3906923427
 20
8.9120880434
 11
11.3906923427
 21
8.8816275594
  0
LINE
  5
276
100
AcDbEntity
  8
0
100
AcDbLine
 62
7
  6
CONTINUOUS
 10
11.3906923427
 20
8.2942103312
 11
11.3906923427
 21
8.2637498472
  0
LINE
  5
277
100
AcDbEntity
  8
0
100
AcDbLine
 62
7
  6
CONTINUOUS
 10
11.2856794058
 20
9.5622382139
 11
11.3546768407
 21
10.2596283736
  0
LINE
  5
278
100
AcDbEntity
  8
0
100
AcDbLine
 62
7
  6
CONTINUOUS
 10
4.6394520876
 20
8.2286696369
 11
5.6942882597
 21
8.4337090181
  0
LINE
  5
279
100
AcDbEntity
  8
0
100
AcDbLine
 62
7
  6
CONTINUOUS
 10
17.2359325978
 20
8.2286696369
 11
16.1810964257
 21
8.4337090181
  0
LINE
  5
27A
100
AcDbEntity
  8
0
100
AcDbLine
 62
7
  6
CONTINUOUS
 10
10.4846923427
 20
10.0854609594
 11
10.5379393824
 21
10.0854609594
  0
LINE
  5
27B
100
AcDbEntity
  8
0
100
AcDbLine
 62
7
  6
CONTINUOUS
 10
11.337445303
 20
10.0854609594
 11
11.3906923427
 21
10.0854609594
  0
LINE
  5
27C
100
AcDbEntity
  8
0
100
AcDbLine
 62
7
  6
CONTINUOUS
 10
11.374192924
 20
10.2129189453
 11
11.3500555671
 21
10.2129189453
  0
LINE
  5
27D
100
AcDbEntity
  8
0
100
AcDbLine
 62
7
  6
CONTINUOUS
 10
10.5253291184
 20
10.2129189453
 11
10.5011886572
 21
10.2129189453
  0
LINE
  5
27E
100
AcDbEntity
  8
0
100
AcDbLine
 62
7
  6
CONTINUOUS
 10
12.1126923427
 20
6.3579189453
 11
12.1126923427
 21
6.2729189453
  0
LINE
  5
27F
100
AcDbEntity
  8
0
100
AcDbLine
 62
7
  6
CONTINUOUS
 10
15.5788557824
 20
7.0564189453
 11
15.6957488268
 21
6.939862624
  0
LINE
  5
280
100
AcDbEntity
  8
0
100
AcDbLine
 62
7
  6
CONTINUOUS
 10
10.6876923427
 20
11.832420059
 11
11.1876923427
 21
11.832420059
  0
LINE
  5
281
100
AcDbEntity
  8
0
100
AcDbLine
 62
7
  6
CONTINUOUS
 10
10.5916923427
 20
11.895420059
 11
11.2836923427
 21
11.895420059
  0
LINE
  5
282
100
AcDbEntity
  8
0
100
AcDbLine
 62
7
  6
CONTINUOUS
 10
15.3176923427
 20
8.3979189453
 11
15.3426923427
 21
8.3729189453
  0
LINE
  5
283
100
AcDbEntity
  8
0
100
AcDbLine
 62
7
  6
CONTINUOUS
 10
14.6816374984
 20
8.0892961573
 11
14.6894018817
 21
8.078315661
  0
LINE
  5
284
100
AcDbEntity
  8
0
100
AcDbLine
 62
7
  6
CONTINUOUS
 10
14.7676923427
 20
9.1099189453
 11
14.7576923427
 21
9.0999189453
  0
LINE
  5
285
100
AcDbEntity
  8
0
100
AcDbLine
 62
7
  6
CONTINUOUS
 10
12.0926923427
 20
6.2529189453
 11
12.1126923427
 21
6.2729189453
  0
LINE
  5
286
100
AcDbEntity
  8
0
100
AcDbLine
 62
7
  6
CONTINUOUS
 10
11.2836923427
 20
12.130420059
 11
10.5916923427
 21
12.130420059
  0
LINE
  5
287
100
AcDbEntity
  8
0
100
AcDbLine
 62
7
  6
CONTINUOUS
 10
11.0656713412
 20
12.282420059
 11
10.8097133443
 21
12.282420059
  0
LINE
  5
288
100
AcDbEntity
  8
0
100
AcDbLine
 62
7
  6
CONTINUOUS
 10
15.1076923427
 20
9.1099189453
 11
15.1176923427
 21
9.0999189453
  0
LINE
  5
289
100
AcDbEntity
  8
0
100
AcDbLine
 62
7
  6
CONTINUOUS
 10
15.4781923427
 20
7.6055353841
 11
15.5523263369
 21
7.4996177569
  0
LINE
  5
28A
100
AcDbEntity
  8
0
100
AcDbLine
 62
7
  6
CONTINUOUS
 10
14.1796320909
 20
6.9398624887
 11
14.1796314393
 21
6.6899189453
  0
LINE
  5
28B
100
AcDbEntity
  8
0
100
AcDbLine
 62
7
  6
CONTINUOUS
 10
14.1966923427
 20
6.6899189453
 11
14.1966923427
 21
6.6279189453
  0
LINE
  5
28C
100
AcDbEntity
  8
0
100
AcDbLine
 62
7
  6
CONTINUOUS
 10
14.5586611396
 20
6.939864164
 11
14.558661891
 21
6.6899189453
  0
LINE
  5
28D
100
AcDbEntity
  8
0
100
AcDbLine
 62
7
  6
CONTINUOUS
 10
14.5851923427
 20
7.9899189453
 11
14.5851923427
 21
7.9399189453
  0
LINE
  5
28E
100
AcDbEntity
  8
0
100
AcDbLine
 62
7
  6
CONTINUOUS
 10
14.6071923427
 20
8.9729189453
 11
14.6071923427
 21
8.9019189453
  0
LINE
  5
28F
100
AcDbEntity
  8
0
100
AcDbLine
 62
7
  6
CONTINUOUS
 10
14.6816374984
 20
8.1905417333
 11
14.683857406
 21
8.1936811569
  0
LINE
  5
290
100
AcDbEntity
  8
0
100
AcDbLine
 62
7
  6
CONTINUOUS
 10
15.3176923427
 20
8.8479189453
 11
15.3426923427
 21
8.8729189453
  0
LINE
  5
291
100
AcDbEntity
  8
0
100
AcDbLine
 62
7
  6
CONTINUOUS
 10
14.6764413459
 20
8.1399189453
 11
14.6879883513
 21
8.0999189453
  0
LINE
  5
292
100
AcDbEntity
  8
0
100
AcDbLine
 62
7
  6
CONTINUOUS
 10
14.7226293675
 20
8.1399189453
 11
14.7110823621
 21
8.1799189453
  0
LINE
  5
293
100
AcDbEntity
  8
0
100
AcDbLine
 62
7
  6
CONTINUOUS
 10
14.6656923427
 20
9.0439189453
 11
14.6656923427
 21
9.0199189453
  0
LINE
  5
294
100
AcDbEntity
  8
0
100
AcDbLine
 62
7
  6
CONTINUOUS
 10
14.6579439258
 20
8.1399484104
 11
14.657941973
 21
8.1399189453
  0
LINE
  5
295
100
AcDbEntity
  8
0
100
AcDbLine
 62
7
  6
CONTINUOUS
 10
14.6879883513
 20
8.1799189453
 11
14.6764413459
 21
8.1399189453
  0
LINE
  5
296
100
AcDbEntity
  8
0
100
AcDbLine
 62
7
  6
CONTINUOUS
 10
14.720667045
 20
8.1331212608
 11
14.7226293675
 21
8.1399189453
  0
LINE
  5
297
100
AcDbEntity
  8
0
100
AcDbLine
 62
7
  6
CONTINUOUS
 10
14.3971923427
 20
7.6055353841
 11
14.3230583485
 21
7.4996177569
  0
LINE
  5
298
100
AcDbEntity
  8
0
100
AcDbLine
 62
7
  6
CONTINUOUS
 10
15.3176923427
 20
8.397858468
 11
15.3141496157
 21
8.3932107262
  0
LINE
  5
299
100
AcDbEntity
  8
0
100
AcDbLine
 62
7
  6
CONTINUOUS
 10
14.2965289031
 20
7.0564189453
 11
14.179634882
 21
6.9398616501
  0
LINE
  5
29A
100
AcDbEntity
  8
0
100
AcDbLine
 62
7
  6
CONTINUOUS
 10
15.2096923427
 20
9.0439189453
 11
15.2096923427
 21
9.0199189453
  0
LINE
  5
29B
100
AcDbEntity
  8
0
100
AcDbLine
 62
7
  6
CONTINUOUS
 10
15.2681923427
 20
8.9729189453
 11
15.2681923427
 21
8.9019189453
  0
LINE
  5
29C
100
AcDbEntity
  8
0
100
AcDbLine
 62
7
  6
CONTINUOUS
 10
15.2901923427
 20
7.9899189453
 11
15.2901923427
 21
7.9399189453
  0
LINE
  5
29D
100
AcDbEntity
  8
0
100
AcDbLine
 62
7
  6
CONTINUOUS
 10
15.3167216946
 20
6.9398641641
 11
15.3167227945
 21
6.6899189453
  0
LINE
  5
29E
100
AcDbEntity
  8
0
100
AcDbLine
 62
7
  6
CONTINUOUS
 10
15.3176923427
 20
8.8479189453
 11
15.3176923427
 21
8.3978404174
  0
LINE
  5
29F
100
AcDbEntity
  8
0
100
AcDbLine
 62
7
  6
CONTINUOUS
 10
15.3426923427
 20
8.8729189453
 11
15.3426923427
 21
8.3729189453
  0
LINE
  5
2A0
100
AcDbEntity
  8
0
100
AcDbLine
 62
7
  6
CONTINUOUS
 10
15.3876923427
 20
8.3729189453
 11
15.3876923427
 21
8.8729189453
  0
LINE
  5
2A1
100
AcDbEntity
  8
0
100
AcDbLine
 62
7
  6
CONTINUOUS
 10
15.6786923427
 20
6.6899189453
 11
15.6786923427
 21
6.6279189453
  0
LINE
  5
2A2
100
AcDbEntity
  8
0
100
AcDbLine
 62
7
  6
CONTINUOUS
 10
15.6957524105
 20
6.939863704
 11
15.6957532462
 21
6.6899189453
  0
LINE
  5
2A3
100
AcDbEntity
  8
0
100
AcDbLine
 62
9
  6
CONTINUOUS
 10
16.1810964257
 20
8.8121288725
 11
16.1810964257
 21
8.4337090181
  0
LINE
  5
2A4
100
AcDbEntity
  8
0
100
AcDbLine
 62
9
  6
CONTINUOUS
 10
17.2359325978
 20
8.2286696369
 11
17.2359325978
 21
9.0171682537
  0
LINE
  5
2A5
100
AcDbEntity
  8
0
100
AcDbLine
 62
7
  6
CONTINUOUS
 10
17.5796923427
 20
8.8414189453
 11
17.5796923427
 21
8.4044189453
  0
LINE
  5
2A6
100
AcDbEntity
  8
0
100
AcDbLine
 62
9
  6
CONTINUOUS
 10
17.7726345072
 20
8.8391154737
 11
17.7726345072
 21
8.406722417
  0
LINE
  5
2A7
100
AcDbEntity
  8
0
100
AcDbLine
 62
7
  6
CONTINUOUS
 10
17.9026923427
 20
8.8604189453
 11
17.9026923427
 21
8.3854189453
  0
ARC
  5
2A8
100
AcDbEntity
  8
0
100
AcDbCircle
 62
7
  6
CONTINUOUS
 10
5.9805017528
 20
6.961268243
 40
1.5
100
AcDbArc
 50
70.2371945424
 51
101.0
  0
ARC
  5
2A9
100
AcDbEntity
  8
0
100
AcDbCircle
 62
7
  6
CONTINUOUS
 10
6.4901674638
 20
7.3826545421
 40
0.2039751211
100
AcDbArc
 50
145.0110095298
 51
213.0478355064
  0
ARC
  5
2AA
100
AcDbEntity
  8
0
100
AcDbCircle
 62
7
  6
CONTINUOUS
 10
7.3852172217
 20
7.3826545421
 40
0.2039751211
100
AcDbArc
 50
326.9521644936
 51
34.9889904702
  0
ARC
  5
2AB
100
AcDbEntity
  8
0
100
AcDbCircle
 62
7
  6
CONTINUOUS
 10
5.9448284538
 20
6.2529189453
 40
0.1871361111
100
AcDbArc
 50
92.1854050713
 51
180.0
  0
ARC
  5
2AC
100
AcDbEntity
  8
0
100
AcDbCircle
 62
7
  6
CONTINUOUS
 10
6.1246896689
 20
6.4409189453
 40
0.187
100
AcDbArc
 50
90.0
 51
180.3063960032
  0
ARC
  5
2AD
100
AcDbEntity
  8
0
100
AcDbCircle
 62
7
  6
CONTINUOUS
 10
6.1754178091
 20
7.1778799208
 40
0.1715245336
100
AcDbArc
 50
314.9173576842
 51
33.0478355064
  0
ARC
  5
2AE
100
AcDbEntity
  8
0
100
AcDbCircle
 62
7
  6
CONTINUOUS
 10
5.8851534407
 20
7.9639222739
 40
0.625
100
AcDbArc
 50
325.0110095298
 51
355.1903006332
  0
ARC
  5
2AF
100
AcDbEntity
  8
0
100
AcDbCircle
 62
7
  6
CONTINUOUS
 10
7.0176923427
 20
8.622858468
 40
0.375
100
AcDbArc
 50
322.2371948106
 51
48.0871091166
  0
ARC
  5
2B0
100
AcDbEntity
  8
0
100
AcDbCircle
 62
7
  6
CONTINUOUS
 10
6.8576923427
 20
8.622858468
 40
0.375
100
AcDbArc
 50
131.9128908834
 51
143.1301023542
  0
ARC
  5
2B1
100
AcDbEntity
  8
0
100
AcDbCircle
 62
7
  6
CONTINUOUS
 10
6.2783109905
 20
8.1740463412
 40
0.3578813522
100
AcDbArc
 50
329.0364377797
 51
37.7628051894
  0
ARC
  5
2B2
100
AcDbEntity
  8
0
100
AcDbCircle
 62
7
  6
CONTINUOUS
 10
4.5797288721
 20
8.7099189453
 40
0.313
100
AcDbArc
 50
79.0
 51
155.1573439831
  0
ARC
  5
2B3
100
AcDbEntity
  8
0
100
AcDbCircle
 62
7
  6
CONTINUOUS
 10
4.5797288721
 20
8.5359189453
 40
0.313
100
AcDbArc
 50
204.8426560169
 51
281.0
  0
ARC
  5
2B4
100
AcDbEntity
  8
0
100
AcDbCircle
 62
7
  6
CONTINUOUS
 10
4.0506639997
 20
8.6229189453
 40
0.249971657
100
AcDbArc
 50
108.1750968409
 51
251.8249031591
  0
ARC
  5
2B5
100
AcDbEntity
  8
0
100
AcDbCircle
 62
7
  6
CONTINUOUS
 10
4.2005923953
 20
8.5204189453
 40
0.15
100
AcDbArc
 50
229.286165114
 51
309.345829766
  0
ARC
  5
2B6
100
AcDbEntity
  8
0
100
AcDbCircle
 62
7
  6
CONTINUOUS
 10
4.2005923953
 20
8.7254189453
 40
0.15
100
AcDbArc
 50
50.654170234
 51
130.713834886
  0
ARC
  5
2B7
100
AcDbEntity
  8
0
100
AcDbCircle
 62
7
  6
CONTINUOUS
 10
7.301929154
 20
8.1486123111
 40
0.146695745
100
AcDbArc
 50
176.6458250374
 51
183.574468267
  0
ARC
  5
2B8
100
AcDbEntity
  8
0
100
AcDbCircle
 62
7
  6
CONTINUOUS
 10
7.0732218335
 20
8.14891051
 40
0.134126039
100
AcDbArc
 50
355.8566659039
 51
356.1561127654
  0
ARC
  5
2B9
100
AcDbEntity
  8
0
100
AcDbCircle
 62
7
  6
CONTINUOUS
 10
7.0733732421
 20
8.1488992542
 40
0.1339742129
100
AcDbArc
 50
355.173313613
 51
355.8567885884
  0
ARC
  5
2BA
100
AcDbEntity
  8
0
100
AcDbCircle
 62
7
  6
CONTINUOUS
 10
7.0945511712
 20
8.1410853871
 40
0.1122325502
100
AcDbArc
 50
8.431757456
 51
8.7999276894
  0
ARC
  5
2BB
100
AcDbEntity
  8
0
100
AcDbCircle
 62
7
  6
CONTINUOUS
 10
7.1003004121
 20
8.1420446091
 40
0.1064042618
100
AcDbArc
 50
8.763104063
 51
13.0432058304
  0
ARC
  5
2BC
100
AcDbEntity
  8
0
100
AcDbCircle
 62
7
  6
CONTINUOUS
 10
7.1248919433
 20
8.1434473977
 40
0.1058103313
100
AcDbArc
 50
341.2111911603
 51
346.7117421925
  0
ARC
  5
2BD
100
AcDbEntity
  8
0
100
AcDbCircle
 62
7
  6
CONTINUOUS
 10
7.1075089941
 20
8.1436397701
 40
0.0990216819
100
AcDbArc
 50
13.0853686453
 51
13.5866457641
  0
ARC
  5
2BE
100
AcDbEntity
  8
0
100
AcDbCircle
 62
7
  6
CONTINUOUS
 10
4.0466539738
 20
8.9043014832
 40
0.086
100
AcDbArc
 50
210.6812875935
 51
310.7138348857
  0
ARC
  5
2BF
100
AcDbEntity
  8
0
100
AcDbCircle
 62
7
  6
CONTINUOUS
 10
4.0466539738
 20
8.3415364074
 40
0.086
100
AcDbArc
 50
49.2861651143
 51
149.3187124065
  0
ARC
  5
2C0
100
AcDbEntity
  8
0
100
AcDbCircle
 62
7
  6
CONTINUOUS
 10
7.236363566
 20
8.1335838675
 40
0.0787269999
100
AcDbArc
 50
205.1732552487
 51
206.2722818405
  0
ARC
  5
2C1
100
AcDbEntity
  8
0
100
AcDbCircle
 62
7
  6
CONTINUOUS
 10
7.2325417176
 20
8.1316788572
 40
0.0744567188
100
AcDbArc
 50
206.2595610405
 51
208.0263684215
  0
ARC
  5
2C2
100
AcDbEntity
  8
0
100
AcDbCircle
 62
7
  6
CONTINUOUS
 10
7.1213557139
 20
8.1695585722
 40
0.0727745421
100
AcDbArc
 50
23.9279893566
 51
26.1924541671
  0
ARC
  5
2C3
100
AcDbEntity
  8
0
100
AcDbCircle
 62
7
  6
CONTINUOUS
 10
7.1736923427
 20
9.0999189453
 40
0.056
100
AcDbArc
 50
180.0
 51
270.0
  0
ARC
  5
2C4
100
AcDbEntity
  8
0
100
AcDbCircle
 62
7
  6
CONTINUOUS
 10
6.7016923427
 20
9.0999189453
 40
0.056
100
AcDbArc
 50
270.0
 51
360.0
  0
ARC
  5
2C5
100
AcDbEntity
  8
0
100
AcDbCircle
 62
7
  6
CONTINUOUS
 10
7.191522856
 20
8.1023273817
 40
0.0481334295
100
AcDbArc
 50
313.5002387631
 51
314.2850694294
  0
ARC
  5
2C6
100
AcDbEntity
  8
0
100
AcDbCircle
 62
7
  6
CONTINUOUS
 10
7.2211923427
 20
8.9729189453
 40
0.047
100
AcDbArc
 50
0.0
 51
90.0
  0
ARC
  5
2C7
100
AcDbEntity
  8
0
100
AcDbCircle
 62
7
  6
CONTINUOUS
 10
6.6541923427
 20
8.9729189453
 40
0.047
100
AcDbArc
 50
90.0
 51
180.0
  0
ARC
  5
2C8
100
AcDbEntity
  8
0
100
AcDbCircle
 62
7
  6
CONTINUOUS
 10
7.3365412312
 20
7.9089189453
 40
0.031
100
AcDbArc
 50
4.8097031513
 51
90.0000379183
  0
ARC
  5
2C9
100
AcDbEntity
  8
0
100
AcDbCircle
 62
7
  6
CONTINUOUS
 10
6.5388434542
 20
7.9089189453
 40
0.031
100
AcDbArc
 50
89.9999620817
 51
175.1902968487
  0
ARC
  5
2CA
100
AcDbEntity
  8
0
100
AcDbCircle
 62
7
  6
CONTINUOUS
 10
7.1674992854
 20
8.1783873852
 40
0.0304640708
100
AcDbArc
 50
39.1206088239
 51
40.9178798566
  0
ARC
  5
2CB
100
AcDbEntity
  8
0
100
AcDbCircle
 62
7
  6
CONTINUOUS
 10
7.1977306386
 20
8.1031606665
 40
0.0289597694
100
AcDbArc
 50
235.8935039334
 51
240.6777793156
  0
ARC
  5
2CC
100
AcDbEntity
  8
0
100
AcDbCircle
 62
7
  6
CONTINUOUS
 10
7.1948200788
 20
8.0961088737
 40
0.0212902239
100
AcDbArc
 50
256.7555055987
 51
266.7966671338
  0
ARC
  5
2CD
100
AcDbEntity
  8
0
100
AcDbCircle
 62
7
  6
CONTINUOUS
 10
7.1916445139
 20
8.0959234451
 40
0.0211048706
100
AcDbArc
 50
275.4064292964
 51
278.3384268775
  0
ARC
  5
2CE
100
AcDbEntity
  8
0
100
AcDbCircle
 62
7
  6
CONTINUOUS
 10
7.1947952492
 20
8.0957640453
 40
0.0209445475
100
AcDbArc
 50
266.8117729806
 51
269.9993491912
  0
ARC
  5
2CF
100
AcDbEntity
  8
0
100
AcDbCircle
 62
7
  6
CONTINUOUS
 10
7.1813287119
 20
8.1922319334
 40
0.0127911596
100
AcDbArc
 50
96.5673103951
 51
103.6930688997
  0
ARC
  5
2D0
100
AcDbEntity
  8
0
100
AcDbCircle
 62
7
  6
CONTINUOUS
 10
7.1812648214
 20
8.1927130042
 40
0.0123059413
100
AcDbArc
 50
90.0156038471
 51
96.5279628632
  0
ARC
  5
2D1
100
AcDbEntity
  8
0
100
AcDbCircle
 62
7
  6
CONTINUOUS
 10
10.4867612416
 20
6.6016863728
 40
0.37
100
AcDbArc
 50
102.4978177688
 51
175.9343845019
  0
ARC
  5
2D2
100
AcDbEntity
  8
0
100
AcDbCircle
 62
7
  6
CONTINUOUS
 10
9.8177316628
 20
6.632352734
 40
0.25
100
AcDbArc
 50
282.1131353839
 51
358.9837972034
  0
ARC
  5
2D3
100
AcDbEntity
  8
0
100
AcDbCircle
 62
7
  6
CONTINUOUS
 10
7.9305562316
 20
6.2529189453
 40
0.1871361111
100
AcDbArc
 50
0.0
 51
87.8145949287
  0
ARC
  5
2D4
100
AcDbEntity
  8
0
100
AcDbCircle
 62
7
  6
CONTINUOUS
 10
7.7506950166
 20
6.4409189453
 40
0.187
100
AcDbArc
 50
359.6936039968
 51
90.0
  0
ARC
  5
2D5
100
AcDbEntity
  8
0
100
AcDbCircle
 62
7
  6
CONTINUOUS
 10
7.6999668764
 20
7.1778799208
 40
0.1715245336
100
AcDbArc
 50
146.9521644936
 51
225.0826423158
  0
ARC
  5
2D6
100
AcDbEntity
  8
0
100
AcDbCircle
 62
7
  6
CONTINUOUS
 10
10.5026923427
 20
7.0279189453
 40
0.065
100
AcDbArc
 50
106.0766498316
 51
270.0
  0
ARC
  5
2D7
100
AcDbEntity
  8
0
100
AcDbCircle
 62
7
  6
CONTINUOUS
 10
9.7926923427
 20
6.3579189453
 40
0.03
100
AcDbArc
 50
90.0
 51
180.0
  0
ARC
  5
2D8
100
AcDbEntity
  8
0
100
AcDbCircle
 62
7
  6
CONTINUOUS
 10
8.4526923427
 20
7.6770633892
 40
2.115
100
AcDbArc
 50
343.8953203472
 51
16.1046796528
  0
ARC
  5
2D9
100
AcDbEntity
  8
0
100
AcDbCircle
 62
7
  6
CONTINUOUS
 10
10.7969627253
 20
8.5164925293
 40
1.7758498675
100
AcDbArc
 50
94.792199995
 51
94.9513970385
  0
ARC
  5
2DA
100
AcDbEntity
  8
0
100
AcDbCircle
 62
7
  6
CONTINUOUS
 10
10.7841868877
 20
8.663351708
 40
1.6284360372
100
AcDbArc
 50
94.9495445938
 51
95.4266803878
  0
ARC
  5
2DB
100
AcDbEntity
  8
0
100
AcDbCircle
 62
7
  6
CONTINUOUS
 10
10.7695972495
 20
8.8192864691
 40
1.4718204175
100
AcDbArc
 50
95.4353535929
 51
95.5561035748
  0
ARC
  5
2DC
100
AcDbEntity
  8
0
100
AcDbCircle
 62
7
  6
CONTINUOUS
 10
10.7620979817
 20
8.8961332146
 40
1.3946086078
100
AcDbArc
 50
95.6085091773
 51
95.742983717
  0
ARC
  5
2DD
100
AcDbEntity
  8
0
100
AcDbCircle
 62
7
  6
CONTINUOUS
 10
7.9902312448
 20
7.9639222739
 40
0.625
100
AcDbArc
 50
184.8096993668
 51
214.9889904702
  0
ARC
  5
2DE
100
AcDbEntity
  8
0
100
AcDbCircle
 62
7
  6
CONTINUOUS
 10
10.8451923427
 20
8.5879189453
 40
0.465
100
AcDbArc
 50
140.8294108274
 51
219.1705891726
  0
ARC
  5
2DF
100
AcDbEntity
  8
0
100
AcDbCircle
 62
7
  6
CONTINUOUS
 10
7.597073695
 20
8.1740463412
 40
0.3578813522
100
AcDbArc
 50
142.2371948106
 51
210.9635622203
  0
ARC
  5
2E0
100
AcDbEntity
  8
0
100
AcDbCircle
 62
7
  6
CONTINUOUS
 10
8.4526923427
 20
9.4987745014
 40
2.115
100
AcDbArc
 50
343.8953203472
 51
16.1046796528
  0
ARC
  5
2E1
100
AcDbEntity
  8
0
100
AcDbCircle
 62
7
  6
CONTINUOUS
 10
5.9805017528
 20
10.2845696477
 40
1.5
100
AcDbArc
 50
259.0
 51
289.7628054576
  0
ARC
  5
2E2
100
AcDbEntity
  8
0
100
AcDbCircle
 62
7
  6
CONTINUOUS
 10
10.937691945
 20
10.7728900128
 40
0.7099998256
100
AcDbArc
 50
307.936602714
 51
63.877735201
  0
ARC
  5
2E3
100
AcDbEntity
  8
0
100
AcDbCircle
 62
7
  6
CONTINUOUS
 10
10.4775944406
 20
11.644920059
 40
0.2815979021
100
AcDbArc
 50
13.4373356529
 51
41.7470327955
  0
ARC
  5
2E4
100
AcDbEntity
  8
0
100
AcDbCircle
 62
7
  6
CONTINUOUS
 10
10.8097133443
 20
12.094420059
 40
0.188
100
AcDbArc
 50
90.0
 51
168.960285586
  0
ARC
  5
2E5
100
AcDbEntity
  8
0
100
AcDbCircle
 62
7
  6
CONTINUOUS
 10
10.5916923427
 20
12.012920059
 40
0.1175
100
AcDbArc
 50
90.0
 51
270.0
  0
ARC
  5
2E6
100
AcDbEntity
  8
0
100
AcDbCircle
 62
7
  6
CONTINUOUS
 10
10.5654202208
 20
10.3618250751
 40
0.1154008696
100
AcDbArc
 50
246.4855553091
 51
247.4618724754
  0
ARC
  5
2E7
100
AcDbEntity
  8
0
100
AcDbCircle
 62
7
  6
CONTINUOUS
 10
10.5026923427
 20
10.1479189453
 40
0.065
100
AcDbArc
 50
91.3178798785
 51
253.9233501685
  0
ARC
  5
2E8
100
AcDbEntity
  8
0
100
AcDbCircle
 62
7
  6
CONTINUOUS
 10
11.3886234438
 20
6.6016863728
 40
0.37
100
AcDbArc
 50
4.0656154981
 51
77.5021822312
  0
ARC
  5
2E9
100
AcDbEntity
  8
0
100
AcDbCircle
 62
7
  6
CONTINUOUS
 10
12.0576530227
 20
6.632352734
 40
0.25
100
AcDbArc
 50
181.0162027966
 51
257.8868646161
  0
ARC
  5
2EA
100
AcDbEntity
  8
0
100
AcDbCircle
 62
7
  6
CONTINUOUS
 10
13.9448284538
 20
6.2529189453
 40
0.1871361111
100
AcDbArc
 50
92.1854050713
 51
180.0
  0
ARC
  5
2EB
100
AcDbEntity
  8
0
100
AcDbCircle
 62
7
  6
CONTINUOUS
 10
14.1246896689
 20
6.4409189453
 40
0.187
100
AcDbArc
 50
90.0
 51
180.3063960032
  0
ARC
  5
2EC
100
AcDbEntity
  8
0
100
AcDbCircle
 62
7
  6
CONTINUOUS
 10
14.1754178091
 20
7.1778799208
 40
0.1715245336
100
AcDbArc
 50
314.9173576842
 51
33.0478355064
  0
ARC
  5
2ED
100
AcDbEntity
  8
0
100
AcDbCircle
 62
7
  6
CONTINUOUS
 10
11.3726923427
 20
7.0279189453
 40
0.065
100
AcDbArc
 50
270.0
 51
73.9233501684
  0
ARC
  5
2EE
100
AcDbEntity
  8
0
100
AcDbCircle
 62
7
  6
CONTINUOUS
 10
12.0826923427
 20
6.3579189453
 40
0.03
100
AcDbArc
 50
0.0
 51
90.0
  0
ARC
  5
2EF
100
AcDbEntity
  8
0
100
AcDbCircle
 62
7
  6
CONTINUOUS
 10
13.4226923427
 20
7.6770633892
 40
2.115
100
AcDbArc
 50
163.8953203472
 51
196.1046796528
  0
ARC
  5
2F0
100
AcDbEntity
  8
0
100
AcDbCircle
 62
7
  6
CONTINUOUS
 10
11.0955060091
 20
8.7118186102
 40
1.5797788468
100
AcDbArc
 50
84.4524087662
 51
85.1700800183
  0
ARC
  5
2F1
100
AcDbEntity
  8
0
100
AcDbCircle
 62
7
  6
CONTINUOUS
 10
13.8851534407
 20
7.9639222739
 40
0.625
100
AcDbArc
 50
325.0110095298
 51
355.1903006332
  0
ARC
  5
2F2
100
AcDbEntity
  8
0
100
AcDbCircle
 62
7
  6
CONTINUOUS
 10
11.0301923427
 20
8.5879189453
 40
0.465
100
AcDbArc
 50
320.8294108274
 51
39.1705891726
  0
ARC
  5
2F3
100
AcDbEntity
  8
0
100
AcDbCircle
 62
7
  6
CONTINUOUS
 10
14.2783109905
 20
8.1740463412
 40
0.3578813522
100
AcDbArc
 50
329.0364377797
 51
37.7628051894
  0
ARC
  5
2F4
100
AcDbEntity
  8
0
100
AcDbCircle
 62
7
  6
CONTINUOUS
 10
15.8948829327
 20
6.961268243
 40
1.5
100
AcDbArc
 50
79.0
 51
109.7628054576
  0
ARC
  5
2F5
100
AcDbEntity
  8
0
100
AcDbCircle
 62
7
  6
CONTINUOUS
 10
14.4901674638
 20
7.3826545421
 40
0.2039751211
100
AcDbArc
 50
145.0110095298
 51
213.0478355064
  0
ARC
  5
2F6
100
AcDbEntity
  8
0
100
AcDbCircle
 62
7
  6
CONTINUOUS
 10
15.3852172217
 20
7.3826545421
 40
0.2039751211
100
AcDbArc
 50
326.9521644936
 51
34.9889904702
  0
ARC
  5
2F7
100
AcDbEntity
  8
0
100
AcDbCircle
 62
7
  6
CONTINUOUS
 10
15.9305562316
 20
6.2529189453
 40
0.1871361111
100
AcDbArc
 50
0.0
 51
87.8145949287
  0
ARC
  5
2F8
100
AcDbEntity
  8
0
100
AcDbCircle
 62
7
  6
CONTINUOUS
 10
15.7506950166
 20
6.4409189453
 40
0.187
100
AcDbArc
 50
359.6936039968
 51
90.0
  0
ARC
  5
2F9
100
AcDbEntity
  8
0
100
AcDbCircle
 62
7
  6
CONTINUOUS
 10
15.6999668764
 20
7.1778799208
 40
0.1715245336
100
AcDbArc
 50
146.9521644936
 51
225.0826423158
  0
ARC
  5
2FA
100
AcDbEntity
  8
0
100
AcDbCircle
 62
7
  6
CONTINUOUS
 10
15.9902312448
 20
7.9639222739
 40
0.625
100
AcDbArc
 50
184.8096993668
 51
214.9889904702
  0
ARC
  5
2FB
100
AcDbEntity
  8
0
100
AcDbCircle
 62
7
  6
CONTINUOUS
 10
14.8576923427
 20
8.622858468
 40
0.375
100
AcDbArc
 50
131.9128908834
 51
217.7628051894
  0
ARC
  5
2FC
100
AcDbEntity
  8
0
100
AcDbCircle
 62
7
  6
CONTINUOUS
 10
15.0176923427
 20
8.622858468
 40
0.375
100
AcDbArc
 50
36.8698976458
 51
48.0871091166
  0
ARC
  5
2FD
100
AcDbEntity
  8
0
100
AcDbCircle
 62
7
  6
CONTINUOUS
 10
15.597073695
 20
8.1740463412
 40
0.3578813522
100
AcDbArc
 50
142.2371948106
 51
210.9635622203
  0
ARC
  5
2FE
100
AcDbEntity
  8
0
100
AcDbCircle
 62
7
  6
CONTINUOUS
 10
17.2956558134
 20
8.7099189453
 40
0.313
100
AcDbArc
 50
24.8426560169
 51
101.0
  0
ARC
  5
2FF
100
AcDbEntity
  8
0
100
AcDbCircle
 62
7
  6
CONTINUOUS
 10
17.2956558134
 20
8.5359189453
 40
0.313
100
AcDbArc
 50
259.0
 51
335.1573439831
  0
ARC
  5
300
100
AcDbEntity
  8
0
100
AcDbCircle
 62
7
  6
CONTINUOUS
 10
17.8247206858
 20
8.6229189453
 40
0.249971657
100
AcDbArc
 50
288.1750968409
 51
71.8249031591
  0
ARC
  5
301
100
AcDbEntity
  8
0
100
AcDbCircle
 62
7
  6
CONTINUOUS
 10
17.6747922902
 20
8.5204189453
 40
0.15
100
AcDbArc
 50
230.654170234
 51
310.713834886
  0
ARC
  5
302
100
AcDbEntity
  8
0
100
AcDbCircle
 62
7
  6
CONTINUOUS
 10
17.6747922902
 20
8.7254189453
 40
0.15
100
AcDbArc
 50
49.286165114
 51
129.345829766
  0
ARC
  5
303
100
AcDbEntity
  8
0
100
AcDbCircle
 62
7
  6
CONTINUOUS
 10
14.7870545098
 20
8.1310861377
 40
0.13254229
100
AcDbArc
 50
176.0012618154
 51
176.1788955137
  0
ARC
  5
304
100
AcDbEntity
  8
0
100
AcDbCircle
 62
7
  6
CONTINUOUS
 10
14.7826306105
 20
8.1313593893
 40
0.1281100171
100
AcDbArc
 50
176.1689798389
 51
184.0176576076
  0
ARC
  5
305
100
AcDbEntity
  8
0
100
AcDbCircle
 62
7
  6
CONTINUOUS
 10
14.6396633842
 20
8.1468973375
 40
0.0867499299
100
AcDbArc
 50
18.237527858
 51
28.4054912058
  0
ARC
  5
306
100
AcDbEntity
  8
0
100
AcDbCircle
 62
7
  6
CONTINUOUS
 10
17.8287307117
 20
8.9043014832
 40
0.086
100
AcDbArc
 50
229.2861651143
 51
329.3187124065
  0
ARC
  5
307
100
AcDbEntity
  8
0
100
AcDbCircle
 62
7
  6
CONTINUOUS
 10
17.8287307117
 20
8.3415364074
 40
0.086
100
AcDbArc
 50
30.6812875935
 51
130.7138348857
  0
ARC
  5
308
100
AcDbEntity
  8
0
100
AcDbCircle
 62
7
  6
CONTINUOUS
 10
14.6508737572
 20
8.1321814372
 40
0.0857495829
100
AcDbArc
 50
56.3363528376
 51
57.5319877742
  0
ARC
  5
309
100
AcDbEntity
  8
0
100
AcDbCircle
 62
7
  6
CONTINUOUS
 10
14.6287884409
 20
8.1486080089
 40
0.0856509071
100
AcDbArc
 50
332.157003716
 51
339.8668996555
  0
ARC
  5
30A
100
AcDbEntity
  8
0
100
AcDbCircle
 62
7
  6
CONTINUOUS
 10
14.6411793204
 20
8.1473214149
 40
0.0851763236
100
AcDbArc
 50
357.5081373157
 51
18.2857229134
  0
ARC
  5
30B
100
AcDbEntity
  8
0
100
AcDbCircle
 62
7
  6
CONTINUOUS
 10
14.6517223036
 20
8.1335140452
 40
0.084169749
100
AcDbArc
 50
57.5323479409
 51
59.377362408
  0
ARC
  5
30C
100
AcDbEntity
  8
0
100
AcDbCircle
 62
7
  6
CONTINUOUS
 10
14.7016923427
 20
9.0999189453
 40
0.056
100
AcDbArc
 50
270.0
 51
360.0
  0
ARC
  5
30D
100
AcDbEntity
  8
0
100
AcDbCircle
 62
7
  6
CONTINUOUS
 10
15.1736923427
 20
9.0999189453
 40
0.056
100
AcDbArc
 50
180.0
 51
270.0
  0
ARC
  5
30E
100
AcDbEntity
  8
0
100
AcDbCircle
 62
7
  6
CONTINUOUS
 10
14.7210114743
 20
8.1170227908
 40
0.0481579888
100
AcDbArc
 50
212.1422645461
 51
213.1571293737
  0
ARC
  5
30F
100
AcDbEntity
  8
0
100
AcDbCircle
 62
7
  6
CONTINUOUS
 10
14.6541923427
 20
8.9729189453
 40
0.047
100
AcDbArc
 50
90.0
 51
180.0
  0
ARC
  5
310
100
AcDbEntity
  8
0
100
AcDbCircle
 62
7
  6
CONTINUOUS
 10
15.2211923427
 20
8.9729189453
 40
0.047
100
AcDbArc
 50
0.0
 51
90.0
  0
ARC
  5
311
100
AcDbEntity
  8
0
100
AcDbCircle
 62
7
  6
CONTINUOUS
 10
14.7186521728
 20
8.1154637461
 40
0.0453301467
100
AcDbArc
 50
213.1384200584
 51
215.2584020335
  0
ARC
  5
312
100
AcDbEntity
  8
0
100
AcDbCircle
 62
7
  6
CONTINUOUS
 10
15.3365412312
 20
7.9089189453
 40
0.031
100
AcDbArc
 50
4.8097031513
 51
90.0000379183
  0
ARC
  5
313
100
AcDbEntity
  8
0
100
AcDbCircle
 62
7
  6
CONTINUOUS
 10
14.5388434542
 20
7.9089189453
 40
0.031
100
AcDbArc
 50
89.9999620817
 51
175.1902968487
  0
ARC
  5
314
100
AcDbEntity
  8
0
100
AcDbCircle
 62
7
  6
CONTINUOUS
 10
14.7088716427
 20
8.1812834254
 40
0.0270452158
100
AcDbArc
 50
119.7627134687
 51
121.7330275801
  0
ARC
  5
315
100
AcDbEntity
  8
0
100
AcDbCircle
 62
7
  6
CONTINUOUS
 10
14.7085285529
 20
8.1818745459
 40
0.0263617583
100
AcDbArc
 50
119.4590662124
 51
119.753161884
  0
ARC
  5
316
100
AcDbEntity
  8
0
100
AcDbCircle
 62
7
  6
CONTINUOUS
 10
14.6941214355
 20
8.1841491581
 40
0.0208697868
100
AcDbArc
 50
85.7467081214
 51
89.997155393
  0
ARC
  5
317
100
AcDbEntity
  8
0
100
AcDbCircle
 62
7
  6
CONTINUOUS
 10
14.6805141992
 20
8.0876674911
 40
0.0128537233
100
AcDbArc
 50
278.6147867385
 51
284.2347902485
  0
ARC
  5
318
100
AcDbEntity
  8
0
100
AcDbCircle
 62
7
  6
CONTINUOUS
 10
14.6805869974
 20
8.0872113483
 40
0.0123918228
100
AcDbArc
 50
270.0187405501
 51
278.5979056339
  0
ARC
  5
319
100
AcDbEntity
  8
0
100
AcDbCircle
 62
7
  6
CONTINUOUS
 10
13.4226923427
 20
9.4987745014
 40
2.115
100
AcDbArc
 50
163.8953203472
 51
196.1046796528
  0
ARC
  5
31A
100
AcDbEntity
  8
0
100
AcDbCircle
 62
7
  6
CONTINUOUS
 10
15.8948829327
 20
10.2845696477
 40
1.5
100
AcDbArc
 50
250.2371945424
 51
281.0
  0
ARC
  5
31B
100
AcDbEntity
  8
0
100
AcDbCircle
 62
7
  6
CONTINUOUS
 10
10.937692512
 20
10.7728901054
 40
0.7099996978
100
AcDbArc
 50
116.12021164
 51
232.0634162102
  0
ARC
  5
31C
100
AcDbEntity
  8
0
100
AcDbCircle
 62
7
  6
CONTINUOUS
 10
10.9376923427
 20
10.7728901499
 40
0.4695
100
AcDbArc
 50
311.9013064677
 51
48.0986935323
  0
ARC
  5
31D
100
AcDbEntity
  8
0
100
AcDbCircle
 62
7
  6
CONTINUOUS
 10
10.9376923427
 20
10.7728901499
 40
0.4695
100
AcDbArc
 50
131.9013064677
 51
228.0986935323
  0
ARC
  5
31E
100
AcDbEntity
  8
0
100
AcDbCircle
 62
9
  6
CONTINUOUS
 10
10.9376923427
 20
10.7728901499
 40
0.407
100
AcDbArc
 50
140.3631082105
 51
219.6360890738
  0
ARC
  5
31F
100
AcDbEntity
  8
0
100
AcDbCircle
 62
9
  6
CONTINUOUS
 10
10.9376923427
 20
10.7728901499
 40
0.407
100
AcDbArc
 50
320.3631082105
 51
39.6360890738
  0
ARC
  5
320
100
AcDbEntity
  8
0
100
AcDbCircle
 62
7
  6
CONTINUOUS
 10
10.9376923427
 20
10.7728901499
 40
0.34
100
AcDbArc
 50
337.2247497853
 51
22.7898993662
  0
ARC
  5
321
100
AcDbEntity
  8
0
100
AcDbCircle
 62
7
  6
CONTINUOUS
 10
10.9376923427
 20
10.7728901499
 40
0.34
100
AcDbArc
 50
157.2247497853
 51
202.7898993662
  0
ARC
  5
322
100
AcDbEntity
  8
0
100
AcDbCircle
 62
7
  6
CONTINUOUS
 10
10.9376923427
 20
10.7728901499
 40
0.325
100
AcDbArc
 50
164.8422424305
 51
195.1577575695
  0
ARC
  5
323
100
AcDbEntity
  8
0
100
AcDbCircle
 62
7
  6
CONTINUOUS
 10
10.9376923427
 20
10.7728901499
 40
0.325
100
AcDbArc
 50
344.8422424305
 51
15.1577575695
  0
ARC
  5
324
100
AcDbEntity
  8
0
100
AcDbCircle
 62
7
  6
CONTINUOUS
 10
10.9376923427
 20
10.7728901499
 40
0.317
100
AcDbArc
 50
170.5669688473
 51
189.3152186646
  0
ARC
  5
325
100
AcDbEntity
  8
0
100
AcDbCircle
 62
7
  6
CONTINUOUS
 10
10.9376923427
 20
10.7728901499
 40
0.317
100
AcDbArc
 50
350.5669688473
 51
9.3152186646
  0
ARC
  5
326
100
AcDbEntity
  8
0
100
AcDbCircle
 62
7
  6
CONTINUOUS
 10
10.9376923427
 20
11.4608901499
 40
0.3125
100
AcDbArc
 50
0.0
 51
180.0
  0
ARC
  5
327
100
AcDbEntity
  8
0
100
AcDbCircle
 62
7
  6
CONTINUOUS
 10
11.3977902448
 20
11.644920059
 40
0.2815979021
100
AcDbArc
 50
138.2529672045
 51
166.5626643471
  0
ARC
  5
328
100
AcDbEntity
  8
0
100
AcDbCircle
 62
7
  6
CONTINUOUS
 10
11.0656713412
 20
12.094420059
 40
0.188
100
AcDbArc
 50
11.039714414
 51
90.0
  0
ARC
  5
329
100
AcDbEntity
  8
0
100
AcDbCircle
 62
7
  6
CONTINUOUS
 10
11.2836923427
 20
12.012920059
 40
0.1175
100
AcDbArc
 50
270.0
 51
90.0
  0
ARC
  5
32A
100
AcDbEntity
  8
0
100
AcDbCircle
 62
7
  6
CONTINUOUS
 10
11.3094975772
 20
10.3632208529
 40
0.1168681222
100
AcDbArc
 50
292.5085867461
 51
293.5890509556
  0
ARC
  5
32B
100
AcDbEntity
  8
0
100
AcDbCircle
 62
7
  6
CONTINUOUS
 10
11.3726923427
 20
10.1479189453
 40
0.065
100
AcDbArc
 50
286.0766498315
 51
88.6848408374
  0
SPLINE
  5
32C
100
AcDbEntity
  8
0
100
AcDbSpline
 62
7
  6
CONTINUOUS
 70
0
 71
3
 72
21
 73
17
 74
0
 42
0.0000001
 43
0.0000001
 44
0.0000000001
 40
0.0
 40
0.0
 40
0.0
 40
0.0
 40
0.0697353255
 40
0.1393288736
 40
0.277185434
 40
0.4120863991
 40
0.4780199687
 40
0.5427150829
 40
0.6060183994
 40
0.6677895399
 40
0.727897119
 40
0.786226367
 40
0.8426742195
 40
0.8971571774
 40
0.9496133315
 40
1.0
 40
1.0
 40
1.0
 40
1.0
 10
14.6685353567
 20
8.1399189453
 30
0.0
 10
14.6685353567
 20
8.1411518106
 30
0.0
 10
14.668572195
 20
8.1436152137
 30
0.0
 10
14.6687916253
 20
8.1485112841
 30
0.0
 10
14.6693347153
 20
8.1545433462
 30
0.0
 10
14.6702409943
 20
8.1604665848
 30
0.0
 10
14.6711798538
 20
8.1650668685
 30
0.0
 10
14.6719795058
 20
8.1684016079
 30
0.0
 10
14.6728771634
 20
8.1716350188
 30
0.0
 10
14.6738694004
 20
8.1747557373
 30
0.0
 10
14.6749530611
 20
8.1777526206
 30
0.0
 10
14.6761239612
 20
8.1806151634
 30
0.0
 10
14.677378161
 20
8.1833331598
 30
0.0
 10
14.6787113133
 20
8.1858969845
 30
0.0
 10
14.6801183979
 20
8.1882976038
 30
0.0
 10
14.681123215
 20
8.1898143251
 30
0.0
 10
14.6816375281
 20
8.1905416491
 30
0.0
  0
SPLINE
  5
32D
100
AcDbEntity
  8
0
100
AcDbSpline
 62
7
  6
CONTINUOUS
 70
0
 71
3
 72
21
 73
17
 74
0
 42
0.0000001
 43
0.0000001
 44
0.0000000001
 40
0.0
 40
0.0
 40
0.0
 40
0.0
 40
0.0516547352
 40
0.105198628
 40
0.1605797133
 40
0.217729446
 40
0.276560738
 40
0.3369771596
 40
0.3988689408
 40
0.4621160972
 40
0.5265915614
 40
0.5921548612
 40
0.725945408
 40
0.8623348106
 40
0.9311079891
 40
1.0
 40
1.0
 40
1.0
 40
1.0
 10
14.6802346748
 20
8.0914016178
 30
0.0
 10
14.6797719321
 20
8.0921379512
 30
0.0
 10
14.6788690644
 20
8.0936627066
 30
0.0
 10
14.6776045677
 20
8.0960533316
 30
0.0
 10
14.6764091292
 20
8.0985819411
 30
0.0
 10
14.6752866422
 20
8.1012405596
 30
0.0
 10
14.6742403039
 20
8.1040207639
 30
0.0
 10
14.6732736949
 20
8.1069139267
 30
0.0
 10
14.6723897066
 20
8.1099109383
 30
0.0
 10
14.6715910239
 20
8.1130023916
 30
0.0
 10
14.6708804406
 20
8.1161786388
 30
0.0
 10
14.6700474967
 20
8.1205423302
 30
0.0
 10
14.6692439443
 20
8.126141176
 30
0.0
 10
14.6687623482
 20
8.1318307821
 30
0.0
 10
14.6685679727
 20
8.1364411747
 30
0.0
 10
14.6685353567
 20
8.1387590712
 30
0.0
 10
14.6685353567
 20
8.1399189453
 30
0.0
  0
SPLINE
  5
32E
100
AcDbEntity
  8
0
100
AcDbSpline
 62
7
  6
CONTINUOUS
 70
0
 71
3
 72
12
 73
8
 74
0
 42
0.0000001
 43
0.0000001
 44
0.0000000001
 40
0.0
 40
0.0
 40
0.0
 40
0.0
 40
0.2712440192
 40
0.4013932351
 40
0.5279360038
 40
0.7704656225
 40
1.0
 40
1.0
 40
1.0
 40
1.0
 10
14.683858403
 20
8.1936825625
 30
0.0
 10
14.6846530124
 20
8.1948063248
 30
0.0
 10
14.6858944123
 20
8.1964250325
 30
0.0
 10
14.6876649746
 20
8.1984362935
 30
0.0
 10
14.6894268098
 20
8.2002574727
 30
0.0
 10
14.6916976027
 20
8.2022830267
 30
0.0
 10
14.6936562844
 20
8.2036730793
 30
0.0
 10
14.6946468867
 20
8.2042855996
 30
0.0
  0
LINE
  5
32F
100
AcDbEntity
  8
0
100
AcDbLine
 62
7
  6
CONTINUOUS
 10
14.6816375281
 20
8.1905416491
 11
14.6840015221
 21
8.1935733566
  0
SPLINE
  5
330
100
AcDbEntity
  8
0
100
AcDbSpline
 62
7
  6
CONTINUOUS
 70
0
 71
3
 72
8
 73
4
 74
0
 42
0.0000001
 43
0.0000001
 44
0.0000000001
 40
0.0
 40
0.0
 40
0.0
 40
0.0
 40
1.0
 40
1.0
 40
1.0
 40
1.0
 10
14.6840015221
 20
8.1935733566
 30
0.0
 10
14.6840135347
 20
8.1935872465
 30
0.0
 10
14.6840255473
 20
8.1936011364
 30
0.0
 10
14.6840375599
 20
8.1936150263
 30
0.0
  0
SPLINE
  5
331
100
AcDbEntity
  8
0
100
AcDbSpline
 62
7
  6
CONTINUOUS
 70
0
 71
3
 72
19
 73
15
 74
0
 42
0.0000001
 43
0.0000001
 44
0.0000000001
 40
0.0
 40
0.0
 40
0.0
 40
0.0
 40
0.1452254302
 40
0.2829569302
 40
0.4137380076
 40
0.5383680822
 40
0.5987206781
 40
0.6579485192
 40
0.7162221594
 40
0.7737238466
 40
0.8306466807
 40
0.8871938091
 40
0.9435745486
 40
1.0
 40
1.0
 40
1.0
 40
1.0
 10
14.6840375599
 20
8.1936150263
 30
0.0
 10
14.6846545356
 20
8.1943273134
 30
0.0
 10
14.6859120663
 20
8.1956686517
 30
0.0
 10
14.6879191358
 20
8.1974575558
 30
0.0
 10
14.6899870303
 20
8.1989591738
 30
0.0
 10
14.6917720018
 20
8.1999754895
 30
0.0
 10
14.6932160091
 20
8.2006302791
 30
0.0
 10
14.6942957754
 20
8.2010399821
 30
0.0
 10
14.6953822749
 20
8.2013730028
 30
0.0
 10
14.6964741669
 20
8.2016289053
 30
0.0
 10
14.6975700571
 20
8.2018072052
 30
0.0
 10
14.698668539
 20
8.2019075778
 30
0.0
 10
14.6997680893
 20
8.2019300511
 30
0.0
 10
14.70049986
 20
8.2018931352
 30
0.0
 10
14.7008646556
 20
8.2018618408
 30
0.0
  0
SPLINE
  5
332
100
AcDbEntity
  8
0
100
AcDbSpline
 62
7
  6
CONTINUOUS
 70
0
 71
3
 72
11
 73
7
 74
0
 42
0.0000001
 43
0.0000001
 44
0.0000000001
 40
0.0
 40
0.0
 40
0.0
 40
0.0
 40
0.2265285175
 40
0.4676986395
 40
0.7252047641
 40
1.0
 40
1.0
 40
1.0
 40
1.0
 10
14.6914337671
 20
8.0800737635
 30
0.0
 10
14.6905331391
 20
8.0805615049
 30
0.0
 10
14.6887473786
 20
8.0817089391
 30
0.0
 10
14.6862349792
 20
8.0838274726
 30
0.0
 10
14.6838285792
 20
8.0863739512
 30
0.0
 10
14.6823548734
 20
8.088281798
 30
0.0
 10
14.6816375282
 20
8.0892962418
 30
0.0
  0
SPLINE
  5
333
100
AcDbEntity
  8
0
100
AcDbSpline
 62
7
  6
CONTINUOUS
 70
0
 71
3
 72
21
 73
17
 74
0
 42
0.0000001
 43
0.0000001
 44
0.0000000001
 40
0.0
 40
0.0
 40
0.0
 40
0.0
 40
0.0697353255
 40
0.1393288736
 40
0.277185434
 40
0.4120863991
 40
0.4780199687
 40
0.5427150829
 40
0.6060183994
 40
0.6677895399
 40
0.727897119
 40
0.786226367
 40
0.8426742195
 40
0.8971571774
 40
0.9496133315
 40
1.0
 40
1.0
 40
1.0
 40
1.0
 10
7.2068493288
 20
8.1399189453
 30
0.0
 10
7.2068493288
 20
8.1386860801
 30
0.0
 10
7.2068124905
 20
8.1362226769
 30
0.0
 10
7.2065930602
 20
8.1313266065
 30
0.0
 10
7.2060499702
 20
8.1252945445
 30
0.0
 10
7.2051436912
 20
8.1193713059
 30
0.0
 10
7.2042048317
 20
8.1147710221
 30
0.0
 10
7.2034051797
 20
8.1114362828
 30
0.0
 10
7.2025075221
 20
8.1082028718
 30
0.0
 10
7.2015152851
 20
8.1050821533
 30
0.0
 10
7.2004316244
 20
8.10208527
 30
0.0
 10
7.1992607243
 20
8.0992227272
 30
0.0
 10
7.1980065245
 20
8.0965047309
 30
0.0
 10
7.1966733722
 20
8.0939409061
 30
0.0
 10
7.1952662875
 20
8.0915402868
 30
0.0
 10
7.1942614704
 20
8.0900235656
 30
0.0
 10
7.1937471574
 20
8.0892962416
 30
0.0
  0
SPLINE
  5
334
100
AcDbEntity
  8
0
100
AcDbSpline
 62
7
  6
CONTINUOUS
 70
0
 71
3
 72
10
 73
6
 74
0
 42
0.0000001
 43
0.0000001
 44
0.0000000001
 40
0.0
 40
0.0
 40
0.0
 40
0.0
 40
0.4752173784
 40
0.7312442529
 40
1.0
 40
1.0
 40
1.0
 40
1.0
 10
7.1826552551
 20
8.2039365706
 30
0.0
 10
7.1838808914
 20
8.2030010867
 30
0.0
 10
7.185631423
 20
8.2013784578
 30
0.0
 10
7.1877561442
 20
8.1989251678
 30
0.0
 10
7.188781747
 20
8.197563906
 30
0.0
 10
7.1892851732
 20
8.1968519235
 30
0.0
  0
SPLINE
  5
335
100
AcDbEntity
  8
0
100
AcDbSpline
 62
7
  6
CONTINUOUS
 70
0
 71
3
 72
11
 73
7
 74
0
 42
0.0000001
 43
0.0000001
 44
0.0000000001
 40
0.0
 40
0.0
 40
0.0
 40
0.0
 40
0.2318749796
 40
0.4761445429
 40
0.7323946921
 40
1.0
 40
1.0
 40
1.0
 40
1.0
 10
7.1937471573
 20
8.1905416488
 30
0.0
 10
7.1944291027
 20
8.1895772661
 30
0.0
 10
7.1957500521
 20
8.1875399363
 30
0.0
 10
7.1975557254
 20
8.1842723472
 30
0.0
 10
7.1992276669
 20
8.1807322227
 30
0.0
 10
7.2002256372
 20
8.1782556902
 30
0.0
 10
7.2007018208
 20
8.1769784259
 30
0.0
  0
SPLINE
  5
336
100
AcDbEntity
  8
0
100
AcDbSpline
 62
7
  6
CONTINUOUS
 70
0
 71
3
 72
9
 73
5
 74
0
 42
0.0000001
 43
0.0000001
 44
0.0000000001
 40
0.0
 40
0.0
 40
0.0
 40
0.0
 40
0.4900799771
 40
1.0
 40
1.0
 40
1.0
 40
1.0
 10
7.2007018208
 20
8.1769784259
 30
0.0
 10
7.2013030328
 20
8.1753657988
 30
0.0
 10
7.2024208766
 20
8.1720339394
 30
0.0
 10
7.2033389514
 20
8.1686421165
 30
0.0
 10
7.2037596314
 20
8.1669015046
 30
0.0
  0
SPLINE
  5
337
100
AcDbEntity
  8
0
100
AcDbSpline
 62
7
  6
CONTINUOUS
 70
0
 71
3
 72
11
 73
7
 74
0
 42
0.0000001
 43
0.0000001
 44
0.0000000001
 40
0.0
 40
0.0
 40
0.0
 40
0.0
 40
0.246577516
 40
0.4961081944
 40
0.7476404182
 40
1.0
 40
1.0
 40
1.0
 40
1.0
 10
7.2055706234
 20
8.1575421954
 30
0.0
 10
7.2057837661
 20
8.1561043802
 30
0.0
 10
7.2061568077
 20
8.1532029778
 30
0.0
 10
7.2065557945
 20
8.1488129135
 30
0.0
 10
7.2067957508
 20
8.1443771757
 30
0.0
 10
7.2068493288
 20
8.1414065571
 30
0.0
 10
7.2068493288
 20
8.1399189453
 30
0.0
  0
SPLINE
  5
338
100
AcDbEntity
  8
0
100
AcDbSpline
 62
7
  6
CONTINUOUS
 70
0
 71
3
 72
18
 73
14
 74
0
 42
0.0000001
 43
0.0000001
 44
0.0000000001
 40
0.0
 40
0.0
 40
0.0
 40
0.0
 40
0.0592528623
 40
0.1180977944
 40
0.176725243
 40
0.235327827
 40
0.2940983947
 40
0.3532282501
 40
0.4732418821
 40
0.5968167351
 40
0.7251701825
 40
0.8593006324
 40
1.0
 40
1.0
 40
1.0
 40
1.0
 10
7.1726359144
 20
8.2015848755
 30
0.0
 10
7.1729754479
 20
8.2016556662
 30
0.0
 10
7.1736569155
 20
8.201775112
 30
0.0
 10
7.1746860641
 20
8.201886603
 30
0.0
 10
7.1757165809
 20
8.2019296526
 30
0.0
 10
7.1767472278
 20
8.2019042415
 30
0.0
 10
7.1777768929
 20
8.2018103637
 30
0.0
 10
7.1791532899
 20
8.2015929342
 30
0.0
 10
7.1808732592
 20
8.2011456643
 30
0.0
 10
7.1829014281
 20
8.2003403888
 30
0.0
 10
7.1848957852
 20
8.199267832
 30
0.0
 10
7.1868477353
 20
8.1979344785
 30
0.0
 10
7.1880843456
 20
8.1969013823
 30
0.0
 10
7.1886933139
 20
8.1963469095
 30
0.0
  0
SPLINE
  5
339
100
AcDbEntity
  8
0
100
AcDbSpline
 62
7
  6
CONTINUOUS
 70
0
 71
3
 72
10
 73
6
 74
0
 42
0.0000001
 43
0.0000001
 44
0.0000000001
 40
0.0
 40
0.0
 40
0.0
 40
0.0
 40
0.4824713432
 40
0.7368048517
 40
1.0
 40
1.0
 40
1.0
 40
1.0
 10
7.1886933139
 20
8.1963469095
 30
0.0
 10
7.1896100849
 20
8.1955121787
 30
0.0
 10
7.1909296802
 20
8.1941465636
 30
0.0
 10
7.1925634924
 20
8.1921623315
 30
0.0
 10
7.1933566516
 20
8.1910938879
 30
0.0
 10
7.1937471573
 20
8.1905416488
 30
0.0
  0
SPLINE
  5
33A
100
AcDbEntity
  8
0
100
AcDbSpline
 62
7
  6
CONTINUOUS
 70
0
 71
3
 72
15
 73
11
 74
0
 42
0.0000001
 43
0.0000001
 44
0.0000000001
 40
0.0
 40
0.0
 40
0.0
 40
0.0
 40
0.1426796841
 40
0.2798898562
 40
0.4117314468
 40
0.5383931799
 40
0.6601382176
 40
0.7773293617
 40
0.8904310519
 40
1.0
 40
1.0
 40
1.0
 40
1.0
 10
7.1937471574
 20
8.0892962416
 30
0.0
 10
7.1933040793
 20
8.0886696556
 30
0.0
 10
7.1924024922
 20
8.08746295
 30
0.0
 10
7.1909760664
 20
8.0857673199
 30
0.0
 10
7.189505734
 20
8.0842263561
 30
0.0
 10
7.187995872
 20
8.0828442998
 30
0.0
 10
7.1864504153
 20
8.0816253675
 30
0.0
 10
7.1848735539
 20
8.0805732342
 30
0.0
 10
7.1832700447
 20
8.0796909153
 30
0.0
 10
7.1821703443
 20
8.0792111982
 30
0.0
 10
7.1816192348
 20
8.0790024279
 30
0.0
  0
SPLINE
  5
33B
100
AcDbEntity
  8
0
100
AcDbSpline
 62
7
  6
CONTINUOUS
 70
0
 71
3
 72
22
 73
18
 74
0
 42
0.0000001
 43
0.0000001
 44
0.0000000001
 40
0.0
 40
0.0
 40
0.0
 40
0.0
 40
0.1564025136
 40
0.3096154195
 40
0.3840444997
 40
0.4565179136
 40
0.5266607859
 40
0.594119297
 40
0.658550284
 40
0.7196302291
 40
0.777048109
 40
0.8305195445
 40
0.8797759521
 40
0.9245799791
 40
0.9647140892
 40
0.9829735912
 40
1.0
 40
1.0
 40
1.0
 40
1.0
 10
10.9376923427
 20
9.5336845533
 30
0.0
 10
10.9251808324
 20
9.5336845533
 30
0.0
 10
10.9004127076
 20
9.5338381769
 30
0.0
 10
10.8696953714
 20
9.5344169964
 30
0.0
 10
10.8456974348
 20
9.5351147019
 30
0.0
 10
10.8283459575
 20
9.5357424601
 30
0.0
 10
10.8115567799
 20
9.5364766912
 30
0.0
 10
10.7954165548
 20
9.5373132153
 30
0.0
 10
10.7800079593
 20
9.5382479495
 30
0.0
 10
10.7654103323
 20
9.5392755657
 30
0.0
 10
10.7516985359
 20
9.5403909787
 30
0.0
 10
10.738943234
 20
9.5415877516
 30
0.0
 10
10.7272095826
 20
9.5428597509
 30
0.0
 10
10.7165579713
 20
9.544199557
 30
0.0
 10
10.7083896251
 20
9.5454011704
 30
0.0
 10
10.7024397619
 20
9.5464019735
 30
0.0
 10
10.6996635251
 20
9.546912984
 30
0.0
 10
10.698326322
 20
9.5471718937
 30
0.0
  0
SPLINE
  5
33C
100
AcDbEntity
  8
0
100
AcDbSpline
 62
7
  6
CONTINUOUS
 70
0
 71
3
 72
22
 73
18
 74
0
 42
0.0000001
 43
0.0000001
 44
0.0000000001
 40
0.0
 40
0.0
 40
0.0
 40
0.0
 40
0.0170250017
 40
0.0352831689
 40
0.0754149289
 40
0.1202170077
 40
0.1694718273
 40
0.2229420377
 40
0.2803590678
 40
0.3414385784
 40
0.405869539
 40
0.4733284905
 40
0.5434722107
 40
0.6159468155
 40
0.6903772841
 40
0.8435938112
 40
1.0
 40
1.0
 40
1.0
 40
1.0
 10
11.177063999
 20
9.5471729853
 30
0.0
 10
11.1757268811
 20
9.5469140565
 30
0.0
 10
11.1729508055
 20
9.546403009
 30
0.0
 10
11.1670012217
 20
9.5454021295
 30
0.0
 10
11.1588331441
 20
9.5442004281
 30
0.0
 10
11.1481817606
 20
9.5428605256
 30
0.0
 10
11.1364482184
 20
9.5415884319
 30
0.0
 10
11.1236929116
 20
9.5403915677
 30
0.0
 10
11.1099809936
 20
9.5392760669
 30
0.0
 10
11.0953831267
 20
9.5382483669
 30
0.0
 10
11.0799741678
 20
9.5373135526
 30
0.0
 10
11.0638334583
 20
9.5364769551
 30
0.0
 10
11.0470436828
 20
9.5357426562
 30
0.0
 10
11.0296915177
 20
9.5351148402
 30
0.0
 10
11.0056925124
 20
9.5344170653
 30
0.0
 10
10.9749737473
 20
9.5338381923
 30
0.0
 10
10.9502044463
 20
9.5336845533
 30
0.0
 10
10.9376923427
 20
9.5336845533
 30
0.0
  0
SPLINE
  5
33D
100
AcDbEntity
  8
0
100
AcDbSpline
 62
7
  6
CONTINUOUS
 70
0
 71
3
 72
39
 73
35
 74
0
 42
0.0000001
 43
0.0000001
 44
0.0000000001
 40
0.0
 40
0.0
 40
0.0
 40
0.0
 40
0.007721827
 40
0.0161196311
 40
0.0251853939
 40
0.0349081493
 40
0.056274039
 40
0.0801107559
 40
0.0929159925
 40
0.1062897095
 40
0.1346704656
 40
0.165095487
 40
0.1973981451
 40
0.2313972127
 40
0.2669043784
 40
0.3416377059
 40
0.4199252096
 40
0.5000104719
 40
0.580095357
 40
0.658381766
 40
0.7331133207
 40
0.7686193294
 40
0.8026170578
 40
0.834918179
 40
0.865341511
 40
0.893720427
 40
0.9070931917
 40
0.9198974795
 40
0.9437322036
 40
0.9650960771
 40
0.9748178122
 40
0.9838825049
 40
0.9922792371
 40
1.0
 40
1.0
 40
1.0
 40
1.0
 10
10.710562469
 20
9.5489689364
 30
0.0
 10
10.7117061297
 20
9.5487091097
 30
0.0
 10
10.7141004389
 20
9.548196733
 30
0.0
 10
10.7178565413
 20
9.5474719029
 30
0.0
 10
10.7219239298
 20
9.5467595963
 30
0.0
 10
10.7279464543
 20
9.5457974008
 30
0.0
 10
10.7362096398
 20
9.5446461211
 30
0.0
 10
10.7449590691
 20
9.5436079709
 30
0.0
 10
10.7525130844
 20
9.5428054236
 30
0.0
 10
10.760759923
 20
9.5419936399
 30
0.0
 10
10.7716812619
 20
9.5410376975
 30
0.0
 10
10.7854801424
 20
9.5399980992
 30
0.0
 10
10.8001408732
 20
9.5390512335
 30
0.0
 10
10.8155806696
 20
9.5382021411
 30
0.0
 10
10.8374648753
 20
9.5371904143
 30
0.0
 10
10.8660835137
 20
9.5362175101
 30
0.0
 10
10.9014821825
 20
9.5355168756
 30
0.0
 10
10.9376998181
 20
9.53528158
 30
0.0
 10
10.9739172861
 20
9.5355170689
 30
0.0
 10
11.0093154583
 20
9.5362178924
 30
0.0
 10
11.03793348
 20
9.5371909513
 30
0.0
 10
11.059817031
 20
9.5382027994
 30
0.0
 10
11.0752562094
 20
9.5390519733
 30
0.0
 10
11.0899162404
 20
9.5399989171
 30
0.0
 10
11.103714344
 20
9.5410385846
 30
0.0
 10
11.1146349947
 20
9.5419945847
 30
0.0
 10
11.1228812578
 20
9.5428064138
 30
0.0
 10
11.1304346748
 20
9.5436089944
 30
0.0
 10
11.1391833408
 20
9.5446471888
 30
0.0
 10
11.1474457487
 20
9.5457985156
 30
0.0
 10
11.153467636
 20
9.5467607457
 30
0.0
 10
11.1575345324
 20
9.5474730795
 30
0.0
 10
11.1612901343
 20
9.5481979329
 30
0.0
 10
11.1636841083
 20
9.5487103262
 30
0.0
 10
11.1648276013
 20
9.5489701618
 30
0.0
  0
SPLINE
  5
33E
100
AcDbEntity
  8
0
100
AcDbSpline
 62
7
  6
CONTINUOUS
 70
0
 71
3
 72
17
 73
13
 74
0
 42
0.0000001
 43
0.0000001
 44
0.0000000001
 40
0.0
 40
0.0
 40
0.0
 40
0.0
 40
0.0559507872
 40
0.1144799228
 40
0.2379011753
 40
0.3674068674
 40
0.4999922419
 40
0.6325786049
 40
0.7620872866
 40
0.8855134738
 40
0.9440457113
 40
1.0
 40
1.0
 40
1.0
 40
1.0
 10
11.0686607911
 20
9.5561617132
 30
0.0
 10
11.0637825409
 20
9.5558629553
 30
0.0
 10
11.053798093
 20
9.5553021625
 30
0.0
 10
11.0330399099
 20
9.554323145
 30
0.0
 10
11.0058488021
 20
9.5533817227
 30
0.0
 10
10.9721794858
 20
9.5527036199
 30
0.0
 10
10.937703511
 20
9.5524756698
 30
0.0
 10
10.903227273
 20
9.5527033264
 30
0.0
 10
10.8695571724
 20
9.5533811436
 30
0.0
 10
10.8423650929
 20
9.5543223317
 30
0.0
 10
10.8216058923
 20
9.5553011685
 30
0.0
 10
10.8116208617
 20
9.5558618725
 30
0.0
 10
10.8067423024
 20
9.5561605861
 30
0.0
  0
SPLINE
  5
33F
100
AcDbEntity
  8
0
100
AcDbSpline
 62
7
  6
CONTINUOUS
 70
0
 71
3
 72
11
 73
7
 74
0
 42
0.0000001
 43
0.0000001
 44
0.0000000001
 40
0.0
 40
0.0
 40
0.0
 40
0.0
 40
0.234827873
 40
0.480540754
 40
0.7359893947
 40
1.0
 40
1.0
 40
1.0
 40
1.0
 10
14.680077573
 20
8.0649394391
 30
0.0
 10
14.6814135341
 20
8.0657724832
 30
0.0
 10
14.6840923177
 20
8.0675668073
 30
0.0
 10
14.6880247406
 20
8.0705517621
 30
0.0
 10
14.6919347017
 20
8.0738766785
 30
0.0
 10
14.694466454
 20
8.0762709232
 30
0.0
 10
14.695721258
 20
8.0775193568
 30
0.0
  0
SPLINE
  5
340
100
AcDbEntity
  8
0
100
AcDbSpline
 62
7
  6
CONTINUOUS
 70
0
 71
3
 72
13
 73
9
 74
0
 42
0.0000001
 43
0.0000001
 44
0.0000000001
 40
0.0
 40
0.0
 40
0.0
 40
0.0
 40
0.2363332762
 40
0.3579416894
 40
0.4817699443
 40
0.7362307508
 40
0.8670767081
 40
1.0
 40
1.0
 40
1.0
 40
1.0
 10
14.7092056973
 20
8.1191267815
 30
0.0
 10
14.7109031015
 20
8.120779054
 30
0.0
 10
14.7133813734
 20
8.1233799552
 30
0.0
 10
14.7164878478
 20
8.1270786277
 30
0.0
 10
14.7195358408
 20
8.1310568837
 30
0.0
 10
14.7223279924
 20
8.1353439231
 30
0.0
 10
14.724747205
 20
8.1399440679
 30
0.0
 10
14.7257987901
 20
8.1423736998
 30
0.0
 10
14.726274483
 20
8.1436181883
 30
0.0
  0
SPLINE
  5
341
100
AcDbEntity
  8
0
100
AcDbSpline
 62
7
  6
CONTINUOUS
 70
0
 71
3
 72
13
 73
9
 74
0
 42
0.0000001
 43
0.0000001
 44
0.0000000001
 40
0.0
 40
0.0
 40
0.0
 40
0.0
 40
0.133698447
 40
0.2648796294
 40
0.3936549394
 40
0.5200156385
 40
0.7651898975
 40
1.0
 40
1.0
 40
1.0
 40
1.0
 10
14.7159688815
 20
8.1881650175
 30
0.0
 10
14.7152854621
 20
8.188953535
 30
0.0
 10
14.7138972952
 20
8.1904863995
 30
0.0
 10
14.711746573
 20
8.1926812532
 30
0.0
 10
14.7095651022
 20
8.1947633233
 30
0.0
 10
14.7066570486
 20
8.1973699214
 30
0.0
 10
14.7029841517
 20
8.2003593245
 30
0.0
 10
14.6999314633
 20
8.202535505
 30
0.0
 10
14.6984061624
 20
8.2035513287
 30
0.0
  0
SPLINE
  5
342
100
AcDbEntity
  8
0
100
AcDbSpline
 62
7
  6
CONTINUOUS
 70
0
 71
3
 72
15
 73
11
 74
0
 42
0.0000001
 43
0.0000001
 44
0.0000000001
 40
0.0
 40
0.0
 40
0.0
 40
0.0
 40
0.1578402375
 40
0.3058175041
 40
0.4437298484
 40
0.5716192364
 40
0.690111907
 40
0.800160618
 40
0.9029748286
 40
1.0
 40
1.0
 40
1.0
 40
1.0
 10
14.6945968129
 20
8.2059455515
 30
0.0
 10
14.6928657467
 20
8.2069699933
 30
0.0
 10
14.6894387973
 20
8.2088351275
 30
0.0
 10
14.6842734181
 20
8.2111503248
 30
0.0
 10
14.6792888731
 20
8.2128938677
 30
0.0
 10
14.6745196552
 20
8.2140453229
 30
0.0
 10
14.6700060512
 20
8.2146323874
 30
0.0
 10
14.6657732371
 20
8.21468861
 30
0.0
 10
14.6618385504
 20
8.2142422947
 30
0.0
 10
14.6593612893
 20
8.2136098
 30
0.0
 10
14.6581890868
 20
8.2132163554
 30
0.0
  0
SPLINE
  5
343
100
AcDbEntity
  8
0
100
AcDbSpline
 62
7
  6
CONTINUOUS
 70
0
 71
3
 72
22
 73
18
 74
0
 42
0.0000001
 43
0.0000001
 44
0.0000000001
 40
0.0
 40
0.0
 40
0.0
 40
0.0
 40
0.0440628267
 40
0.0896157211
 40
0.1372988938
 40
0.1875964796
 40
0.2408456253
 40
0.297218173
 40
0.3567695856
 40
0.4194346297
 40
0.4850553128
 40
0.5533969971
 40
0.6968665689
 40
0.7713054698
 40
0.8469881199
 40
0.9234184975
 40
1.0
 40
1.0
 40
1.0
 40
1.0
 10
14.6942203651
 20
8.2047971528
 30
0.0
 10
14.6930695866
 20
8.2046290628
 30
0.0
 10
14.6907533746
 20
8.2040945068
 30
0.0
 10
14.6873783433
 20
8.2027406392
 30
0.0
 10
14.6840865599
 20
8.2008422043
 30
0.0
 10
14.6809020372
 20
8.198419882
 30
0.0
 10
14.6778482089
 20
8.1954945427
 30
0.0
 10
14.674943774
 20
8.1920944514
 30
0.0
 10
14.6722108372
 20
8.1882470791
 30
0.0
 10
14.6696670474
 20
8.1839862911
 30
0.0
 10
14.667330086
 20
8.1793478124
 30
0.0
 10
14.6644672747
 20
8.1726037483
 30
0.0
 10
14.662149962
 20
8.1653927599
 30
0.0
 10
14.6603535555
 20
8.1578528208
 30
0.0
 10
14.6592578281
 20
8.1519717561
 30
0.0
 10
14.6584374224
 20
8.1459895516
 30
0.0
 10
14.6580766827
 20
8.1419653309
 30
0.0
 10
14.6579439094
 20
8.1399484119
 30
0.0
  0
SPLINE
  5
344
100
AcDbEntity
  8
0
100
AcDbSpline
 62
7
  6
CONTINUOUS
 70
0
 71
3
 72
19
 73
15
 74
0
 42
0.0000001
 43
0.0000001
 44
0.0000000001
 40
0.0
 40
0.0
 40
0.0
 40
0.0
 40
0.1636991942
 40
0.3192514049
 40
0.464536985
 40
0.5977407219
 40
0.6594456177
 40
0.7177331308
 40
0.7725822566
 40
0.8240419519
 40
0.8722279853
 40
0.9173632705
 40
0.9597991587
 40
1.0
 40
1.0
 40
1.0
 40
1.0
 10
14.6579411965
 20
8.1227987015
 30
0.0
 10
14.6581403781
 20
8.1198530197
 30
0.0
 10
14.658737423
 20
8.1141196548
 30
0.0
 10
14.6602581462
 20
8.1058713015
 30
0.0
 10
14.6623389366
 20
8.0983138626
 30
0.0
 10
14.6645515549
 20
8.0925764069
 30
0.0
 10
14.6665766407
 20
8.0884803729
 30
0.0
 10
14.6681601687
 20
8.0857504024
 30
0.0
 10
14.6698373684
 20
8.083297358
 30
0.0
 10
14.6715979324
 20
8.081132931
 30
0.0
 10
14.6734327257
 20
8.0792687982
 30
0.0
 10
14.6753325811
 20
8.0777156314
 30
0.0
 10
14.6772855607
 20
8.0764811865
 30
0.0
 10
14.6786479718
 20
8.0758618187
 30
0.0
 10
14.6793292388
 20
8.0756136945
 30
0.0
  0
LINE
  5
345
100
AcDbEntity
  8
0
100
AcDbLine
 62
7
  6
CONTINUOUS
 10
14.6793292388
 20
8.0756136945
 11
14.6824325521
 21
8.0748877666
  0
SPLINE
  5
346
100
AcDbEntity
  8
0
100
AcDbSpline
 62
7
  6
CONTINUOUS
 70
0
 71
3
 72
15
 73
11
 74
0
 42
0.0000001
 43
0.0000001
 44
0.0000000001
 40
0.0
 40
0.0
 40
0.0
 40
0.0
 40
0.1567445608
 40
0.3023912775
 40
0.436958909
 40
0.5613678256
 40
0.6773759776
 40
0.7874872747
 40
0.8942429821
 40
1.0
 40
1.0
 40
1.0
 40
1.0
 10
14.680077573
 20
8.0649394391
 30
0.0
 10
14.6779806665
 20
8.0646496501
 30
0.0
 10
14.6739167687
 20
8.0642109739
 30
0.0
 10
14.6680105821
 20
8.0640379652
 30
0.0
 10
14.6625489001
 20
8.0644266586
 30
0.0
 10
14.6575638482
 20
8.0654043763
 30
0.0
 10
14.6530875784
 20
8.067002665
 30
0.0
 10
14.6491297237
 20
8.0691758977
 30
0.0
 10
14.6456856175
 20
8.0718737512
 30
0.0
 10
14.6437187787
 20
8.0739807013
 30
0.0
 10
14.6428202513
 20
8.0750909012
 30
0.0
  0
SPLINE
  5
347
100
AcDbEntity
  8
0
100
AcDbSpline
 62
7
  6
CONTINUOUS
 70
0
 71
3
 72
15
 73
11
 74
0
 42
0.0000001
 43
0.0000001
 44
0.0000000001
 40
0.0
 40
0.0
 40
0.0
 40
0.0
 40
0.1488100638
 40
0.2918730979
 40
0.4284307198
 40
0.5578565256
 40
0.6798342586
 40
0.794178402
 40
0.9008462731
 40
1.0
 40
1.0
 40
1.0
 40
1.0
 10
14.7045236057
 20
8.1086047251
 30
0.0
 10
14.70422095
 20
8.1070827899
 30
0.0
 10
14.7035567741
 20
8.1041111144
 30
0.0
 10
14.7023620294
 20
8.0998042746
 30
0.0
 10
14.700997733
 20
8.0957604554
 30
0.0
 10
14.6994737553
 20
8.0920100248
 30
0.0
 10
14.6978041781
 20
8.0885775325
 30
0.0
 10
14.6960014438
 20
8.0854839951
 30
0.0
 10
14.6940782803
 20
8.0827498147
 30
0.0
 10
14.692675645
 20
8.0811190752
 30
0.0
 10
14.6919568335
 20
8.0803758799
 30
0.0
  0
SPLINE
  5
348
100
AcDbEntity
  8
0
100
AcDbSpline
 62
7
  6
CONTINUOUS
 70
0
 71
3
 72
11
 73
7
 74
0
 42
0.0000001
 43
0.0000001
 44
0.0000000001
 40
0.0
 40
0.0
 40
0.0
 40
0.0
 40
0.2743670476
 40
0.5305115417
 40
0.7711897968
 40
1.0
 40
1.0
 40
1.0
 40
1.0
 10
14.6919568335
 20
8.0803758799
 30
0.0
 10
14.6913286665
 20
8.079726404
 30
0.0
 10
14.6900483558
 20
8.0785312229
 30
0.0
 10
14.6879885463
 20
8.0770334488
 30
0.0
 10
14.6858733014
 20
8.0759042599
 30
0.0
 10
14.6844053023
 20
8.0753935803
 30
0.0
 10
14.6836748782
 20
8.0752084258
 30
0.0
  0
SPLINE
  5
349
100
AcDbEntity
  8
0
100
AcDbSpline
 62
7
  6
CONTINUOUS
 70
0
 71
3
 72
11
 73
7
 74
0
 42
0.0000001
 43
0.0000001
 44
0.0000000001
 40
0.0
 40
0.0
 40
0.0
 40
0.0
 40
0.2465443956
 40
0.4979961454
 40
0.7508065026
 40
1.0
 40
1.0
 40
1.0
 40
1.0
 10
14.6412714408
 20
8.0979212011
 30
0.0
 10
14.6421475163
 20
8.1041497946
 30
0.0
 10
14.6437810591
 20
8.1167504908
 30
0.0
 10
14.6458511371
 20
8.1357942146
 30
0.0
 10
14.6475934481
 20
8.1549382156
 30
0.0
 10
14.6485906741
 20
8.1677067776
 30
0.0
 10
14.6490677346
 20
8.1740463412
 30
0.0
  0
SPLINE
  5
34A
100
AcDbEntity
  8
0
100
AcDbSpline
 62
7
  6
CONTINUOUS
 70
0
 71
3
 72
10
 73
6
 74
0
 42
0.0000001
 43
0.0000001
 44
0.0000000001
 40
0.0
 40
0.0
 40
0.0
 40
0.0
 40
0.2675461176
 40
0.5237606729
 40
1.0
 40
1.0
 40
1.0
 40
1.0
 10
14.6504881488
 20
8.1928121493
 30
0.0
 10
14.6513004608
 20
8.1944722808
 30
0.0
 10
14.6529851031
 20
8.1976779753
 30
0.0
 10
14.6565862486
 20
8.203575191
 30
0.0
 10
14.6596817081
 20
8.2076136886
 30
0.0
 10
14.6619148589
 20
8.2100295246
 30
0.0
  0
SPLINE
  5
34B
100
AcDbEntity
  8
0
100
AcDbSpline
 62
7
  6
CONTINUOUS
 70
0
 71
3
 72
9
 73
5
 74
0
 42
0.0000001
 43
0.0000001
 44
0.0000000001
 40
0.0
 40
0.0
 40
0.0
 40
0.0
 40
0.2571700954
 40
1.0
 40
1.0
 40
1.0
 40
1.0
 10
14.6619148589
 20
8.2100295246
 30
0.0
 10
14.6622997799
 20
8.2104459344
 30
0.0
 10
14.663822224
 20
8.2120410453
 30
0.0
 10
14.6654498309
 20
8.2135369823
 30
0.0
 10
14.6667172743
 20
8.2145745125
 30
0.0
  0
SPLINE
  5
34C
100
AcDbEntity
  8
0
100
AcDbSpline
 62
7
  6
CONTINUOUS
 70
0
 71
3
 72
21
 73
17
 74
0
 42
0.0000001
 43
0.0000001
 44
0.0000000001
 40
0.0
 40
0.0
 40
0.0
 40
0.0
 40
0.0395069134
 40
0.080067279
 40
0.1226370575
 40
0.1679872866
 40
0.2167069292
 40
0.2691923126
 40
0.325659513
 40
0.3862110686
 40
0.4508319071
 40
0.5194051974
 40
0.591762545
 40
0.6676581591
 40
0.828753932
 40
1.0
 40
1.0
 40
1.0
 40
1.0
 10
14.6805910505
 20
8.0748195262
 30
0.0
 10
14.6798249412
 20
8.0748195679
 30
0.0
 10
14.6782685681
 20
8.0749666012
 30
0.0
 10
14.6759705309
 20
8.0756236533
 30
0.0
 10
14.6737159439
 20
8.0767092808
 30
0.0
 10
14.6715213907
 20
8.0782096938
 30
0.0
 10
14.6694023012
 20
8.0801142133
 30
0.0
 10
14.6673727783
 20
8.0824086663
 30
0.0
 10
14.6654451621
 20
8.0850768184
 30
0.0
 10
14.6636346568
 20
8.0881026864
 30
0.0
 10
14.6619543922
 20
8.091466641
 30
0.0
 10
14.6604159988
 20
8.0951467399
 30
0.0
 10
14.6590330677
 20
8.0991200111
 30
0.0
 10
14.6573781047
 20
8.1048887171
 30
0.0
 10
14.6557904709
 20
8.1126577314
 30
0.0
 10
14.6550713883
 20
8.1190711297
 30
0.0
 10
14.6548354231
 20
8.1223835014
 30
0.0
  0
SPLINE
  5
34D
100
AcDbEntity
  8
0
100
AcDbSpline
 62
7
  6
CONTINUOUS
 70
0
 71
3
 72
9
 73
5
 74
0
 42
0.0000001
 43
0.0000001
 44
0.0000000001
 40
0.0
 40
0.0
 40
0.0
 40
0.0
 40
0.5041378129
 40
1.0
 40
1.0
 40
1.0
 40
1.0
 10
14.657941973
 20
8.1399189453
 30
0.0
 10
14.657753551
 20
8.1370465569
 30
0.0
 10
14.6575648751
 20
8.1313353107
 30
0.0
 10
14.6577501849
 20
8.12562356
 30
0.0
 10
14.6579411965
 20
8.1227987015
 30
0.0
  0
SPLINE
  5
34E
100
AcDbEntity
  8
0
100
AcDbSpline
 62
7
  6
CONTINUOUS
 70
0
 71
3
 72
23
 73
19
 74
0
 42
0.0000001
 43
0.0000001
 44
0.0000000001
 40
0.0
 40
0.0
 40
0.0
 40
0.0
 40
0.0779137629
 40
0.1555910448
 40
0.2323709036
 40
0.3077234775
 40
0.3811910222
 40
0.4523460193
 40
0.5207982257
 40
0.586221196
 40
0.6483940126
 40
0.7071830636
 40
0.7625932739
 40
0.8147623889
 40
0.8640045595
 40
0.9108141893
 40
0.9558676008
 40
1.0
 40
1.0
 40
1.0
 40
1.0
 10
14.6548348826
 20
8.1403289087
 30
0.0
 10
14.6549831137
 20
8.1424493858
 30
0.0
 10
14.6553808012
 20
8.1466775054
 30
0.0
 10
14.6562805187
 20
8.1529554239
 30
0.0
 10
14.6574856936
 20
8.1591111157
 30
0.0
 10
14.658987342
 20
8.1650830674
 30
0.0
 10
14.6607742989
 20
8.170815729
 30
0.0
 10
14.6628337455
 20
8.1762557883
 30
0.0
 10
14.6651493339
 20
8.1813523655
 30
0.0
 10
14.6677060013
 20
8.1860560126
 30
0.0
 10
14.6704814157
 20
8.1903238123
 30
0.0
 10
14.673456785
 20
8.1941144546
 30
0.0
 10
14.6766076009
 20
8.1973934306
 30
0.0
 10
14.6799116885
 20
8.2001280264
 30
0.0
 10
14.6833436132
 20
8.2022903125
 30
0.0
 10
14.686876669
 20
8.2038570602
 30
0.0
 10
14.6904803454
 20
8.2048053639
 30
0.0
 10
14.6929184467
 20
8.2050189163
 30
0.0
 10
14.6941224716
 20
8.2050189448
 30
0.0
  0
SPLINE
  5
34F
100
AcDbEntity
  8
0
100
AcDbSpline
 62
7
  6
CONTINUOUS
 70
0
 71
3
 72
23
 73
19
 74
0
 42
0.0000001
 43
0.0000001
 44
0.0000000001
 40
0.0
 40
0.0
 40
0.0
 40
0.0
 40
0.0514292253
 40
0.1063225545
 40
0.1644347501
 40
0.2254226664
 40
0.2888204323
 40
0.3541302262
 40
0.4208419922
 40
0.488444668
 40
0.5564254427
 40
0.6242538618
 40
0.6913970548
 40
0.757331847
 40
0.8215564512
 40
0.8836271899
 40
0.9432062072
 40
1.0
 40
1.0
 40
1.0
 40
1.0
 10
14.6753761621
 20
8.0778405
 30
0.0
 10
14.674426359
 20
8.0797483954
 30
0.0
 10
14.6726399211
 20
8.083782466
 30
0.0
 10
14.6703638126
 20
8.090211232
 30
0.0
 10
14.668436344
 20
8.0971648871
 30
0.0
 10
14.6668833569
 20
8.1045711513
 30
0.0
 10
14.6657153509
 20
8.1123490284
 30
0.0
 10
14.6649478541
 20
8.1204146191
 30
0.0
 10
14.6645949226
 20
8.1286832836
 30
0.0
 10
14.6646724423
 20
8.1370699052
 30
0.0
 10
14.6651897252
 20
8.1454872285
 30
0.0
 10
14.6661352825
 20
8.1538480339
 30
0.0
 10
14.6675005834
 20
8.1620648847
 30
0.0
 10
14.6692762005
 20
8.1700503616
 30
0.0
 10
14.6714535522
 20
8.1777181454
 30
0.0
 10
14.6740242271
 20
8.1849851517
 30
0.0
 10
14.6769557352
 20
8.1917800995
 30
0.0
 10
14.6791880989
 20
8.1960613747
 30
0.0
 10
14.6803629871
 20
8.1981006979
 30
0.0
  0
SPLINE
  5
350
100
AcDbEntity
  8
0
100
AcDbSpline
 62
7
  6
CONTINUOUS
 70
0
 71
3
 72
15
 73
11
 74
0
 42
0.0000001
 43
0.0000001
 44
0.0000000001
 40
0.0
 40
0.0
 40
0.0
 40
0.0
 40
0.1020504939
 40
0.2108053465
 40
0.3263094042
 40
0.448493481
 40
0.5772083766
 40
0.7122499338
 40
0.8533394171
 40
1.0
 40
1.0
 40
1.0
 40
1.0
 10
14.6565060577
 20
8.0656397298
 30
0.0
 10
14.6556674827
 20
8.0665355185
 30
0.0
 10
14.6540285093
 20
8.0684746733
 30
0.0
 10
14.6517593121
 20
8.0716801689
 30
0.0
 10
14.6496143532
 20
8.0752553106
 30
0.0
 10
14.6476072632
 20
8.0791805484
 30
0.0
 10
14.64575143
 20
8.0834367413
 30
0.0
 10
14.6440607116
 20
8.088004147
 30
0.0
 10
14.6425496076
 20
8.0928601604
 30
0.0
 10
14.6416814162
 20
8.0962108374
 30
0.0
 10
14.6412766396
 20
8.0979271886
 30
0.0
  0
SPLINE
  5
351
100
AcDbEntity
  8
0
100
AcDbSpline
 62
7
  6
CONTINUOUS
 70
0
 71
3
 72
11
 73
7
 74
0
 42
0.0000001
 43
0.0000001
 44
0.0000000001
 40
0.0
 40
0.0
 40
0.0
 40
0.0
 40
0.2165001809
 40
0.4546331658
 40
0.7156935812
 40
1.0
 40
1.0
 40
1.0
 40
1.0
 10
14.6581890868
 20
8.2132163554
 30
0.0
 10
14.6572943259
 20
8.2119117755
 30
0.0
 10
14.6556428901
 20
8.2090142585
 30
0.0
 10
14.6536123378
 20
8.2041863548
 30
0.0
 10
14.6518756362
 20
8.1987249375
 30
0.0
 10
14.6509269462
 20
8.1948520235
 30
0.0
 10
14.6504818632
 20
8.192822875
 30
0.0
  0
LINE
  5
352
100
AcDbEntity
  8
0
100
AcDbLine
 62
7
  6
CONTINUOUS
 10
14.6504818632
 20
8.192822875
 11
14.6490677346
 21
8.1740463412
  0
SPLINE
  5
353
100
AcDbEntity
  8
0
100
AcDbSpline
 62
7
  6
CONTINUOUS
 70
0
 71
3
 72
11
 73
7
 74
0
 42
0.0000001
 43
0.0000001
 44
0.0000000001
 40
0.0
 40
0.0
 40
0.0
 40
0.0
 40
0.2789574663
 40
0.53908824
 40
0.7796226065
 40
1.0
 40
1.0
 40
1.0
 40
1.0
 10
14.6412714408
 20
8.0979212011
 30
0.0
 10
14.6412350999
 20
8.095789803
 30
0.0
 10
14.6412233174
 20
8.0916694347
 30
0.0
 10
14.6414356214
 20
8.085713538
 30
0.0
 10
14.6419176138
 20
8.0802218683
 30
0.0
 10
14.6424722458
 20
8.0767386085
 30
0.0
 10
14.6428202513
 20
8.0750909012
 30
0.0
  0
SPLINE
  5
354
100
AcDbEntity
  8
0
100
AcDbSpline
 62
7
  6
CONTINUOUS
 70
0
 71
3
 72
9
 73
5
 74
0
 42
0.0000001
 43
0.0000001
 44
0.0000000001
 40
0.0
 40
0.0
 40
0.0
 40
0.0
 40
0.5002787487
 40
1.0
 40
1.0
 40
1.0
 40
1.0
 10
14.695721258
 20
8.0775193568
 30
0.0
 10
14.6976003243
 20
8.0825741308
 30
0.0
 10
14.7010279095
 20
8.0928052185
 30
0.0
 10
14.703552008
 20
8.1033063433
 30
0.0
 10
14.7045236057
 20
8.1086047251
 30
0.0
  0
SPLINE
  5
355
100
AcDbEntity
  8
0
100
AcDbSpline
 62
7
  6
CONTINUOUS
 70
0
 71
3
 72
11
 73
7
 74
0
 42
0.0000001
 43
0.0000001
 44
0.0000000001
 40
0.0
 40
0.0
 40
0.0
 40
0.0
 40
0.2194079603
 40
0.4577505657
 40
0.7170681418
 40
1.0
 40
1.0
 40
1.0
 40
1.0
 10
7.2278693086
 20
8.1191268625
 30
0.0
 10
7.2282796322
 20
8.120575387
 30
0.0
 10
7.2290161651
 20
8.1236319238
 30
0.0
 10
7.2298698262
 20
8.1284798312
 30
0.0
 10
7.2305317127
 20
8.1337974619
 30
0.0
 10
7.2308022913
 20
8.1375095004
 30
0.0
 10
7.2309244354
 20
8.1394470578
 30
0.0
  0
SPLINE
  5
356
100
AcDbEntity
  8
0
100
AcDbSpline
 62
7
  6
CONTINUOUS
 70
0
 71
3
 72
28
 73
24
 74
0
 42
0.0000001
 43
0.0000001
 44
0.0000000001
 40
0.0
 40
0.0
 40
0.0
 40
0.0
 40
0.0380679265
 40
0.074614441
 40
0.1099544917
 40
0.1443273395
 40
0.2102186
 40
0.2724210501
 40
0.3316058952
 40
0.3886405775
 40
0.4444225491
 40
0.4997900356
 40
0.555509474
 40
0.6122528081
 40
0.6706128816
 40
0.7310956958
 40
0.7941017753
 40
0.8266486513
 40
0.8599096396
 40
0.8938771847
 40
0.9285342276
 40
0.9638953379
 40
1.0
 40
1.0
 40
1.0
 40
1.0
 10
7.2258441992
 20
8.1881648041
 30
0.0
 10
7.2256119456
 20
8.1888704101
 30
0.0
 10
7.2251313523
 20
8.1902452354
 30
0.0
 10
7.2243495293
 20
8.1922438014
 30
0.0
 10
7.2235277122
 20
8.1941479555
 30
0.0
 10
7.2224026714
 20
8.1965433176
 30
0.0
 10
7.2209034981
 20
8.1993410728
 30
0.0
 10
7.2188854156
 20
8.2023948595
 30
0.0
 10
7.2166723455
 20
8.2050914078
 30
0.0
 10
7.2142627206
 20
8.2074382414
 30
0.0
 10
7.21165828
 20
8.2094472575
 30
0.0
 10
7.2088604636
 20
8.2111272865
 30
0.0
 10
7.2058724558
 20
8.2124848375
 30
0.0
 10
7.2026973746
 20
8.2135211134
 30
0.0
 10
7.1993401789
 20
8.2142358411
 30
0.0
 10
7.1958075591
 20
8.2146245697
 30
0.0
 10
7.1927590467
 20
8.2146788088
 30
0.0
 10
7.190247358
 20
8.2145690035
 30
0.0
 10
7.1883060151
 20
8.2144161126
 30
0.0
 10
7.1863291282
 20
8.214202817
 30
0.0
 10
7.1843169299
 20
8.2139396356
 30
0.0
 10
7.1822710147
 20
8.2136175643
 30
0.0
 10
7.180900383
 20
8.2133587315
 30
0.0
 10
7.1802103949
 20
8.2132162958
 30
0.0
  0
SPLINE
  5
357
100
AcDbEntity
  8
0
100
AcDbSpline
 62
7
  6
CONTINUOUS
 70
0
 71
3
 72
11
 73
7
 74
0
 42
0.0000001
 43
0.0000001
 44
0.0000000001
 40
0.0
 40
0.0
 40
0.0
 40
0.0
 40
0.2310569967
 40
0.475671277
 40
0.732596354
 40
1.0
 40
1.0
 40
1.0
 40
1.0
 10
7.1802103949
 20
8.2132162958
 30
0.0
 10
7.1785438592
 20
8.2119225355
 30
0.0
 10
7.1752351771
 20
8.2090978741
 30
0.0
 10
7.1705587273
 20
8.2043024191
 30
0.0
 10
7.1661188857
 20
8.1988519309
 30
0.0
 10
7.1634173053
 20
8.1948917371
 30
0.0
 10
7.1621207277
 20
8.192822782
 30
0.0
  0
SPLINE
  5
358
100
AcDbEntity
  8
0
100
AcDbSpline
 62
7
  6
CONTINUOUS
 70
0
 71
3
 72
10
 73
6
 74
0
 42
0.0000001
 43
0.0000001
 44
0.0000000001
 40
0.0
 40
0.0
 40
0.0
 40
0.0
 40
0.5133305258
 40
0.7607453747
 40
1.0
 40
1.0
 40
1.0
 40
1.0
 10
7.1635681709
 20
8.0979212946
 30
0.0
 10
7.1662043285
 20
8.0936092951
 30
0.0
 10
7.170570255
 20
8.0874843101
 30
0.0
 10
7.1770649641
 20
8.0800795925
 30
0.0
 10
7.1804606326
 20
8.0766920391
 30
0.0
 10
7.1821884309
 20
8.0750909669
 30
0.0
  0
SPLINE
  5
359
100
AcDbEntity
  8
0
100
AcDbSpline
 62
7
  6
CONTINUOUS
 70
0
 71
3
 72
12
 73
8
 74
0
 42
0.0000001
 43
0.0000001
 44
0.0000000001
 40
0.0
 40
0.0
 40
0.0
 40
0.0
 40
0.2785244109
 40
0.5408426959
 40
0.7824618849
 40
0.8944119153
 40
1.0
 40
1.0
 40
1.0
 40
1.0
 10
7.1554887113
 20
8.1571987799
 30
0.0
 10
7.1557167083
 20
8.1604955299
 30
0.0
 10
7.1564168627
 20
8.1668836379
 30
0.0
 10
7.1582492591
 20
8.1759971755
 30
0.0
 10
7.1604026522
 20
8.1829975874
 30
0.0
 10
7.1624750671
 20
8.188039083
 30
0.0
 10
7.163613701
 20
8.1903583031
 30
0.0
 10
7.1642087814
 20
8.191460723
 30
0.0
  0
SPLINE
  5
35A
100
AcDbEntity
  8
0
100
AcDbSpline
 62
7
  6
CONTINUOUS
 70
0
 71
3
 72
14
 73
10
 74
0
 42
0.0000001
 43
0.0000001
 44
0.0000000001
 40
0.0
 40
0.0
 40
0.0
 40
0.0
 40
0.1527700401
 40
0.2968824839
 40
0.559393847
 40
0.678868076
 40
0.7913658079
 40
0.897945286
 40
1.0
 40
1.0
 40
1.0
 40
1.0
 10
7.1642087814
 20
8.191460723
 30
0.0
 10
7.1646888507
 20
8.1923500784
 30
0.0
 10
7.1656761893
 20
8.1940503597
 30
0.0
 10
7.1677575375
 20
8.1971116994
 30
0.0
 10
7.1700466001
 20
8.1997640129
 30
0.0
 10
7.1725480271
 20
8.2018810298
 30
0.0
 10
7.1744167554
 20
8.2031259331
 30
0.0
 10
7.1763272426
 20
8.2040690441
 30
0.0
 10
7.1776447761
 20
8.2044999195
 30
0.0
 10
7.1783007807
 20
8.2046595397
 30
0.0
  0
SPLINE
  5
35B
100
AcDbEntity
  8
0
100
AcDbSpline
 62
7
  6
CONTINUOUS
 70
0
 71
3
 72
18
 73
14
 74
0
 42
0.0000001
 43
0.0000001
 44
0.0000000001
 40
0.0
 40
0.0
 40
0.0
 40
0.0
 40
0.0486493478
 40
0.0982357863
 40
0.14910742
 40
0.2015724594
 40
0.255890527
 40
0.3122588598
 40
0.4316264945
 40
0.5603939396
 40
0.6984647773
 40
0.8453011468
 40
1.0
 40
1.0
 40
1.0
 40
1.0
 10
7.1947051385
 20
8.0750416794
 30
0.0
 10
7.1954753763
 20
8.0751545157
 30
0.0
 10
7.1970193325
 20
8.0754682232
 30
0.0
 10
7.1992983066
 20
8.0761879355
 30
0.0
 10
7.2015497449
 20
8.0771565236
 30
0.0
 10
7.2037652121
 20
8.07837042
 30
0.0
 10
7.2059370197
 20
8.0798249604
 30
0.0
 10
7.2088204065
 20
8.082119042
 30
0.0
 10
7.2122704739
 20
8.085585077
 30
0.0
 10
7.2160407779
 20
8.0904987084
 30
0.0
 10
7.2194777178
 20
8.0961696233
 30
0.0
 10
7.2225382258
 20
8.1025131699
 30
0.0
 10
7.2242652922
 20
8.1070248725
 30
0.0
 10
7.2250638735
 20
8.1093679229
 30
0.0
  0
SPLINE
  5
35C
100
AcDbEntity
  8
0
100
AcDbSpline
 62
7
  6
CONTINUOUS
 70
0
 71
3
 72
9
 73
5
 74
0
 42
0.0000001
 43
0.0000001
 44
0.0000000001
 40
0.0
 40
0.0
 40
0.0
 40
0.0
 40
0.4904867911
 40
1.0
 40
1.0
 40
1.0
 40
1.0
 10
7.1899423425
 20
8.0753849426
 30
0.0
 10
7.188845218
 20
8.0756418776
 30
0.0
 10
7.1866462537
 20
8.0763389488
 30
0.0
 10
7.1845691834
 20
8.0773383512
 30
0.0
 10
7.1835484422
 20
8.0779112397
 30
0.0
  0
SPLINE
  5
35D
100
AcDbEntity
  8
0
100
AcDbSpline
 62
7
  6
CONTINUOUS
 70
0
 71
3
 72
11
 73
7
 74
0
 42
0.0000001
 43
0.0000001
 44
0.0000000001
 40
0.0
 40
0.0
 40
0.0
 40
0.0
 40
0.2239207128
 40
0.4648490073
 40
0.7236429706
 40
1.0
 40
1.0
 40
1.0
 40
1.0
 10
7.1814919438
 20
8.0791820711
 30
0.0
 10
7.1800661418
 20
8.0801455814
 30
0.0
 10
7.1772714981
 20
8.0823966679
 30
0.0
 10
7.1734536441
 20
8.0864596046
 30
0.0
 10
7.1699077484
 20
8.0912701625
 30
0.0
 10
7.1678145244
 20
8.0948186309
 30
0.0
 10
7.1668164309
 20
8.0966932935
 30
0.0
  0
SPLINE
  5
35E
100
AcDbEntity
  8
0
100
AcDbSpline
 62
7
  6
CONTINUOUS
 70
0
 71
3
 72
14
 73
10
 74
0
 42
0.0000001
 43
0.0000001
 44
0.0000000001
 40
0.0
 40
0.0
 40
0.0
 40
0.0
 40
0.234939753
 40
0.3575253561
 40
0.4828524134
 40
0.6103979894
 40
0.7395976092
 40
0.8697292953
 40
1.0
 40
1.0
 40
1.0
 40
1.0
 10
7.1651136077
 20
8.100096796
 30
0.0
 10
7.1637530262
 20
8.1029909581
 30
0.0
 10
7.1619404386
 20
8.1075205886
 30
0.0
 10
7.1599527296
 20
8.1137867924
 30
0.0
 10
7.1586381646
 20
8.1187277544
 30
0.0
 10
7.1575279105
 20
8.123810338
 30
0.0
 10
7.1566296812
 20
8.1290010435
 30
0.0
 10
7.1559431914
 20
8.1342611286
 30
0.0
 10
7.1556258845
 20
8.1377926357
 30
0.0
 10
7.1555022865
 20
8.1395615812
 30
0.0
  0
SPLINE
  5
35F
100
AcDbEntity
  8
0
100
AcDbSpline
 62
7
  6
CONTINUOUS
 70
0
 71
3
 72
10
 73
6
 74
0
 42
0.0000001
 43
0.0000001
 44
0.0000000001
 40
0.0
 40
0.0
 40
0.0
 40
0.0
 40
0.5256571422
 40
0.7695573263
 40
1.0
 40
1.0
 40
1.0
 40
1.0
 10
7.2007240604
 20
8.1770023759
 30
0.0
 10
7.2000193714
 20
8.1796526297
 30
0.0
 10
7.1988034116
 20
8.1834899172
 30
0.0
 10
7.1967902693
 20
8.1883054266
 30
0.0
 10
7.1956890203
 20
8.1905242191
 30
0.0
 10
7.1951149113
 20
8.1915804942
 30
0.0
  0
SPLINE
  5
360
100
AcDbEntity
  8
0
100
AcDbSpline
 62
7
  6
CONTINUOUS
 70
0
 71
3
 72
9
 73
5
 74
0
 42
0.0000001
 43
0.0000001
 44
0.0000000001
 40
0.0
 40
0.0
 40
0.0
 40
0.0
 40
0.5184885601
 40
1.0
 40
1.0
 40
1.0
 40
1.0
 10
7.1951149113
 20
8.1915804942
 30
0.0
 10
7.1945180392
 20
8.1926786501
 30
0.0
 10
7.1932846368
 20
8.1947534421
 30
0.0
 10
7.1918663572
 20
8.1967083736
 30
0.0
 10
7.1911339058
 20
8.1976088401
 30
0.0
  0
SPLINE
  5
361
100
AcDbEntity
  8
0
100
AcDbSpline
 62
7
  6
CONTINUOUS
 70
0
 71
3
 72
9
 73
5
 74
0
 42
0.0000001
 43
0.0000001
 44
0.0000000001
 40
0.0
 40
0.0
 40
0.0
 40
0.0
 40
0.5231090368
 40
1.0
 40
1.0
 40
1.0
 40
1.0
 10
7.1905194335
 20
8.1983406404
 30
0.0
 10
7.1897053828
 20
8.1992793348
 30
0.0
 10
7.1880336808
 20
8.2009788712
 30
0.0
 10
7.1861102601
 20
8.2023964043
 30
0.0
 10
7.1851366074
 20
8.2029752611
 30
0.0
  0
LINE
  5
362
100
AcDbEntity
  8
0
100
AcDbLine
 62
7
  6
CONTINUOUS
 10
7.1851366074
 20
8.2029752611
 11
7.1826597614
 21
8.2041734353
  0
LINE
  5
363
100
AcDbEntity
  8
0
100
AcDbLine
 62
7
  6
CONTINUOUS
 10
7.1826597614
 20
8.2041734353
 11
7.1798814303
 21
8.2048930179
  0
SPLINE
  5
364
100
AcDbEntity
  8
0
100
AcDbSpline
 62
7
  6
CONTINUOUS
 70
0
 71
3
 72
14
 73
10
 74
0
 42
0.0000001
 43
0.0000001
 44
0.0000000001
 40
0.0
 40
0.0
 40
0.0
 40
0.0
 40
0.1977714623
 40
0.3088792262
 40
0.4288570581
 40
0.5580299473
 40
0.6965405519
 40
0.8440493477
 40
1.0
 40
1.0
 40
1.0
 40
1.0
 10
7.2287508697
 20
8.064939471
 30
0.0
 10
7.2263993062
 20
8.0644200601
 30
0.0
 10
7.2226245174
 20
8.0640396442
 30
0.0
 10
7.217402412
 20
8.0641980562
 30
0.0
 10
7.2130377046
 20
8.0646879359
 30
0.0
 10
7.2083941919
 20
8.0655565899
 30
0.0
 10
7.2034935437
 20
8.0668121426
 30
0.0
 10
7.1983587537
 20
8.0684311092
 30
0.0
 10
7.1948890076
 20
8.0697059287
 30
0.0
 10
7.1931193824
 20
8.0703948499
 30
0.0
  0
LINE
  5
365
100
AcDbEntity
  8
0
100
AcDbLine
 62
7
  6
CONTINUOUS
 10
7.1931193824
 20
8.0703948499
 11
7.1821884309
 21
8.0750909669
  0
SPLINE
  5
366
100
AcDbEntity
  8
0
100
AcDbSpline
 62
7
  6
CONTINUOUS
 70
0
 71
3
 72
11
 73
7
 74
0
 42
0.0000001
 43
0.0000001
 44
0.0000000001
 40
0.0
 40
0.0
 40
0.0
 40
0.0
 40
0.2572947842
 40
0.5115435673
 40
0.7599246839
 40
1.0
 40
1.0
 40
1.0
 40
1.0
 10
7.2311268028
 20
8.1436183801
 30
0.0
 10
7.2308947484
 20
8.146231634
 30
0.0
 10
7.2304276112
 20
8.1514267069
 30
0.0
 10
7.2296823311
 20
8.1591395321
 30
0.0
 10
7.2288875521
 20
8.1666708868
 30
0.0
 10
7.2283073465
 20
8.171617807
 30
0.0
 10
7.2279995928
 20
8.1740463412
 30
0.0
  0
SPLINE
  5
367
100
AcDbEntity
  8
0
100
AcDbSpline
 62
7
  6
CONTINUOUS
 70
0
 71
3
 72
11
 73
7
 74
0
 42
0.0000001
 43
0.0000001
 44
0.0000000001
 40
0.0
 40
0.0
 40
0.0
 40
0.0
 40
0.2608093718
 40
0.5146634004
 40
0.7612386704
 40
1.0
 40
1.0
 40
1.0
 40
1.0
 10
7.2279995928
 20
8.1740463412
 30
0.0
 10
7.2278434762
 20
8.175278283
 30
0.0
 10
7.2275237849
 20
8.1777078707
 30
0.0
 10
7.2270057934
 20
8.1812952708
 30
0.0
 10
7.2264538645
 20
8.1847713536
 30
0.0
 10
7.2260538545
 20
8.1870474872
 30
0.0
 10
7.2258441992
 20
8.1881648041
 30
0.0
  0
SPLINE
  5
368
100
AcDbEntity
  8
0
100
AcDbSpline
 62
7
  6
CONTINUOUS
 70
0
 71
3
 72
11
 73
7
 74
0
 42
0.0000001
 43
0.0000001
 44
0.0000000001
 40
0.0
 40
0.0
 40
0.0
 40
0.0
 40
0.2485390413
 40
0.4980971757
 40
0.7486308094
 40
1.0
 40
1.0
 40
1.0
 40
1.0
 10
7.1621207277
 20
8.192822782
 30
0.0
 10
7.1616400214
 20
8.1912934062
 30
0.0
 10
7.1607216011
 20
8.1882140204
 30
0.0
 10
7.1594855313
 20
8.183545198
 30
0.0
 10
7.1584008655
 20
8.1788200638
 30
0.0
 10
7.1577811862
 20
8.1756419117
 30
0.0
 10
7.1574929353
 20
8.1740463412
 30
0.0
  0
SPLINE
  5
369
100
AcDbEntity
  8
0
100
AcDbSpline
 62
7
  6
CONTINUOUS
 70
0
 71
3
 72
11
 73
7
 74
0
 42
0.0000001
 43
0.0000001
 44
0.0000000001
 40
0.0
 40
0.0
 40
0.0
 40
0.0
 40
0.2232672963
 40
0.4632739737
 40
0.7218084024
 40
1.0
 40
1.0
 40
1.0
 40
1.0
 10
7.2287508697
 20
8.064939471
 30
0.0
 10
7.2292874531
 20
8.0657771369
 30
0.0
 10
7.2302631477
 20
8.0676050259
 30
0.0
 10
7.2314269049
 20
8.0706091188
 30
0.0
 10
7.2323576258
 20
8.0739471172
 30
0.0
 10
7.232816814
 20
8.0762963067
 30
0.0
 10
7.2330179202
 20
8.0775193935
 30
0.0
  0
LINE
  5
36A
100
AcDbEntity
  8
0
100
AcDbLine
 62
7
  6
CONTINUOUS
 10
7.2330179202
 20
8.0775193935
 11
7.2279349769
 21
8.1086047757
  0
SPLINE
  5
36B
100
AcDbEntity
  8
0
100
AcDbSpline
 62
7
  6
CONTINUOUS
 70
0
 71
3
 72
23
 73
19
 74
0
 42
0.0000001
 43
0.0000001
 44
0.0000000001
 40
0.0
 40
0.0
 40
0.0
 40
0.0
 40
0.0453553982
 40
0.095050614
 40
0.1490103404
 40
0.2069687555
 40
0.2684993582
 40
0.3330130068
 40
0.3998958251
 40
0.4685219766
 40
0.5382315524
 40
0.6083261301
 40
0.6781006115
 40
0.746863645
 40
0.8139864765
 40
0.8789010804
 40
0.9410697468
 40
1.0
 40
1.0
 40
1.0
 40
1.0
 10
7.2074119967
 20
8.2118263702
 30
0.0
 10
7.2086912109
 20
8.2102266419
 30
0.0
 10
7.2111323155
 20
8.2066792055
 30
0.0
 10
7.2142993322
 20
8.2007291258
 30
0.0
 10
7.2170988218
 20
8.1939780704
 30
0.0
 10
7.2194976701
 20
8.1865133351
 30
0.0
 10
7.2214590355
 20
8.1784314126
 30
0.0
 10
7.2229404003
 20
8.1698391962
 30
0.0
 10
7.2239081808
 20
8.1608521884
 30
0.0
 10
7.2243447833
 20
8.1515891949
 30
0.0
 10
7.2242409114
 20
8.1421717052
 30
0.0
 10
7.2236020277
 20
8.1327234768
 30
0.0
 10
7.2224307733
 20
8.1233691435
 30
0.0
 10
7.2207271976
 20
8.1142329381
 30
0.0
 10
7.2185035867
 20
8.1054347721
 30
0.0
 10
7.2157777251
 20
8.0970906673
 30
0.0
 10
7.212585331
 20
8.0893120308
 30
0.0
 10
7.2101022252
 20
8.0844301129
 30
0.0
 10
7.2087849296
 20
8.0821176417
 30
0.0
  0
LINE
  5
36C
100
AcDbEntity
  8
0
100
AcDbLine
 62
7
  6
CONTINUOUS
 10
7.2279349769
 20
8.1086047757
 11
7.2278693086
 21
8.1191268625
  0
SPLINE
  5
36D
100
AcDbEntity
  8
0
100
AcDbSpline
 62
7
  6
CONTINUOUS
 70
0
 71
3
 72
19
 73
15
 74
0
 42
0.0000001
 43
0.0000001
 44
0.0000000001
 40
0.0
 40
0.0
 40
0.0
 40
0.0
 40
0.1567719466
 40
0.3050995651
 40
0.4435545817
 40
0.571698525
 40
0.6319961321
 40
0.6898757391
 40
0.7454924033
 40
0.7990727946
 40
0.8509246466
 40
0.9014110125
 40
0.9509478931
 40
1.0
 40
1.0
 40
1.0
 40
1.0
 10
7.2279349769
 20
8.1086047757
 30
0.0
 10
7.2270679327
 20
8.106126076
 30
0.0
 10
7.2251853068
 20
8.1013670993
 30
0.0
 10
7.2218292414
 20
8.0947255543
 30
0.0
 10
7.2180511502
 20
8.088875147
 30
0.0
 10
7.2145266012
 20
8.0846603242
 30
0.0
 10
7.211539687
 20
8.0818086108
 30
0.0
 10
7.2092779752
 20
8.0799703934
 30
0.0
 10
7.2069576343
 20
8.0783988792
 30
0.0
 10
7.2045868211
 20
8.077102768
 30
0.0
 10
7.2021755722
 20
8.0760870874
 30
0.0
 10
7.1997331679
 20
8.0753567267
 30
0.0
 10
7.1972696763
 20
8.0749172093
 30
0.0
 10
7.1956166465
 20
8.0748195055
 30
0.0
 10
7.1947950113
 20
8.0748194978
 30
0.0
  0
SPLINE
  5
36E
100
AcDbEntity
  8
0
100
AcDbSpline
 62
7
  6
CONTINUOUS
 70
0
 71
3
 72
10
 73
6
 74
0
 42
0.0000001
 43
0.0000001
 44
0.0000000001
 40
0.0
 40
0.0
 40
0.0
 40
0.0
 40
0.5001645699
 40
0.7502583848
 40
1.0
 40
1.0
 40
1.0
 40
1.0
 10
7.1635681709
 20
8.0979212946
 30
0.0
 10
7.1614150556
 20
8.1046562516
 30
0.0
 10
7.1587215953
 20
8.1149473347
 30
0.0
 10
7.1564214541
 20
8.1289027898
 30
0.0
 10
7.1557366528
 20
8.1359426182
 30
0.0
 10
7.1555187894
 20
8.1394664505
 30
0.0
  0
SPLINE
  5
36F
100
AcDbEntity
  8
0
100
AcDbSpline
 62
7
  6
CONTINUOUS
 70
0
 71
3
 72
9
 73
5
 74
0
 42
0.0000001
 43
0.0000001
 44
0.0000000001
 40
0.0
 40
0.0
 40
0.0
 40
0.0
 40
0.5156038713
 40
1.0
 40
1.0
 40
1.0
 40
1.0
 10
7.2330361622
 20
8.077530524
 30
0.0
 10
7.2318460402
 20
8.075741956
 30
0.0
 10
7.2293801005
 20
8.0723745378
 30
0.0
 10
7.2265758769
 20
8.0692790975
 30
0.0
 10
7.2251310009
 20
8.0678698769
 30
0.0
  0
LINE
  5
370
100
AcDbEntity
  8
0
100
AcDbLine
 62
7
  6
CONTINUOUS
 10
7.224655868
 20
8.0674127636
 11
7.220205788
 21
8.0637110602
  0
SPLINE
  5
371
100
AcDbEntity
  8
0
100
AcDbSpline
 62
7
  6
CONTINUOUS
 70
0
 71
3
 72
21
 73
17
 74
0
 42
0.0000001
 43
0.0000001
 44
0.0000000001
 40
0.0
 40
0.0
 40
0.0
 40
0.0
 40
0.0419284583
 40
0.0846948615
 40
0.1290702586
 40
0.1757269861
 40
0.2251970155
 40
0.2778761632
 40
0.3340515515
 40
0.3938899536
 40
0.4574583105
 40
0.5247637088
 40
0.5957449266
 40
0.6702740431
 40
0.8292592494
 40
1.0
 40
1.0
 40
1.0
 40
1.0
 10
7.18126147
 20
8.205018945
 30
0.0
 10
7.1819214269
 20
8.2050189592
 30
0.0
 10
7.1832569189
 20
8.2049098603
 30
0.0
 10
7.1852374536
 20
8.2044239199
 30
0.0
 10
7.1871918631
 20
8.2036197254
 30
0.0
 10
7.1891073667
 20
8.2025020099
 30
0.0
 10
7.1909744767
 20
8.2010792384
 30
0.0
 10
7.1927841093
 20
8.1993595994
 30
0.0
 10
7.1945260958
 20
8.1973508552
 30
0.0
 10
7.1961916886
 20
8.1950633679
 30
0.0
 10
7.1977725332
 20
8.1925085527
 30
0.0
 10
7.1992590024
 20
8.1896980574
 30
0.0
 10
7.2006426333
 20
8.1866453519
 30
0.0
 10
7.2023780641
 20
8.1821755821
 30
0.0
 10
7.2042175711
 20
8.1760735647
 30
0.0
 10
7.205278981
 20
8.1709867119
 30
0.0
 10
7.2057268361
 20
8.1683368197
 30
0.0
  0
SPLINE
  5
372
100
AcDbEntity
  8
0
100
AcDbSpline
 62
7
  6
CONTINUOUS
 70
0
 71
3
 72
11
 73
7
 74
0
 42
0.0000001
 43
0.0000001
 44
0.0000000001
 40
0.0
 40
0.0
 40
0.0
 40
0.0
 40
0.2400656844
 40
0.4883802146
 40
0.7426571793
 40
1.0
 40
1.0
 40
1.0
 40
1.0
 10
7.2057268361
 20
8.1683368197
 30
0.0
 10
7.2061070001
 20
8.1660874457
 30
0.0
 10
7.2067312183
 20
8.1614851567
 30
0.0
 10
7.2072629865
 20
8.1544441927
 30
0.0
 10
7.2073953616
 20
8.1472202657
 30
0.0
 10
7.207210083
 20
8.1423588969
 30
0.0
 10
7.207046144
 20
8.1399189453
 30
0.0
  0
SPLINE
  5
373
100
AcDbEntity
  8
0
100
AcDbSpline
 62
7
  6
CONTINUOUS
 70
0
 71
3
 72
35
 73
31
 74
0
 42
0.0000001
 43
0.0000001
 44
0.0000000001
 40
0.0
 40
0.0
 40
0.0
 40
0.0
 40
0.0967747775
 40
0.1926711662
 40
0.286695896
 40
0.3779826579
 40
0.4656660085
 40
0.5489018166
 40
0.626903442
 40
0.6989360206
 40
0.7643178283
 40
0.7943249599
 40
0.8224470035
 40
0.8486225989
 40
0.8727958093
 40
0.8949127497
 40
0.9149301075
 40
0.9328149059
 40
0.9485396952
 40
0.9620921184
 40
0.9680574728
 40
0.9734864437
 40
0.9783853864
 40
0.9827643151
 40
0.9866394606
 40
0.9900366583
 40
0.9929951181
 40
0.9955748959
 40
0.9978668781
 40
1.0
 40
1.0
 40
1.0
 40
1.0
 10
10.9376923427
 20
9.5590502604
 30
0.0
 10
10.9285459679
 20
9.5590502604
 30
0.0
 10
10.9103361397
 20
9.5589725247
 30
0.0
 10
10.8832418595
 20
9.5586241617
 30
0.0
 10
10.856670249
 20
9.5580469636
 30
0.0
 10
10.8308809826
 20
9.5572469049
 30
0.0
 10
10.8061197182
 20
9.5562322528
 30
0.0
 10
10.7826248403
 20
9.5550127388
 30
0.0
 10
10.7606226411
 20
9.5536008767
 30
0.0
 10
10.7403246818
 20
9.5520111426
 30
0.0
 10
10.7245714479
 20
9.5505121583
 30
0.0
 10
10.7129696026
 20
9.5492208269
 30
0.0
 10
10.7050614902
 20
9.548245546
 30
0.0
 10
10.6977135153
 20
9.5472382664
 30
0.0
 10
10.6909431992
 20
9.5462017024
 30
0.0
 10
10.6847667814
 20
9.5451383342
 30
0.0
 10
10.6791988854
 20
9.5440509845
 30
0.0
 10
10.6742521988
 20
9.5429431017
 30
0.0
 10
10.669938262
 20
9.541817491
 30
0.0
 10
10.6667550985
 20
9.5408302148
 30
0.0
 10
10.6645398929
 20
9.5400214519
 30
0.0
 10
10.6631142948
 20
9.5394380226
 30
0.0
 10
10.6618531922
 20
9.5388520717
 30
0.0
 10
10.6607571221
 20
9.5382637713
 30
0.0
 10
10.659826269
 20
9.537673169
 30
0.0
 10
10.6590603328
 20
9.5370800332
 30
0.0
 10
10.6584588963
 20
9.5364833211
 30
0.0
 10
10.6580223594
 20
9.5358803824
 30
0.0
 10
10.6577542124
 20
9.5352684316
 30
0.0
 10
10.6576925796
 20
9.534848258
 30
0.0
 10
10.6576925688
 20
9.5346466524
 30
0.0
  0
SPLINE
  5
374
100
AcDbEntity
  8
0
100
AcDbSpline
 62
7
  6
CONTINUOUS
 70
0
 71
3
 72
35
 73
31
 74
0
 42
0.0000001
 43
0.0000001
 44
0.0000000001
 40
0.0
 40
0.0
 40
0.0
 40
0.0
 40
0.0021331139
 40
0.0044251101
 40
0.0070049511
 40
0.0099634974
 40
0.0133607513
 40
0.0172358579
 40
0.0216146494
 40
0.0265135603
 40
0.0319425847
 40
0.0379080251
 40
0.051460493
 40
0.0671850093
 40
0.0850697659
 40
0.105087065
 40
0.1272036542
 40
0.1513766036
 40
0.1775519721
 40
0.2056736195
 40
0.235680333
 40
0.3010613602
 40
0.373093097
 40
0.4510940658
 40
0.5343294405
 40
0.6220127547
 40
0.7132996694
 40
0.8073253607
 40
0.9032238791
 40
1.0
 40
1.0
 40
1.0
 40
1.0
 10
11.2176921167
 20
9.5346466524
 30
0.0
 10
11.2176921274
 20
9.5348482572
 30
0.0
 10
11.2176305196
 20
9.5352684392
 30
0.0
 10
11.2173623596
 20
9.5358803942
 30
0.0
 10
11.2169257925
 20
9.5364833303
 30
0.0
 10
11.2163243256
 20
9.5370800388
 30
0.0
 10
11.2155583757
 20
9.537673172
 30
0.0
 10
11.2146275382
 20
9.5382637765
 30
0.0
 10
11.2135314998
 20
9.5388520948
 30
0.0
 10
11.2122704058
 20
9.5394380399
 30
0.0
 10
11.210844795
 20
9.5400214654
 30
0.0
 10
11.2086295671
 20
9.5408302184
 30
0.0
 10
11.2054464147
 20
9.5418174834
 30
0.0
 10
11.2011325102
 20
9.5429431181
 30
0.0
 10
11.1961858537
 20
9.5440509773
 30
0.0
 10
11.1906179981
 20
9.5451383116
 30
0.0
 10
11.1844416455
 20
9.5462016873
 30
0.0
 10
11.177671407
 20
9.547238238
 30
0.0
 10
11.170323514
 20
9.5482455029
 30
0.0
 10
11.1624155001
 20
9.5492207815
 30
0.0
 10
11.1508138046
 20
9.5505121042
 30
0.0
 10
11.1350607622
 20
9.5520110749
 30
0.0
 10
11.1147630176
 20
9.5536008096
 30
0.0
 10
11.0927609998
 20
9.5550126697
 30
0.0
 10
11.0692662276
 20
9.5562321951
 30
0.0
 10
11.0445049919
 20
9.5572468574
 30
0.0
 10
11.0187156224
 20
9.5580469318
 30
0.0
 10
10.9921437039
 20
9.5586241503
 30
0.0
 10
10.9650490028
 20
9.5589725161
 30
0.0
 10
10.9468388452
 20
9.5590502604
 30
0.0
 10
10.9376923427
 20
9.5590502604
 30
0.0
  0
SPLINE
  5
375
100
AcDbEntity
  8
0
100
AcDbSpline
 62
7
  6
CONTINUOUS
 70
0
 71
3
 72
45
 73
41
 74
0
 42
0.0000001
 43
0.0000001
 44
0.0000000001
 40
0.0
 40
0.0
 40
0.0
 40
0.0
 40
0.0085623629
 40
0.01684751
 40
0.0249041026
 40
0.0327668878
 40
0.0404184962
 40
0.0478012924
 40
0.0548438838
 40
0.0614878207
 40
0.0677537253
 40
0.0736725461
 40
0.0792643343
 40
0.0845431168
 40
0.0895442574
 40
0.0943120829
 40
0.1033104081
 40
0.1118247144
 40
0.1200596758
 40
0.128197026
 40
0.1363736845
 40
0.1446750475
 40
0.153180147
 40
0.1710095112
 40
0.1901544896
 40
0.2107848265
 40
0.2329941993
 40
0.2568224112
 40
0.282282746
 40
0.3093600731
 40
0.3380261197
 40
0.3682385232
 40
0.4330811795
 40
0.5033669297
 40
0.5784718428
 40
0.6576944252
 40
0.7402731081
 40
0.8254058593
 40
0.9122865563
 40
1.0
 40
1.0
 40
1.0
 40
1.0
 10
10.5897052797
 20
9.5622382139
 30
0.0
 10
10.5898082831
 20
9.5611971086
 30
0.0
 10
10.5901046036
 20
9.5591565046
 30
0.0
 10
10.5908190109
 20
9.5561945023
 30
0.0
 10
10.5917711148
 20
9.553390264
 30
0.0
 10
10.5929358325
 20
9.550752429
 30
0.0
 10
10.5942732929
 20
9.5482918557
 30
0.0
 10
10.595738564
 20
9.5460241824
 30
0.0
 10
10.5972882227
 20
9.5439657971
 30
0.0
 10
10.5988887446
 20
9.5421243332
 30
0.0
 10
10.6005113682
 20
9.5404912586
 30
0.0
 10
10.6021341409
 20
9.5390457401
 30
0.0
 10
10.603737883
 20
9.5377652828
 30
0.0
 10
10.6053058241
 20
9.5366231038
 30
0.0
 10
10.6068365258
 20
9.5356036136
 30
0.0
 10
10.6087950682
 20
9.5344099578
 30
0.0
 10
10.6111952897
 20
9.5331212504
 30
0.0
 10
10.6140427144
 20
9.5317808847
 30
0.0
 10
10.6168541944
 20
9.5306198212
 30
0.0
 10
10.6196698667
 20
9.5295842413
 30
0.0
 10
10.6225239392
 20
9.5286341623
 30
0.0
 10
10.625446777
 20
9.5277525518
 30
0.0
 10
10.629526464
 20
9.5266263891
 30
0.0
 10
10.6349274993
 20
9.5253137471
 30
0.0
 10
10.6418169431
 20
9.5238692622
 30
0.0
 10
10.6492667569
 20
9.5225020427
 30
0.0
 10
10.6573078923
 20
9.5211975357
 30
0.0
 10
10.6659543996
 20
9.5199481348
 30
0.0
 10
10.6752081887
 20
9.5187500988
 30
0.0
 10
10.6850636309
 20
9.5176021574
 30
0.0
 10
10.695508764
 20
9.5165043629
 30
0.0
 10
10.7105580162
 20
9.5150746572
 30
0.0
 10
10.7306948724
 20
9.5134398999
 30
0.0
 10
10.7563265636
 20
9.5117399283
 30
0.0
 10
10.7837322973
 20
9.5102735973
 30
0.0
 10
10.8126534154
 20
9.509054026
 30
0.0
 10
10.8428101065
 20
9.5080927871
 30
0.0
 10
10.8739100479
 20
9.5073992783
 30
0.0
 10
10.9056422959
 20
9.5069806507
 30
0.0
 10
10.9269751173
 20
9.5068872905
 30
0.0
 10
10.9376923427
 20
9.5068872905
 30
0.0
  0
SPLINE
  5
376
100
AcDbEntity
  8
0
100
AcDbSpline
 62
7
  6
CONTINUOUS
 70
0
 71
3
 72
44
 73
40
 74
0
 42
0.0000001
 43
0.0000001
 44
0.0000000001
 40
0.0
 40
0.0
 40
0.0
 40
0.0
 40
0.0877192247
 40
0.1746045078
 40
0.2597420461
 40
0.3423253278
 40
0.4215520501
 40
0.4966596069
 40
0.5669441303
 40
0.6317841841
 40
0.6619962606
 40
0.6906613747
 40
0.7177390956
 40
0.7431981328
 40
0.7670273686
 40
0.7892350972
 40
0.8098671564
 40
0.8290111857
 40
0.8380768386
 40
0.846839882
 40
0.8636506279
 40
0.8718214047
 40
0.8799642307
 40
0.8840635242
 40
0.8882031697
 40
0.8967073424
 40
0.9057163693
 40
0.9104915424
 40
0.9154930082
 40
0.9263342565
 40
0.9385317353
 40
0.9451695145
 40
0.9521855787
 40
0.9595620347
 40
0.9672279278
 40
0.975120164
 40
0.9832035298
 40
0.9914884176
 40
1.0
 40
1.0
 40
1.0
 40
1.0
 10
10.9376923427
 20
9.5068872905
 30
0.0
 10
10.9484101774
 20
9.5068872905
 30
0.0
 10
10.9697440724
 20
9.506980655
 30
0.0
 10
11.0014778841
 20
9.5073993331
 30
0.0
 10
11.0325792497
 20
9.5080929125
 30
0.0
 10
11.0627373184
 20
9.5090542321
 30
0.0
 10
11.0916595604
 20
9.5102739438
 30
0.0
 10
11.1190657191
 20
9.5117403831
 30
0.0
 10
11.144697029
 20
9.5134404047
 30
0.0
 10
11.1648331857
 20
9.5150752433
 30
0.0
 10
11.1798818257
 20
9.5165049517
 30
0.0
 10
11.1903267547
 20
9.517602773
 30
0.0
 10
11.2001818685
 20
9.5187508048
 30
0.0
 10
11.2094355988
 20
9.5199487771
 30
0.0
 10
11.2180817445
 20
9.5211984353
 30
0.0
 10
11.2261229955
 20
9.522502743
 30
0.0
 10
11.2335724856
 20
9.5238703967
 30
0.0
 10
11.2394140588
 20
9.5250949681
 30
0.0
 10
11.2438117131
 20
9.5261294548
 30
0.0
 10
11.2479138988
 20
9.5271715427
 30
0.0
 10
11.2518786539
 20
9.5283097472
 30
0.0
 10
11.2557205525
 20
9.5295841782
 30
0.0
 10
11.2580609364
 20
9.5304480562
 30
0.0
 10
11.2599179388
 20
9.5311952798
 30
0.0
 10
11.2618003308
 20
9.5319965717
 30
0.0
 10
11.2641972339
 20
9.5331195024
 30
0.0
 10
11.2665924718
 20
9.5344192536
 30
0.0
 10
11.2685554528
 20
9.5356096683
 30
0.0
 10
11.2706562149
 20
9.5370012557
 30
0.0
 10
11.2733777236
 20
9.5390908827
 30
0.0
 10
11.2760204137
 20
9.5415865036
 30
0.0
 10
11.2781007134
 20
9.543966294
 30
0.0
 10
11.2796513027
 20
9.5460182002
 30
0.0
 10
11.2811137396
 20
9.5482851042
 30
0.0
 10
11.2824498981
 20
9.550751557
 30
0.0
 10
11.283615094
 20
9.5533985523
 30
0.0
 10
11.284567167
 20
9.5562099578
 30
0.0
 10
11.2852806903
 20
9.5591690172
 30
0.0
 10
11.2855770142
 20
9.5612032924
 30
0.0
 10
11.2856794058
 20
9.5622382139
 30
0.0
  0
SPLINE
  5
377
100
AcDbEntity
  8
0
100
AcDbSpline
 62
7
  6
CONTINUOUS
 70
0
 71
3
 72
65
 73
61
 74
0
 42
0.0000001
 43
0.0000001
 44
0.0000000001
 40
0.0
 40
0.0
 40
0.0
 40
0.0
 40
0.0845908554
 40
0.1679618934
 40
0.2488869924
 40
0.3262261402
 40
0.3988980374
 40
0.4331776483
 40
0.4659404604
 40
0.4970888907
 40
0.5265468073
 40
0.5542510672
 40
0.580167634
 40
0.6042913369
 40
0.6266659496
 40
0.6474104083
 40
0.6667577513
 40
0.6760313355
 40
0.6851464897
 40
0.6896786757
 40
0.69421339
 40
0.7033846876
 40
0.7080751975
 40
0.7128724133
 40
0.7178113705
 40
0.7229342319
 40
0.7282853199
 40
0.7339093637
 40
0.7398418036
 40
0.7461173934
 40
0.7527755654
 40
0.759829606
 40
0.7672639378
 40
0.7750700227
 40
0.7832191597
 40
0.7916612989
 40
0.8092421066
 40
0.8183059675
 40
0.8274968353
 40
0.8367795511
 40
0.8461222799
 40
0.8554977343
 40
0.8648787506
 40
0.8742386097
 40
0.8835509975
 40
0.8927857402
 40
0.9019100677
 40
0.9108890539
 40
0.9196797576
 40
0.9282324984
 40
0.9365068679
 40
0.9444660986
 40
0.9520620719
 40
0.9592596979
 40
0.9660729022
 40
0.9725155069
 40
0.9785938744
 40
0.9843341247
 40
0.9897848942
 40
1.0
 40
1.0
 40
1.0
 40
1.0
 10
10.9376923427
 20
10.4185937221
 30
0.0
 10
10.9210843558
 20
10.4185937221
 30
0.0
 10
10.8881075928
 20
10.4184181504
 30
0.0
 10
10.8392482473
 20
10.4176304207
 30
0.0
 10
10.791823956
 20
10.4163298717
 30
0.0
 10
10.7465179106
 20
10.414535192
 30
0.0
 10
10.7103851822
 20
10.412613014
 30
0.0
 10
10.683012653
 20
10.4108255023
 30
0.0
 10
10.6637868644
 20
10.4094023625
 30
0.0
 10
10.6455189441
 20
10.4078736692
 30
0.0
 10
10.6282572147
 20
10.4062419969
 30
0.0
 10
10.6120380132
 20
10.404508529
 30
0.0
 10
10.5968844721
 20
10.4026720224
 30
0.0
 10
10.5827999743
 20
10.4007267122
 30
0.0
 10
10.5697597447
 20
10.3986593796
 30
0.0
 10
10.5576964942
 20
10.396440387
 30
0.0
 10
10.5482219038
 20
10.3943873556
 30
0.0
 10
10.5410332691
 20
10.3925921516
 30
0.0
 10
10.5366949174
 20
10.391394072
 30
0.0
 10
10.5332753802
 20
10.390369018
 30
0.0
 10
10.5298612762
 20
10.3892890263
 30
0.0
 10
10.5264464521
 20
10.3881090603
 30
0.0
 10
10.5230236348
 20
10.3868027318
 30
0.0
 10
10.5204000984
 20
10.3857344419
 30
0.0
 10
10.5177266338
 20
10.3845659052
 30
0.0
 10
10.5149906432
 20
10.383271893
 30
0.0
 10
10.5121786106
 20
10.3818278455
 30
0.0
 10
10.5092781028
 20
10.3802119798
 30
0.0
 10
10.5062885069
 20
10.3783879869
 30
0.0
 10
10.5032158679
 20
10.3763169716
 30
0.0
 10
10.5000709367
 20
10.3739670228
 30
0.0
 10
10.4968784771
 20
10.3713094216
 30
0.0
 10
10.4936810133
 20
10.3683161709
 30
0.0
 10
10.4905320426
 20
10.3649693471
 30
0.0
 10
10.4874875899
 20
10.3612661179
 30
0.0
 10
10.4835968029
 20
10.3557951394
 30
0.0
 10
10.4802508644
 20
10.3497364177
 30
0.0
 10
10.4775863189
 20
10.3432185449
 30
0.0
 10
10.4759527305
 20
10.3380580723
 30
0.0
 10
10.4747302436
 20
10.332729237
 30
0.0
 10
10.4739493846
 20
10.3272808946
 30
0.0
 10
10.473626934
 20
10.3217671471
 30
0.0
 10
10.4737617393
 20
10.3162422126
 30
0.0
 10
10.4743594805
 20
10.3107603996
 30
0.0
 10
10.4754054269
 20
10.3053758274
 30
0.0
 10
10.4768739555
 20
10.3001389069
 30
0.0
 10
10.478745695
 20
10.2951021009
 30
0.0
 10
10.480975826
 20
10.2903101129
 30
0.0
 10
10.4835102518
 20
10.2858005491
 30
0.0
 10
10.4863026569
 20
10.2816115792
 30
0.0
 10
10.4892935891
 20
10.2777677105
 30
0.0
 10
10.4924118267
 20
10.2742753822
 30
0.0
 10
10.4955945993
 20
10.2711367676
 30
0.0
 10
10.4987913763
 20
10.2683444831
 30
0.0
 10
10.5019612968
 20
10.26587607
 30
0.0
 10
10.5050730613
 20
10.2636995953
 30
0.0
 10
10.5081001133
 20
10.261776432
 30
0.0
 10
10.5110335526
 20
10.2600743919
 30
0.0
 10
10.5147480543
 20
10.2581065703
 30
0.0
 10
10.5175385317
 20
10.2568073293
 30
0.0
 10
10.5193775525
 20
10.2560071494
 30
0.0
  0
SPLINE
  5
378
100
AcDbEntity
  8
0
100
AcDbSpline
 62
7
  6
CONTINUOUS
 70
0
 71
3
 72
65
 73
61
 74
0
 42
0.0000001
 43
0.0000001
 44
0.0000000001
 40
0.0
 40
0.0
 40
0.0
 40
0.0
 40
0.0050221453
 40
0.0102495937
 40
0.0157274359
 40
0.0215013028
 40
0.0276025203
 40
0.0340581074
 40
0.0409013829
 40
0.0481455961
 40
0.055764181
 40
0.0637359456
 40
0.072031145
 40
0.0805992951
 40
0.0893971343
 40
0.0983817479
 40
0.1075098212
 40
0.116745199
 40
0.135398805
 40
0.144777819
 40
0.1541508806
 40
0.1634899422
 40
0.1727675855
 40
0.1819529323
 40
0.1910097214
 40
0.1999001219
 40
0.208584225
 40
0.2170123405
 40
0.2251308095
 40
0.2403260924
 40
0.2473528323
 40
0.2539740774
 40
0.2602254578
 40
0.2661410937
 40
0.2717490332
 40
0.2770838386
 40
0.2821912387
 40
0.287115952
 40
0.2919008114
 40
0.2965840807
 40
0.3011926693
 40
0.3057506501
 40
0.3148086927
 40
0.333203884
 40
0.3427272186
 40
0.3525630856
 40
0.3733203983
 40
0.3957137119
 40
0.4198522383
 40
0.4457837101
 40
0.473501264
 40
0.50297084
 40
0.5341284226
 40
0.5668981904
 40
0.6011803966
 40
0.6738496785
 40
0.751177618
 40
0.8320844035
 40
0.915434513
 40
1.0
 40
1.0
 40
1.0
 40
1.0
 10
11.3562651508
 20
10.2561183224
 30
0.0
 10
11.3571682073
 20
10.2565129941
 30
0.0
 10
11.3590003136
 20
10.2573438098
 30
0.0
 10
11.3617703837
 20
10.2587059603
 30
0.0
 10
11.3646218844
 20
10.2602326855
 30
0.0
 10
11.3675651751
 20
10.2619469267
 30
0.0
 10
11.3705971567
 20
10.2638847759
 30
0.0
 10
11.3737054281
 20
10.2660856915
 30
0.0
 10
11.3768727955
 20
10.2685826024
 30
0.0
 10
11.3800700583
 20
10.2714005889
 30
0.0
 10
11.3832502523
 20
10.2745616106
 30
0.0
 10
11.3863543717
 20
10.2780784617
 30
0.0
 10
11.3893215362
 20
10.2819497391
 30
0.0
 10
11.3920941643
 20
10.2861588787
 30
0.0
 10
11.3946039457
 20
10.2906859173
 30
0.0
 10
11.3968000652
 20
10.2954942319
 30
0.0
 10
11.3986402385
 20
10.300542272
 30
0.0
 10
11.4005608793
 20
10.3075541895
 30
0.0
 10
11.4016167402
 20
10.3148318409
 30
0.0
 10
11.4017489652
 20
10.3221775795
 30
0.0
 10
11.401391902
 20
10.3276852416
 30
0.0
 10
11.4005808618
 20
10.3331241096
 30
0.0
 10
11.3993259485
 20
10.3384400389
 30
0.0
 10
11.3976623275
 20
10.3435838918
 30
0.0
 10
11.3956208711
 20
10.3485076911
 30
0.0
 10
11.3932355999
 20
10.3531637177
 30
0.0
 10
11.3905696425
 20
10.3575199312
 30
0.0
 10
11.3876831313
 20
10.3615482415
 30
0.0
 10
11.3836995995
 20
10.3663423024
 30
0.0
 10
11.3794484489
 20
10.3705370032
 30
0.0
 10
11.3750871696
 20
10.3741476896
 30
0.0
 10
11.3719506399
 20
10.3764770543
 30
0.0
 10
11.3688839256
 20
10.3785261996
 30
0.0
 10
11.3658985057
 20
10.3803321019
 30
0.0
 10
11.3630041329
 20
10.3819357044
 30
0.0
 10
11.3601991344
 20
10.3833695117
 30
0.0
 10
11.3574702396
 20
10.3846539519
 30
0.0
 10
11.3548033839
 20
10.3858134829
 30
0.0
 10
11.3521844828
 20
10.3868718476
 30
0.0
 10
11.3496016946
 20
10.3878521613
 30
0.0
 10
11.3470413412
 20
10.3887644876
 30
0.0
 10
11.343649826
 20
10.3898999881
 30
0.0
 10
11.3376411908
 20
10.3917358629
 30
0.0
 10
11.3306156307
 20
10.3935641716
 30
0.0
 10
11.3233903992
 20
10.3952042496
 30
0.0
 10
11.3156834248
 20
10.3968114586
 30
0.0
 10
11.3054546166
 20
10.3986876577
 30
0.0
 10
11.292411445
 20
10.4007526988
 30
0.0
 10
11.2783238145
 20
10.4026945102
 30
0.0
 10
11.2631690021
 20
10.4045288143
 30
0.0
 10
11.2469496387
 20
10.406259729
 30
0.0
 10
11.2296894705
 20
10.4078893537
 30
0.0
 10
11.2114248513
 20
10.4094158843
 30
0.0
 10
11.1922046462
 20
10.4108370937
 30
0.0
 10
11.1648439581
 20
10.412622003
 30
0.0
 10
11.1287309175
 20
10.4145413218
 30
0.0
 10
11.0834531566
 20
10.4163332987
 30
0.0
 10
11.0360618091
 20
10.417631907
 30
0.0
 10
10.987238904
 20
10.4184184035
 30
0.0
 10
10.9542872711
 20
10.4185937221
 30
0.0
 10
10.9376923427
 20
10.4185937221
 30
0.0
  0
SPLINE
  5
379
100
AcDbEntity
  8
0
100
AcDbSpline
 62
9
  6
CONTINUOUS
 70
0
 71
3
 72
67
 73
63
 74
0
 42
0.0000001
 43
0.0000001
 44
0.0000000001
 40
0.0
 40
0.0
 40
0.0
 40
0.0
 40
0.0483874691
 40
0.0963357926
 40
0.1433482346
 40
0.1889916168
 40
0.2328332561
 40
0.2744511306
 40
0.3134520141
 40
0.349468402
 40
0.366249199
 40
0.3821595928
 40
0.3971630834
 40
0.4112240381
 40
0.4243117605
 40
0.4363982923
 40
0.4474566946
 40
0.4574652874
 40
0.4664075944
 40
0.4742699049
 40
0.477793893
 40
0.4810466569
 40
0.484029284
 40
0.48674372
 40
0.4891931445
 40
0.4913825658
 40
0.493320094
 40
0.4950186472
 40
0.4964978343
 40
0.4977876878
 40
0.4989336559
 40
0.5000002098
 40
0.50106677
 40
0.5022127872
 40
0.5035027389
 40
0.5049820503
 40
0.5066807178
 40
0.5086183097
 40
0.5108077404
 40
0.5132572337
 40
0.5159717856
 40
0.5189545451
 40
0.5222074254
 40
0.525731481
 40
0.5335937832
 40
0.5425362042
 40
0.5525448863
 40
0.5636031923
 40
0.5756896719
 40
0.5887773472
 40
0.6028381339
 40
0.6178414336
 40
0.6337516479
 40
0.6505322179
 40
0.6865480878
 40
0.7255484756
 40
0.7671659083
 40
0.8110072539
 40
0.8566504162
 40
0.9036630281
 40
0.9516121336
 40
1.0
 40
1.0
 40
1.0
 40
1.0
 10
10.9376923427
 20
9.5070052549
 30
0.0
 10
10.927332419
 20
9.5070052549
 30
0.0
 10
10.9067064848
 20
9.5070933056
 30
0.0
 10
10.8760173019
 20
9.5074878904
 30
0.0
 10
10.8459201537
 20
9.5081416758
 30
0.0
 10
10.8167091831
 20
9.5090478856
 30
0.0
 10
10.7886626402
 20
9.5101971783
 30
0.0
 10
10.7620504623
 20
9.5115784539
 30
0.0
 10
10.737129082
 20
9.5131778097
 30
0.0
 10
10.7175338869
 20
9.5147120504
 30
0.0
 10
10.7028841261
 20
9.5160497378
 30
0.0
 10
10.6927238146
 20
9.5170735474
 30
0.0
 10
10.6831534685
 20
9.5181389361
 30
0.0
 10
10.6741961611
 20
9.5192435776
 30
0.0
 10
10.6658733137
 20
9.520384517
 30
0.0
 10
10.6582047605
 20
9.5215586077
 30
0.0
 10
10.6512089312
 20
9.5227630804
 30
0.0
 10
10.6449022832
 20
9.5239946481
 30
0.0
 10
10.6392995342
 20
9.5252496971
 30
0.0
 10
10.6350866419
 20
9.5263483685
 30
0.0
 10
10.632083819
 20
9.5272476419
 30
0.0
 10
10.6300988961
 20
9.5279014194
 30
0.0
 10
10.6282986247
 20
9.5285588993
 30
0.0
 10
10.6266839021
 20
9.529219698
 30
0.0
 10
10.6252555141
 20
9.5298834038
 30
0.0
 10
10.6240140506
 20
9.5305497559
 30
0.0
 10
10.6229597273
 20
9.5312187246
 30
0.0
 10
10.6220922045
 20
9.5318905451
 30
0.0
 10
10.6214110094
 20
9.5325664724
 30
0.0
 10
10.620916593
 20
9.5332492835
 30
0.0
 10
10.6206129124
 20
9.5339428354
 30
0.0
 10
10.6205094846
 20
9.5346468008
 30
0.0
 10
10.6206129374
 20
9.5353507778
 30
0.0
 10
10.6209167197
 20
9.5360443251
 30
0.0
 10
10.6214112483
 20
9.5367271247
 30
0.0
 10
10.6220925548
 20
9.5374030409
 30
0.0
 10
10.6229601647
 20
9.5380748523
 30
0.0
 10
10.6240145357
 20
9.5387438189
 30
0.0
 10
10.6252560241
 20
9.5394101888
 30
0.0
 10
10.6266844644
 20
9.540073882
 30
0.0
 10
10.6282992645
 20
9.5407346706
 30
0.0
 10
10.630099623
 20
9.5413921394
 30
0.0
 10
10.6320846205
 20
9.5420459064
 30
0.0
 10
10.6350874873
 20
9.5429451635
 30
0.0
 10
10.6393004143
 20
9.5440438481
 30
0.0
 10
10.6449032159
 20
9.5452988562
 30
0.0
 10
10.6512098927
 20
9.5465303929
 30
0.0
 10
10.6582057092
 20
9.5477348655
 30
0.0
 10
10.6658742246
 20
9.5489089273
 30
0.0
 10
10.6741970183
 20
9.5500498357
 30
0.0
 10
10.6831542397
 20
9.5511544641
 30
0.0
 10
10.692724472
 20
9.552219833
 30
0.0
 10
10.7028846574
 20
9.5532436182
 30
0.0
 10
10.7175342216
 20
9.5545812826
 30
0.0
 10
10.737129152
 20
9.556115501
 30
0.0
 10
10.7620502213
 20
9.5577148346
 30
0.0
 10
10.7886621356
 20
9.5590961029
 30
0.0
 10
10.816708474
 20
9.5602453922
 30
0.0
 10
10.8459193708
 20
9.561151607
 30
0.0
 10
10.8760166754
 20
9.5618054075
 30
0.0
 10
10.9067061473
 20
9.5621999903
 30
0.0
 10
10.927332334
 20
9.56228805
 30
0.0
 10
10.9376923427
 20
9.56228805
 30
0.0
  0
SPLINE
  5
37A
100
AcDbEntity
  8
0
100
AcDbSpline
 62
7
  6
CONTINUOUS
 70
0
 71
3
 72
35
 73
31
 74
0
 42
0.0000001
 43
0.0000001
 44
0.0000000001
 40
0.0
 40
0.0
 40
0.0
 40
0.0
 40
0.0967747775
 40
0.1926711662
 40
0.286695896
 40
0.3779826579
 40
0.4656660085
 40
0.5489018166
 40
0.626903442
 40
0.6989360206
 40
0.7643178283
 40
0.7943249599
 40
0.8224470035
 40
0.8486225989
 40
0.8727958093
 40
0.8949127497
 40
0.9149301075
 40
0.9328149059
 40
0.9485396952
 40
0.9620921184
 40
0.9680574728
 40
0.9734864437
 40
0.9783853864
 40
0.9827643151
 40
0.9866394606
 40
0.9900366583
 40
0.9929951181
 40
0.9955748959
 40
0.9978668781
 40
1.0
 40
1.0
 40
1.0
 40
1.0
 10
10.9376923427
 20
9.5102430445
 30
0.0
 10
10.9468387176
 20
9.5102430445
 30
0.0
 10
10.9650485458
 20
9.5103207802
 30
0.0
 10
10.992142826
 20
9.5106691432
 30
0.0
 10
11.0187144365
 20
9.5112463412
 30
0.0
 10
11.0445037029
 20
9.5120464
 30
0.0
 10
11.0692649673
 20
9.5130610521
 30
0.0
 10
11.0927598452
 20
9.5142805661
 30
0.0
 10
11.1147620444
 20
9.5156924281
 30
0.0
 10
11.1350600037
 20
9.5172821622
 30
0.0
 10
11.1508132375
 20
9.5187811465
 30
0.0
 10
11.1624150829
 20
9.520072478
 30
0.0
 10
11.1703231952
 20
9.5210477588
 30
0.0
 10
11.1776711701
 20
9.5220550385
 30
0.0
 10
11.1844414862
 20
9.5230916025
 30
0.0
 10
11.1906179041
 20
9.5241549706
 30
0.0
 10
11.1961858001
 20
9.5252423204
 30
0.0
 10
11.2011324867
 20
9.5263502032
 30
0.0
 10
11.2054464235
 20
9.5274758139
 30
0.0
 10
11.208629587
 20
9.5284630901
 30
0.0
 10
11.2108447925
 20
9.5292718529
 30
0.0
 10
11.2122703907
 20
9.5298552822
 30
0.0
 10
11.2135314933
 20
9.5304412331
 30
0.0
 10
11.2146275634
 20
9.5310295336
 30
0.0
 10
11.2155584165
 20
9.5316201358
 30
0.0
 10
11.2163243526
 20
9.5322132717
 30
0.0
 10
11.2169257892
 20
9.5328099838
 30
0.0
 10
11.217362326
 20
9.5334129225
 30
0.0
 10
11.2176304731
 20
9.5340248732
 30
0.0
 10
11.2176921059
 20
9.5344450469
 30
0.0
 10
11.2176921167
 20
9.5346466524
 30
0.0
  0
SPLINE
  5
37B
100
AcDbEntity
  8
0
100
AcDbSpline
 62
9
  6
CONTINUOUS
 70
0
 71
3
 72
67
 73
63
 74
0
 42
0.0000001
 43
0.0000001
 44
0.0000000001
 40
0.0
 40
0.0
 40
0.0
 40
0.0
 40
0.0483874691
 40
0.0963357926
 40
0.1433482346
 40
0.1889916168
 40
0.2328332561
 40
0.2744511306
 40
0.3134520141
 40
0.349468402
 40
0.366249199
 40
0.3821595928
 40
0.3971630834
 40
0.4112240381
 40
0.4243117605
 40
0.4363982923
 40
0.4474566946
 40
0.4574652874
 40
0.4664075944
 40
0.4742699049
 40
0.477793893
 40
0.4810466569
 40
0.484029284
 40
0.48674372
 40
0.4891931445
 40
0.4913825658
 40
0.493320094
 40
0.4950186472
 40
0.4964978343
 40
0.4977876878
 40
0.4989336559
 40
0.5000002098
 40
0.50106677
 40
0.5022127872
 40
0.5035027389
 40
0.5049820503
 40
0.5066807178
 40
0.5086183097
 40
0.5108077404
 40
0.5132572337
 40
0.5159717856
 40
0.5189545451
 40
0.5222074254
 40
0.525731481
 40
0.5335937832
 40
0.5425362042
 40
0.5525448863
 40
0.5636031923
 40
0.5756896719
 40
0.5887773472
 40
0.6028381339
 40
0.6178414336
 40
0.6337516479
 40
0.6505322179
 40
0.6865480878
 40
0.7255484756
 40
0.7671659083
 40
0.8110072539
 40
0.8566504162
 40
0.9036630281
 40
0.9516121336
 40
1.0
 40
1.0
 40
1.0
 40
1.0
 10
10.9376923427
 20
9.56228805
 30
0.0
 10
10.9480522664
 20
9.56228805
 30
0.0
 10
10.9686782007
 20
9.5621999993
 30
0.0
 10
10.9993673836
 20
9.5618054144
 30
0.0
 10
11.0294645318
 20
9.5611516291
 30
0.0
 10
11.0586755024
 20
9.5602454192
 30
0.0
 10
11.0867220453
 20
9.5590961266
 30
0.0
 10
11.1133342232
 20
9.5577148509
 30
0.0
 10
11.1382556035
 20
9.5561154951
 30
0.0
 10
11.1578507985
 20
9.5545812545
 30
0.0
 10
11.1725005594
 20
9.5532435671
 30
0.0
 10
11.1826608709
 20
9.5522197575
 30
0.0
 10
11.192231217
 20
9.5511543688
 30
0.0
 10
11.2011885244
 20
9.5500497272
 30
0.0
 10
11.2095113717
 20
9.5489087879
 30
0.0
 10
11.217179925
 20
9.5477346972
 30
0.0
 10
11.2241757543
 20
9.5465302245
 30
0.0
 10
11.2304824023
 20
9.5452986568
 30
0.0
 10
11.2360851513
 20
9.5440436077
 30
0.0
 10
11.2402980436
 20
9.5429449364
 30
0.0
 10
11.2433008664
 20
9.5420456629
 30
0.0
 10
11.2452857893
 20
9.5413918855
 30
0.0
 10
11.2470860607
 20
9.5407344056
 30
0.0
 10
11.2487007834
 20
9.5400736068
 30
0.0
 10
11.2501291714
 20
9.5394099011
 30
0.0
 10
11.2513706348
 20
9.538743549
 30
0.0
 10
11.2524249582
 20
9.5380745803
 30
0.0
 10
11.253292481
 20
9.5374027598
 30
0.0
 10
11.2539736761
 20
9.5367268325
 30
0.0
 10
11.2544680925
 20
9.5360440214
 30
0.0
 10
11.2547717731
 20
9.5353504695
 30
0.0
 10
11.2548752009
 20
9.5346465041
 30
0.0
 10
11.254771748
 20
9.5339425271
 30
0.0
 10
11.2544679658
 20
9.5332489797
 30
0.0
 10
11.2539734371
 20
9.5325661802
 30
0.0
 10
11.2532921307
 20
9.5318902639
 30
0.0
 10
11.2524245208
 20
9.5312184525
 30
0.0
 10
11.2513701498
 20
9.530549486
 30
0.0
 10
11.2501286613
 20
9.5298831161
 30
0.0
 10
11.248700221
 20
9.5292194229
 30
0.0
 10
11.247085421
 20
9.5285586342
 30
0.0
 10
11.2452850624
 20
9.5279011655
 30
0.0
 10
11.2433000649
 20
9.5272473985
 30
0.0
 10
11.2402971981
 20
9.5263481414
 30
0.0
 10
11.2360842711
 20
9.5252494567
 30
0.0
 10
11.2304814696
 20
9.5239944486
 30
0.0
 10
11.2241747927
 20
9.5227629119
 30
0.0
 10
11.2171789763
 20
9.5215584394
 30
0.0
 10
11.2095104608
 20
9.5203843776
 30
0.0
 10
11.2011876671
 20
9.5192434691
 30
0.0
 10
11.1922304458
 20
9.5181388407
 30
0.0
 10
11.1826602134
 20
9.5170734719
 30
0.0
 10
11.172500028
 20
9.5160496866
 30
0.0
 10
11.1578504639
 20
9.5147120222
 30
0.0
 10
11.1382555335
 20
9.5131778038
 30
0.0
 10
11.1133344641
 20
9.5115784702
 30
0.0
 10
11.0867225498
 20
9.510197202
 30
0.0
 10
11.0586762115
 20
9.5090479127
 30
0.0
 10
11.0294653147
 20
9.5081416978
 30
0.0
 10
10.99936801
 20
9.5074878973
 30
0.0
 10
10.9686785382
 20
9.5070933146
 30
0.0
 10
10.9480523515
 20
9.5070052549
 30
0.0
 10
10.9376923427
 20
9.5070052549
 30
0.0
  0
SPLINE
  5
37C
100
AcDbEntity
  8
0
100
AcDbSpline
 62
9
  6
CONTINUOUS
 70
0
 71
3
 72
37
 73
33
 74
0
 42
0.0000001
 43
0.0000001
 44
0.0000000001
 40
0.0
 40
0.0
 40
0.0
 40
0.0
 40
0.0972370601
 40
0.1935722888
 40
0.2880100489
 40
0.3796700953
 40
0.4676681016
 40
0.5511522871
 40
0.6293218838
 40
0.7014317019
 40
0.7349973485
 40
0.7667976842
 40
0.7967560862
 40
0.8248052506
 40
0.8508824475
 40
0.8749273477
 40
0.8968907011
 40
0.9167300298
 40
0.9344076149
 40
0.9499012175
 40
0.9568266355
 40
0.9632043396
 40
0.9690361407
 40
0.9743267152
 40
0.979084573
 40
0.9833224311
 40
0.9870593638
 40
0.9903244404
 40
0.993162674
 40
0.9956444707
 40
0.9978756751
 40
1.0
 40
1.0
 40
1.0
 40
1.0
 10
10.9376923427
 20
9.5928299368
 30
0.0
 10
10.9491227709
 20
9.5928299368
 30
0.0
 10
10.9718777373
 20
9.5927323079
 30
0.0
 10
11.0057315277
 20
9.5922945695
 30
0.0
 10
11.0389246908
 20
9.5915694483
 30
0.0
 10
11.0711300762
 20
9.590564542
 30
0.0
 10
11.1020373119
 20
9.5892900533
 30
0.0
 10
11.131345125
 20
9.5877588522
 30
0.0
 10
11.1587680572
 20
9.5859862367
 30
0.0
 10
11.1803134393
 20
9.5842857433
 30
0.0
 10
11.1964060803
 20
9.5828032702
 30
0.0
 10
11.2075543426
 20
9.581669359
 30
0.0
 10
11.2180455205
 20
9.5804892866
 30
0.0
 10
11.2278541753
 20
9.579266184
 30
0.0
 10
11.2369565328
 20
9.5780033718
 30
0.0
 10
11.245330524
 20
9.5767037836
 30
0.0
 10
11.252956004
 20
9.5753710326
 30
0.0
 10
11.259814922
 20
9.5740091051
 30
0.0
 10
11.2658908506
 20
9.5726211806
 30
0.0
 10
11.2704465395
 20
9.5714056518
 30
0.0
 10
11.2736825374
 20
9.570410731
 30
0.0
 10
11.2758130884
 20
9.5696882554
 30
0.0
 10
11.2777382129
 20
9.5689617694
 30
0.0
 10
11.2794569444
 20
9.5682316496
 30
0.0
 10
11.2809687467
 20
9.567498405
 30
0.0
 10
11.2822733724
 20
9.566762332
 30
0.0
 10
11.2833708206
 20
9.5660234469
 30
0.0
 10
11.2842613373
 20
9.5652810916
 30
0.0
 10
11.28494498
 20
9.5645333071
 30
0.0
 10
11.285420155
 20
9.563776041
 30
0.0
 10
11.2856804701
 20
9.563006465
 30
0.0
 10
11.2857035252
 20
9.5624867222
 30
0.0
 10
11.2856789614
 20
9.5622382142
 30
0.0
  0
SPLINE
  5
37D
100
AcDbEntity
  8
0
100
AcDbSpline
 62
9
  6
CONTINUOUS
 70
0
 71
3
 72
37
 73
33
 74
0
 42
0.0000001
 43
0.0000001
 44
0.0000000001
 40
0.0
 40
0.0
 40
0.0
 40
0.0
 40
0.0021243249
 40
0.0043555293
 40
0.006837326
 40
0.0096755596
 40
0.0129406362
 40
0.0166775689
 40
0.020915427
 40
0.0256732848
 40
0.0309638593
 40
0.0367956604
 40
0.0431733645
 40
0.0500987825
 40
0.0655923851
 40
0.0832699702
 40
0.1031092989
 40
0.1250726523
 40
0.1491175525
 40
0.1751947494
 40
0.2032439138
 40
0.2332023158
 40
0.2650026515
 40
0.2985682981
 40
0.3706781162
 40
0.4488477129
 40
0.5323318984
 40
0.6203299047
 40
0.7119899511
 40
0.8064277112
 40
0.9027629399
 40
1.0
 40
1.0
 40
1.0
 40
1.0
 10
10.5897057241
 20
9.5622382142
 30
0.0
 10
10.5896811603
 20
9.5624867222
 30
0.0
 10
10.5897042154
 20
9.563006465
 30
0.0
 10
10.5899645305
 20
9.563776041
 30
0.0
 10
10.5904397055
 20
9.5645333071
 30
0.0
 10
10.5911233482
 20
9.5652810916
 30
0.0
 10
10.5920138649
 20
9.5660234469
 30
0.0
 10
10.5931113131
 20
9.566762332
 30
0.0
 10
10.5944159388
 20
9.567498405
 30
0.0
 10
10.595927741
 20
9.5682316496
 30
0.0
 10
10.5976464725
 20
9.5689617694
 30
0.0
 10
10.5995715971
 20
9.5696882554
 30
0.0
 10
10.6017021481
 20
9.570410731
 30
0.0
 10
10.604938146
 20
9.5714056518
 30
0.0
 10
10.6094938348
 20
9.5726211806
 30
0.0
 10
10.6155697634
 20
9.5740091051
 30
0.0
 10
10.6224286815
 20
9.5753710326
 30
0.0
 10
10.6300541615
 20
9.5767037836
 30
0.0
 10
10.6384281527
 20
9.5780033718
 30
0.0
 10
10.6475305102
 20
9.579266184
 30
0.0
 10
10.657339165
 20
9.5804892866
 30
0.0
 10
10.6678303428
 20
9.581669359
 30
0.0
 10
10.6789786051
 20
9.5828032702
 30
0.0
 10
10.6950712461
 20
9.5842857433
 30
0.0
 10
10.7166166282
 20
9.5859862367
 30
0.0
 10
10.7440395605
 20
9.5877588522
 30
0.0
 10
10.7733473736
 20
9.5892900533
 30
0.0
 10
10.8042546093
 20
9.590564542
 30
0.0
 10
10.8364599947
 20
9.5915694483
 30
0.0
 10
10.8696531578
 20
9.5922945695
 30
0.0
 10
10.9035069482
 20
9.5927323079
 30
0.0
 10
10.9262619146
 20
9.5928299368
 30
0.0
 10
10.9376923427
 20
9.5928299368
 30
0.0
  0
SPLINE
  5
37E
100
AcDbEntity
  8
0
100
AcDbSpline
 62
7
  6
CONTINUOUS
 70
0
 71
3
 72
15
 73
11
 74
0
 42
0.0000001
 43
0.0000001
 44
0.0000000001
 40
0.0
 40
0.0
 40
0.0
 40
0.0
 40
0.1377658882
 40
0.2743260857
 40
0.408357846
 40
0.5386848331
 40
0.6641216343
 40
0.7835270872
 40
0.8958230648
 40
1.0
 40
1.0
 40
1.0
 40
1.0
 10
10.9376923427
 20
10.2962856968
 30
0.0
 10
10.9244052205
 20
10.2962856968
 30
0.0
 10
10.8979471276
 20
10.2961755829
 30
0.0
 10
10.858564839
 20
10.295681686
 30
0.0
 10
10.8199055212
 20
10.2948632596
 30
0.0
 10
10.7823274574
 20
10.2937283659
 30
0.0
 10
10.7461715564
 20
10.2922877503
 30
0.0
 10
10.7117694871
 20
10.2905550985
 30
0.0
 10
10.6794365393
 20
10.2885467727
 30
0.0
 10
10.6586167848
 20
10.2869739047
 30
0.0
 10
10.6486043485
 20
10.2861344547
 30
0.0
  0
LINE
  5
37F
100
AcDbEntity
  8
0
100
AcDbLine
 62
7
  6
CONTINUOUS
 10
10.6270950219
 20
10.2841920826
 11
10.6258019019
 21
10.2840656869
  0
SPLINE
  5
380
100
AcDbEntity
  8
0
100
AcDbSpline
 62
7
  6
CONTINUOUS
 70
0
 71
3
 72
28
 73
24
 74
0
 42
0.0000001
 43
0.0000001
 44
0.0000000001
 40
0.0
 40
0.0
 40
0.0
 40
0.0
 40
0.2193808427
 40
0.3196515344
 40
0.4133756221
 40
0.5003859987
 40
0.5805310035
 40
0.6536677685
 40
0.7196890295
 40
0.7785177764
 40
0.8301001733
 40
0.853174711
 40
0.8744470542
 40
0.893931136
 40
0.911648216
 40
0.9276300728
 40
0.9419242733
 40
0.9546046214
 40
0.9657813693
 40
0.9756174114
 40
0.9843531424
 40
0.9923314459
 40
1.0
 40
1.0
 40
1.0
 40
1.0
 10
10.6225447702
 20
10.2837419744
 30
0.0
 10
10.6147543118
 20
10.2829583856
 30
0.0
 10
10.6034121027
 20
10.2817208341
 30
0.0
 10
10.5887752783
 20
10.2798666954
 30
0.0
 10
10.5788423858
 20
10.2784780972
 30
0.0
 10
10.5696408751
 20
10.2770527462
 30
0.0
 10
10.5611892563
 20
10.2755938924
 30
0.0
 10
10.5535046347
 20
10.2741044656
 30
0.0
 10
10.5466021072
 20
10.2725880659
 30
0.0
 10
10.5404951779
 20
10.2710484448
 30
0.0
 10
10.5359226732
 20
10.269704048
 30
0.0
 10
10.5326793128
 20
10.2686060333
 30
0.0
 10
10.5305445756
 20
10.2678093067
 30
0.0
 10
10.5286166253
 20
10.2670089486
 30
0.0
 10
10.526896236
 20
10.2662053053
 30
0.0
 10
10.5253840266
 20
10.2653987312
 30
0.0
 10
10.5240803935
 20
10.264589286
 30
0.0
 10
10.5229852838
 20
10.2637768449
 30
0.0
 10
10.5220983254
 20
10.2629606295
 30
0.0
 10
10.521419559
 20
10.2621387677
 30
0.0
 10
10.5209509782
 20
10.2613078822
 30
0.0
 10
10.520698823
 20
10.2604664525
 30
0.0
 10
10.5206808838
 20
10.2599007331
 30
0.0
 10
10.5207078681
 20
10.2596283737
 30
0.0
  0
SPLINE
  5
381
100
AcDbEntity
  8
0
100
AcDbSpline
 62
7
  6
CONTINUOUS
 70
0
 71
3
 72
28
 73
24
 74
0
 42
0.0000001
 43
0.0000001
 44
0.0000000001
 40
0.0
 40
0.0
 40
0.0
 40
0.0
 40
0.0076685541
 40
0.0156468576
 40
0.0243825886
 40
0.0342186307
 40
0.0453953786
 40
0.0580757267
 40
0.0723699272
 40
0.088351784
 40
0.106068864
 40
0.1255529458
 40
0.146825289
 40
0.1698998267
 40
0.2214822236
 40
0.2803109705
 40
0.3463322315
 40
0.4194689965
 40
0.4996140013
 40
0.5866243779
 40
0.6803484656
 40
0.7806191573
 40
1.0
 40
1.0
 40
1.0
 40
1.0
 10
11.3546768174
 20
10.2596283737
 30
0.0
 10
11.3547038017
 20
10.2599007331
 30
0.0
 10
11.3546858624
 20
10.2604664525
 30
0.0
 10
11.3544337073
 20
10.2613078822
 30
0.0
 10
11.3539651265
 20
10.2621387677
 30
0.0
 10
11.3532863601
 20
10.2629606295
 30
0.0
 10
11.3523994016
 20
10.2637768449
 30
0.0
 10
11.351304292
 20
10.264589286
 30
0.0
 10
11.3500006589
 20
10.2653987312
 30
0.0
 10
11.3484884495
 20
10.2662053053
 30
0.0
 10
11.3467680602
 20
10.2670089486
 30
0.0
 10
11.3448401099
 20
10.2678093067
 30
0.0
 10
11.3427053727
 20
10.2686060333
 30
0.0
 10
11.3394620123
 20
10.269704048
 30
0.0
 10
11.3348895075
 20
10.2710484448
 30
0.0
 10
11.3287825783
 20
10.2725880659
 30
0.0
 10
11.3218800508
 20
10.2741044656
 30
0.0
 10
11.3141954292
 20
10.2755938924
 30
0.0
 10
11.3057438104
 20
10.2770527462
 30
0.0
 10
11.2965422997
 20
10.2784780972
 30
0.0
 10
11.2866094072
 20
10.2798666954
 30
0.0
 10
11.2719725828
 20
10.2817208341
 30
0.0
 10
11.2606303737
 20
10.2829583856
 30
0.0
 10
11.2528399152
 20
10.2837419744
 30
0.0
  0
LINE
  5
382
100
AcDbEntity
  8
0
100
AcDbLine
 62
7
  6
CONTINUOUS
 10
11.2528399152
 20
10.2837419744
 11
11.2510721409
 21
10.2839186266
  0
LINE
  5
383
100
AcDbEntity
  8
0
100
AcDbLine
 62
7
  6
CONTINUOUS
 10
11.2510721409
 20
10.2839186266
 11
11.2505502364
 21
10.2839703423
  0
LINE
  5
384
100
AcDbEntity
  8
0
100
AcDbLine
 62
7
  6
CONTINUOUS
 10
11.2505502364
 20
10.2839703423
 11
11.2482272098
 21
10.2841981572
  0
SPLINE
  5
385
100
AcDbEntity
  8
0
100
AcDbSpline
 62
7
  6
CONTINUOUS
 70
0
 71
3
 72
15
 73
11
 74
0
 42
0.0000001
 43
0.0000001
 44
0.0000000001
 40
0.0
 40
0.0
 40
0.0
 40
0.0
 40
0.1038449652
 40
0.2159353412
 40
0.3352477646
 40
0.4606887718
 40
0.5911005639
 40
0.7252780511
 40
0.8620252674
 40
1.0
 40
1.0
 40
1.0
 40
1.0
 10
11.2285205486
 20
10.2859877044
 30
0.0
 10
11.2184806027
 20
10.2868392922
 30
0.0
 10
11.1975884657
 20
10.2884347649
 30
0.0
 10
11.1651226518
 20
10.2904711755
 30
0.0
 10
11.1305422588
 20
10.2922286413
 30
0.0
 10
11.0941690059
 20
10.2936902754
 30
0.0
 10
11.0563416392
 20
10.2948419406
 30
0.0
 10
11.0174086112
 20
10.2956725972
 30
0.0
 10
10.9777361208
 20
10.2961739272
 30
0.0
 10
10.9510799248
 20
10.2962856968
 30
0.0
 10
10.9376923427
 20
10.2962856968
 30
0.0
  0
SPLINE
  5
386
100
AcDbEntity
  8
0
100
AcDbSpline
 62
7
  6
CONTINUOUS
 70
0
 71
3
 72
35
 73
31
 74
0
 42
0.0000001
 43
0.0000001
 44
0.0000000001
 40
0.0
 40
0.0
 40
0.0
 40
0.0
 40
0.0021331139
 40
0.0044251101
 40
0.0070049511
 40
0.0099634974
 40
0.0133607513
 40
0.0172358579
 40
0.0216146494
 40
0.0265135603
 40
0.0319425847
 40
0.0379080251
 40
0.051460493
 40
0.0671850093
 40
0.0850697659
 40
0.105087065
 40
0.1272036542
 40
0.1513766036
 40
0.1775519721
 40
0.2056736195
 40
0.235680333
 40
0.3010613602
 40
0.373093097
 40
0.4510940658
 40
0.5343294405
 40
0.6220127547
 40
0.7132996694
 40
0.8073253607
 40
0.9032238791
 40
1.0
 40
1.0
 40
1.0
 40
1.0
 10
10.6576925688
 20
9.5346466524
 30
0.0
 10
10.657692558
 20
9.5344450476
 30
0.0
 10
10.6577541658
 20
9.5340248656
 30
0.0
 10
10.6580223259
 20
9.5334129107
 30
0.0
 10
10.658458893
 20
9.5328099745
 30
0.0
 10
10.6590603599
 20
9.5322132661
 30
0.0
 10
10.6598263097
 20
9.5316201329
 30
0.0
 10
10.6607571472
 20
9.5310295283
 30
0.0
 10
10.6618531857
 20
9.53044121
 30
0.0
 10
10.6631142797
 20
9.529855265
 30
0.0
 10
10.6645398905
 20
9.5292718395
 30
0.0
 10
10.6667551184
 20
9.5284630864
 30
0.0
 10
10.6699382708
 20
9.5274758215
 30
0.0
 10
10.6742521753
 20
9.5263501868
 30
0.0
 10
10.6791988318
 20
9.5252423275
 30
0.0
 10
10.6847666874
 20
9.5241549933
 30
0.0
 10
10.69094304
 20
9.5230916176
 30
0.0
 10
10.6977132784
 20
9.5220550668
 30
0.0
 10
10.7050611714
 20
9.5210478019
 30
0.0
 10
10.7129691854
 20
9.5200725234
 30
0.0
 10
10.7245708809
 20
9.5187812007
 30
0.0
 10
10.7403239233
 20
9.5172822299
 30
0.0
 10
10.7606216679
 20
9.5156924952
 30
0.0
 10
10.7826236857
 20
9.5142806352
 30
0.0
 10
10.8061184579
 20
9.5130611098
 30
0.0
 10
10.8308796936
 20
9.5120464475
 30
0.0
 10
10.8566690631
 20
9.511246373
 30
0.0
 10
10.8832409816
 20
9.5106691545
 30
0.0
 10
10.9103356827
 20
9.5103207887
 30
0.0
 10
10.9285458403
 20
9.5102430445
 30
0.0
 10
10.9376923427
 20
9.5102430445
 30
0.0
  0
SPLINE
  5
387
100
AcDbEntity
  8
0
100
AcDbSpline
 62
7
  6
CONTINUOUS
 70
0
 71
3
 72
21
 73
17
 74
0
 42
0.0000001
 43
0.0000001
 44
0.0000000001
 40
0.0
 40
0.0
 40
0.0
 40
0.0
 40
0.0625086279
 40
0.1250165307
 40
0.249986852
 40
0.3124916656
 40
0.3749953383
 40
0.4374979807
 40
0.5000000067
 40
0.5625020297
 40
0.6250046714
 40
0.6875083423
 40
0.7500131535
 40
0.874983471
 40
0.9374913715
 40
1.0
 40
1.0
 40
1.0
 40
1.0
 10
7.3167216946
 20
6.9398641641
 30
0.0
 10
7.3019588128
 20
6.9472243459
 30
0.0
 10
7.2721676019
 20
6.9614242021
 30
0.0
 10
7.2115234699
 20
6.9874173321
 30
0.0
 10
7.1491005399
 20
7.0092058948
 30
0.0
 10
7.0851058701
 20
7.0253774022
 30
0.0
 10
7.0364036224
 20
7.0343564132
 30
0.0
 10
6.9871864762
 20
7.0398820533
 30
0.0
 10
6.9376923383
 20
7.0417488159
 30
0.0
 10
6.8881982006
 20
7.0398820525
 30
0.0
 10
6.838981056
 20
7.034356412
 30
0.0
 10
6.7902788096
 20
7.025377401
 30
0.0
 10
6.7262841419
 20
7.0092058935
 30
0.0
 10
6.6638612143
 20
6.9874173311
 30
0.0
 10
6.6032170831
 20
6.9614242027
 30
0.0
 10
6.5734258731
 20
6.9472243459
 30
0.0
 10
6.5586629911
 20
6.939864164
 30
0.0
  0
SPLINE
  5
388
100
AcDbEntity
  8
0
100
AcDbSpline
 62
7
  6
CONTINUOUS
 70
0
 71
3
 72
29
 73
25
 74
0
 42
0.0000001
 43
0.0000001
 44
0.0000000001
 40
0.0
 40
0.0
 40
0.0
 40
0.0
 40
0.0699609748
 40
0.1378565438
 40
0.2034998419
 40
0.266778229
 40
0.3277080758
 40
0.3573640579
 40
0.3865362043
 40
0.4152931621
 40
0.443720459
 40
0.4719185631
 40
0.499999125
 40
0.5280796862
 40
0.5562777965
 40
0.5847051059
 40
0.6134620746
 40
0.6426342359
 40
0.6722902364
 40
0.7332201234
 40
0.7964985441
 40
0.8621419183
 40
0.930037439
 40
1.0
 40
1.0
 40
1.0
 40
1.0
 10
6.5586611396
 20
6.939864164
 30
0.0
 10
6.5513810449
 20
6.9471232837
 30
0.0
 10
6.5367212156
 20
6.9611176362
 30
0.0
 10
6.5140227545
 20
6.9806116868
 30
0.0
 10
6.4908876571
 20
6.9980106458
 30
0.0
 10
6.4673101241
 20
7.0129869447
 30
0.0
 10
6.4471086254
 20
7.0232465616
 30
0.0
 10
6.4307780181
 20
7.029830604
 30
0.0
 10
6.4185577021
 20
7.0338986845
 30
0.0
 10
6.4062690782
 20
7.0371043877
 30
0.0
 10
6.3939262252
 20
7.0394172294
 30
0.0
 10
6.3815459366
 20
7.0408146328
 30
0.0
 10
6.3691464365
 20
7.0412822118
 30
0.0
 10
6.3567469367
 20
7.0408145984
 30
0.0
 10
6.3443666493
 20
7.0394171607
 30
0.0
 10
6.3320237981
 20
7.0371042864
 30
0.0
 10
6.3197351768
 20
7.0338985503
 30
0.0
 10
6.3075148648
 20
7.0298304385
 30
0.0
 10
6.2911842599
 20
7.0232463592
 30
0.0
 10
6.2709827836
 20
7.0129866784
 30
0.0
 10
6.2474051995
 20
6.9980103995
 30
0.0
 10
6.2242702984
 20
6.9806111994
 30
0.0
 10
6.201571124
 20
6.9611175662
 30
0.0
 10
6.1869123487
 20
6.947121775
 30
0.0
 10
6.1796320909
 20
6.9398624887
 30
0.0
  0
SPLINE
  5
389
100
AcDbEntity
  8
0
100
AcDbSpline
 62
7
  6
CONTINUOUS
 70
0
 71
3
 72
29
 73
25
 74
0
 42
0.0000001
 43
0.0000001
 44
0.0000000001
 40
0.0
 40
0.0
 40
0.0
 40
0.0
 40
0.069961591
 40
0.137857213
 40
0.2035006061
 40
0.2667790725
 40
0.3277090014
 40
0.3573650235
 40
0.3865372093
 40
0.4152942052
 40
0.4437215386
 40
0.4719196775
 40
0.500000272
 40
0.5280808636
 40
0.556279002
 40
0.5847063372
 40
0.6134633296
 40
0.6426355128
 40
0.6722915338
 40
0.7332214578
 40
0.7964999242
 40
0.8621432988
 40
0.9300389443
 40
1.0
 40
1.0
 40
1.0
 40
1.0
 10
7.6957524105
 20
6.939863704
 30
0.0
 10
7.6884722697
 20
6.9471228736
 30
0.0
 10
7.6738128139
 20
6.9611176978
 30
0.0
 10
7.6511141314
 20
6.9806115785
 30
0.0
 10
7.6279791244
 20
6.9980105951
 30
0.0
 10
7.6044015985
 20
7.0129868671
 30
0.0
 10
7.5842001291
 20
7.0232464933
 30
0.0
 10
7.5678695403
 20
7.0298305419
 30
0.0
 10
7.5556492388
 20
7.0338986304
 30
0.0
 10
7.5433606291
 20
7.0371043435
 30
0.0
 10
7.5310177903
 20
7.0394171976
 30
0.0
 10
7.5186375156
 20
7.0408146156
 30
0.0
 10
7.5062380291
 20
7.0412822115
 30
0.0
 10
7.4938385426
 20
7.0408146169
 30
0.0
 10
7.4814582681
 20
7.0394172
 30
0.0
 10
7.4691154292
 20
7.037104348
 30
0.0
 10
7.45682682
 20
7.0338986353
 30
0.0
 10
7.4446065189
 20
7.0298305491
 30
0.0
 10
7.4282759313
 20
7.0232465015
 30
0.0
 10
7.408074457
 20
7.0129868836
 30
0.0
 10
7.384496952
 20
6.9980105918
 30
0.0
 10
7.3613618818
 20
6.9806116461
 30
0.0
 10
7.338663446
 20
6.9611176146
 30
0.0
 10
7.324003633
 20
6.9471232762
 30
0.0
 10
7.316723546
 20
6.9398641641
 30
0.0
  0
SPLINE
  5
38A
100
AcDbEntity
  8
0
100
AcDbSpline
 62
7
  6
CONTINUOUS
 70
0
 71
3
 72
21
 73
17
 74
0
 42
0.0000001
 43
0.0000001
 44
0.0000000001
 40
0.0
 40
0.0
 40
0.0
 40
0.0
 40
0.0625086279
 40
0.1250165307
 40
0.249986852
 40
0.3124916656
 40
0.3749953383
 40
0.4374979807
 40
0.5000000067
 40
0.5625020297
 40
0.6250046714
 40
0.6875083423
 40
0.7500131535
 40
0.874983471
 40
0.9374913715
 40
1.0
 40
1.0
 40
1.0
 40
1.0
 10
15.3167216946
 20
6.9398641641
 30
0.0
 10
15.3019588128
 20
6.9472243459
 30
0.0
 10
15.2721676019
 20
6.9614242021
 30
0.0
 10
15.2115234699
 20
6.9874173321
 30
0.0
 10
15.1491005399
 20
7.0092058948
 30
0.0
 10
15.0851058701
 20
7.0253774022
 30
0.0
 10
15.0364036224
 20
7.0343564132
 30
0.0
 10
14.9871864762
 20
7.0398820533
 30
0.0
 10
14.9376923383
 20
7.0417488159
 30
0.0
 10
14.8881982006
 20
7.0398820525
 30
0.0
 10
14.838981056
 20
7.034356412
 30
0.0
 10
14.7902788096
 20
7.025377401
 30
0.0
 10
14.7262841419
 20
7.0092058935
 30
0.0
 10
14.6638612143
 20
6.9874173311
 30
0.0
 10
14.6032170831
 20
6.9614242027
 30
0.0
 10
14.5734258731
 20
6.9472243459
 30
0.0
 10
14.5586629911
 20
6.939864164
 30
0.0
  0
SPLINE
  5
38B
100
AcDbEntity
  8
0
100
AcDbSpline
 62
7
  6
CONTINUOUS
 70
0
 71
3
 72
29
 73
25
 74
0
 42
0.0000001
 43
0.0000001
 44
0.0000000001
 40
0.0
 40
0.0
 40
0.0
 40
0.0
 40
0.0699609748
 40
0.1378565438
 40
0.2034998419
 40
0.266778229
 40
0.3277080758
 40
0.3573640579
 40
0.3865362043
 40
0.4152931621
 40
0.443720459
 40
0.4719185631
 40
0.499999125
 40
0.5280796862
 40
0.5562777965
 40
0.5847051059
 40
0.6134620746
 40
0.6426342359
 40
0.6722902364
 40
0.7332201234
 40
0.7964985441
 40
0.8621419183
 40
0.930037439
 40
1.0
 40
1.0
 40
1.0
 40
1.0
 10
14.5586611396
 20
6.939864164
 30
0.0
 10
14.5513810449
 20
6.9471232837
 30
0.0
 10
14.5367212156
 20
6.9611176362
 30
0.0
 10
14.5140227545
 20
6.9806116868
 30
0.0
 10
14.4908876571
 20
6.9980106458
 30
0.0
 10
14.4673101241
 20
7.0129869447
 30
0.0
 10
14.4471086254
 20
7.0232465616
 30
0.0
 10
14.4307780181
 20
7.029830604
 30
0.0
 10
14.4185577021
 20
7.0338986845
 30
0.0
 10
14.4062690782
 20
7.0371043877
 30
0.0
 10
14.3939262252
 20
7.0394172294
 30
0.0
 10
14.3815459366
 20
7.0408146328
 30
0.0
 10
14.3691464365
 20
7.0412822118
 30
0.0
 10
14.3567469367
 20
7.0408145984
 30
0.0
 10
14.3443666493
 20
7.0394171607
 30
0.0
 10
14.3320237981
 20
7.0371042864
 30
0.0
 10
14.3197351768
 20
7.0338985503
 30
0.0
 10
14.3075148648
 20
7.0298304385
 30
0.0
 10
14.2911842599
 20
7.0232463592
 30
0.0
 10
14.2709827836
 20
7.0129866784
 30
0.0
 10
14.2474051995
 20
6.9980103995
 30
0.0
 10
14.2242702984
 20
6.9806111994
 30
0.0
 10
14.201571124
 20
6.9611175662
 30
0.0
 10
14.1869123487
 20
6.947121775
 30
0.0
 10
14.1796320909
 20
6.9398624887
 30
0.0
  0
SPLINE
  5
38C
100
AcDbEntity
  8
0
100
AcDbSpline
 62
7
  6
CONTINUOUS
 70
0
 71
3
 72
29
 73
25
 74
0
 42
0.0000001
 43
0.0000001
 44
0.0000000001
 40
0.0
 40
0.0
 40
0.0
 40
0.0
 40
0.069961591
 40
0.137857213
 40
0.2035006061
 40
0.2667790725
 40
0.3277090014
 40
0.3573650235
 40
0.3865372093
 40
0.4152942052
 40
0.4437215386
 40
0.4719196775
 40
0.500000272
 40
0.5280808636
 40
0.556279002
 40
0.5847063372
 40
0.6134633296
 40
0.6426355128
 40
0.6722915338
 40
0.7332214578
 40
0.7964999242
 40
0.8621432988
 40
0.9300389443
 40
1.0
 40
1.0
 40
1.0
 40
1.0
 10
15.6957524105
 20
6.939863704
 30
0.0
 10
15.6884722697
 20
6.9471228736
 30
0.0
 10
15.6738128139
 20
6.9611176978
 30
0.0
 10
15.6511141314
 20
6.9806115785
 30
0.0
 10
15.6279791244
 20
6.9980105951
 30
0.0
 10
15.6044015985
 20
7.0129868671
 30
0.0
 10
15.5842001291
 20
7.0232464933
 30
0.0
 10
15.5678695403
 20
7.0298305419
 30
0.0
 10
15.5556492388
 20
7.0338986304
 30
0.0
 10
15.5433606291
 20
7.0371043435
 30
0.0
 10
15.5310177903
 20
7.0394171976
 30
0.0
 10
15.5186375156
 20
7.0408146156
 30
0.0
 10
15.5062380291
 20
7.0412822115
 30
0.0
 10
15.4938385426
 20
7.0408146169
 30
0.0
 10
15.4814582681
 20
7.0394172
 30
0.0
 10
15.4691154292
 20
7.037104348
 30
0.0
 10
15.45682682
 20
7.0338986353
 30
0.0
 10
15.4446065189
 20
7.0298305491
 30
0.0
 10
15.4282759313
 20
7.0232465015
 30
0.0
 10
15.408074457
 20
7.0129868836
 30
0.0
 10
15.384496952
 20
6.9980105918
 30
0.0
 10
15.3613618818
 20
6.9806116461
 30
0.0
 10
15.338663446
 20
6.9611176146
 30
0.0
 10
15.324003633
 20
6.9471232762
 30
0.0
 10
15.316723546
 20
6.9398641641
 30
0.0
  0
ENDSEC
  0
SECTION
  2
OBJECTS
  0
DICTIONARY
  5
C
100
AcDbDictionary
280
0
281
1
  3
ACAD_GROUP
350
D
  3
ACAD_MLINESTYLE
350
17
  3
ACAD_LAYOUT
350
1A
  3
ACAD_PLOTSETTINGS
350
19
  3
ACAD_PLOTSTYLENAME
350
E
  0
DICTIONARY
  5
D
102
{ACAD_REACTORS
330
C
102
}
100
AcDbDictionary
280
0
281
1
  0
ACDBDICTIONARYWDFLT
  5
E
102
{ACAD_REACTORS
330
C
102
}
100
AcDbDictionary
281
1
  3
Normal
350
F
100
AcDbDictionaryWithDefault
340
F
  0
DICTIONARY
  5
17
102
{ACAD_REACTORS
330
C
102
}
100
AcDbDictionary
280
0
281
1
  3
Standard
350
18
  0
DICTIONARY
  5
19
102
{ACAD_REACTORS
330
C
102
}
100
AcDbDictionary
281
1
  0
DICTIONARY
  5
1A
102
{ACAD_REACTORS
330
C
102
}
100
AcDbDictionary
281
1
  3
Model
350
38D
  3
Layout1
350
38E
  0
ACDBPLACEHOLDER
  5
F
102
{ACAD_REACTORS
330
E
102
}
  0
MLINESTYLE
  5
18
102
{ACAD_REACTORS
330
17
102
}
100
AcDbMlineStyle
  2
STANDARD
 70
0
  3

 62
256
 51
90.0
 52
90.0
 71
2
 49
0.5
 62
256
  6
BYLAYER
 49
-0.5
 62
256
  6
BYLAYER
  0
LAYOUT
  5
38D
102
{ACAD_REACTORS
330
1A
102
}
100
AcDbPlotSettings
  1

  2
none_device
  4
ANSI_C_(22.00_x_17.00_Inches)
  6

 40
0.0
 41
0.0
 42
0.0
 43
0.0
 44
558.8
 45
431.8
 46
0.0
 47
0.0
 48
0.0
 49
0.0
140
0.0
141
0.0
142
1.0
143
1.0
 70
1024
 72
0
 73
0
 74
0
  7

 75
0
147
1.0
148
0.0
149
0.0
100
AcDbLayout
  1
Model
 70
0
 71
0
 10
0.0
 20
0.0
 11
22.0
 21
17.0
 12
0.0
 22
0.0
 32
0.0
 14
0.0
 24
0.0
 34
0.0
 15
0.0
 25
0.0
 35
0.0
146
0.0
 13
0.0
 23
0.0
 33
0.0
 16
1.0
 26
0.0
 36
0.0
 17
0.0
 27
1.0
 37
0.0
 76
0
330
202
345
0
346
0
  0
LAYOUT
  5
38E
102
{ACAD_REACTORS
330
1A
102
}
100
AcDbPlotSettings
  1

  2
none_device
  4
ANSI_C_(22.00_x_17.00_Inches)
  6

 40
0.0
 41
0.0
 42
0.0
 43
0.0
 44
558.8
 45
431.8
 46
0.0
 47
0.0
 48
0.0
 49
0.0
140
0.0
141
0.0
142
1.0
143
1.0
 70
0
 72
0
 73
0
 74
0
  7

 75
0
147
1.0
148
0.0
149
0.0
100
AcDbLayout
  1
Layout1
 70
0
 71
1
 10
0.0
 20
0.0
 11
22.0
 21
17.0
 12
0.0
 22
0.0
 32
0.0
 14
0.0
 24
0.0
 34
0.0
 15
0.0
 25
0.0
 35
0.0
146
0.0
 13
0.0
 23
0.0
 33
0.0
 16
1.0
 26
0.0
 36
0.0
 17
0.0
 27
1.0
 37
0.0
 76
0
330
203
345
0
346
0
  0
ENDSEC
  0
EOF
