999
DXF file: E:\BT Custom\CADOUTPUT\_RIGHT.dxf
999
Pro/ENGINEER 2018400 by Parametric Technology Corporation
  0
SECTION
  2
HEADER
  9
$ACADVER
  1
AC1018
  9
$DWGCODEPAGE
  3
ANSI_1252
  9
$EXTMAX
 10
22.0
 20
17.0
 30
0.0
  9
$EXTMIN
 10
0.0
 20
0.0
 30
0.0
  9
$LIMMIN
 10
0.0
 20
0.0
  9
$LIMMAX
 10
22.0
 20
17.0
  9
$VIEWCTR
 10
11.0
 20
8.5
  9
$VIEWSIZE
 40
17.0
  9
$CLAYER
  8
0
  9
$LTSCALE
 40
1.21
  9
$CELTYPE
  6
BYLAYER
  9
$DIMSCALE
 40
1.0
  9
$DIMASZ
 40
0.1
  9
$DIMEXO
 40
0.0625
  9
$DIMDLI
 40
0.836
  9
$DIMEXE
 40
0.125
  9
$DIMCEN
 40
0.198
  9
$DIMLFAC
 40
1.0
  9
$DIMBLK
  1
_FILLED
  9
$DIMALT
 70
1
  9
$DIMALTD
 70
2
  9
$DIMALTTD
 70
2
  9
$DIMALTF
 40
25.4
  9
$DIMTXT
 40
0.08
  9
$DIMTOL
 70
1
  9
$DIMLIM
 70
0
  9
$DIMTFAC
 40
1.0
  9
$DIMTP
 40
0.001
  9
$DIMTM
 40
0.001
  9
$DIMGAP
 40
0.09
  9
$DIMDSEP
 70
46
  9
$AUNITS
 70
0
  9
$PDMODE
 70
3
  9
$PDSIZE
 40
0.06
  9
$HANDSEED
  5
531
  9
$TILEMODE
 70
1
  9
$MEASUREMENT
 70
0
  9
$INSUNITS
 70
1
  0
ENDSEC
  0
SECTION
  2
CLASSES
  0
CLASS
  1
ACDBDICTIONARYWDFLT
  2
AcDbDictionaryWithDefault
  3
AutoCAD 2000
 90
0
 91
1
280
0
281
0
  0
CLASS
  1
ACDBPLACEHOLDER
  2
AcDbPlaceHolder
  3
AutoCAD 2000
 90
0
 91
1
280
0
281
0
  0
CLASS
  1
LAYOUT
  2
AcDbLayout
  3
AutoCAD 2000
 90
0
 91
0
280
0
281
0
  0
ENDSEC
  0
SECTION
  2
TABLES
  0
TABLE
  2
VPORT
  5
8
100
AcDbSymbolTable
 70
2
  0
VPORT
  5
1F4
100
AcDbSymbolTableRecord
100
AcDbViewportTableRecord
  2
*ACTIVE
 70
0
 10
0.0
 20
0.0
 11
1.0
 21
1.0
 12
11.0
 22
8.5
 13
0.0
 23
0.0
 14
1.0
 24
1.0
 15
0.0
 25
0.0
 16
0.0
 26
0.0
 36
1.0
 17
0.0
 27
0.0
 37
0.0
 40
17.0
 41
1.2941176471
 42
50.0
 43
0.0
 44
0.0
 50
0.0
 51
0.0
 71
0
 72
100
 73
1
 74
1
 75
0
 76
0
 77
0
 78
0
  0
ENDTAB
  0
TABLE
  2
LTYPE
  5
5
100
AcDbSymbolTable
 70
6
  0
LTYPE
  5
14
100
AcDbSymbolTableRecord
100
AcDbLinetypeTableRecord
  2
BYBLOCK
 70
0
  3

 72
65
 73
0
 40
0.0
  0
LTYPE
  5
15
100
AcDbSymbolTableRecord
100
AcDbLinetypeTableRecord
  2
BYLAYER
 70
0
  3

 72
65
 73
0
 40
0.0
  0
LTYPE
  5
16
100
AcDbSymbolTableRecord
100
AcDbLinetypeTableRecord
  2
CONTINUOUS
 70
64
  3
Solid line
 72
65
 73
0
 40
0.0
  0
LTYPE
  5
1F5
100
AcDbSymbolTableRecord
100
AcDbLinetypeTableRecord
  2
CENTER
 70
64
  3
____ _ ____ _ ____ _ ____ _ ____ _ ____ _ ____
 72
65
 73
4
 40
0.6
 49
0.375
 74
0
 49
-0.075
 74
0
 49
0.075
 74
0
 49
-0.075
 74
0
  0
LTYPE
  5
1F6
100
AcDbSymbolTableRecord
100
AcDbLinetypeTableRecord
  2
HIDDEN
 70
64
  3
- - - - - - - - - - - - - - - - - - - -
 72
65
 73
2
 40
0.2
 49
0.1
 74
0
 49
-0.1
 74
0
  0
LTYPE
  5
1F7
100
AcDbSymbolTableRecord
100
AcDbLinetypeTableRecord
  2
PHANTOM
 70
64
  3
_____ _ _ _____ _ _ _____ _ _ _____
 72
65
 73
6
 40
0.8
 49
0.45
 74
0
 49
-0.05
 74
0
 49
0.1
 74
0
 49
-0.05
 74
0
 49
0.1
 74
0
 49
-0.05
 74
0
  0
LTYPE
  5
1F8
100
AcDbSymbolTableRecord
100
AcDbLinetypeTableRecord
  2
DOT
 70
64
  3
. . . . . . . . . . . . . . . . . . . .
 72
65
 73
2
 40
0.2
 49
0.1
 74
0
 49
-0.1
 74
0
  0
LTYPE
  5
1F9
100
AcDbSymbolTableRecord
100
AcDbLinetypeTableRecord
  2
DASHED
 70
64
  3
- - - - - - - - - - - - - - - - - - - -
 72
65
 73
2
 40
0.2
 49
0.1
 74
0
 49
-0.1
 74
0
  0
ENDTAB
  0
TABLE
  2
LAYER
  5
2
100
AcDbSymbolTable
 70
36
  0
LAYER
  5
10
100
AcDbSymbolTableRecord
100
AcDbLayerTableRecord
  2
0
 70
0
 62
7
  6
CONTINUOUS
370
-3
390
F
  0
LAYER
  5
1FA
100
AcDbSymbolTableRecord
100
AcDbLayerTableRecord
  2
DEFAULT_1
 70
0
 62
7
  6
CENTER
370
-3
390
F
  0
LAYER
  5
1FB
100
AcDbSymbolTableRecord
100
AcDbLayerTableRecord
  2
DEFAULT_2
 70
0
 62
8
  6
HIDDEN
370
-3
390
F
  0
LAYER
  5
1FC
100
AcDbSymbolTableRecord
100
AcDbLayerTableRecord
  2
DEFAULT_3
 70
0
 62
7
  6
PHANTOM
370
-3
390
F
  0
LAYER
  5
1FD
100
AcDbSymbolTableRecord
100
AcDbLayerTableRecord
  2
ALL_FEATURES
 70
0
 62
7
  6
CONTINUOUS
370
-3
390
F
  0
LAYER
  5
1FE
100
AcDbSymbolTableRecord
100
AcDbLayerTableRecord
  2
AXES_FEATURES
 70
0
 62
7
  6
CONTINUOUS
370
-3
390
F
  0
LAYER
  5
1FF
100
AcDbSymbolTableRecord
100
AcDbLayerTableRecord
  2
DIMENSIONS
 70
0
 62
7
  6
CONTINUOUS
370
-3
390
F
  0
ENDTAB
  0
TABLE
  2
STYLE
  5
3
100
AcDbSymbolTable
 70
1
  0
STYLE
  5
11
100
AcDbSymbolTableRecord
100
AcDbTextStyleTableRecord
  2
STANDARD
 70
0
 40
0.0
 41
0.8
 50
0.0
 71
0
 42
0.2
  3
txt
  4

  0
STYLE
  5
200
100
AcDbSymbolTableRecord
100
AcDbTextStyleTableRecord
  2
TEXTSTYLE_1
 70
0
 40
0.0
 41
0.8
 50
0.0
 71
0
 42
0.2
  3
gdt
  4

  0
ENDTAB
  0
TABLE
  2
VIEW
  5
6
100
AcDbSymbolTable
 70
0
  0
ENDTAB
  0
TABLE
  2
UCS
  5
7
100
AcDbSymbolTable
 70
0
  0
ENDTAB
  0
TABLE
  2
APPID
  5
9
100
AcDbSymbolTable
 70
1
  0
APPID
  5
201
100
AcDbSymbolTableRecord
100
AcDbRegAppTableRecord
  2
ACAD
 70
0
  0
ENDTAB
  0
TABLE
  2
BLOCK_RECORD
  5
1
100
AcDbSymbolTable
 70
0
  0
BLOCK_RECORD
  5
202
100
AcDbSymbolTableRecord
100
AcDbBlockTableRecord
  2
*Model_Space
  0
BLOCK_RECORD
  5
203
100
AcDbSymbolTableRecord
100
AcDbBlockTableRecord
  2
*Paper_Space
  0
BLOCK_RECORD
  5
204
100
AcDbSymbolTableRecord
100
AcDbBlockTableRecord
  2
_FILLED
  0
ENDTAB
  0
TABLE
  2
DIMSTYLE
  5
A
100
AcDbSymbolTable
 70
1
100
AcDbDimStyleTable
 71
0
  0
DIMSTYLE
105
205
100
AcDbSymbolTableRecord
100
AcDbDimStyleTableRecord
  2
STANDARD
 70
0
  3

  4

 40
1.0
 41
0.1
 42
0.0625
 43
0.38
 44
0.125
 45
0.0
 46
0.0
 47
0.001
 48
0.001
140
0.08
141
0.09
142
0.0
143
25.4
144
1.0
145
0.0
146
1.0
147
0.09
 71
1.0
 72
0.0
 73
1
 74
1
 75
0
 76
0
 77
0
 78
4
 79
1
170
1
171
2
172
0
173
0
174
0
175
0
176
0
177
0
178
0
270
2
179
3
271
3
272
3
273
2
274
2
275
0
280
0
281
0
282
0
283
1
284
4
285
0
286
0
287
3
288
0
340
11
278
46
341
204
342
204
343
204
344
204
  0
ENDTAB
  0
ENDSEC
  0
SECTION
  2
BLOCKS
  0
BLOCK
  5
20
100
AcDbEntity
  8
0
100
AcDbBlockBegin
  2
*Model_Space
 70
0
 10
0.0
 20
0.0
 30
0.0
  3
*Model_Space
  1

  0
ENDBLK
  5
21
100
AcDbEntity
  8
0
100
AcDbBlockEnd
  0
BLOCK
  5
1C
100
AcDbEntity
  8
0
100
AcDbBlockBegin
  2
*Paper_Space
 70
0
 10
0.0
 20
0.0
 30
0.0
  3
*Paper_Space
  1

  0
ENDBLK
  5
1D
100
AcDbEntity
  8
0
100
AcDbBlockEnd
  0
BLOCK
  5
206
100
AcDbEntity
  8
0
100
AcDbBlockBegin
  2
_FILLED
 70
64
 10
0.0
 20
0.0
  3
_FILLED
  1

  0
SOLID
  5
207
100
AcDbEntity
  8
0
  6
BYBLOCK
 62
0
100
AcDbTrace
 10
0.0
 20
0.0
 11
-1.0
 21
0.2
 12
-1.0
 22
-0.2
 13
-1.0
 23
-0.2
  0
ENDBLK
  5
208
100
AcDbEntity
  8
0
  6
BYBLOCK
 62
0
100
AcDbBlockEnd
  0
ENDSEC
  0
SECTION
  2
ENTITIES
  0
LINE
  5
209
100
AcDbEntity
  8
0
100
AcDbLine
 62
9
  6
CONTINUOUS
 10
12.641706005
 20
-1.6049743377
 11
13.181706005
 21
-1.6049743377
  0
LINE
  5
20A
100
AcDbEntity
  8
0
100
AcDbLine
 62
7
  6
CONTINUOUS
 10
13.2823071084
 20
19.8957780215
 11
13.3052489033
 21
19.917425913
  0
LINE
  5
20B
100
AcDbEntity
  8
0
100
AcDbLine
 62
7
  6
CONTINUOUS
 10
13.305258105
 20
19.9174340099
 11
13.3052511943
 21
19.9174279293
  0
LINE
  5
20C
100
AcDbEntity
  8
0
100
AcDbLine
 62
7
  6
CONTINUOUS
 10
12.520275549
 20
18.8189402257
 11
12.5202021417
 21
18.8188763456
  0
LINE
  5
20D
100
AcDbEntity
  8
0
100
AcDbLine
 62
7
  6
CONTINUOUS
 10
12.5265252048
 20
18.8262854834
 11
12.5055332617
 21
18.8096066913
  0
LINE
  5
20E
100
AcDbEntity
  8
0
100
AcDbLine
 62
7
  6
CONTINUOUS
 10
12.539580397
 20
17.4127940846
 11
12.641706005
 21
17.4717563319
  0
LINE
  5
20F
100
AcDbEntity
  8
0
100
AcDbLine
 62
7
  6
CONTINUOUS
 10
5.424206005
 20
9.041538337
 11
5.424206005
 21
9.0661365595
  0
LINE
  5
210
100
AcDbEntity
  8
0
100
AcDbLine
 62
7
  6
CONTINUOUS
 10
13.2423882154
 20
19.849642646
 11
13.2823071084
 21
19.8957780215
  0
LINE
  5
211
100
AcDbEntity
  8
0
100
AcDbLine
 62
7
  6
CONTINUOUS
 10
12.5055772651
 20
18.8096431252
 11
12.5009591692
 21
18.8053125732
  0
LINE
  5
212
100
AcDbEntity
  8
0
100
AcDbLine
 62
7
  6
CONTINUOUS
 10
13.283831613
 20
16.80325724
 11
13.181706005
 21
16.7442949927
  0
LINE
  5
213
100
AcDbEntity
  8
0
100
AcDbLine
 62
9
  6
CONTINUOUS
 10
5.911706005
 20
9.041538337
 11
5.911706005
 21
9.2684680275
  0
LINE
  5
214
100
AcDbEntity
  8
0
100
AcDbLine
 62
7
  6
CONTINUOUS
 10
6.399206005
 20
9.041538337
 11
6.399206005
 21
9.0661375299
  0
LINE
  5
215
100
AcDbEntity
  8
0
100
AcDbLine
 62
7
  6
CONTINUOUS
 10
13.2312483104
 20
19.8340867206
 11
13.2422373372
 21
19.849442805
  0
LINE
  5
216
100
AcDbEntity
  8
0
100
AcDbLine
 62
7
  6
CONTINUOUS
 10
13.2332185057
 20
19.8369535243
 11
13.2423755575
 21
19.8496224023
  0
LINE
  5
217
100
AcDbEntity
  8
0
100
AcDbLine
 62
7
  6
CONTINUOUS
 10
13.2422373372
 20
19.849442805
 11
13.2423873694
 21
19.8496415214
  0
LINE
  5
218
100
AcDbEntity
  8
0
100
AcDbLine
 62
7
  6
CONTINUOUS
 10
12.5306124835
 20
18.8310934748
 11
12.5202964338
 21
18.8189583889
  0
LINE
  5
219
100
AcDbEntity
  8
0
100
AcDbLine
 62
7
  6
CONTINUOUS
 10
12.394336836
 20
14.6726381597
 11
12.3355274571
 21
14.6452148959
  0
LINE
  5
21A
100
AcDbEntity
  8
0
100
AcDbLine
 62
7
  6
CONTINUOUS
 10
13.2099908286
 20
19.7994364752
 11
13.2312483104
 21
19.8340867206
  0
LINE
  5
21B
100
AcDbEntity
  8
0
100
AcDbLine
 62
7
  6
CONTINUOUS
 10
13.2135057683
 20
19.8056754369
 11
13.2332185057
 21
19.8369535243
  0
LINE
  5
21C
100
AcDbEntity
  8
0
100
AcDbLine
 62
7
  6
CONTINUOUS
 10
12.534266707
 20
18.8366532395
 11
12.5302569924
 21
18.8306008346
  0
LINE
  5
21D
100
AcDbEntity
  8
0
100
AcDbLine
 62
7
  6
CONTINUOUS
 10
9.8699100968
 20
13.5872579458
 11
9.8502748419
 21
13.572992098
  0
LINE
  5
21E
100
AcDbEntity
  8
0
100
AcDbLine
 62
7
  6
CONTINUOUS
 10
13.1923938268
 20
19.7641717451
 11
13.2099908286
 21
19.7994364752
  0
LINE
  5
21F
100
AcDbEntity
  8
0
100
AcDbLine
 62
7
  6
CONTINUOUS
 10
13.1920990476
 20
19.763507759
 11
13.2135057683
 21
19.8056754369
  0
LINE
  5
220
100
AcDbEntity
  8
0
100
AcDbLine
 62
7
  6
CONTINUOUS
 10
12.5009591692
 20
18.8053125732
 11
12.48642398
 21
18.7797655793
  0
LINE
  5
221
100
AcDbEntity
  8
0
100
AcDbLine
 62
7
  6
CONTINUOUS
 10
9.9566941939
 20
13.5604111583
 11
9.9721941939
 21
13.5872579458
  0
LINE
  5
222
100
AcDbEntity
  8
0
100
AcDbLine
 62
7
  6
CONTINUOUS
 10
13.2154348894
 20
17.9708491283
 11
13.339366122
 21
18.1616864913
  0
LINE
  5
223
100
AcDbEntity
  8
0
100
AcDbLine
 62
7
  6
CONTINUOUS
 10
10.4249814896
 20
14.0024351688
 11
10.4824610061
 21
14.0845244258
  0
LINE
  5
224
100
AcDbEntity
  8
0
100
AcDbLine
 62
7
  6
CONTINUOUS
 10
13.5471784459
 20
13.6297579458
 11
13.6640918754
 21
13.6972579458
  0
LINE
  5
225
100
AcDbEntity
  8
0
100
AcDbLine
 62
7
  6
CONTINUOUS
 10
9.8311941939
 20
13.5142679019
 11
9.8502748419
 21
13.572992098
  0
LINE
  5
226
100
AcDbEntity
  8
0
100
AcDbLine
 62
7
  6
CONTINUOUS
 10
13.191884488
 20
19.7630262355
 11
13.1920990476
 21
19.763507759
  0
LWPOLYLINE
  5
227
100
AcDbEntity
  8
0
100
AcDbPolyline
 62
7
  6
CONTINUOUS
 90
3
 70
0
 10
12.5582269416
 20
18.8898326966
 10
12.5346941022
 20
18.8373228129
 10
12.5306124835
 20
18.8310934748
  0
LINE
  5
228
100
AcDbEntity
  8
0
100
AcDbLine
 62
7
  6
CONTINUOUS
 10
12.5575548675
 20
18.8878701619
 11
12.534266707
 21
18.8366532395
  0
LINE
  5
229
100
AcDbEntity
  8
0
100
AcDbLine
 62
7
  6
CONTINUOUS
 10
9.9411941939
 20
12.5322579458
 11
9.9566941939
 21
12.5591047333
  0
LINE
  5
22A
100
AcDbEntity
  8
0
100
AcDbLine
 62
7
  6
CONTINUOUS
 10
10.0894068983
 20
12.1170807228
 11
10.0319273818
 21
12.0349914658
  0
LWPOLYLINE
  5
22B
100
AcDbEntity
  8
0
100
AcDbPolyline
 62
7
  6
CONTINUOUS
 90
4
 70
0
 10
15.9757778665
 20
8.0597579458
 10
15.9861855339
 20
8.0626792912
 10
15.9935449479
 20
8.0705747671
 10
15.9957678996
 20
8.0791266646
  0
LINE
  5
22C
100
AcDbEntity
  8
0
100
AcDbLine
 62
7
  6
CONTINUOUS
 10
9.7561941939
 20
13.0597579458
 11
9.7573736069
 21
12.9992899575
  0
LINE
  5
22D
100
AcDbEntity
  8
0
100
AcDbLine
 62
9
  6
CONTINUOUS
 10
9.8073957124
 20
13.4549436265
 11
9.8073755149
 21
12.6646489078
  0
LINE
  5
22E
100
AcDbEntity
  8
0
100
AcDbLine
 62
7
  6
CONTINUOUS
 10
9.8311941939
 20
13.5142679019
 11
9.8311941939
 21
12.6052479897
  0
LINE
  5
22F
100
AcDbEntity
  8
0
100
AcDbLine
 62
7
  6
CONTINUOUS
 10
9.8502748419
 20
13.572992098
 11
9.8502748419
 21
12.5465237935
  0
LINE
  5
230
100
AcDbEntity
  8
0
100
AcDbLine
 62
7
  6
CONTINUOUS
 10
9.8699100968
 20
13.5872579458
 11
9.8699100968
 21
12.5322579458
  0
LINE
  5
231
100
AcDbEntity
  8
0
100
AcDbLine
 62
7
  6
CONTINUOUS
 10
9.9411941939
 20
12.5322579458
 11
9.9411941939
 21
13.5872579458
  0
LINE
  5
232
100
AcDbEntity
  8
0
100
AcDbLine
 62
7
  6
CONTINUOUS
 10
9.9566941939
 20
13.5604111583
 11
9.9566941939
 21
12.5591047333
  0
LINE
  5
233
100
AcDbEntity
  8
0
100
AcDbLine
 62
7
  6
CONTINUOUS
 10
9.7561941939
 20
13.0597579458
 11
9.7573704614
 21
13.1201452755
  0
LINE
  5
234
100
AcDbEntity
  8
0
100
AcDbLine
 62
7
  6
CONTINUOUS
 10
12.5815477177
 20
18.9772952011
 11
12.5575548675
 21
18.8878701619
  0
LINE
  5
235
100
AcDbEntity
  8
0
100
AcDbLine
 62
7
  6
CONTINUOUS
 10
10.5411941939
 20
12.5322579458
 11
10.5921941939
 21
12.6892579458
  0
LINE
  5
236
100
AcDbEntity
  8
0
100
AcDbLine
 62
7
  6
CONTINUOUS
 10
13.181706005
 20
19.7339455158
 11
13.1919547517
 21
19.763188804
  0
LINE
  5
237
100
AcDbEntity
  8
0
100
AcDbLine
 62
7
  6
CONTINUOUS
 10
12.341706005
 20
14.4980256623
 11
12.274206005
 21
14.3811122328
  0
LINE
  5
238
100
AcDbEntity
  8
0
100
AcDbLine
 62
7
  6
CONTINUOUS
 10
14.1271784459
 20
12.4897579458
 11
14.0102650164
 21
12.4222579458
  0
LINE
  5
239
100
AcDbEntity
  8
0
100
AcDbLine
 62
7
  6
CONTINUOUS
 10
14.0645858318
 20
8.0597579458
 11
15.97577106
 21
8.0597579458
  0
LINE
  5
23A
100
AcDbEntity
  8
0
100
AcDbLine
 62
7
  6
CONTINUOUS
 10
9.9721941939
 20
12.5322579458
 11
9.9721941939
 21
13.5872579458
  0
LINE
  5
23B
100
AcDbEntity
  8
0
100
AcDbLine
 62
7
  6
CONTINUOUS
 10
10.0521941939
 20
13.6172579458
 11
10.0521941939
 21
13.2388785636
  0
LINE
  5
23C
100
AcDbEntity
  8
0
100
AcDbLine
 62
7
  6
CONTINUOUS
 10
10.0521941939
 20
12.8806373279
 11
10.0521941939
 21
12.5022579458
  0
LINE
  5
23D
100
AcDbEntity
  8
0
100
AcDbLine
 62
7
  6
CONTINUOUS
 10
10.4621941939
 20
12.5022579458
 11
10.4621941939
 21
12.8806373279
  0
LINE
  5
23E
100
AcDbEntity
  8
0
100
AcDbLine
 62
7
  6
CONTINUOUS
 10
10.4621941939
 20
13.2388785636
 11
10.4621941939
 21
13.6172579458
  0
LINE
  5
23F
100
AcDbEntity
  8
0
100
AcDbLine
 62
7
  6
CONTINUOUS
 10
10.5411941939
 20
13.5872579458
 11
10.5411941939
 21
12.5322579458
  0
LINE
  5
240
100
AcDbEntity
  8
0
100
AcDbLine
 62
7
  6
CONTINUOUS
 10
10.5921941939
 20
12.6892579458
 11
10.5921941939
 21
13.4302579458
  0
LINE
  5
241
100
AcDbEntity
  8
0
100
AcDbLine
 62
7
  6
CONTINUOUS
 10
10.7781626979
 20
13.4249445141
 11
10.7781626979
 21
13.4032579458
  0
LINE
  5
242
100
AcDbEntity
  8
0
100
AcDbLine
 62
7
  6
CONTINUOUS
 10
10.7781626979
 20
12.7162579458
 11
10.7781626979
 21
12.6945713774
  0
LINE
  5
243
100
AcDbEntity
  8
0
100
AcDbLine
 62
7
  6
CONTINUOUS
 10
13.481706005
 20
13.9180256623
 11
13.5473673373
 21
14.031754426
  0
LINE
  5
244
100
AcDbEntity
  8
0
100
AcDbLine
 62
7
  6
CONTINUOUS
 10
5.424206005
 20
9.041538337
 11
6.399206005
 21
9.041538337
  0
LINE
  5
245
100
AcDbEntity
  8
0
100
AcDbLine
 62
9
  6
CONTINUOUS
 10
6.399206005
 20
9.0661365952
 11
5.424206005
 21
9.0661365595
  0
LINE
  5
246
100
AcDbEntity
  8
0
100
AcDbLine
 62
7
  6
CONTINUOUS
 10
14.053972795
 20
8.0628018902
 11
14.0645790273
 21
8.0597579458
  0
LINE
  5
247
100
AcDbEntity
  8
0
100
AcDbLine
 62
7
  6
CONTINUOUS
 10
9.7584958995
 20
12.9753003285
 11
9.807384781
 21
12.6646133062
  0
LINE
  5
248
100
AcDbEntity
  8
0
100
AcDbLine
 62
7
  6
CONTINUOUS
 10
10.8581626979
 20
13.5797444753
 11
10.8581626979
 21
13.4032579458
  0
LINE
  5
249
100
AcDbEntity
  8
0
100
AcDbLine
 62
7
  6
CONTINUOUS
 10
10.8581626979
 20
12.7162579458
 11
10.8581626979
 21
12.5397579458
  0
LINE
  5
24A
100
AcDbEntity
  8
0
100
AcDbLine
 62
9
  6
CONTINUOUS
 10
10.8881626979
 20
13.6097579458
 11
10.8881626979
 21
13.4032579458
  0
LINE
  5
24B
100
AcDbEntity
  8
0
100
AcDbLine
 62
9
  6
CONTINUOUS
 10
10.8881626979
 20
12.7162579458
 11
10.8881626979
 21
12.5097579458
  0
LINE
  5
24C
100
AcDbEntity
  8
0
100
AcDbLine
 62
7
  6
CONTINUOUS
 10
10.9511941939
 20
12.7162579458
 11
10.9511941939
 21
13.4032579458
  0
LINE
  5
24D
100
AcDbEntity
  8
0
100
AcDbLine
 62
7
  6
CONTINUOUS
 10
10.9711941939
 20
13.4272579458
 11
10.9711941939
 21
12.6922579458
  0
LINE
  5
24E
100
AcDbEntity
  8
0
100
AcDbLine
 62
9
  6
CONTINUOUS
 10
11.0151657821
 20
13.4768931979
 11
11.0151657821
 21
12.6426226937
  0
LINE
  5
24F
100
AcDbEntity
  8
0
100
AcDbLine
 62
7
  6
CONTINUOUS
 10
11.6581626979
 20
12.5097579458
 11
11.6581626979
 21
12.5645279919
  0
LINE
  5
250
100
AcDbEntity
  8
0
100
AcDbLine
 62
7
  6
CONTINUOUS
 10
11.6581626979
 20
13.5549878996
 11
11.6581626979
 21
13.6097579458
  0
LINE
  5
251
100
AcDbEntity
  8
0
100
AcDbLine
 62
9
  6
CONTINUOUS
 10
12.351763357
 20
20.9066460636
 11
12.3517451881
 21
20.906438208
  0
LINE
  5
252
100
AcDbEntity
  8
0
100
AcDbLine
 62
9
  6
CONTINUOUS
 10
12.3716668219
 20
20.9082026583
 11
12.3716849907
 21
20.9084105139
  0
LINE
  5
253
100
AcDbEntity
  8
0
100
AcDbLine
 62
7
  6
CONTINUOUS
 10
12.071412599
 20
19.6413843598
 11
12.1193910321
 21
20.0676566435
  0
LWPOLYLINE
  5
254
100
AcDbEntity
  8
0
100
AcDbPolyline
 62
7
  6
CONTINUOUS
 90
4
 70
0
 10
12.641706005
 20
19.2977509049
 10
12.6284287102
 20
19.2183332262
 10
12.6044628017
 20
19.0898623595
 10
12.5815477177
 20
18.9772952011
  0
LINE
  5
255
100
AcDbEntity
  8
0
100
AcDbLine
 62
7
  6
CONTINUOUS
 10
12.268138748
 20
13.9034408865
 11
12.2438537634
 21
13.8049056162
  0
LINE
  5
256
100
AcDbEntity
  8
0
100
AcDbLine
 62
9
  6
CONTINUOUS
 10
6.3322735076
 20
9.1595111879
 11
5.4911385024
 21
9.1595111879
  0
LINE
  5
257
100
AcDbEntity
  8
0
100
AcDbLine
 62
9
  6
CONTINUOUS
 10
5.9188760017
 20
9.2684193631
 11
5.9117345756
 21
9.2684677104
  0
LINE
  5
258
100
AcDbEntity
  8
0
100
AcDbLine
 62
7
  6
CONTINUOUS
 10
9.8311941939
 20
12.6052479897
 11
9.8502748419
 21
12.5465237935
  0
LINE
  5
259
100
AcDbEntity
  8
0
100
AcDbLine
 62
7
  6
CONTINUOUS
 10
11.6967453751
 20
13.6097579458
 11
11.6967453751
 21
13.5596739294
  0
LINE
  5
25A
100
AcDbEntity
  8
0
100
AcDbLine
 62
7
  6
CONTINUOUS
 10
11.6967453751
 20
12.5598419622
 11
11.6967453751
 21
12.5097579458
  0
LINE
  5
25B
100
AcDbEntity
  8
0
100
AcDbLine
 62
7
  6
CONTINUOUS
 10
11.871706005
 20
19.0997579458
 11
11.871706005
 21
19.1807823535
  0
LINE
  5
25C
100
AcDbEntity
  8
0
100
AcDbLine
 62
9
  6
CONTINUOUS
 10
11.8981941939
 20
12.535375149
 11
11.8981941939
 21
13.5841407426
  0
LINE
  5
25D
100
AcDbEntity
  8
0
100
AcDbLine
 62
7
  6
CONTINUOUS
 10
12.086706005
 20
19.082392219
 11
12.086706005
 21
19.0877579458
  0
LINE
  5
25E
100
AcDbEntity
  8
0
100
AcDbLine
 62
9
  6
CONTINUOUS
 10
12.1301735752
 20
13.6537579458
 11
12.1301735752
 21
13.5112612247
  0
LINE
  5
25F
100
AcDbEntity
  8
0
100
AcDbLine
 62
9
  6
CONTINUOUS
 10
12.1301735752
 20
13.2022546668
 11
12.1301735752
 21
12.9172612247
  0
LINE
  5
260
100
AcDbEntity
  8
0
100
AcDbLine
 62
9
  6
CONTINUOUS
 10
12.1301735752
 20
12.6082546668
 11
12.1301735752
 21
12.4657579458
  0
LINE
  5
261
100
AcDbEntity
  8
0
100
AcDbLine
 62
7
  6
CONTINUOUS
 10
12.274206005
 20
14.3811122328
 11
12.274206005
 21
14.0349390918
  0
LINE
  5
262
100
AcDbEntity
  8
0
100
AcDbLine
 62
7
  6
CONTINUOUS
 10
12.2742624135
 20
20.8219775089
 11
12.2742624135
 21
20.8170945557
  0
LINE
  5
263
100
AcDbEntity
  8
0
100
AcDbLine
 62
7
  6
CONTINUOUS
 10
12.2811941939
 20
12.5132579458
 11
12.2811941939
 21
13.6062579458
  0
LINE
  5
264
100
AcDbEntity
  8
0
100
AcDbLine
 62
7
  6
CONTINUOUS
 10
12.2815606757
 20
14.3811122328
 11
12.2815606757
 21
14.0349390918
  0
LINE
  5
265
100
AcDbEntity
  8
0
100
AcDbLine
 62
7
  6
CONTINUOUS
 10
12.281706005
 20
19.0236382191
 11
12.281706005
 21
19.0312264652
  0
LINE
  5
266
100
AcDbEntity
  8
0
100
AcDbLine
 62
7
  6
CONTINUOUS
 10
12.318206005
 20
14.6180256623
 11
12.318206005
 21
14.5030256623
  0
LINE
  5
267
100
AcDbEntity
  8
0
100
AcDbLine
 62
9
  6
CONTINUOUS
 10
12.3246887665
 20
12.5410900989
 11
12.3246895411
 21
13.5784259103
  0
LINE
  5
268
100
AcDbEntity
  8
0
100
AcDbLine
 62
7
  6
CONTINUOUS
 10
12.341706005
 20
11.911902625
 11
12.341706005
 21
11.8684193631
  0
LINE
  5
269
100
AcDbEntity
  8
0
100
AcDbLine
 62
9
  6
CONTINUOUS
 10
12.3517451881
 20
20.906438208
 11
12.3517451881
 21
20.9015552548
  0
LINE
  5
26A
100
AcDbEntity
  8
0
100
AcDbLine
 62
9
  6
CONTINUOUS
 10
12.3716668219
 20
20.9033197051
 11
12.3716668219
 21
20.9082026583
  0
LINE
  5
26B
100
AcDbEntity
  8
0
100
AcDbLine
 62
7
  6
CONTINUOUS
 10
12.456706005
 20
18.9684107588
 11
12.456706005
 21
18.9759990049
  0
LINE
  5
26C
100
AcDbEntity
  8
0
100
AcDbLine
 62
7
  6
CONTINUOUS
 10
12.461706005
 20
16.9381157939
 11
12.461706005
 21
17.277910853
  0
LINE
  5
26D
100
AcDbEntity
  8
0
100
AcDbLine
 62
9
  6
CONTINUOUS
 10
12.4638509907
 20
20.831240873
 11
12.4638509907
 21
20.8263579198
  0
LINE
  5
26E
100
AcDbEntity
  8
0
100
AcDbLine
 62
7
  6
CONTINUOUS
 10
12.5130131546
 20
14.0349390918
 11
12.5130131546
 21
14.3811122328
  0
LINE
  5
26F
100
AcDbEntity
  8
0
100
AcDbLine
 62
7
  6
CONTINUOUS
 10
12.48642398
 20
18.7797655793
 11
12.4850010563
 21
18.7543267284
  0
LINE
  5
270
100
AcDbEntity
  8
0
100
AcDbLine
 62
7
  6
CONTINUOUS
 10
13.3351480485
 20
20.5520630206
 11
13.3595610192
 21
20.831240873
  0
LINE
  5
271
100
AcDbEntity
  8
0
100
AcDbLine
 62
9
  6
CONTINUOUS
 10
13.4442279627
 20
20.8129297058
 11
13.3997860322
 21
20.313596996
  0
LINE
  5
272
100
AcDbEntity
  8
0
100
AcDbLine
 62
9
  6
CONTINUOUS
 10
13.419707666
 20
20.3118325457
 11
13.4641495965
 21
20.8111652555
  0
LINE
  5
273
100
AcDbEntity
  8
0
100
AcDbLine
 62
7
  6
CONTINUOUS
 10
13.54881654
 20
20.8095956419
 11
13.5043746095
 21
20.3102629322
  0
LINE
  5
274
100
AcDbEntity
  8
0
100
AcDbLine
 62
7
  6
CONTINUOUS
 10
6.8883179601
 20
9.8065284309
 11
12.4272490863
 21
10.6838089374
  0
LINE
  5
275
100
AcDbEntity
  8
0
100
AcDbLine
 62
7
  6
CONTINUOUS
 10
14.046605065
 20
8.0709865931
 11
14.053972795
 21
8.0628018902
  0
LINE
  5
276
100
AcDbEntity
  8
0
100
AcDbLine
 62
7
  6
CONTINUOUS
 10
10.4249814896
 20
12.1170807228
 11
10.4824610061
 21
12.0349914658
  0
LINE
  5
277
100
AcDbEntity
  8
0
100
AcDbLine
 62
7
  6
CONTINUOUS
 10
9.9566941939
 20
12.5591047333
 11
9.9721941939
 21
12.5322579458
  0
LINE
  5
278
100
AcDbEntity
  8
0
100
AcDbLine
 62
7
  6
CONTINUOUS
 10
9.9411941939
 20
13.5872579458
 11
9.9566941939
 21
13.5604111583
  0
LINE
  5
279
100
AcDbEntity
  8
0
100
AcDbLine
 62
7
  6
CONTINUOUS
 10
10.5411941939
 20
13.5872579458
 11
10.5921941939
 21
13.4302579458
  0
LINE
  5
27A
100
AcDbEntity
  8
0
100
AcDbLine
 62
7
  6
CONTINUOUS
 10
12.3190374004
 20
20.3102629322
 11
12.27459547
 21
20.8095956419
  0
LINE
  5
27B
100
AcDbEntity
  8
0
100
AcDbLine
 62
9
  6
CONTINUOUS
 10
12.4037043439
 20
20.3118325457
 11
12.3592624135
 21
20.8111652555
  0
LINE
  5
27C
100
AcDbEntity
  8
0
100
AcDbLine
 62
9
  6
CONTINUOUS
 10
12.3791840472
 20
20.8129297058
 11
12.4236259777
 21
20.313596996
  0
LINE
  5
27D
100
AcDbEntity
  8
0
100
AcDbLine
 62
7
  6
CONTINUOUS
 10
12.27459547
 20
20.8095956419
 11
12.2742624135
 21
20.8170945557
  0
LINE
  5
27E
100
AcDbEntity
  8
0
100
AcDbLine
 62
9
  6
CONTINUOUS
 10
12.4638493718
 20
20.8312773968
 11
12.4638509907
 21
20.831240873
  0
LINE
  5
27F
100
AcDbEntity
  8
0
100
AcDbLine
 62
7
  6
CONTINUOUS
 10
12.4963489791
 20
18.227662086
 11
12.4872306731
 21
18.7291689176
  0
LINE
  5
280
100
AcDbEntity
  8
0
100
AcDbLine
 62
7
  6
CONTINUOUS
 10
12.641706005
 20
20.3980256623
 11
12.641706005
 21
-2.6423551111
  0
LINE
  5
281
100
AcDbEntity
  8
0
100
AcDbLine
 62
7
  6
CONTINUOUS
 10
13.181706005
 20
20.3980256623
 11
13.181706005
 21
-2.6423551111
  0
LINE
  5
282
100
AcDbEntity
  8
0
100
AcDbLine
 62
7
  6
CONTINUOUS
 10
13.3103988554
 20
14.3811122328
 11
13.3103988554
 21
14.0349390918
  0
LINE
  5
283
100
AcDbEntity
  8
0
100
AcDbLine
 62
9
  6
CONTINUOUS
 10
13.3595610192
 20
20.8263579198
 11
13.3595610192
 21
20.831240873
  0
LINE
  5
284
100
AcDbEntity
  8
0
100
AcDbLine
 62
7
  6
CONTINUOUS
 10
13.361706005
 20
17.2779355308
 11
13.361706005
 21
16.9381404717
  0
LINE
  5
285
100
AcDbEntity
  8
0
100
AcDbLine
 62
7
  6
CONTINUOUS
 10
13.366706005
 20
18.9684107588
 11
13.366706005
 21
18.9759990049
  0
LINE
  5
286
100
AcDbEntity
  8
0
100
AcDbLine
 62
7
  6
CONTINUOUS
 10
13.3270630309
 20
18.227662086
 11
13.3361813348
 21
18.7291688005
  0
LINE
  5
287
100
AcDbEntity
  8
0
100
AcDbLine
 62
7
  6
CONTINUOUS
 10
13.3384109503
 20
18.7543266543
 11
13.3388756805
 21
18.7695957946
  0
LWPOLYLINE
  5
288
100
AcDbEntity
  8
0
100
AcDbPolyline
 62
7
  6
CONTINUOUS
 90
3
 70
0
 10
13.3361813347
 20
18.7291687975
 10
13.3363340321
 20
18.7339988247
 10
13.3384109734
 20
18.7543267698
  0
LINE
  5
289
100
AcDbEntity
  8
0
100
AcDbLine
 62
9
  6
CONTINUOUS
 10
13.3595610192
 20
20.831240873
 11
13.3595626382
 21
20.8312773968
  0
LINE
  5
28A
100
AcDbEntity
  8
0
100
AcDbLine
 62
7
  6
CONTINUOUS
 10
13.5491495965
 20
20.8170945557
 11
13.54881654
 21
20.8095956419
  0
LINE
  5
28B
100
AcDbEntity
  8
0
100
AcDbLine
 62
7
  6
CONTINUOUS
 10
15.9757778665
 20
8.0597579458
 11
15.9862690261
 21
8.0627688649
  0
LINE
  5
28C
100
AcDbEntity
  8
0
100
AcDbLine
 62
9
  6
CONTINUOUS
 10
6.7894570005
 20
10.12417702
 11
12.366481266
 21
11.2519093264
  0
LINE
  5
28D
100
AcDbEntity
  8
0
100
AcDbLine
 62
7
  6
CONTINUOUS
 10
11.9371105027
 20
11.3776057714
 11
6.6720206276
 21
10.3541759738
  0
LINE
  5
28E
100
AcDbEntity
  8
0
100
AcDbLine
 62
7
  6
CONTINUOUS
 10
9.8699100968
 20
12.5322579458
 11
9.8502748419
 21
12.5465237935
  0
LINE
  5
28F
100
AcDbEntity
  8
0
100
AcDbLine
 62
7
  6
CONTINUOUS
 10
10.0894068983
 20
14.0024351688
 11
10.0319273818
 21
14.0845244258
  0
LWPOLYLINE
  5
290
100
AcDbEntity
  8
0
100
AcDbPolyline
 62
7
  6
CONTINUOUS
 90
3
 70
0
 10
12.4850010407
 20
18.7543268484
 10
12.4870781956
 20
18.7339940608
 10
12.4872306731
 20
18.7291689144
  0
LINE
  5
291
100
AcDbEntity
  8
0
100
AcDbLine
 62
7
  6
CONTINUOUS
 10
12.4882639615
 20
20.5520630206
 11
12.4638509907
 21
20.831240873
  0
LINE
  5
292
100
AcDbEntity
  8
0
100
AcDbLine
 62
7
  6
CONTINUOUS
 10
14.0445960933
 20
8.0791373603
 11
14.0414789997
 21
8.2085818675
  0
LINE
  5
293
100
AcDbEntity
  8
0
100
AcDbLine
 62
7
  6
CONTINUOUS
 10
14.0414789997
 20
8.2085818675
 11
14.0414765676
 21
8.2119841028
  0
LINE
  5
294
100
AcDbEntity
  8
0
100
AcDbLine
 62
9
  6
CONTINUOUS
 10
13.4517451881
 20
20.9082026583
 11
13.4517451881
 21
20.9033197051
  0
LINE
  5
295
100
AcDbEntity
  8
0
100
AcDbLine
 62
9
  6
CONTINUOUS
 10
13.4716668219
 20
20.9015552548
 11
13.4716668219
 21
20.906438208
  0
LINE
  5
296
100
AcDbEntity
  8
0
100
AcDbLine
 62
9
  6
CONTINUOUS
 10
13.4987232436
 20
13.5784257926
 11
13.4987224701
 21
12.5410899815
  0
LINE
  5
297
100
AcDbEntity
  8
0
100
AcDbLine
 62
7
  6
CONTINUOUS
 10
13.505206005
 20
14.6180256623
 11
13.505206005
 21
14.5030256623
  0
LINE
  5
298
100
AcDbEntity
  8
0
100
AcDbLine
 62
7
  6
CONTINUOUS
 10
13.541706005
 20
19.0236382191
 11
13.541706005
 21
19.0312264652
  0
LINE
  5
299
100
AcDbEntity
  8
0
100
AcDbLine
 62
7
  6
CONTINUOUS
 10
13.5418513343
 20
14.0349390918
 11
13.5418513343
 21
14.3811122328
  0
LINE
  5
29A
100
AcDbEntity
  8
0
100
AcDbLine
 62
7
  6
CONTINUOUS
 10
13.542217816
 20
12.5917847346
 11
13.542217816
 21
13.5277623495
  0
LINE
  5
29B
100
AcDbEntity
  8
0
100
AcDbLine
 62
7
  6
CONTINUOUS
 10
13.5471784459
 20
13.629686229
 11
13.5471784459
 21
12.4898296625
  0
LINE
  5
29C
100
AcDbEntity
  8
0
100
AcDbLine
 62
7
  6
CONTINUOUS
 10
13.5491495965
 20
20.8170945557
 11
13.5491495965
 21
20.8219775089
  0
LINE
  5
29D
100
AcDbEntity
  8
0
100
AcDbLine
 62
7
  6
CONTINUOUS
 10
13.549206005
 20
14.3811122328
 11
13.549206005
 21
14.0349390918
  0
LINE
  5
29E
100
AcDbEntity
  8
0
100
AcDbLine
 62
7
  6
CONTINUOUS
 10
13.6640918754
 20
13.6972579458
 11
13.6640918754
 21
13.6899032751
  0
LINE
  5
29F
100
AcDbEntity
  8
0
100
AcDbLine
 62
7
  6
CONTINUOUS
 10
13.6640918754
 20
13.4584507962
 11
13.6640918754
 21
13.2912104247
  0
LINE
  5
2A0
100
AcDbEntity
  8
0
100
AcDbLine
 62
7
  6
CONTINUOUS
 10
13.6640918754
 20
12.8283054669
 11
13.6640918754
 21
12.6610650954
  0
LINE
  5
2A1
100
AcDbEntity
  8
0
100
AcDbLine
 62
7
  6
CONTINUOUS
 10
13.6640918754
 20
12.4296126165
 11
13.6640918754
 21
12.4222579458
  0
LINE
  5
2A2
100
AcDbEntity
  8
0
100
AcDbLine
 62
7
  6
CONTINUOUS
 10
13.736706005
 20
19.082392219
 11
13.736706005
 21
19.0877579458
  0
LINE
  5
2A3
100
AcDbEntity
  8
0
100
AcDbLine
 62
7
  6
CONTINUOUS
 10
13.951706005
 20
19.0997579458
 11
13.951706005
 21
19.1807823535
  0
LINE
  5
2A4
100
AcDbEntity
  8
0
100
AcDbLine
 62
7
  6
CONTINUOUS
 10
14.0102650164
 20
12.4222579458
 11
14.0102650164
 21
12.4296126165
  0
LINE
  5
2A5
100
AcDbEntity
  8
0
100
AcDbLine
 62
7
  6
CONTINUOUS
 10
14.0102650164
 20
12.6610650954
 11
14.0102650164
 21
12.8283054669
  0
LINE
  5
2A6
100
AcDbEntity
  8
0
100
AcDbLine
 62
7
  6
CONTINUOUS
 10
14.0102650164
 20
13.2912104247
 11
14.0102650164
 21
13.4584507962
  0
LINE
  5
2A7
100
AcDbEntity
  8
0
100
AcDbLine
 62
7
  6
CONTINUOUS
 10
14.0102650164
 20
13.6899032751
 11
14.0102650164
 21
13.6972579458
  0
LINE
  5
2A8
100
AcDbEntity
  8
0
100
AcDbLine
 62
7
  6
CONTINUOUS
 10
14.1271784459
 20
12.4898296625
 11
14.1271784459
 21
13.629686229
  0
LINE
  5
2A9
100
AcDbEntity
  8
0
100
AcDbLine
 62
7
  6
CONTINUOUS
 10
14.3001784459
 20
13.5863538246
 11
14.3001784459
 21
12.5414952787
  0
LINE
  5
2AA
100
AcDbEntity
  8
0
100
AcDbLine
 62
9
  6
CONTINUOUS
 10
14.0445889926
 20
8.079126724
 11
14.0445959299
 21
8.0791373552
  0
LINE
  5
2AB
100
AcDbEntity
  8
0
100
AcDbLine
 62
9
  6
CONTINUOUS
 10
10.0319273818
 20
12.0349914658
 11
10.4824610061
 21
12.0349914658
  0
LINE
  5
2AC
100
AcDbEntity
  8
0
100
AcDbLine
 62
9
  6
CONTINUOUS
 10
10.4249814896
 20
12.1170807228
 11
10.0894068983
 21
12.1170807228
  0
LINE
  5
2AD
100
AcDbEntity
  8
0
100
AcDbLine
 62
7
  6
CONTINUOUS
 10
10.0681033042
 20
12.1422579458
 11
10.4462850836
 21
12.1422579458
  0
LINE
  5
2AE
100
AcDbEntity
  8
0
100
AcDbLine
 62
9
  6
CONTINUOUS
 10
10.4481114872
 20
12.1671211044
 11
10.0662769007
 21
12.1671211044
  0
LINE
  5
2AF
100
AcDbEntity
  8
0
100
AcDbLine
 62
7
  6
CONTINUOUS
 10
13.436706005
 20
12.2684193631
 11
13.181706005
 21
12.2684193631
  0
LINE
  5
2B0
100
AcDbEntity
  8
0
100
AcDbLine
 62
7
  6
CONTINUOUS
 10
12.638827581
 20
12.2684193631
 11
12.386706005
 21
12.2684193631
  0
LINE
  5
2B1
100
AcDbEntity
  8
0
100
AcDbLine
 62
9
  6
CONTINUOUS
 10
13.4385148409
 20
12.2803353485
 11
13.1942768673
 21
12.2803353485
  0
LINE
  5
2B2
100
AcDbEntity
  8
0
100
AcDbLine
 62
9
  6
CONTINUOUS
 10
12.6291357151
 20
12.2803353485
 11
12.3848971691
 21
12.2803353485
  0
LINE
  5
2B3
100
AcDbEntity
  8
0
100
AcDbLine
 62
7
  6
CONTINUOUS
 10
13.6640918754
 20
12.4222579458
 11
14.0102650164
 21
12.4222579458
  0
LINE
  5
2B4
100
AcDbEntity
  8
0
100
AcDbLine
 62
7
  6
CONTINUOUS
 10
13.6640918754
 20
12.4296126165
 11
14.0102650164
 21
12.4296126165
  0
LINE
  5
2B5
100
AcDbEntity
  8
0
100
AcDbLine
 62
7
  6
CONTINUOUS
 10
12.092995102
 20
12.4657579458
 11
12.2682299003
 21
12.4657579458
  0
LINE
  5
2B6
100
AcDbEntity
  8
0
100
AcDbLine
 62
7
  6
CONTINUOUS
 10
12.0003630545
 20
12.5097579458
 11
11.6967453751
 21
12.5097579458
  0
LINE
  5
2B7
100
AcDbEntity
  8
0
100
AcDbLine
 62
7
  6
CONTINUOUS
 10
10.8881626979
 20
12.5097579458
 11
11.6581626979
 21
12.5097579458
  0
LINE
  5
2B8
100
AcDbEntity
  8
0
100
AcDbLine
 62
9
  6
CONTINUOUS
 10
10.411002567
 20
12.5285919359
 11
10.1141905985
 21
12.5285919359
  0
LINE
  5
2B9
100
AcDbEntity
  8
0
100
AcDbLine
 62
7
  6
CONTINUOUS
 10
9.8699100968
 20
12.5322579458
 11
9.9411941939
 21
12.5322579458
  0
LINE
  5
2BA
100
AcDbEntity
  8
0
100
AcDbLine
 62
7
  6
CONTINUOUS
 10
14.3001784493
 20
12.5401449777
 11
14.3951784377
 21
12.5401449777
  0
LINE
  5
2BB
100
AcDbEntity
  8
0
100
AcDbLine
 62
7
  6
CONTINUOUS
 10
14.1271784459
 20
12.5497579458
 11
14.3001784459
 21
12.5497579458
  0
LINE
  5
2BC
100
AcDbEntity
  8
0
100
AcDbLine
 62
9
  6
CONTINUOUS
 10
10.1640969547
 20
12.5507519696
 11
10.3500625679
 21
12.5507519696
  0
LINE
  5
2BD
100
AcDbEntity
  8
0
100
AcDbLine
 62
7
  6
CONTINUOUS
 10
12.3557133135
 20
12.3512811007
 11
12.3848971691
 21
12.2803353485
  0
LWPOLYLINE
  5
2BE
100
AcDbEntity
  8
0
100
AcDbPolyline
 62
7
  6
CONTINUOUS
 90
4
 70
0
 10
14.0445889943
 20
8.0791266631
 10
14.0468119444
 20
8.07057477
 10
14.0541713568
 20
8.0626792931
 10
14.0645790273
 20
8.0597579458
  0
LINE
  5
2BF
100
AcDbEntity
  8
0
100
AcDbLine
 62
7
  6
CONTINUOUS
 10
14.0445889955
 20
8.079126623
 11
14.046605065
 21
8.0709865931
  0
LINE
  5
2C0
100
AcDbEntity
  8
0
100
AcDbLine
 62
9
  6
CONTINUOUS
 10
13.4517270192
 20
20.9084105139
 11
13.4517451881
 21
20.9082026583
  0
LINE
  5
2C1
100
AcDbEntity
  8
0
100
AcDbLine
 62
9
  6
CONTINUOUS
 10
13.4716668219
 20
20.906438208
 11
13.471648653
 21
20.9066460636
  0
LINE
  5
2C2
100
AcDbEntity
  8
0
100
AcDbLine
 62
7
  6
CONTINUOUS
 10
14.4904548705
 20
12.4437373371
 11
14.4904553241
 21
12.4436516316
  0
LINE
  5
2C3
100
AcDbEntity
  8
0
100
AcDbLine
 62
7
  6
CONTINUOUS
 10
14.3951784377
 20
13.5877041256
 11
14.3951784377
 21
12.5401449784
  0
LINE
  5
2C4
100
AcDbEntity
  8
0
100
AcDbLine
 62
7
  6
CONTINUOUS
 10
11.0151657821
 20
13.4768931979
 11
11.8981941939
 21
13.5841407426
  0
LINE
  5
2C5
100
AcDbEntity
  8
0
100
AcDbLine
 62
7
  6
CONTINUOUS
 10
13.5471784459
 20
12.6497579458
 11
13.542217816
 21
12.6497579458
  0
LINE
  5
2C6
100
AcDbEntity
  8
0
100
AcDbLine
 62
7
  6
CONTINUOUS
 10
14.0102650164
 20
12.6610650954
 11
13.6640918754
 21
12.6610650954
  0
LINE
  5
2C7
100
AcDbEntity
  8
0
100
AcDbLine
 62
7
  6
CONTINUOUS
 10
10.5921941939
 20
12.7162579458
 11
10.9511941939
 21
12.7162579458
  0
LINE
  5
2C8
100
AcDbEntity
  8
0
100
AcDbLine
 62
7
  6
CONTINUOUS
 10
13.6640918754
 20
12.8283054669
 11
14.0102650164
 21
12.8283054669
  0
LINE
  5
2C9
100
AcDbEntity
  8
0
100
AcDbLine
 62
7
  6
CONTINUOUS
 10
10.9511941939
 20
12.8597579458
 11
10.9711941939
 21
12.8597579458
  0
LINE
  5
2CA
100
AcDbEntity
  8
0
100
AcDbLine
 62
7
  6
CONTINUOUS
 10
10.9511941939
 20
13.2597579458
 11
10.9711941939
 21
13.2597579458
  0
LINE
  5
2CB
100
AcDbEntity
  8
0
100
AcDbLine
 62
7
  6
CONTINUOUS
 10
14.0102650164
 20
13.2912104247
 11
13.6640918754
 21
13.2912104247
  0
LINE
  5
2CC
100
AcDbEntity
  8
0
100
AcDbLine
 62
7
  6
CONTINUOUS
 10
10.5921941939
 20
13.4032579458
 11
10.9511941939
 21
13.4032579458
  0
LINE
  5
2CD
100
AcDbEntity
  8
0
100
AcDbLine
 62
7
  6
CONTINUOUS
 10
13.6640918754
 20
13.4584507962
 11
14.0102650164
 21
13.4584507962
  0
LINE
  5
2CE
100
AcDbEntity
  8
0
100
AcDbLine
 62
7
  6
CONTINUOUS
 10
13.5471784459
 20
13.4697579458
 11
13.542217816
 21
13.4697579458
  0
LINE
  5
2CF
100
AcDbEntity
  8
0
100
AcDbLine
 62
7
  6
CONTINUOUS
 10
11.0151657821
 20
12.6426226937
 11
11.8981941939
 21
12.535375149
  0
LINE
  5
2D0
100
AcDbEntity
  8
0
100
AcDbLine
 62
7
  6
CONTINUOUS
 10
14.3951784399
 20
12.5389245681
 11
14.4183264765
 21
12.5354670402
  0
LINE
  5
2D1
100
AcDbEntity
  8
0
100
AcDbLine
 62
7
  6
CONTINUOUS
 10
13.5471784459
 20
12.4897579458
 11
13.6609072096
 21
12.4240966134
  0
LINE
  5
2D2
100
AcDbEntity
  8
0
100
AcDbLine
 62
9
  6
CONTINUOUS
 10
15.9957609636
 20
8.0791373551
 11
15.9957679011
 21
8.0791267177
  0
LINE
  5
2D3
100
AcDbEntity
  8
0
100
AcDbLine
 62
7
  6
CONTINUOUS
 10
12.341706005
 20
13.9180256623
 11
12.274206005
 21
14.0349390918
  0
LINE
  5
2D4
100
AcDbEntity
  8
0
100
AcDbLine
 62
7
  6
CONTINUOUS
 10
13.7519994109
 20
19.6413843598
 11
13.7040209779
 21
20.0676566435
  0
LWPOLYLINE
  5
2D5
100
AcDbEntity
  8
0
100
AcDbPolyline
 62
7
  6
CONTINUOUS
 90
5
 70
0
 10
15.5499596328
 20
12.4546982393
 10
15.5399840677
 20
12.6029290135
 10
15.4805455489
 20
12.8438431102
 10
15.3686038164
 20
13.0710515909
 10
15.2077373605
 20
13.2692804769
  0
LINE
  5
2D6
100
AcDbEntity
  8
0
100
AcDbLine
 62
7
  6
CONTINUOUS
 10
15.9988777834
 20
8.2085820215
 11
15.9988801945
 21
8.2120516852
  0
LINE
  5
2D7
100
AcDbEntity
  8
0
100
AcDbLine
 62
7
  6
CONTINUOUS
 10
15.5499020215
 20
12.4437373495
 11
15.5499596328
 21
12.4546982368
  0
LINE
  5
2D8
100
AcDbEntity
  8
0
100
AcDbLine
 62
7
  6
CONTINUOUS
 10
15.9957606863
 20
8.0791373637
 11
15.9988777834
 21
8.2085820215
  0
LINE
  5
2D9
100
AcDbEntity
  8
0
100
AcDbLine
 62
7
  6
CONTINUOUS
 10
15.9863840991
 20
8.0628018904
 11
15.9936114652
 21
8.0708306653
  0
LINE
  5
2DA
100
AcDbEntity
  8
0
100
AcDbLine
 62
9
  6
CONTINUOUS
 10
10.3502914408
 20
13.5687639219
 11
10.1643258144
 21
13.5687639219
  0
LINE
  5
2DB
100
AcDbEntity
  8
0
100
AcDbLine
 62
7
  6
CONTINUOUS
 10
14.1271784459
 20
13.5697579458
 11
14.3001784459
 21
13.5697579458
  0
LINE
  5
2DC
100
AcDbEntity
  8
0
100
AcDbLine
 62
7
  6
CONTINUOUS
 10
9.8699100968
 20
13.5872579458
 11
9.9411941939
 21
13.5872579458
  0
LINE
  5
2DD
100
AcDbEntity
  8
0
100
AcDbLine
 62
7
  6
CONTINUOUS
 10
14.3001784493
 20
13.5877041256
 11
14.3951784377
 21
13.5877041256
  0
LINE
  5
2DE
100
AcDbEntity
  8
0
100
AcDbLine
 62
9
  6
CONTINUOUS
 10
10.1033858176
 20
13.5909239556
 11
10.4001977894
 21
13.5909239556
  0
LINE
  5
2DF
100
AcDbEntity
  8
0
100
AcDbLine
 62
7
  6
CONTINUOUS
 10
11.999945544
 20
13.6097579458
 11
11.6967453751
 21
13.6097579458
  0
LINE
  5
2E0
100
AcDbEntity
  8
0
100
AcDbLine
 62
7
  6
CONTINUOUS
 10
10.8881626979
 20
13.6097579458
 11
11.6581626979
 21
13.6097579458
  0
LINE
  5
2E1
100
AcDbEntity
  8
0
100
AcDbLine
 62
7
  6
CONTINUOUS
 10
12.092995102
 20
13.6537579458
 11
12.2682299003
 21
13.6537579458
  0
LINE
  5
2E2
100
AcDbEntity
  8
0
100
AcDbLine
 62
7
  6
CONTINUOUS
 10
14.0102650164
 20
13.6899032751
 11
13.6640918754
 21
13.6899032751
  0
LINE
  5
2E3
100
AcDbEntity
  8
0
100
AcDbLine
 62
7
  6
CONTINUOUS
 10
13.6640918754
 20
13.6972579458
 11
14.0102650164
 21
13.6972579458
  0
LINE
  5
2E4
100
AcDbEntity
  8
0
100
AcDbLine
 62
9
  6
CONTINUOUS
 10
12.268138748
 20
13.9034408865
 11
12.641706005
 21
13.9034408865
  0
LINE
  5
2E5
100
AcDbEntity
  8
0
100
AcDbLine
 62
9
  6
CONTINUOUS
 10
13.181706005
 20
13.9034408865
 11
13.555273262
 21
13.9034408865
  0
LINE
  5
2E6
100
AcDbEntity
  8
0
100
AcDbLine
 62
7
  6
CONTINUOUS
 10
13.5361744459
 20
13.9180256623
 11
13.181706005
 21
13.9180256623
  0
LINE
  5
2E7
100
AcDbEntity
  8
0
100
AcDbLine
 62
7
  6
CONTINUOUS
 10
12.641706005
 20
13.9180256623
 11
12.2872375643
 21
13.9180256623
  0
LINE
  5
2E8
100
AcDbEntity
  8
0
100
AcDbLine
 62
9
  6
CONTINUOUS
 10
10.0662769007
 20
13.9523947872
 11
10.4481114872
 21
13.9523947872
  0
LINE
  5
2E9
100
AcDbEntity
  8
0
100
AcDbLine
 62
7
  6
CONTINUOUS
 10
10.4462850836
 20
13.9772579458
 11
10.0681033042
 21
13.9772579458
  0
LINE
  5
2EA
100
AcDbEntity
  8
0
100
AcDbLine
 62
9
  6
CONTINUOUS
 10
10.0894068983
 20
14.0024351688
 11
10.4249814896
 21
14.0024351688
  0
LINE
  5
2EB
100
AcDbEntity
  8
0
100
AcDbLine
 62
7
  6
CONTINUOUS
 10
12.274206005
 20
14.0349390918
 11
12.2815606757
 21
14.0349390918
  0
LINE
  5
2EC
100
AcDbEntity
  8
0
100
AcDbLine
 62
7
  6
CONTINUOUS
 10
12.5130131546
 20
14.0349390918
 11
12.641706005
 21
14.0349390918
  0
LINE
  5
2ED
100
AcDbEntity
  8
0
100
AcDbLine
 62
7
  6
CONTINUOUS
 10
13.181706005
 20
14.0349390918
 11
13.3103988554
 21
14.0349390918
  0
LINE
  5
2EE
100
AcDbEntity
  8
0
100
AcDbLine
 62
7
  6
CONTINUOUS
 10
13.5418513343
 20
14.0349390918
 11
13.549206005
 21
14.0349390918
  0
LINE
  5
2EF
100
AcDbEntity
  8
0
100
AcDbLine
 62
9
  6
CONTINUOUS
 10
10.4824610061
 20
14.0845244258
 11
10.0319273818
 21
14.0845244258
  0
LINE
  5
2F0
100
AcDbEntity
  8
0
100
AcDbLine
 62
7
  6
CONTINUOUS
 10
14.4183264765
 20
12.5354670402
 11
14.4477912654
 21
12.5220700552
  0
LWPOLYLINE
  5
2F1
100
AcDbEntity
  8
0
100
AcDbPolyline
 62
7
  6
CONTINUOUS
 90
4
 70
0
 10
14.4477912654
 20
12.5220700552
 10
14.4712312702
 20
12.5001580509
 10
14.4860315461
 20
12.4713938766
 10
14.4904553241
 20
12.4436516316
  0
LINE
  5
2F2
100
AcDbEntity
  8
0
100
AcDbLine
 62
7
  6
CONTINUOUS
 10
13.481706005
 20
14.4980256623
 11
13.5473673373
 21
14.3842968986
  0
LINE
  5
2F3
100
AcDbEntity
  8
0
100
AcDbLine
 62
7
  6
CONTINUOUS
 10
15.993751829
 20
8.0709865933
 11
15.9957678984
 21
8.0791266271
  0
LINE
  5
2F4
100
AcDbEntity
  8
0
100
AcDbLine
 62
7
  6
CONTINUOUS
 10
13.549206005
 20
14.3811122328
 11
13.5418513343
 21
14.3811122328
  0
LINE
  5
2F5
100
AcDbEntity
  8
0
100
AcDbLine
 62
7
  6
CONTINUOUS
 10
13.3103988554
 20
14.3811122328
 11
13.181706005
 21
14.3811122328
  0
LINE
  5
2F6
100
AcDbEntity
  8
0
100
AcDbLine
 62
7
  6
CONTINUOUS
 10
12.641706005
 20
14.3811122328
 11
12.5130131546
 21
14.3811122328
  0
LINE
  5
2F7
100
AcDbEntity
  8
0
100
AcDbLine
 62
7
  6
CONTINUOUS
 10
12.2815606757
 20
14.3811122328
 11
12.274206005
 21
14.3811122328
  0
LINE
  5
2F8
100
AcDbEntity
  8
0
100
AcDbLine
 62
7
  6
CONTINUOUS
 10
13.4816342882
 20
14.4980256623
 11
13.181706005
 21
14.4980256623
  0
LINE
  5
2F9
100
AcDbEntity
  8
0
100
AcDbLine
 62
7
  6
CONTINUOUS
 10
12.641706005
 20
14.4980256623
 11
12.3417777217
 21
14.4980256623
  0
LINE
  5
2FA
100
AcDbEntity
  8
0
100
AcDbLine
 62
7
  6
CONTINUOUS
 10
12.3182094061
 20
14.5030256623
 11
12.641706005
 21
14.5030256623
  0
LINE
  5
2FB
100
AcDbEntity
  8
0
100
AcDbLine
 62
7
  6
CONTINUOUS
 10
13.181706005
 20
14.5030256623
 11
13.5052026038
 21
14.5030256623
  0
LINE
  5
2FC
100
AcDbEntity
  8
0
100
AcDbLine
 62
9
  6
CONTINUOUS
 10
13.505206005
 20
14.6180256623
 11
13.181706005
 21
14.6180256623
  0
LINE
  5
2FD
100
AcDbEntity
  8
0
100
AcDbLine
 62
9
  6
CONTINUOUS
 10
12.641706005
 20
14.6180256623
 11
12.318206005
 21
14.6180256623
  0
LINE
  5
2FE
100
AcDbEntity
  8
0
100
AcDbLine
 62
9
  6
CONTINUOUS
 10
12.3355274571
 20
14.6452148959
 11
12.641706005
 21
14.6452148959
  0
LINE
  5
2FF
100
AcDbEntity
  8
0
100
AcDbLine
 62
9
  6
CONTINUOUS
 10
13.181706005
 20
14.6452148959
 11
13.4878845528
 21
14.6452148959
  0
LINE
  5
300
100
AcDbEntity
  8
0
100
AcDbLine
 62
9
  6
CONTINUOUS
 10
13.4290751739
 20
14.6726381597
 11
13.181706005
 21
14.6726381597
  0
LINE
  5
301
100
AcDbEntity
  8
0
100
AcDbLine
 62
9
  6
CONTINUOUS
 10
12.641706005
 20
14.6726381597
 11
12.394336836
 21
14.6726381597
  0
LINE
  5
302
100
AcDbEntity
  8
0
100
AcDbLine
 62
9
  6
CONTINUOUS
 10
13.3523337318
 20
14.7659204183
 11
13.181706005
 21
14.7659204183
  0
LINE
  5
303
100
AcDbEntity
  8
0
100
AcDbLine
 62
9
  6
CONTINUOUS
 10
12.4710782781
 20
14.7659204183
 11
12.641706005
 21
14.7659204183
  0
LINE
  5
304
100
AcDbEntity
  8
0
100
AcDbLine
 62
7
  6
CONTINUOUS
 10
14.1271784459
 20
13.6297579458
 11
14.0134496822
 21
13.6954192781
  0
LWPOLYLINE
  5
305
100
AcDbEntity
  8
0
100
AcDbPolyline
 62
7
  6
CONTINUOUS
 90
5
 70
0
 10
15.2077373615
 20
13.2692804759
 10
15.0061108398
 20
13.4245724457
 10
14.778803432
 20
13.5299944811
 10
14.5412207832
 20
13.5828005236
 10
14.3951784239
 20
13.5889245353
  0
LINE
  5
306
100
AcDbEntity
  8
0
100
AcDbLine
 62
7
  6
CONTINUOUS
 10
12.6315147906
 20
19.7630548564
 11
12.6310752151
 21
19.7640397163
  0
LINE
  5
307
100
AcDbEntity
  8
0
100
AcDbLine
 62
7
  6
CONTINUOUS
 10
12.6314703592
 20
19.7631593864
 11
12.641706005
 21
19.7341127283
  0
LINE
  5
308
100
AcDbEntity
  8
0
100
AcDbLine
 62
9
  6
CONTINUOUS
 10
13.3606496669
 20
15.4651348809
 11
13.181706005
 21
15.4651348809
  0
LINE
  5
309
100
AcDbEntity
  8
0
100
AcDbLine
 62
9
  6
CONTINUOUS
 10
12.462762343
 20
15.4651348809
 11
12.641706005
 21
15.4651348809
  0
LINE
  5
30A
100
AcDbEntity
  8
0
100
AcDbLine
 62
9
  6
CONTINUOUS
 10
13.3436664971
 20
15.5005383254
 11
13.181706005
 21
15.5005383254
  0
LINE
  5
30B
100
AcDbEntity
  8
0
100
AcDbLine
 62
9
  6
CONTINUOUS
 10
12.4797455129
 20
15.5005383254
 11
12.641706005
 21
15.5005383254
  0
LINE
  5
30C
100
AcDbEntity
  8
0
100
AcDbLine
 62
9
  6
CONTINUOUS
 10
13.3156532865
 20
15.5605719837
 11
13.181706005
 21
15.5605719837
  0
LINE
  5
30D
100
AcDbEntity
  8
0
100
AcDbLine
 62
9
  6
CONTINUOUS
 10
12.641706005
 20
15.5605719837
 11
12.5077587234
 21
15.5605719837
  0
LINE
  5
30E
100
AcDbEntity
  8
0
100
AcDbLine
 62
7
  6
CONTINUOUS
 10
13.4290751739
 20
14.6726381597
 11
13.4878845528
 21
14.6452148959
  0
LINE
  5
30F
100
AcDbEntity
  8
0
100
AcDbLine
 62
7
  6
CONTINUOUS
 10
12.6079771205
 20
17.9708491283
 11
12.4840458879
 21
18.1616864913
  0
LWPOLYLINE
  5
310
100
AcDbEntity
  8
0
100
AcDbPolyline
 62
7
  6
CONTINUOUS
 90
6
 70
0
 10
13.2931409654
 20
18.8306075906
 10
13.2711818551
 20
18.8734153391
 10
13.2470931144
 20
18.9546992763
 10
13.2228149806
 20
19.0697736646
 10
13.1970258067
 20
19.2071575864
 10
13.181706005
 20
19.298141653
  0
LINE
  5
311
100
AcDbEntity
  8
0
100
AcDbLine
 62
7
  6
CONTINUOUS
 10
12.6098590632
 20
19.8057618915
 11
12.6312555136
 21
19.7636411548
  0
LINE
  5
312
100
AcDbEntity
  8
0
100
AcDbLine
 62
9
  6
CONTINUOUS
 10
13.3185815671
 20
16.5631841506
 11
13.181706005
 21
16.5631666481
  0
LINE
  5
313
100
AcDbEntity
  8
0
100
AcDbLine
 62
9
  6
CONTINUOUS
 10
12.5095631478
 20
16.1337725959
 11
12.641706005
 21
16.1337725959
  0
LINE
  5
314
100
AcDbEntity
  8
0
100
AcDbLine
 62
9
  6
CONTINUOUS
 10
13.181706005
 20
16.1337725959
 11
13.3138488621
 21
16.1337725959
  0
LINE
  5
315
100
AcDbEntity
  8
0
100
AcDbLine
 62
9
  6
CONTINUOUS
 10
13.334782928
 20
16.190385911
 11
13.181706005
 21
16.190385911
  0
LINE
  5
316
100
AcDbEntity
  8
0
100
AcDbLine
 62
9
  6
CONTINUOUS
 10
12.4886290819
 20
16.190385911
 11
12.641706005
 21
16.190385911
  0
LINE
  5
317
100
AcDbEntity
  8
0
100
AcDbLine
 62
9
  6
CONTINUOUS
 10
13.3345391985
 20
16.2158178896
 11
13.181706005
 21
16.2158178896
  0
LINE
  5
318
100
AcDbEntity
  8
0
100
AcDbLine
 62
9
  6
CONTINUOUS
 10
12.4888728115
 20
16.2158178896
 11
12.641706005
 21
16.2158178896
  0
LINE
  5
319
100
AcDbEntity
  8
0
100
AcDbLine
 62
9
  6
CONTINUOUS
 10
12.641706005
 20
16.5631664226
 11
12.5048271976
 21
16.5631865704
  0
LINE
  5
31A
100
AcDbEntity
  8
0
100
AcDbLine
 62
7
  6
CONTINUOUS
 10
12.641706005
 20
16.7442949927
 11
12.5395811141
 21
16.8032568259
  0
LINE
  5
31B
100
AcDbEntity
  8
0
100
AcDbLine
 62
7
  6
CONTINUOUS
 10
12.5810253229
 20
19.8496406181
 11
12.5901666624
 21
19.8369960048
  0
LINE
  5
31C
100
AcDbEntity
  8
0
100
AcDbLine
 62
7
  6
CONTINUOUS
 10
12.5811864415
 20
19.849423716
 11
12.5921979275
 21
19.8340326025
  0
LINE
  5
31D
100
AcDbEntity
  8
0
100
AcDbLine
 62
7
  6
CONTINUOUS
 10
12.5901666624
 20
19.8369960048
 11
12.6098590632
 21
19.8057618915
  0
LWPOLYLINE
  5
31E
100
AcDbEntity
  8
0
100
AcDbPolyline
 62
7
  6
CONTINUOUS
 90
3
 70
0
 10
12.5921979275
 20
19.8340326025
 10
12.613473696
 20
19.7993371763
 10
12.6310753554
 20
19.7640393928
  0
LINE
  5
31F
100
AcDbEntity
  8
0
100
AcDbLine
 62
9
  6
CONTINUOUS
 10
12.545257608
 20
17.6808393176
 11
12.641706005
 21
17.6808606069
  0
LINE
  5
320
100
AcDbEntity
  8
0
100
AcDbLine
 62
9
  6
CONTINUOUS
 10
13.181706005
 20
17.1080256623
 11
12.641706005
 21
17.1080256623
  0
LINE
  5
321
100
AcDbEntity
  8
0
100
AcDbLine
 62
9
  6
CONTINUOUS
 10
13.181706005
 20
17.6808629562
 11
13.2781156201
 21
17.6808642032
  0
LINE
  5
322
100
AcDbEntity
  8
0
100
AcDbLine
 62
7
  6
CONTINUOUS
 10
13.181706005
 20
17.4717563319
 11
13.2838308958
 21
17.4127944987
  0
LINE
  5
323
100
AcDbEntity
  8
0
100
AcDbLine
 62
7
  6
CONTINUOUS
 10
12.5393831492
 20
19.897509827
 11
12.5810216305
 21
19.8496455115
  0
LINE
  5
324
100
AcDbEntity
  8
0
100
AcDbLine
 62
7
  6
CONTINUOUS
 10
13.30294905
 20
18.8191037412
 11
13.2931409654
 21
18.8306075906
  0
LINE
  5
325
100
AcDbEntity
  8
0
100
AcDbLine
 62
7
  6
CONTINUOUS
 10
12.5810250183
 20
19.8496410269
 11
12.5810216305
 21
19.8496455115
  0
LINE
  5
326
100
AcDbEntity
  8
0
100
AcDbLine
 62
7
  6
CONTINUOUS
 10
12.250347557
 20
19.0495784036
 11
12.2495638511
 21
19.0494036089
  0
LINE
  5
327
100
AcDbEntity
  8
0
100
AcDbLine
 62
7
  6
CONTINUOUS
 10
12.2043475571
 20
19.0573520329
 11
12.205131263
 21
19.05751465
  0
LINE
  5
328
100
AcDbEntity
  8
0
100
AcDbLine
 62
7
  6
CONTINUOUS
 10
12.4572593389
 20
18.9907008289
 11
12.4557071384
 21
18.9903851185
  0
LINE
  5
329
100
AcDbEntity
  8
0
100
AcDbLine
 62
7
  6
CONTINUOUS
 10
12.3211270064
 20
19.0499794498
 11
12.3180455907
 21
19.0494036089
  0
LINE
  5
32A
100
AcDbEntity
  8
0
100
AcDbLine
 62
7
  6
CONTINUOUS
 10
12.411259339
 20
18.9982077368
 11
12.4128115395
 21
18.9984961596
  0
LINE
  5
32B
100
AcDbEntity
  8
0
100
AcDbLine
 62
7
  6
CONTINUOUS
 10
13.2482962271
 20
18.9391409239
 11
13.3584424867
 21
18.9585626813
  0
LINE
  5
32C
100
AcDbEntity
  8
0
100
AcDbLine
 62
7
  6
CONTINUOUS
 10
13.3749695232
 20
18.9858470824
 11
13.3901809427
 21
18.9885292661
  0
LINE
  5
32D
100
AcDbEntity
  8
0
100
AcDbLine
 62
7
  6
CONTINUOUS
 10
13.4356853472
 20
18.9965529203
 11
13.5334424867
 21
19.0137901416
  0
LINE
  5
32E
100
AcDbEntity
  8
0
100
AcDbLine
 62
7
  6
CONTINUOUS
 10
13.5499695232
 20
19.0410745427
 11
13.597206005
 21
19.0494036089
  0
LINE
  5
32F
100
AcDbEntity
  8
0
100
AcDbLine
 62
7
  6
CONTINUOUS
 10
13.643206005
 20
19.05751465
 11
13.7284424867
 21
19.0725441415
  0
LINE
  5
330
100
AcDbEntity
  8
0
100
AcDbLine
 62
9
  6
CONTINUOUS
 10
12.6079771205
 20
17.9708491283
 11
12.641706005
 21
17.9708491283
  0
LINE
  5
331
100
AcDbEntity
  8
0
100
AcDbLine
 62
9
  6
CONTINUOUS
 10
13.181706005
 20
17.9708491283
 11
13.2154348894
 21
17.9708491283
  0
LINE
  5
332
100
AcDbEntity
  8
0
100
AcDbLine
 62
9
  6
CONTINUOUS
 10
13.339366122
 20
18.1616864913
 11
13.181706005
 21
18.1616864913
  0
LINE
  5
333
100
AcDbEntity
  8
0
100
AcDbLine
 62
9
  6
CONTINUOUS
 10
12.641706005
 20
18.1616864913
 11
12.4840458879
 21
18.1616864913
  0
LINE
  5
334
100
AcDbEntity
  8
0
100
AcDbLine
 62
7
  6
CONTINUOUS
 10
13.3141522203
 20
18.2080256623
 11
13.181706005
 21
18.2080256623
  0
LINE
  5
335
100
AcDbEntity
  8
0
100
AcDbLine
 62
7
  6
CONTINUOUS
 10
12.641706005
 20
18.2080256623
 11
12.5092597896
 21
18.2080256623
  0
LINE
  5
336
100
AcDbEntity
  8
0
100
AcDbLine
 62
9
  6
CONTINUOUS
 10
12.4963489791
 20
18.227662086
 11
12.641706005
 21
18.227662086
  0
LINE
  5
337
100
AcDbEntity
  8
0
100
AcDbLine
 62
9
  6
CONTINUOUS
 10
13.181706005
 20
18.227662086
 11
13.3270630309
 21
18.227662086
  0
LINE
  5
338
100
AcDbEntity
  8
0
100
AcDbLine
 62
7
  6
CONTINUOUS
 10
13.3178736872
 20
18.8096109598
 11
13.2968771444
 21
18.8262254465
  0
LINE
  5
339
100
AcDbEntity
  8
0
100
AcDbLine
 62
7
  6
CONTINUOUS
 10
13.30294905
 20
18.8191037412
 11
13.3031683727
 21
18.8189124378
  0
LINE
  5
33A
100
AcDbEntity
  8
0
100
AcDbLine
 62
7
  6
CONTINUOUS
 10
12.5181600004
 20
19.9174286466
 11
12.5181538658
 21
19.9174340442
  0
LINE
  5
33B
100
AcDbEntity
  8
0
100
AcDbLine
 62
7
  6
CONTINUOUS
 10
12.5181623103
 20
19.9174266155
 11
12.5411190223
 21
19.8957625708
  0
LINE
  5
33C
100
AcDbEntity
  8
0
100
AcDbLine
 62
9
  6
CONTINUOUS
 10
13.3584424867
 20
18.9585626813
 11
13.2462163264
 21
18.9585626813
  0
LINE
  5
33D
100
AcDbEntity
  8
0
100
AcDbLine
 62
9
  6
CONTINUOUS
 10
12.576552927
 20
18.9585626813
 11
12.4649947642
 21
18.9585626813
  0
LINE
  5
33E
100
AcDbEntity
  8
0
100
AcDbLine
 62
9
  6
CONTINUOUS
 10
12.456706005
 20
18.9684107588
 11
12.579178793
 21
18.9684107588
  0
LINE
  5
33F
100
AcDbEntity
  8
0
100
AcDbLine
 62
9
  6
CONTINUOUS
 10
13.2441388956
 20
18.9684107588
 11
13.366706005
 21
18.9684107588
  0
LINE
  5
340
100
AcDbEntity
  8
0
100
AcDbLine
 62
9
  6
CONTINUOUS
 10
13.366706005
 20
18.9759990049
 11
13.2425381713
 21
18.9759990049
  0
LINE
  5
341
100
AcDbEntity
  8
0
100
AcDbLine
 62
9
  6
CONTINUOUS
 10
12.5812021033
 20
18.9759990049
 11
12.456706005
 21
18.9759990049
  0
LINE
  5
342
100
AcDbEntity
  8
0
100
AcDbLine
 62
9
  6
CONTINUOUS
 10
12.4484424867
 20
18.9858470824
 11
12.583288608
 21
18.9858470824
  0
LINE
  5
343
100
AcDbEntity
  8
0
100
AcDbLine
 62
9
  6
CONTINUOUS
 10
13.2404607404
 20
18.9858470824
 11
13.374957056
 21
18.9858470824
  0
LINE
  5
344
100
AcDbEntity
  8
0
100
AcDbLine
 62
9
  6
CONTINUOUS
 10
13.5334424867
 20
19.0137901416
 11
13.2345662119
 21
19.0137901416
  0
LINE
  5
345
100
AcDbEntity
  8
0
100
AcDbLine
 62
9
  6
CONTINUOUS
 10
12.5889769239
 20
19.0137901416
 11
12.2899849924
 21
19.0137901416
  0
LINE
  5
346
100
AcDbEntity
  8
0
100
AcDbLine
 62
9
  6
CONTINUOUS
 10
12.281706005
 20
19.0236382191
 11
12.5909816784
 21
19.0236382191
  0
LINE
  5
347
100
AcDbEntity
  8
0
100
AcDbLine
 62
9
  6
CONTINUOUS
 10
13.2324887811
 20
19.0236382191
 11
13.541706005
 21
19.0236382191
  0
LINE
  5
348
100
AcDbEntity
  8
0
100
AcDbLine
 62
9
  6
CONTINUOUS
 10
13.541706005
 20
19.0312264652
 11
13.2308880568
 21
19.0312264652
  0
LINE
  5
349
100
AcDbEntity
  8
0
100
AcDbLine
 62
9
  6
CONTINUOUS
 10
12.5925264034
 20
19.0312264652
 11
12.281706005
 21
19.0312264652
  0
LINE
  5
34A
100
AcDbEntity
  8
0
100
AcDbLine
 62
9
  6
CONTINUOUS
 10
12.2734424867
 20
19.0410745427
 11
12.5945311579
 21
19.0410745427
  0
LINE
  5
34B
100
AcDbEntity
  8
0
100
AcDbLine
 62
9
  6
CONTINUOUS
 10
13.2288196385
 20
19.0410745427
 11
13.5499599716
 21
19.0410745427
  0
LINE
  5
34C
100
AcDbEntity
  8
0
100
AcDbLine
 62
9
  6
CONTINUOUS
 10
13.7284424867
 20
19.0725441415
 11
13.2222039091
 21
19.0725441415
  0
LINE
  5
34D
100
AcDbEntity
  8
0
100
AcDbLine
 62
9
  6
CONTINUOUS
 10
12.6009373648
 20
19.0725441415
 11
12.0949808232
 21
19.0725441415
  0
LINE
  5
34E
100
AcDbEntity
  8
0
100
AcDbLine
 62
9
  6
CONTINUOUS
 10
12.086706005
 20
19.082392219
 11
12.6029421193
 21
19.082392219
  0
LINE
  5
34F
100
AcDbEntity
  8
0
100
AcDbLine
 62
9
  6
CONTINUOUS
 10
13.2203559698
 20
19.082392219
 11
13.736706005
 21
19.082392219
  0
LINE
  5
350
100
AcDbEntity
  8
0
100
AcDbLine
 62
9
  6
CONTINUOUS
 10
13.736706005
 20
19.0877579458
 11
13.2193491197
 21
19.0877579458
  0
LINE
  5
351
100
AcDbEntity
  8
0
100
AcDbLine
 62
9
  6
CONTINUOUS
 10
12.6040344102
 20
19.0877579458
 11
12.086706005
 21
19.0877579458
  0
LINE
  5
352
100
AcDbEntity
  8
0
100
AcDbLine
 62
7
  6
CONTINUOUS
 10
11.8717752805
 20
19.0997579458
 11
12.6063087978
 21
19.0997579458
  0
LINE
  5
353
100
AcDbEntity
  8
0
100
AcDbLine
 62
7
  6
CONTINUOUS
 10
13.2170973836
 20
19.0997579458
 11
13.9516367294
 21
19.0997579458
  0
LINE
  5
354
100
AcDbEntity
  8
0
100
AcDbLine
 62
9
  6
CONTINUOUS
 10
13.951706005
 20
19.1807823535
 11
13.201893585
 21
19.1807823535
  0
LINE
  5
355
100
AcDbEntity
  8
0
100
AcDbLine
 62
9
  6
CONTINUOUS
 10
12.6214236918
 20
19.1807823535
 11
11.871706005
 21
19.1807823535
  0
LINE
  5
356
100
AcDbEntity
  8
0
100
AcDbLine
 62
9
  6
CONTINUOUS
 10
13.9394953265
 20
19.2135232634
 11
13.195840564
 21
19.2135232634
  0
LINE
  5
357
100
AcDbEntity
  8
0
100
AcDbLine
 62
9
  6
CONTINUOUS
 10
12.627531424
 20
19.2135232634
 11
11.8839166834
 21
19.2135232634
  0
LINE
  5
358
100
AcDbEntity
  8
0
100
AcDbLine
 62
7
  6
CONTINUOUS
 10
13.36125733
 20
18.9984961596
 11
13.3649308244
 21
18.9978684633
  0
LINE
  5
359
100
AcDbEntity
  8
0
100
AcDbLine
 62
7
  6
CONTINUOUS
 10
12.5715423654
 20
18.9397710138
 11
12.4649695232
 21
18.9585626813
  0
LINE
  5
35A
100
AcDbEntity
  8
0
100
AcDbLine
 62
7
  6
CONTINUOUS
 10
12.4484424867
 20
18.9858470824
 11
12.2899695232
 21
19.0137901416
  0
LINE
  5
35B
100
AcDbEntity
  8
0
100
AcDbLine
 62
7
  6
CONTINUOUS
 10
12.2734424867
 20
19.0410745427
 11
12.226206005
 21
19.0494036089
  0
LINE
  5
35C
100
AcDbEntity
  8
0
100
AcDbLine
 62
7
  6
CONTINUOUS
 10
12.180206005
 20
19.05751465
 11
12.0949695232
 21
19.0725441415
  0
LINE
  5
35D
100
AcDbEntity
  8
0
100
AcDbLine
 62
7
  6
CONTINUOUS
 10
13.3226043189
 20
18.9903851185
 11
13.3189308245
 21
18.9910704664
  0
LINE
  5
35E
100
AcDbEntity
  8
0
100
AcDbLine
 62
7
  6
CONTINUOUS
 10
13.5053664193
 20
19.0494036089
 11
13.5022850036
 21
19.0499821529
  0
LINE
  5
35F
100
AcDbEntity
  8
0
100
AcDbLine
 62
7
  6
CONTINUOUS
 10
13.6182807469
 20
19.05751465
 11
13.6190644529
 21
19.0573545323
  0
LINE
  5
360
100
AcDbEntity
  8
0
100
AcDbLine
 62
7
  6
CONTINUOUS
 10
13.4353427016
 20
18.9984961596
 11
13.4358312175
 21
18.9983898543
  0
LINE
  5
361
100
AcDbEntity
  8
0
100
AcDbLine
 62
7
  6
CONTINUOUS
 10
13.5738481589
 20
19.0494036089
 11
13.573064453
 21
19.0495850305
  0
LINE
  5
362
100
AcDbEntity
  8
0
100
AcDbLine
 62
7
  6
CONTINUOUS
 10
13.3903197333
 20
18.9903851185
 11
13.3898312175
 21
18.9905126558
  0
LINE
  5
363
100
AcDbEntity
  8
0
100
AcDbLine
 62
9
  6
CONTINUOUS
 10
12.071412599
 20
19.6413843598
 11
12.641706005
 21
19.6413843598
  0
LINE
  5
364
100
AcDbEntity
  8
0
100
AcDbLine
 62
9
  6
CONTINUOUS
 10
13.181706005
 20
19.6413843598
 11
13.7519834409
 21
19.6413843598
  0
LINE
  5
365
100
AcDbEntity
  8
0
100
AcDbLine
 62
9
  6
CONTINUOUS
 10
13.7040209779
 20
20.0676566435
 11
13.4221485561
 21
20.0676566435
  0
LINE
  5
366
100
AcDbEntity
  8
0
100
AcDbLine
 62
9
  6
CONTINUOUS
 10
12.4012616324
 20
20.0676566435
 11
12.1193910321
 21
20.0676566435
  0
LINE
  5
367
100
AcDbEntity
  8
0
100
AcDbLine
 62
9
  6
CONTINUOUS
 10
12.3791840472
 20
20.8129297058
 11
12.3592624135
 21
20.8111652555
  0
LINE
  5
368
100
AcDbEntity
  8
0
100
AcDbLine
 62
9
  6
CONTINUOUS
 10
12.3517451881
 20
20.9015552548
 11
12.3716668219
 21
20.9033197051
  0
LINE
  5
369
100
AcDbEntity
  8
0
100
AcDbLine
 62
9
  6
CONTINUOUS
 10
12.3716668219
 20
20.9082026583
 11
12.3517451881
 21
20.906438208
  0
LINE
  5
36A
100
AcDbEntity
  8
0
100
AcDbLine
 62
7
  6
CONTINUOUS
 10
12.3716849907
 20
20.9084105139
 11
12.351763357
 21
20.9066460636
  0
LINE
  5
36B
100
AcDbEntity
  8
0
100
AcDbLine
 62
7
  6
CONTINUOUS
 10
12.7260068169
 20
20.7730256623
 11
13.0974022186
 21
20.7730256623
  0
LINE
  5
36C
100
AcDbEntity
  8
0
100
AcDbLine
 62
9
  6
CONTINUOUS
 10
13.4641495965
 20
20.8111652555
 11
13.4442279627
 21
20.8129297058
  0
LINE
  5
36D
100
AcDbEntity
  8
0
100
AcDbLine
 62
9
  6
CONTINUOUS
 10
13.4517451881
 20
20.9033197051
 11
13.4716668219
 21
20.9015552548
  0
LINE
  5
36E
100
AcDbEntity
  8
0
100
AcDbLine
 62
9
  6
CONTINUOUS
 10
13.4716668219
 20
20.906438208
 11
13.4517451881
 21
20.9082026583
  0
LINE
  5
36F
100
AcDbEntity
  8
0
100
AcDbLine
 62
7
  6
CONTINUOUS
 10
13.471648653
 20
20.9066460636
 11
13.4517270192
 21
20.9084105139
  0
ARC
  5
370
100
AcDbEntity
  8
0
100
AcDbCircle
 62
9
  6
CONTINUOUS
 10
8.4355393472
 20
11.8869313914
 40
4.263237499
100
AcDbArc
 50
23.5272631967
 51
23.9430092744
  0
ARC
  5
371
100
AcDbEntity
  8
0
100
AcDbCircle
 62
9
  6
CONTINUOUS
 10
8.6399611728
 20
11.9741569641
 40
4.0410146269
100
AcDbArc
 50
24.1624740143
 51
24.870856586
  0
ARC
  5
372
100
AcDbEntity
  8
0
100
AcDbCircle
 62
9
  6
CONTINUOUS
 10
9.034425089
 20
12.1522261546
 40
3.6082221955
100
AcDbArc
 50
23.9521941815
 51
24.1465296173
  0
ARC
  5
373
100
AcDbEntity
  8
0
100
AcDbCircle
 62
7
  6
CONTINUOUS
 10
6.9398096271
 20
8.9779477311
 40
1.4020396301
100
AcDbArc
 50
101.0111250739
 51
116.1939332303
  0
ARC
  5
374
100
AcDbEntity
  8
0
100
AcDbCircle
 62
7
  6
CONTINUOUS
 10
6.9391622658
 20
8.9798933434
 40
1.3999987061
100
AcDbArc
 50
116.2050583041
 51
167.7275758417
  0
ARC
  5
375
100
AcDbEntity
  8
0
100
AcDbCircle
 62
9
  6
CONTINUOUS
 10
7.013459262
 20
9.0163807894
 40
1.1302193563
100
AcDbArc
 50
101.4313762069
 51
167.1118475276
  0
ARC
  5
376
100
AcDbEntity
  8
0
100
AcDbCircle
 62
7
  6
CONTINUOUS
 10
7.0134673214
 20
9.0163771695
 40
0.79999589
100
AcDbArc
 50
99.0001199724
 51
159.6674447474
  0
ARC
  5
377
100
AcDbEntity
  8
0
100
AcDbCircle
 62
7
  6
CONTINUOUS
 10
6.3573067601
 20
9.2596232445
 40
0.1001970444
100
AcDbArc
 50
159.7215876257
 51
215.9888606995
  0
ARC
  5
378
100
AcDbEntity
  8
0
100
AcDbCircle
 62
7
  6
CONTINUOUS
 10
5.6690132945
 20
9.2561983746
 40
0.1001546477
100
AcDbArc
 50
167.7320884118
 51
176.7400623348
  0
ARC
  5
379
100
AcDbEntity
  8
0
100
AcDbCircle
 62
9
  6
CONTINUOUS
 10
12.6502129795
 20
-12.3015612978
 40
24.2202453433
100
AcDbArc
 50
88.0675691066
 51
88.5629662062
  0
ARC
  5
37A
100
AcDbEntity
  8
0
100
AcDbCircle
 62
7
  6
CONTINUOUS
 10
12.911706005
 20
-2.6499743377
 40
0.27
100
AcDbArc
 50
180.0
 51
360.0
  0
ARC
  5
37B
100
AcDbEntity
  8
0
100
AcDbCircle
 62
7
  6
CONTINUOUS
 10
9.2968534706
 20
8.3333274237
 40
6.703634196
100
AcDbArc
 50
358.1641345654
 51
358.3318468721
  0
ARC
  5
37C
100
AcDbEntity
  8
0
100
AcDbCircle
 62
7
  6
CONTINUOUS
 10
10.0191123785
 20
12.3314591651
 40
1.3599999998
100
AcDbArc
 50
67.4255442889
 51
70.9862258001
  0
ARC
  5
37D
100
AcDbEntity
  8
0
100
AcDbCircle
 62
7
  6
CONTINUOUS
 10
9.8956941939
 20
12.3498819868
 40
0.25
100
AcDbArc
 50
313.0260516848
 51
42.290404698
  0
ARC
  5
37E
100
AcDbEntity
  8
0
100
AcDbCircle
 62
7
  6
CONTINUOUS
 10
9.8363945409
 20
12.6722579458
 40
0.03
100
AcDbArc
 50
194.7630312681
 51
259.9904422976
  0
ARC
  5
37F
100
AcDbEntity
  8
0
100
AcDbCircle
 62
7
  6
CONTINUOUS
 10
9.8363945409
 20
13.4472579458
 40
0.03
100
AcDbArc
 50
100.0095577024
 51
165.2369687319
  0
ARC
  5
380
100
AcDbEntity
  8
0
100
AcDbCircle
 62
7
  6
CONTINUOUS
 10
10.0771941939
 20
12.1554244079
 40
0.016
100
AcDbArc
 50
133.0260516848
 51
235.3765489002
  0
ARC
  5
381
100
AcDbEntity
  8
0
100
AcDbCircle
 62
7
  6
CONTINUOUS
 10
10.0763004656
 20
12.1262579458
 40
0.016
100
AcDbArc
 50
325.0000000002
 51
59.999999999
  0
ARC
  5
382
100
AcDbEntity
  8
0
100
AcDbCircle
 62
7
  6
CONTINUOUS
 10
10.6066089278
 20
10.2240317483
 40
3.843067782
100
AcDbArc
 50
340.2641485979
 51
341.7684149209
  0
ARC
  5
383
100
AcDbEntity
  8
0
100
AcDbCircle
 62
7
  6
CONTINUOUS
 10
10.4894864281
 20
12.3294786547
 40
1.3600000002
100
AcDbArc
 50
108.7559867838
 51
112.3561036553
  0
ARC
  5
384
100
AcDbEntity
  8
0
100
AcDbCircle
 62
7
  6
CONTINUOUS
 10
10.3491480525
 20
12.0016746077
 40
0.5820189704
100
AcDbArc
 50
117.9036875464
 51
119.5462289078
  0
ARC
  5
385
100
AcDbEntity
  8
0
100
AcDbCircle
 62
7
  6
CONTINUOUS
 10
10.3315069322
 20
12.0348798997
 40
0.5444184675
100
AcDbArc
 50
116.416453804
 51
117.8983781168
  0
ARC
  5
386
100
AcDbEntity
  8
0
100
AcDbCircle
 62
7
  6
CONTINUOUS
 10
10.3280839632
 20
12.0417428511
 40
0.536749265
100
AcDbArc
 50
116.012446424
 51
116.41514279
  0
ARC
  5
387
100
AcDbEntity
  8
0
100
AcDbCircle
 62
7
  6
CONTINUOUS
 10
10.2571941939
 20
11.8772579458
 40
0.275
100
AcDbArc
 50
144.9999999999
 51
35.0000000001
  0
CIRCLE
  5
388
100
AcDbEntity
  8
0
100
AcDbCircle
 62
7
  6
CONTINUOUS
 10
10.2571941939
 20
13.0597579458
 40
0.275
  0
ARC
  5
389
100
AcDbEntity
  8
0
100
AcDbCircle
 62
7
  6
CONTINUOUS
 10
10.6186941939
 20
12.3498819868
 40
0.25
100
AcDbArc
 50
137.6964360817
 51
226.9739483152
  0
ARC
  5
38A
100
AcDbEntity
  8
0
100
AcDbCircle
 62
7
  6
CONTINUOUS
 10
10.7781626979
 20
12.6147579458
 40
0.08
100
AcDbArc
 50
0.0
 51
90.0
  0
ARC
  5
38B
100
AcDbEntity
  8
0
100
AcDbCircle
 62
7
  6
CONTINUOUS
 10
10.7781626979
 20
13.5047579458
 40
0.08
100
AcDbArc
 50
270.0
 51
360.0
  0
ARC
  5
38C
100
AcDbEntity
  8
0
100
AcDbCircle
 62
7
  6
CONTINUOUS
 10
11.0211941939
 20
12.6922579458
 40
0.05
100
AcDbArc
 50
180.0
 51
263.0751017566
  0
ARC
  5
38D
100
AcDbEntity
  8
0
100
AcDbCircle
 62
7
  6
CONTINUOUS
 10
11.0211941939
 20
13.4272579458
 40
0.05
100
AcDbArc
 50
96.9248982434
 51
180.0
  0
ARC
  5
38E
100
AcDbEntity
  8
0
100
AcDbCircle
 62
7
  6
CONTINUOUS
 10
10.8881626979
 20
12.5397579458
 40
0.03
100
AcDbArc
 50
180.0
 51
270.0
  0
ARC
  5
38F
100
AcDbEntity
  8
0
100
AcDbCircle
 62
7
  6
CONTINUOUS
 10
10.4371941939
 20
12.1554244079
 40
0.016
100
AcDbArc
 50
304.6234510998
 51
46.9739483152
  0
ARC
  5
390
100
AcDbEntity
  8
0
100
AcDbCircle
 62
7
  6
CONTINUOUS
 10
10.4380879223
 20
12.1262579458
 40
0.016
100
AcDbArc
 50
119.9999999986
 51
214.9999999998
  0
ARC
  5
391
100
AcDbEntity
  8
0
100
AcDbCircle
 62
7
  6
CONTINUOUS
 10
10.4894864281
 20
13.7900372369
 40
1.3600000002
100
AcDbArc
 50
247.6438963447
 51
251.2440132161
  0
ARC
  5
392
100
AcDbEntity
  8
0
100
AcDbCircle
 62
7
  6
CONTINUOUS
 10
10.0191243316
 20
13.7880218375
 40
1.3599631201
100
AcDbArc
 50
289.0137769684
 51
292.5741287927
  0
ARC
  5
393
100
AcDbEntity
  8
0
100
AcDbCircle
 62
7
  6
CONTINUOUS
 10
10.1652386002
 20
14.1178444513
 40
0.5820225802
100
AcDbArc
 50
297.9036937196
 51
299.5462181331
  0
ARC
  5
394
100
AcDbEntity
  8
0
100
AcDbCircle
 62
7
  6
CONTINUOUS
 10
10.1828812835
 20
14.0846362204
 40
0.5444187486
100
AcDbArc
 50
296.4164633531
 51
297.8983840897
  0
ARC
  5
395
100
AcDbEntity
  8
0
100
AcDbCircle
 62
7
  6
CONTINUOUS
 10
10.1863045643
 20
14.0777726462
 40
0.5367488496
100
AcDbArc
 50
296.0124367586
 51
296.4151522512
  0
ARC
  5
396
100
AcDbEntity
  8
0
100
AcDbCircle
 62
7
  6
CONTINUOUS
 10
10.2571941939
 20
14.2422579458
 40
0.275
100
AcDbArc
 50
324.9999999999
 51
215.0000000001
  0
ARC
  5
397
100
AcDbEntity
  8
0
100
AcDbCircle
 62
7
  6
CONTINUOUS
 10
10.6186941939
 20
13.7696339047
 40
0.25
100
AcDbArc
 50
133.0260516848
 51
222.2904041729
  0
ARC
  5
398
100
AcDbEntity
  8
0
100
AcDbCircle
 62
7
  6
CONTINUOUS
 10
9.8956941939
 20
13.7696339047
 40
0.25
100
AcDbArc
 50
317.6964362045
 51
46.9739483152
  0
ARC
  5
399
100
AcDbEntity
  8
0
100
AcDbCircle
 62
7
  6
CONTINUOUS
 10
10.8881626979
 20
13.5797579458
 40
0.03
100
AcDbArc
 50
90.0
 51
180.0
  0
ARC
  5
39A
100
AcDbEntity
  8
0
100
AcDbCircle
 62
7
  6
CONTINUOUS
 10
10.0771941939
 20
13.9640914837
 40
0.016
100
AcDbArc
 50
124.6234510998
 51
226.9739483152
  0
ARC
  5
39B
100
AcDbEntity
  8
0
100
AcDbCircle
 62
7
  6
CONTINUOUS
 10
10.4371941939
 20
13.9640914837
 40
0.016
100
AcDbArc
 50
313.0260516848
 51
55.3765489002
  0
ARC
  5
39C
100
AcDbEntity
  8
0
100
AcDbCircle
 62
7
  6
CONTINUOUS
 10
10.4380879223
 20
13.9932579458
 40
0.016
100
AcDbArc
 50
145.0000000002
 51
240.0000000014
  0
ARC
  5
39D
100
AcDbEntity
  8
0
100
AcDbCircle
 62
7
  6
CONTINUOUS
 10
10.0763004656
 20
13.9932579458
 40
0.016
100
AcDbArc
 50
300.000000001
 51
34.9999999998
  0
ARC
  5
39E
100
AcDbEntity
  8
0
100
AcDbCircle
 62
7
  6
CONTINUOUS
 10
12.911706005
 20
9.7134492692
 40
3.9093008025
100
AcDbArc
 50
93.9722188191
 51
98.6361306251
  0
ARC
  5
39F
100
AcDbEntity
  8
0
100
AcDbCircle
 62
7
  6
CONTINUOUS
 10
12.911706005
 20
9.7134492692
 40
3.9093008025
100
AcDbArc
 50
81.3638693749
 51
86.0277837167
  0
ARC
  5
3A0
100
AcDbEntity
  8
0
100
AcDbCircle
 62
7
  6
CONTINUOUS
 10
11.1573336599
 20
13.2601848616
 40
2.4827188018
100
AcDbArc
 50
9.2965967709
 51
15.0162737825
  0
ARC
  5
3A1
100
AcDbEntity
  8
0
100
AcDbCircle
 62
7
  6
CONTINUOUS
 10
11.1573336599
 20
13.2601848616
 40
2.4827188018
100
AcDbArc
 50
336.7547341089
 51
344.3390810972
  0
ARC
  5
3A2
100
AcDbEntity
  8
0
100
AcDbCircle
 62
7
  6
CONTINUOUS
 10
11.3068645473
 20
13.0597586948
 40
1.5506703533
100
AcDbArc
 50
165.2369986957
 51
194.7630040129
  0
ARC
  5
3A3
100
AcDbEntity
  8
0
100
AcDbCircle
 62
7
  6
CONTINUOUS
 10
12.231185115
 20
11.9197827464
 40
1.2514281191
100
AcDbArc
 50
279.0137900908
 51
289.2044457875
  0
ARC
  5
3A4
100
AcDbEntity
  8
0
100
AcDbCircle
 62
7
  6
CONTINUOUS
 10
12.2316965478
 20
11.9184228483
 40
1.25
100
AcDbArc
 50
319.4790737315
 51
359.7503849747
  0
ARC
  5
3A5
100
AcDbEntity
  8
0
100
AcDbCircle
 62
9
  6
CONTINUOUS
 10
12.2313870768
 20
11.91890922
 40
0.680582767
100
AcDbArc
 50
281.4409571471
 51
307.3242347711
  0
ARC
  5
3A6
100
AcDbEntity
  8
0
100
AcDbCircle
 62
7
  6
CONTINUOUS
 10
11.8416986831
 20
11.8684253988
 40
0.5
100
AcDbArc
 50
281.000691627
 51
359.999308373
  0
ARC
  5
3A7
100
AcDbEntity
  8
0
100
AcDbCircle
 62
7
  6
CONTINUOUS
 10
11.841647691
 20
12.0697964843
 40
0.469
100
AcDbArc
 50
57.5935402047
 51
83.0751017558
  0
ARC
  5
3A8
100
AcDbEntity
  8
0
100
AcDbCircle
 62
7
  6
CONTINUOUS
 10
12.0914656594
 20
11.9118193266
 40
0.2502375489
100
AcDbArc
 50
0.0190722572
 51
38.1059407611
  0
ARC
  5
3A9
100
AcDbEntity
  8
0
100
AcDbCircle
 62
7
  6
CONTINUOUS
 10
12.1230720011
 20
12.2597471209
 40
0.2500001629
100
AcDbArc
 50
21.4774286002
 51
55.7395362425
  0
ARC
  5
3AA
100
AcDbEntity
  8
0
100
AcDbCircle
 62
7
  6
CONTINUOUS
 10
12.386706005
 20
12.1434193631
 40
0.125
100
AcDbArc
 50
90.0
 51
218.124911622
  0
ARC
  5
3AB
100
AcDbEntity
  8
0
100
AcDbCircle
 62
7
  6
CONTINUOUS
 10
12.1876941939
 20
12.5132579458
 40
0.0935
100
AcDbArc
 50
329.4678748052
 51
360.0
  0
ARC
  5
3AC
100
AcDbEntity
  8
0
100
AcDbCircle
 62
7
  6
CONTINUOUS
 10
12.3323752963
 20
13.527825175
 40
0.0511811024
100
AcDbArc
 50
98.6361306251
 51
180.0
  0
ARC
  5
3AD
100
AcDbEntity
  8
0
100
AcDbCircle
 62
7
  6
CONTINUOUS
 10
12.3323752963
 20
12.5916907165
 40
0.0511811024
100
AcDbArc
 50
180.0
 51
261.3638693749
  0
ARC
  5
3AE
100
AcDbEntity
  8
0
100
AcDbCircle
 62
7
  6
CONTINUOUS
 10
12.4029842522
 20
12.2881044025
 40
0.0196850394
100
AcDbArc
 50
203.2452658911
 51
270.0
  0
ARC
  5
3AF
100
AcDbEntity
  8
0
100
AcDbCircle
 62
7
  6
CONTINUOUS
 10
11.4227156123
 20
14.6220896979
 40
4.4996421687
100
AcDbArc
 50
80.0115857892
 51
80.1607035905
  0
ARC
  5
3B0
100
AcDbEntity
  8
0
100
AcDbCircle
 62
7
  6
CONTINUOUS
 10
11.4375202832
 20
14.711036398
 40
4.4094758729
100
AcDbArc
 50
79.7365267337
 51
80.0005742692
  0
ARC
  5
3B1
100
AcDbEntity
  8
0
100
AcDbCircle
 62
7
  6
CONTINUOUS
 10
11.121706005
 20
15.0995286744
 40
1.39
100
AcDbArc
 50
346.1131090765
 51
15.2496931708
  0
ARC
  5
3B2
100
AcDbEntity
  8
0
100
AcDbCircle
 62
7
  6
CONTINUOUS
 10
11.841647691
 20
14.0497194073
 40
0.469
100
AcDbArc
 50
276.9248982442
 51
302.4064597953
  0
ARC
  5
3B3
100
AcDbEntity
  8
0
100
AcDbCircle
 62
7
  6
CONTINUOUS
 10
11.9977718888
 20
13.8616385137
 40
0.2528428128
100
AcDbArc
 50
311.6942108085
 51
323.9548485879
  0
ARC
  5
3B4
100
AcDbEntity
  8
0
100
AcDbCircle
 62
7
  6
CONTINUOUS
 10
12.0003211186
 20
13.8596329271
 40
0.249605126
100
AcDbArc
 50
323.9827616842
 51
347.3347379135
  0
ARC
  5
3B5
100
AcDbEntity
  8
0
100
AcDbCircle
 62
7
  6
CONTINUOUS
 10
12.0020115386
 20
13.8572902391
 40
0.2467838409
100
AcDbArc
 50
303.4905754539
 51
308.6460715524
  0
ARC
  5
3B6
100
AcDbEntity
  8
0
100
AcDbCircle
 62
7
  6
CONTINUOUS
 10
12.0031345541
 20
13.8557285015
 40
0.2448627826
100
AcDbArc
 50
308.6690545226
 51
311.6770691957
  0
ARC
  5
3B7
100
AcDbEntity
  8
0
100
AcDbCircle
 62
7
  6
CONTINUOUS
 10
12.356706005
 20
15.8441563826
 40
1.0
100
AcDbArc
 50
343.5257501351
 51
16.8349806732
  0
ARC
  5
3B8
100
AcDbEntity
  8
0
100
AcDbCircle
 62
7
  6
CONTINUOUS
 10
12.3351702794
 20
14.7995212499
 40
0.14
100
AcDbArc
 50
295.0
 51
346.1131090765
  0
ARC
  5
3B9
100
AcDbEntity
  8
0
100
AcDbCircle
 62
7
  6
CONTINUOUS
 10
12.1876941939
 20
13.6062579458
 40
0.0935
100
AcDbArc
 50
0.0
 51
30.5321251948
  0
ARC
  5
3BA
100
AcDbEntity
  8
0
100
AcDbCircle
 62
7
  6
CONTINUOUS
 10
12.461706005
 20
16.1482534066
 40
0.05
100
AcDbArc
 50
343.1650193268
 51
57.4210296069
  0
ARC
  5
3BB
100
AcDbEntity
  8
0
100
AcDbCircle
 62
7
  6
CONTINUOUS
 10
12.4598113594
 20
15.5463927638
 40
0.05
100
AcDbArc
 50
293.4958766063
 51
16.4742498649
  0
ARC
  5
3BC
100
AcDbEntity
  8
0
100
AcDbCircle
 62
7
  6
CONTINUOUS
 10
12.491706005
 20
15.4730256623
 40
0.03
100
AcDbArc
 50
113.4958766065
 51
195.2496931702
  0
ARC
  5
3BD
100
AcDbEntity
  8
0
100
AcDbCircle
 62
7
  6
CONTINUOUS
 10
12.348206005
 20
14.6180256623
 40
0.03
100
AcDbArc
 50
115.0
 51
180.0
  0
ARC
  5
3BE
100
AcDbEntity
  8
0
100
AcDbCircle
 62
7
  6
CONTINUOUS
 10
12.287151588
 20
13.8983406229
 40
0.0196850394
100
AcDbArc
 50
90.0
 51
164.9837262175
  0
ARC
  5
3BF
100
AcDbEntity
  8
0
100
AcDbCircle
 62
7
  6
CONTINUOUS
 10
12.379210395
 20
16.3949053281
 40
0.2099956099
100
AcDbArc
 50
301.4808058443
 51
53.250856315
  0
ARC
  5
3C0
100
AcDbEntity
  8
0
100
AcDbCircle
 62
7
  6
CONTINUOUS
 10
12.496706005
 20
16.2030256623
 40
0.015
100
AcDbArc
 50
121.4808058442
 51
237.421029607
  0
ARC
  5
3C1
100
AcDbEntity
  8
0
100
AcDbCircle
 62
7
  6
CONTINUOUS
 10
12.4326376159
 20
17.8569823226
 40
0.2090683891
100
AcDbArc
 50
302.6049200261
 51
32.9999999999
  0
ARC
  5
3C2
100
AcDbEntity
  8
0
100
AcDbCircle
 62
7
  6
CONTINUOUS
 10
12.509206005
 20
18.1780256623
 40
0.03
100
AcDbArc
 50
90.0
 51
212.9999999993
  0
ARC
  5
3C3
100
AcDbEntity
  8
0
100
AcDbCircle
 62
7
  6
CONTINUOUS
 10
12.5163456741
 20
18.2280256623
 40
0.02
100
AcDbArc
 50
181.041626676
 51
270.0
  0
ARC
  5
3C4
100
AcDbEntity
  8
0
100
AcDbCircle
 62
7
  6
CONTINUOUS
 10
12.911706005
 20
16.4060666223
 40
3.9093008025
100
AcDbArc
 50
261.3638693749
 51
266.0277811809
  0
ARC
  5
3C5
100
AcDbEntity
  8
0
100
AcDbCircle
 62
7
  6
CONTINUOUS
 10
12.911706005
 20
16.4060666223
 40
3.9093008025
100
AcDbArc
 50
273.9722162833
 51
278.6361306251
  0
ARC
  5
3C6
100
AcDbEntity
  8
0
100
AcDbCircle
 62
7
  6
CONTINUOUS
 10
12.9117039372
 20
17.1080233174
 40
0.6799977957
100
AcDbArc
 50
306.7494014266
 51
57.3950401363
  0
ARC
  5
3C7
100
AcDbEntity
  8
0
100
AcDbCircle
 62
7
  6
CONTINUOUS
 10
12.9117017307
 20
17.108029369
 40
0.6799916666
100
AcDbArc
 50
122.6047667659
 51
233.2513414691
  0
ARC
  5
3C8
100
AcDbEntity
  8
0
100
AcDbCircle
 62
7
  6
CONTINUOUS
 10
12.911706005
 20
17.1080256623
 40
0.5172452508
100
AcDbArc
 50
301.5768857298
 51
58.5380449775
  0
ARC
  5
3C9
100
AcDbEntity
  8
0
100
AcDbCircle
 62
7
  6
CONTINUOUS
 10
12.911706005
 20
17.1080256623
 40
0.5172452508
100
AcDbArc
 50
121.5122130531
 51
238.5480629631
  0
ARC
  5
3CA
100
AcDbEntity
  8
0
100
AcDbCircle
 62
7
  6
CONTINUOUS
 10
12.911706005
 20
17.1080256623
 40
0.5
100
AcDbArc
 50
303.0595487442
 51
56.9404512558
  0
ARC
  5
3CB
100
AcDbEntity
  8
0
100
AcDbCircle
 62
7
  6
CONTINUOUS
 10
12.911706005
 20
17.1080256623
 40
0.5
100
AcDbArc
 50
123.0595487442
 51
236.9404512558
  0
ARC
  5
3CC
100
AcDbEntity
  8
0
100
AcDbCircle
 62
7
  6
CONTINUOUS
 10
12.911706005
 20
17.1080256623
 40
0.481
100
AcDbArc
 50
140.6826645581
 51
159.3173354419
  0
ARC
  5
3CD
100
AcDbEntity
  8
0
100
AcDbCircle
 62
7
  6
CONTINUOUS
 10
12.911706005
 20
17.1080256623
 40
0.481
100
AcDbArc
 50
200.6826645581
 51
219.317335442
  0
ARC
  5
3CE
100
AcDbEntity
  8
0
100
AcDbCircle
 62
7
  6
CONTINUOUS
 10
12.911706005
 20
17.1080256623
 40
0.481
100
AcDbArc
 50
320.6826645581
 51
339.3173354419
  0
ARC
  5
3CF
100
AcDbEntity
  8
0
100
AcDbCircle
 62
7
  6
CONTINUOUS
 10
12.911706005
 20
17.1080256623
 40
0.481
100
AcDbArc
 50
20.6826645581
 51
39.317335442
  0
ARC
  5
3D0
100
AcDbEntity
  8
0
100
AcDbCircle
 62
7
  6
CONTINUOUS
 10
12.911706005
 20
17.1080256623
 40
0.4165551275
100
AcDbArc
 50
130.9199922388
 51
229.0943347759
  0
ARC
  5
3D1
100
AcDbEntity
  8
0
100
AcDbCircle
 62
7
  6
CONTINUOUS
 10
12.911706005
 20
17.1080256623
 40
0.4165551275
100
AcDbArc
 50
310.9199922387
 51
49.0943347758
  0
ARC
  5
3D2
100
AcDbEntity
  8
0
100
AcDbCircle
 62
7
  6
CONTINUOUS
 10
12.911706005
 20
17.1080256623
 40
0.3
100
AcDbArc
 50
155.5552320955
 51
204.4970793227
  0
ARC
  5
3D3
100
AcDbEntity
  8
0
100
AcDbCircle
 62
7
  6
CONTINUOUS
 10
12.911706005
 20
17.1080256623
 40
0.3
100
AcDbArc
 50
335.5552320955
 51
24.4970793227
  0
ARC
  5
3D4
100
AcDbEntity
  8
0
100
AcDbCircle
 62
9
  6
CONTINUOUS
 10
12.7705679552
 20
18.7666706692
 40
0.2858102317
100
AcDbArc
 50
187.7139513181
 51
191.6737492918
  0
ARC
  5
3D5
100
AcDbEntity
  8
0
100
AcDbCircle
 62
9
  6
CONTINUOUS
 10
0.2934326853
 20
21.9837788327
 40
13.2028142495
100
AcDbArc
 50
354.9122243463
 51
355.0549952705
  0
ARC
  5
3D6
100
AcDbEntity
  8
0
100
AcDbCircle
 62
9
  6
CONTINUOUS
 10
12.083743425
 20
19.5444555532
 40
0.6369202465
100
AcDbArc
 50
28.7646472106
 51
30.2757690447
  0
ARC
  5
3D7
100
AcDbEntity
  8
0
100
AcDbCircle
 62
7
  6
CONTINUOUS
 10
11.921706005
 20
19.1807823535
 40
0.05
100
AcDbArc
 50
139.0941338576
 51
180.0
  0
ARC
  5
3D8
100
AcDbEntity
  8
0
100
AcDbCircle
 62
7
  6
CONTINUOUS
 10
12.096706005
 20
19.082392219
 40
0.01
100
AcDbArc
 50
180.0
 51
260.0000000007
  0
ARC
  5
3D9
100
AcDbEntity
  8
0
100
AcDbCircle
 62
7
  6
CONTINUOUS
 10
12.076706005
 20
19.0877579458
 40
0.01
100
AcDbArc
 50
0.0
 51
90.0
  0
ARC
  5
3DA
100
AcDbEntity
  8
0
100
AcDbCircle
 62
7
  6
CONTINUOUS
 10
11.2883569762
 20
19.7295200028
 40
0.788
100
AcDbArc
 50
319.0941338575
 51
353.5781868592
  0
ARC
  5
3DB
100
AcDbEntity
  8
0
100
AcDbCircle
 62
7
  6
CONTINUOUS
 10
12.176244451
 20
19.5585757411
 40
0.4991065874
100
AcDbArc
 50
28.3297342847
 51
33.9036357716
  0
ARC
  5
3DC
100
AcDbEntity
  8
0
100
AcDbCircle
 62
7
  6
CONTINUOUS
 10
12.1864691903
 20
19.5638574427
 40
0.4875653289
100
AcDbArc
 50
24.239486259
 51
28.3788744574
  0
ARC
  5
3DD
100
AcDbEntity
  8
0
100
AcDbCircle
 62
7
  6
CONTINUOUS
 10
12.188028673
 20
19.5648905945
 40
0.485737066
100
AcDbArc
 50
24.1522872697
 51
28.3336992162
  0
ARC
  5
3DE
100
AcDbEntity
  8
0
100
AcDbCircle
 62
7
  6
CONTINUOUS
 10
12.2001147608
 20
19.5620655497
 40
0.4771362183
100
AcDbArc
 50
35.1559663444
 51
37.0516767798
  0
ARC
  5
3DF
100
AcDbEntity
  8
0
100
AcDbCircle
 62
7
  6
CONTINUOUS
 10
12.1978681265
 20
19.5690011605
 40
0.4750595144
100
AcDbArc
 50
22.0614871824
 51
24.1081653827
  0
ARC
  5
3E0
100
AcDbEntity
  8
0
100
AcDbCircle
 62
7
  6
CONTINUOUS
 10
12.2019472509
 20
19.5633258141
 40
0.4749123323
100
AcDbArc
 50
31.8871643275
 51
35.1589557809
  0
ARC
  5
3E1
100
AcDbEntity
  8
0
100
AcDbCircle
 62
7
  6
CONTINUOUS
 10
12.2006563139
 20
19.5701853691
 40
0.4720306867
100
AcDbArc
 50
20.0990471577
 51
24.0772044112
  0
ARC
  5
3E2
100
AcDbEntity
  8
0
100
AcDbCircle
 62
7
  6
CONTINUOUS
 10
12.205932772
 20
19.565794195
 40
0.4702243484
100
AcDbArc
 50
29.2807621373
 51
31.8883177898
  0
ARC
  5
3E3
100
AcDbEntity
  8
0
100
AcDbCircle
 62
7
  6
CONTINUOUS
 10
12.2153515248
 20
19.5709533579
 40
0.4594857157
100
AcDbArc
 50
24.8800014076
 51
29.2940570663
  0
ARC
  5
3E4
100
AcDbEntity
  8
0
100
AcDbCircle
 62
7
  6
CONTINUOUS
 10
12.2206913926
 20
19.5735671641
 40
0.4535417748
100
AcDbArc
 50
20.3612247423
 51
24.8642561427
  0
ARC
  5
3E5
100
AcDbEntity
  8
0
100
AcDbCircle
 62
9
  6
CONTINUOUS
 10
12.1569313461
 20
18.9689468986
 40
0.4407484361
100
AcDbArc
 50
336.8190758027
 51
338.8023805684
  0
ARC
  5
3E6
100
AcDbEntity
  8
0
100
AcDbCircle
 62
7
  6
CONTINUOUS
 10
12.271706005
 20
19.0312264652
 40
0.01
100
AcDbArc
 50
0.0
 51
79.9999999997
  0
ARC
  5
3E7
100
AcDbEntity
  8
0
100
AcDbCircle
 62
7
  6
CONTINUOUS
 10
12.291706005
 20
19.0236382191
 40
0.01
100
AcDbArc
 50
180.0
 51
259.9999999997
  0
ARC
  5
3E8
100
AcDbEntity
  8
0
100
AcDbCircle
 62
7
  6
CONTINUOUS
 10
12.466706005
 20
18.9684107588
 40
0.01
100
AcDbArc
 50
180.0
 51
259.9999999997
  0
ARC
  5
3E9
100
AcDbEntity
  8
0
100
AcDbCircle
 62
7
  6
CONTINUOUS
 10
12.446706005
 20
18.9759990049
 40
0.01
100
AcDbArc
 50
0.0
 51
79.9999999997
  0
ARC
  5
3EA
100
AcDbEntity
  8
0
100
AcDbCircle
 62
7
  6
CONTINUOUS
 10
12.8825721467
 20
19.9817579458
 40
0.768
100
AcDbArc
 50
139.355686794
 51
173.5781868591
  0
ARC
  5
3EB
100
AcDbEntity
  8
0
100
AcDbCircle
 62
7
  6
CONTINUOUS
 10
12.9109460403
 20
20.3635696959
 40
0.5944052158
100
AcDbArc
 50
228.2555818938
 51
228.638547154
  0
ARC
  5
3EC
100
AcDbEntity
  8
0
100
AcDbCircle
 62
7
  6
CONTINUOUS
 10
12.9098875707
 20
20.3628904977
 40
0.5931866134
100
AcDbArc
 50
185.0934830459
 51
228.2881835969
  0
ARC
  5
3ED
100
AcDbEntity
  8
0
100
AcDbCircle
 62
9
  6
CONTINUOUS
 10
12.8024549181
 20
20.3797005745
 40
0.5410920206
100
AcDbArc
 50
251.8381195709
 51
252.6962929313
  0
ARC
  5
3EE
100
AcDbEntity
  8
0
100
AcDbCircle
 62
7
  6
CONTINUOUS
 10
12.911706005
 20
20.3997579458
 40
0.54
100
AcDbArc
 50
35.642329703
 51
144.2885994434
  0
ARC
  5
3EF
100
AcDbEntity
  8
0
100
AcDbCircle
 62
9
  6
CONTINUOUS
 10
12.9100046762
 20
20.3570208927
 40
0.5083142283
100
AcDbArc
 50
185.1002521774
 51
237.7914438727
  0
ARC
  5
3F0
100
AcDbEntity
  8
0
100
AcDbCircle
 62
9
  6
CONTINUOUS
 10
12.9103195249
 20
20.357121812
 40
0.4886409735
100
AcDbArc
 50
185.1103447732
 51
236.6139353354
  0
ARC
  5
3F1
100
AcDbEntity
  8
0
100
AcDbCircle
 62
7
  6
CONTINUOUS
 10
12.911706005
 20
20.3980256623
 40
0.45
100
AcDbArc
 50
307.2240652511
 51
232.7816773979
  0
ARC
  5
3F2
100
AcDbEntity
  8
0
100
AcDbCircle
 62
7
  6
CONTINUOUS
 10
12.911706005
 20
20.3997579458
 40
0.45
100
AcDbArc
 50
19.7362337178
 51
160.2637662822
  0
ARC
  5
3F3
100
AcDbEntity
  8
0
100
AcDbCircle
 62
7
  6
CONTINUOUS
 10
12.911706005
 20
20.3980256623
 40
0.4290186125
100
AcDbArc
 50
309.4716690467
 51
230.5345767392
  0
ARC
  5
3F4
100
AcDbEntity
  8
0
100
AcDbCircle
 62
7
  6
CONTINUOUS
 10
12.911706005
 20
20.3980256623
 40
0.4262436548
100
AcDbArc
 50
309.7787508711
 51
230.2132620092
  0
ARC
  5
3F5
100
AcDbEntity
  8
0
100
AcDbCircle
 62
7
  6
CONTINUOUS
 10
12.911706005
 20
20.3980256623
 40
0.4184602369
100
AcDbArc
 50
63.6555586134
 51
116.3444413866
  0
ARC
  5
3F6
100
AcDbEntity
  8
0
100
AcDbCircle
 62
9
  6
CONTINUOUS
 10
12.911706005
 20
20.3980256623
 40
0.4106539279
100
AcDbArc
 50
311.1953908491
 51
65.9483211108
  0
ARC
  5
3F7
100
AcDbEntity
  8
0
100
AcDbCircle
 62
9
  6
CONTINUOUS
 10
12.911706005
 20
20.3980256623
 40
0.4106539279
100
AcDbArc
 50
114.0520586449
 51
228.8046021795
  0
ARC
  5
3F8
100
AcDbEntity
  8
0
100
AcDbCircle
 62
9
  6
CONTINUOUS
 10
12.911706005
 20
20.3980256623
 40
0.3906653701
100
AcDbArc
 50
106.2804921621
 51
225.7982183496
  0
ARC
  5
3F9
100
AcDbEntity
  8
0
100
AcDbCircle
 62
9
  6
CONTINUOUS
 10
12.911706005
 20
20.3980256623
 40
0.3906653701
100
AcDbArc
 50
314.2019388065
 51
73.7195078379
  0
ARC
  5
3FA
100
AcDbEntity
  8
0
100
AcDbCircle
 62
7
  6
CONTINUOUS
 10
12.911706005
 20
20.3980256623
 40
0.27
100
AcDbArc
 50
0.0
 51
180.0
  0
ARC
  5
3FB
100
AcDbEntity
  8
0
100
AcDbCircle
 62
7
  6
CONTINUOUS
 10
12.9408398632
 20
19.9817579458
 40
0.768
100
AcDbArc
 50
6.4218131409
 51
40.644313206
  0
ARC
  5
3FC
100
AcDbEntity
  8
0
100
AcDbCircle
 62
7
  6
CONTINUOUS
 10
12.9124635047
 20
20.3635723936
 40
0.5944088592
100
AcDbArc
 50
311.3614521547
 51
311.7444232085
  0
ARC
  5
3FD
100
AcDbEntity
  8
0
100
AcDbCircle
 62
7
  6
CONTINUOUS
 10
12.9134416074
 20
20.3629328326
 40
0.5932769295
100
AcDbArc
 50
311.7150685438
 51
354.9031548094
  0
ARC
  5
3FE
100
AcDbEntity
  8
0
100
AcDbCircle
 62
9
  6
CONTINUOUS
 10
13.0209625885
 20
20.379685128
 40
0.5410756303
100
AcDbArc
 50
287.3037785769
 51
288.1618372393
  0
ARC
  5
3FF
100
AcDbEntity
  8
0
100
AcDbCircle
 62
9
  6
CONTINUOUS
 10
12.9134130075
 20
20.3570178309
 40
0.5083079749
100
AcDbArc
 50
302.2085301478
 51
354.9000347335
  0
ARC
  5
400
100
AcDbEntity
  8
0
100
AcDbCircle
 62
9
  6
CONTINUOUS
 10
12.9130924826
 20
20.3571218213
 40
0.4886409635
100
AcDbArc
 50
303.3862388693
 51
354.8896541693
  0
ARC
  5
401
100
AcDbEntity
  8
0
100
AcDbCircle
 62
9
  6
CONTINUOUS
 10
12.2563672164
 20
21.9714700106
 40
1.1648581658
100
AcDbArc
 50
273.4695299525
 51
275.0677022161
  0
ARC
  5
402
100
AcDbEntity
  8
0
100
AcDbCircle
 62
9
  6
CONTINUOUS
 10
12.8340044339
 20
20.5325119537
 40
0.6958935523
100
AcDbArc
 50
248.5367450178
 51
249.6682022158
  0
ARC
  5
403
100
AcDbEntity
  8
0
100
AcDbCircle
 62
7
  6
CONTINUOUS
 10
12.3791840805
 20
20.8237420087
 40
0.0849999536
100
AcDbArc
 50
5.1070939636
 51
95.0614797662
  0
ARC
  5
404
100
AcDbEntity
  8
0
100
AcDbCircle
 62
7
  6
CONTINUOUS
 10
12.3592535876
 20
20.8219799151
 40
0.0849911741
100
AcDbArc
 50
95.0644779733
 51
180.0016221215
  0
ARC
  5
405
100
AcDbEntity
  8
0
100
AcDbCircle
 62
9
  6
CONTINUOUS
 10
12.3792623844
 20
20.8187123973
 40
0.084940704
100
AcDbArc
 50
5.1646329295
 51
95.1299370546
  0
ARC
  5
406
100
AcDbEntity
  8
0
100
AcDbCircle
 62
7
  6
CONTINUOUS
 10
12.3591191611
 20
20.817009831
 40
0.0848587779
100
AcDbArc
 50
94.9846702826
 51
179.9427934289
  0
ARC
  5
407
100
AcDbEntity
  8
0
100
AcDbCircle
 62
9
  6
CONTINUOUS
 10
12.3794581082
 20
20.8237078992
 40
0.0847284151
100
AcDbArc
 50
5.1007473964
 51
95.0703128985
  0
ARC
  5
408
100
AcDbEntity
  8
0
100
AcDbCircle
 62
9
  6
CONTINUOUS
 10
12.3588791815
 20
20.8219921525
 40
0.0846115284
100
AcDbArc
 50
95.0470330977
 51
180.0099196874
  0
ARC
  5
409
100
AcDbEntity
  8
0
100
AcDbCircle
 62
7
  6
CONTINUOUS
 10
15.9000122556
 20
8.211847499
 40
1.8585359015
100
AcDbArc
 50
180.1224605299
 51
180.4744014797
  0
ARC
  5
40A
100
AcDbEntity
  8
0
100
AcDbCircle
 62
7
  6
CONTINUOUS
 10
14.1425827244
 20
8.2118315917
 40
1.8562977903
100
AcDbArc
 50
359.5255228987
 51
359.8830032398
  0
ARC
  5
40B
100
AcDbEntity
  8
0
100
AcDbCircle
 62
7
  6
CONTINUOUS
 10
15.7707488181
 20
8.2114873361
 40
1.7292719914
100
AcDbArc
 50
179.981276983
 51
180.1196812632
  0
ARC
  5
40C
100
AcDbEntity
  8
0
100
AcDbCircle
 62
7
  6
CONTINUOUS
 10
14.2696535171
 20
8.2114873123
 40
1.7292265526
100
AcDbArc
 50
359.8805162943
 51
0.018719982
  0
ARC
  5
40D
100
AcDbEntity
  8
0
100
AcDbCircle
 62
7
  6
CONTINUOUS
 10
15.7696884846
 20
8.2114821295
 40
1.7282116676
100
AcDbArc
 50
179.9833384924
 51
180.114259279
  0
ARC
  5
40E
100
AcDbEntity
  8
0
100
AcDbCircle
 62
7
  6
CONTINUOUS
 10
14.2707106088
 20
8.2114821118
 40
1.7281694616
100
AcDbArc
 50
359.8859156533
 51
0.0166669078
  0
ARC
  5
40F
100
AcDbEntity
  8
0
100
AcDbCircle
 62
7
  6
CONTINUOUS
 10
15.7699245135
 20
8.189071028
 40
1.7279719263
100
AcDbArc
 50
178.7312319397
 51
179.352885005
  0
ARC
  5
410
100
AcDbEntity
  8
0
100
AcDbCircle
 62
7
  6
CONTINUOUS
 10
14.2714458717
 20
8.1890861747
 40
1.7269583265
100
AcDbArc
 50
0.6469870309
 51
1.2802756457
  0
ARC
  5
411
100
AcDbEntity
  8
0
100
AcDbCircle
 62
7
  6
CONTINUOUS
 10
14.4253539397
 20
8.2116990615
 40
1.5735264132
100
AcDbArc
 50
0.010393335
 51
0.5695458291
  0
ARC
  5
412
100
AcDbEntity
  8
0
100
AcDbCircle
 62
7
  6
CONTINUOUS
 10
15.6123204708
 20
8.2117093726
 40
1.5708438063
100
AcDbArc
 50
179.4175023047
 51
179.9875195544
  0
ARC
  5
413
100
AcDbEntity
  8
0
100
AcDbCircle
 62
7
  6
CONTINUOUS
 10
15.0655273275
 20
8.2399216487
 40
1.0211630488
100
AcDbArc
 50
170.2784556312
 51
171.1612101216
  0
ARC
  5
414
100
AcDbEntity
  8
0
100
AcDbCircle
 62
7
  6
CONTINUOUS
 10
13.7319288729
 20
11.9118018698
 40
0.2502347194
100
AcDbArc
 50
141.8902043579
 51
179.7317050558
  0
ARC
  5
415
100
AcDbEntity
  8
0
100
AcDbCircle
 62
7
  6
CONTINUOUS
 10
13.436706005
 20
12.1434193631
 40
0.125
100
AcDbArc
 50
321.8715656423
 51
90.0
  0
ARC
  5
416
100
AcDbEntity
  8
0
100
AcDbCircle
 62
9
  6
CONTINUOUS
 10
14.3868897496
 20
12.4426316947
 40
0.1035710225
100
AcDbArc
 50
0.6116562235
 51
18.5508303747
  0
ARC
  5
417
100
AcDbEntity
  8
0
100
AcDbCircle
 62
9
  6
CONTINUOUS
 10
14.3895183988
 20
12.4436704821
 40
0.1007485768
100
AcDbArc
 50
18.4663668942
 51
32.4283640348
  0
ARC
  5
418
100
AcDbEntity
  8
0
100
AcDbCircle
 62
9
  6
CONTINUOUS
 10
14.3919559115
 20
12.4451639771
 40
0.0978902959
100
AcDbArc
 50
32.4555808021
 51
35.7700038963
  0
ARC
  5
419
100
AcDbEntity
  8
0
100
AcDbCircle
 62
9
  6
CONTINUOUS
 10
14.3936249136
 20
12.446383583
 40
0.0958232189
100
AcDbArc
 50
35.7616538895
 51
44.6385801717
  0
ARC
  5
41A
100
AcDbEntity
  8
0
100
AcDbCircle
 62
7
  6
CONTINUOUS
 10
13.4910367136
 20
12.5916907165
 40
0.0511811024
100
AcDbArc
 50
278.6361306251
 51
360.0
  0
ARC
  5
41B
100
AcDbEntity
  8
0
100
AcDbCircle
 62
7
  6
CONTINUOUS
 10
13.4204277577
 20
12.2881044025
 40
0.0196850394
100
AcDbArc
 50
270.0
 51
336.7547341089
  0
ARC
  5
41C
100
AcDbEntity
  8
0
100
AcDbCircle
 62
7
  6
CONTINUOUS
 10
14.4027869624
 20
14.6155597779
 40
4.5064358059
100
AcDbArc
 50
100.0002124031
 51
100.14884131
  0
ARC
  5
41D
100
AcDbEntity
  8
0
100
AcDbCircle
 62
7
  6
CONTINUOUS
 10
14.3885747937
 20
14.6918438185
 40
4.4288428348
100
AcDbArc
 50
99.7680813743
 51
99.9905176799
  0
ARC
  5
41E
100
AcDbEntity
  8
0
100
AcDbCircle
 62
7
  6
CONTINUOUS
 10
14.701706005
 20
15.0995286744
 40
1.39
100
AcDbArc
 50
164.7503068292
 51
193.8868909235
  0
ARC
  5
41F
100
AcDbEntity
  8
0
100
AcDbCircle
 62
7
  6
CONTINUOUS
 10
13.466706005
 20
15.8441563826
 40
1.0
100
AcDbArc
 50
163.1650193268
 51
196.4742498649
  0
ARC
  5
420
100
AcDbEntity
  8
0
100
AcDbCircle
 62
7
  6
CONTINUOUS
 10
13.4948755809
 20
18.5138429277
 40
0.4884568893
100
AcDbArc
 50
99.4068788082
 51
101.0577038009
  0
ARC
  5
421
100
AcDbEntity
  8
0
100
AcDbCircle
 62
7
  6
CONTINUOUS
 10
13.4442016149
 20
16.3949053281
 40
0.2099956099
100
AcDbArc
 50
126.749143685
 51
238.5191941557
  0
ARC
  5
422
100
AcDbEntity
  8
0
100
AcDbCircle
 62
7
  6
CONTINUOUS
 10
13.390774394
 20
17.8569823226
 40
0.2090683891
100
AcDbArc
 50
147.0000000001
 51
237.3950799739
  0
ARC
  5
423
100
AcDbEntity
  8
0
100
AcDbCircle
 62
7
  6
CONTINUOUS
 10
13.4882417306
 20
14.7995212499
 40
0.14
100
AcDbArc
 50
193.8868909235
 51
245.0
  0
ARC
  5
424
100
AcDbEntity
  8
0
100
AcDbCircle
 62
7
  6
CONTINUOUS
 10
13.4910367136
 20
13.527825175
 40
0.0511811024
100
AcDbArc
 50
0.0
 51
81.3638693749
  0
ARC
  5
425
100
AcDbEntity
  8
0
100
AcDbCircle
 62
7
  6
CONTINUOUS
 10
13.361706005
 20
16.1482534066
 40
0.05
100
AcDbArc
 50
122.5789703931
 51
196.8349806732
  0
ARC
  5
426
100
AcDbEntity
  8
0
100
AcDbCircle
 62
7
  6
CONTINUOUS
 10
13.3636006506
 20
15.5463927638
 40
0.05
100
AcDbArc
 50
163.5257501351
 51
246.5041233937
  0
ARC
  5
427
100
AcDbEntity
  8
0
100
AcDbCircle
 62
7
  6
CONTINUOUS
 10
13.314206005
 20
18.1780256623
 40
0.03
100
AcDbArc
 50
327.0000000007
 51
90.0
  0
ARC
  5
428
100
AcDbEntity
  8
0
100
AcDbCircle
 62
7
  6
CONTINUOUS
 10
13.331706005
 20
15.4730256623
 40
0.03
100
AcDbArc
 50
344.7503068298
 51
66.5041233935
  0
ARC
  5
429
100
AcDbEntity
  8
0
100
AcDbCircle
 62
7
  6
CONTINUOUS
 10
13.475206005
 20
14.6180256623
 40
0.03
100
AcDbArc
 50
0.0
 51
65.0
  0
ARC
  5
42A
100
AcDbEntity
  8
0
100
AcDbCircle
 62
7
  6
CONTINUOUS
 10
13.3070663358
 20
18.2280256623
 40
0.02
100
AcDbArc
 50
270.0
 51
358.958373324
  0
ARC
  5
42B
100
AcDbEntity
  8
0
100
AcDbCircle
 62
7
  6
CONTINUOUS
 10
13.5362604219
 20
13.8983406229
 40
0.0196850394
100
AcDbArc
 50
15.0162737825
 51
90.0
  0
ARC
  5
42C
100
AcDbEntity
  8
0
100
AcDbCircle
 62
7
  6
CONTINUOUS
 10
13.326706005
 20
16.2030256623
 40
0.015
100
AcDbArc
 50
302.578970393
 51
58.5191941558
  0
ARC
  5
42D
100
AcDbEntity
  8
0
100
AcDbCircle
 62
7
  6
CONTINUOUS
 10
20.7393259721
 20
8.3332010487
 40
6.6994548397
100
AcDbArc
 50
181.6680005519
 51
181.8359228487
  0
ARC
  5
42E
100
AcDbEntity
  8
0
100
AcDbCircle
 62
7
  6
CONTINUOUS
 10
19.6486902769
 20
10.2979739981
 40
4.0703544914
100
AcDbArc
 50
198.2735834031
 51
199.6938503075
  0
ARC
  5
42F
100
AcDbEntity
  8
0
100
AcDbCircle
 62
7
  6
CONTINUOUS
 10
17.3409071952
 20
7.5464723305
 40
3.4015719523
100
AcDbArc
 50
160.7276888985
 51
161.1866550202
  0
ARC
  5
430
100
AcDbEntity
  8
0
100
AcDbCircle
 62
9
  6
CONTINUOUS
 10
13.7393904357
 20
19.5446231132
 40
0.6365964431
100
AcDbArc
 50
149.7247666837
 51
151.2365306736
  0
ARC
  5
431
100
AcDbEntity
  8
0
100
AcDbCircle
 62
7
  6
CONTINUOUS
 10
13.6503207357
 20
19.5566781272
 40
0.5027494953
100
AcDbArc
 50
146.1147635177
 51
151.6143278351
  0
ARC
  5
432
100
AcDbEntity
  8
0
100
AcDbCircle
 62
7
  6
CONTINUOUS
 10
13.6369936291
 20
19.5638290426
 40
0.4876251669
100
AcDbArc
 50
151.60908501
 51
155.7429834983
  0
ARC
  5
433
100
AcDbEntity
  8
0
100
AcDbCircle
 62
7
  6
CONTINUOUS
 10
13.6353371049
 20
19.5649171804
 40
0.4856821082
100
AcDbArc
 50
151.6782970066
 51
155.865474611
  0
ARC
  5
434
100
AcDbEntity
  8
0
100
AcDbCircle
 62
7
  6
CONTINUOUS
 10
13.6233154546
 20
19.5620619342
 40
0.4771509104
100
AcDbArc
 50
142.9518440782
 51
144.8404881369
  0
ARC
  5
435
100
AcDbEntity
  8
0
100
AcDbCircle
 62
7
  6
CONTINUOUS
 10
13.6263426652
 20
19.5690523009
 40
0.4757831274
100
AcDbArc
 50
155.9405182583
 51
156.5235778178
  0
ARC
  5
436
100
AcDbEntity
  8
0
100
AcDbCircle
 62
7
  6
CONTINUOUS
 10
13.6217159037
 20
19.5631660735
 40
0.4752057444
100
AcDbArc
 50
144.840055278
 51
148.1117618853
  0
ARC
  5
437
100
AcDbEntity
  8
0
100
AcDbCircle
 62
7
  6
CONTINUOUS
 10
13.6237986788
 20
19.5702243919
 40
0.4729841171
100
AcDbArc
 50
158.0034218329
 51
159.5906230756
  0
ARC
  5
438
100
AcDbEntity
  8
0
100
AcDbCircle
 62
7
  6
CONTINUOUS
 10
13.6225705003
 20
19.5702619873
 40
0.4718323556
100
AcDbArc
 50
155.8664050814
 51
159.5429764545
  0
ARC
  5
439
100
AcDbEntity
  8
0
100
AcDbCircle
 62
7
  6
CONTINUOUS
 10
13.6178165327
 20
19.5655816026
 40
0.4706188288
100
AcDbArc
 50
148.1106759511
 51
150.6782862009
  0
ARC
  5
43A
100
AcDbEntity
  8
0
100
AcDbCircle
 62
7
  6
CONTINUOUS
 10
13.6094128371
 20
19.5702277867
 40
0.4610164914
100
AcDbArc
 50
150.6702742998
 51
155.1710117046
  0
ARC
  5
43B
100
AcDbEntity
  8
0
100
AcDbCircle
 62
7
  6
CONTINUOUS
 10
13.6026001655
 20
19.5735696594
 40
0.4534302906
100
AcDbArc
 50
155.1927772539
 51
159.6330651038
  0
ARC
  5
43C
100
AcDbEntity
  8
0
100
AcDbCircle
 62
7
  6
CONTINUOUS
 10
13.901706005
 20
19.1807823535
 40
0.05
100
AcDbArc
 50
0.0
 51
40.9058661424
  0
ARC
  5
43D
100
AcDbEntity
  8
0
100
AcDbCircle
 62
7
  6
CONTINUOUS
 10
13.746706005
 20
19.0877579458
 40
0.01
100
AcDbArc
 50
90.0
 51
180.0
  0
ARC
  5
43E
100
AcDbEntity
  8
0
100
AcDbCircle
 62
7
  6
CONTINUOUS
 10
13.726706005
 20
19.082392219
 40
0.01
100
AcDbArc
 50
279.9999999993
 51
360.0
  0
ARC
  5
43F
100
AcDbEntity
  8
0
100
AcDbCircle
 62
7
  6
CONTINUOUS
 10
13.531706005
 20
19.0236382191
 40
0.01
100
AcDbArc
 50
280.0000000003
 51
360.0
  0
ARC
  5
440
100
AcDbEntity
  8
0
100
AcDbCircle
 62
7
  6
CONTINUOUS
 10
13.551706005
 20
19.0312264652
 40
0.01
100
AcDbArc
 50
100.0000000003
 51
180.0
  0
ARC
  5
441
100
AcDbEntity
  8
0
100
AcDbCircle
 62
7
  6
CONTINUOUS
 10
13.376706005
 20
18.9759990049
 40
0.01
100
AcDbArc
 50
100.0000000003
 51
180.0
  0
ARC
  5
442
100
AcDbEntity
  8
0
100
AcDbCircle
 62
7
  6
CONTINUOUS
 10
13.356706005
 20
18.9684107588
 40
0.01
100
AcDbArc
 50
280.0000000003
 51
360.0
  0
ARC
  5
443
100
AcDbEntity
  8
0
100
AcDbCircle
 62
9
  6
CONTINUOUS
 10
13.5637307492
 20
21.9270693634
 40
1.1203385132
100
AcDbArc
 50
264.900541772
 51
266.5622260593
  0
ARC
  5
444
100
AcDbEntity
  8
0
100
AcDbCircle
 62
7
  6
CONTINUOUS
 10
13.4442275781
 20
20.8237423016
 40
0.0849995866
100
AcDbArc
 50
84.9420590703
 51
174.9141326197
  0
ARC
  5
445
100
AcDbEntity
  8
0
100
AcDbCircle
 62
7
  6
CONTINUOUS
 10
13.4641538757
 20
20.8219807973
 40
0.0849946502
100
AcDbArc
 50
0.0179485937
 51
84.9384617368
  0
ARC
  5
446
100
AcDbEntity
  8
0
100
AcDbCircle
 62
9
  6
CONTINUOUS
 10
13.4441496263
 20
20.8187123979
 40
0.084940704
100
AcDbArc
 50
84.8700634299
 51
174.8353675541
  0
ARC
  5
447
100
AcDbEntity
  8
0
100
AcDbCircle
 62
7
  6
CONTINUOUS
 10
13.4642928535
 20
20.8170098332
 40
0.0848587836
100
AcDbArc
 50
0.0572051228
 51
85.0153327692
  0
ARC
  5
448
100
AcDbEntity
  8
0
100
AcDbCircle
 62
9
  6
CONTINUOUS
 10
13.464361107
 20
20.8219034255
 40
0.0848001375
100
AcDbArc
 50
0.0548794511
 51
84.9533552963
  0
ARC
  5
449
100
AcDbEntity
  8
0
100
AcDbCircle
 62
9
  6
CONTINUOUS
 10
13.4439538109
 20
20.8237083674
 40
0.0847282829
100
AcDbArc
 50
84.9308246662
 51
174.8995624979
  0
ARC
  5
44A
100
AcDbEntity
  8
0
100
AcDbCircle
 62
7
  6
CONTINUOUS
 10
14.5350550338
 20
19.7295200028
 40
0.788
100
AcDbArc
 50
186.4218131409
 51
220.9058661425
  0
ARC
  5
44B
100
AcDbEntity
  8
0
100
AcDbCircle
 62
9
  6
CONTINUOUS
 10
13.2867887912
 20
50.0027110512
 40
37.937671823
100
AcDbArc
 50
269.8417490011
 51
270.0066400367
  0
ARC
  5
44C
100
AcDbEntity
  8
0
100
AcDbCircle
 62
9
  6
CONTINUOUS
 10
13.2328158731
 20
40.3232440708
 40
28.4121808691
100
AcDbArc
 50
269.8997856437
 51
270.0500121298
  0
ARC
  5
44D
100
AcDbEntity
  8
0
100
AcDbCircle
 62
9
  6
CONTINUOUS
 10
25.8466419052
 20
22.0115744997
 40
13.5206941574
100
AcDbArc
 50
184.9466830469
 51
185.0860973364
  0
LINE
  5
44E
100
AcDbEntity
  8
0
100
AcDbLine
 62
7
  6
CONTINUOUS
 10
13.5730864427
 20
19.0495507303
 11
13.5745927797
 21
19.0502024034
  0
SPLINE
  5
44F
100
AcDbEntity
  8
0
100
AcDbSpline
 62
7
  6
CONTINUOUS
 70
0
 71
3
 72
11
 73
7
 74
0
 42
0.0000001
 43
0.0000001
 44
0.0000000001
 40
0.0
 40
0.0
 40
0.0
 40
0.0
 40
0.1614978864
 40
0.3978550742
 40
0.686563566
 40
1.0
 40
1.0
 40
1.0
 40
1.0
 10
13.5745927797
 20
19.0502024034
 30
0.0
 10
13.5757776129
 20
19.0505552982
 30
0.0
 10
13.5787422977
 20
19.0512638579
 30
0.0
 10
13.5838822472
 20
19.0523571
 30
0.0
 10
13.590188967
 20
19.0535554627
 30
0.0
 10
13.5947296215
 20
19.0543491802
 30
0.0
 10
13.5970963537
 20
19.0547435471
 30
0.0
  0
LINE
  5
450
100
AcDbEntity
  8
0
100
AcDbLine
 62
7
  6
CONTINUOUS
 10
13.5970963537
 20
19.0547435471
 11
13.6105054862
 21
19.0567570989
  0
LINE
  5
451
100
AcDbEntity
  8
0
100
AcDbLine
 62
7
  6
CONTINUOUS
 10
13.6105054862
 20
19.0567570989
 11
13.6182807469
 21
19.05751465
  0
SPLINE
  5
452
100
AcDbEntity
  8
0
100
AcDbSpline
 62
7
  6
CONTINUOUS
 70
0
 71
3
 72
15
 73
11
 74
0
 42
0.0000001
 43
0.0000001
 44
0.0000000001
 40
0.0
 40
0.0
 40
0.0
 40
0.0
 40
0.010837886
 40
0.0281752018
 40
0.0869199465
 40
0.1774805309
 40
0.2975586829
 40
0.4443289631
 40
0.6136141236
 40
1.0
 40
1.0
 40
1.0
 40
1.0
 10
13.5022959945
 20
19.049966446
 30
0.0
 10
13.5022921694
 20
19.0500343622
 30
0.0
 10
13.5023849876
 20
19.0502056148
 30
0.0
 10
13.5028223575
 20
19.0505294804
 30
0.0
 10
13.5037874343
 20
19.05096084
 30
0.0
 10
13.5053845572
 20
19.0515053466
 30
0.0
 10
13.5075463208
 20
19.0521140872
 30
0.0
 10
13.5102054341
 20
19.0527627872
 30
0.0
 10
13.5145143758
 20
19.0536988885
 30
0.0
 10
13.5179442529
 20
19.0543359469
 30
0.0
 10
13.5203348994
 20
19.0547435471
 30
0.0
  0
SPLINE
  5
453
100
AcDbEntity
  8
0
100
AcDbSpline
 62
7
  6
CONTINUOUS
 70
0
 71
3
 72
9
 73
5
 74
0
 42
0.0000001
 43
0.0000001
 44
0.0000000001
 40
0.0
 40
0.0
 40
0.0
 40
0.0
 40
0.2525633166
 40
1.0
 40
1.0
 40
1.0
 40
1.0
 10
13.5203348994
 20
19.0547435471
 30
0.0
 10
13.521530652
 20
19.0549474204
 30
0.0
 10
13.5262714023
 20
19.0557169547
 30
0.0
 10
13.5310326785
 20
19.0563631184
 30
0.0
 10
13.5346007732
 20
19.0567570989
 30
0.0
  0
LINE
  5
454
100
AcDbEntity
  8
0
100
AcDbLine
 62
7
  6
CONTINUOUS
 10
13.5346007732
 20
19.0567570989
 11
13.5405856698
 21
19.0573128403
  0
LINE
  5
455
100
AcDbEntity
  8
0
100
AcDbLine
 62
7
  6
CONTINUOUS
 10
13.5405856698
 20
19.0573128403
 11
13.5452035878
 21
19.05751465
  0
SPLINE
  5
456
100
AcDbEntity
  8
0
100
AcDbSpline
 62
7
  6
CONTINUOUS
 70
0
 71
3
 72
15
 73
11
 74
0
 42
0.0000001
 43
0.0000001
 44
0.0000000001
 40
0.0
 40
0.0
 40
0.0
 40
0.0
 40
0.0130582108
 40
0.0326650509
 40
0.0964829022
 40
0.193635219
 40
0.320168804
 40
0.4706629689
 40
0.6392261794
 40
1.0
 40
1.0
 40
1.0
 40
1.0
 10
13.3896880141
 20
19.0506249453
 30
0.0
 10
13.3896886259
 20
19.0507450666
 30
0.0
 10
13.3898421511
 20
19.0510321788
 30
0.0
 10
13.3905414886
 20
19.0515803736
 30
0.0
 10
13.3920777636
 20
19.052262442
 30
0.0
 10
13.3945916059
 20
19.0530686364
 30
0.0
 10
13.3979338542
 20
19.0539099849
 30
0.0
 10
13.4019475979
 20
19.0547414588
 30
0.0
 10
13.4081128193
 20
19.0557970814
 30
0.0
 10
13.4129452042
 20
19.0564200134
 30
0.0
 10
13.416246811
 20
19.0567570989
 30
0.0
  0
SPLINE
  5
457
100
AcDbEntity
  8
0
100
AcDbSpline
 62
7
  6
CONTINUOUS
 70
0
 71
3
 72
9
 73
5
 74
0
 42
0.0000001
 43
0.0000001
 44
0.0000000001
 40
0.0
 40
0.0
 40
0.0
 40
0.0
 40
0.5420316302
 40
1.0
 40
1.0
 40
1.0
 40
1.0
 10
13.416246811
 20
19.0567570989
 30
0.0
 10
13.41853565
 20
19.0569907835
 30
0.0
 10
13.4227666733
 20
19.0573405633
 30
0.0
 10
13.4270106975
 20
19.05751465
 30
0.0
 10
13.4289546154
 20
19.05751465
 30
0.0
  0
SPLINE
  5
458
100
AcDbEntity
  8
0
100
AcDbSpline
 62
7
  6
CONTINUOUS
 70
0
 71
3
 72
15
 73
11
 74
0
 42
0.0000001
 43
0.0000001
 44
0.0000000001
 40
0.0
 40
0.0
 40
0.0
 40
0.0
 40
0.0361166545
 40
0.0637350182
 40
0.0987726673
 40
0.1909784147
 40
0.3111946639
 40
0.4567957672
 40
0.6237699985
 40
1.0
 40
1.0
 40
1.0
 40
1.0
 10
13.2429562123
 20
19.051480955
 30
0.0
 10
13.2429558585
 20
19.0517412001
 30
0.0
 10
13.2432814211
 20
19.0521570236
 30
0.0
 10
13.2438522247
 20
19.0525562269
 30
0.0
 10
13.244843196
 20
19.0530890152
 30
0.0
 10
13.2465136172
 20
19.0537151915
 30
0.0
 10
13.2489958752
 20
19.0544278652
 30
0.0
 10
13.252040246
 20
19.0551089926
 30
0.0
 10
13.2569262377
 20
19.055987257
 30
0.0
 10
13.2608120523
 20
19.056483694
 30
0.0
 10
13.2635092267
 20
19.0567570989
 30
0.0
  0
SPLINE
  5
459
100
AcDbEntity
  8
0
100
AcDbSpline
 62
7
  6
CONTINUOUS
 70
0
 71
3
 72
9
 73
5
 74
0
 42
0.0000001
 43
0.0000001
 44
0.0000000001
 40
0.0
 40
0.0
 40
0.0
 40
0.0
 40
0.5189093471
 40
1.0
 40
1.0
 40
1.0
 40
1.0
 10
13.2635092267
 20
19.0567570989
 30
0.0
 10
13.2659135362
 20
19.057000817
 30
0.0
 10
13.2705584061
 20
19.057359677
 30
0.0
 10
13.2752155012
 20
19.05751465
 30
0.0
 10
13.277456005
 20
19.05751465
 30
0.0
  0
SPLINE
  5
45A
100
AcDbEntity
  8
0
100
AcDbSpline
 62
7
  6
CONTINUOUS
 70
0
 71
3
 72
10
 73
6
 74
0
 42
0.0000001
 43
0.0000001
 44
0.0000000001
 40
0.0
 40
0.0
 40
0.0
 40
0.0
 40
0.3446457787
 40
0.627199442
 40
1.0
 40
1.0
 40
1.0
 40
1.0
 10
12.5344580444
 20
19.0555356667
 30
0.0
 10
12.5344588044
 20
19.0558126356
 30
0.0
 10
12.5349069479
 20
19.0562326921
 30
0.0
 10
12.5356234304
 20
19.0565315735
 30
0.0
 10
12.5361362265
 20
19.0566851792
 30
0.0
 10
12.5364270621
 20
19.0567570989
 30
0.0
  0
SPLINE
  5
45B
100
AcDbEntity
  8
0
100
AcDbSpline
 62
7
  6
CONTINUOUS
 70
0
 71
3
 72
10
 73
6
 74
0
 42
0.0000001
 43
0.0000001
 44
0.0000000001
 40
0.0
 40
0.0
 40
0.0
 40
0.0
 40
0.1847920674
 40
0.4177086222
 40
1.0
 40
1.0
 40
1.0
 40
1.0
 10
12.5364270621
 20
19.0567570989
 30
0.0
 10
12.5369996074
 20
19.0568986818
 30
0.0
 10
12.5383163459
 20
19.0571246919
 30
0.0
 10
12.5414923636
 20
19.0574467638
 30
0.0
 10
12.5440975356
 20
19.05751465
 30
0.0
 10
12.545956005
 20
19.05751465
 30
0.0
  0
SPLINE
  5
45C
100
AcDbEntity
  8
0
100
AcDbSpline
 62
7
  6
CONTINUOUS
 70
0
 71
3
 72
10
 73
6
 74
0
 42
0.0000001
 43
0.0000001
 44
0.0000000001
 40
0.0
 40
0.0
 40
0.0
 40
0.0
 40
0.3359774152
 40
0.622041809
 40
1.0
 40
1.0
 40
1.0
 40
1.0
 10
12.3877189385
 20
19.0563586211
 30
0.0
 10
12.387717456
 20
19.0565468218
 30
0.0
 10
12.3880483641
 20
19.0568276076
 30
0.0
 10
12.3885553834
 20
19.0570055973
 30
0.0
 10
12.3889222094
 20
19.0571001064
 30
0.0
 10
12.3891294987
 20
19.057143209
 30
0.0
  0
SPLINE
  5
45D
100
AcDbEntity
  8
0
100
AcDbSpline
 62
7
  6
CONTINUOUS
 70
0
 71
3
 72
9
 73
5
 74
0
 42
0.0000001
 43
0.0000001
 44
0.0000000001
 40
0.0
 40
0.0
 40
0.0
 40
0.0
 40
0.4194905903
 40
1.0
 40
1.0
 40
1.0
 40
1.0
 10
12.3891294987
 20
19.057143209
 30
0.0
 10
12.3898614362
 20
19.0572954038
 30
0.0
 10
12.3916416952
 20
19.0574709733
 30
0.0
 10
12.3934228421
 20
19.05751465
 30
0.0
 10
12.3944573945
 20
19.05751465
 30
0.0
  0
SPLINE
  5
45E
100
AcDbEntity
  8
0
100
AcDbSpline
 62
7
  6
CONTINUOUS
 70
0
 71
3
 72
13
 73
9
 74
0
 42
0.0000001
 43
0.0000001
 44
0.0000000001
 40
0.0
 40
0.0
 40
0.0
 40
0.0
 40
0.1198509721
 40
0.2440494045
 40
0.4979249667
 40
0.7529648753
 40
0.8784517228
 40
1.0
 40
1.0
 40
1.0
 40
1.0
 10
5.4911385024
 20
9.1595111879
 30
0.0
 10
5.4962883093
 20
9.1612575694
 30
0.0
 10
5.5065125863
 20
9.1656390054
 30
0.0
 10
5.5258585769
 20
9.177398427
 30
0.0
 10
5.5470943628
 20
9.1974620128
 30
0.0
 10
5.5608856962
 20
9.223286408
 30
0.0
 10
5.5671800764
 20
9.2452304688
 30
0.0
 10
5.5687077725
 20
9.2563877768
 30
0.0
 10
5.5690207103
 20
9.2618937644
 30
0.0
  0
SPLINE
  5
45F
100
AcDbEntity
  8
0
100
AcDbSpline
 62
7
  6
CONTINUOUS
 70
0
 71
3
 72
10
 73
6
 74
0
 42
0.0000001
 43
0.0000001
 44
0.0000000001
 40
0.0
 40
0.0
 40
0.0
 40
0.0
 40
0.309767258
 40
0.6040436202
 40
1.0
 40
1.0
 40
1.0
 40
1.0
 10
12.2751376436
 20
19.0569849965
 30
0.0
 10
12.2751462001
 20
19.0571332331
 30
0.0
 10
12.2754965111
 20
19.057289635
 30
0.0
 10
12.27592948
 20
19.0573832418
 30
0.0
 10
12.2762680894
 20
19.0574275412
 30
0.0
 10
12.2764569955
 20
19.0574459098
 30
0.0
  0
LINE
  5
460
100
AcDbEntity
  8
0
100
AcDbLine
 62
7
  6
CONTINUOUS
 10
12.2764569955
 20
19.0574459098
 11
12.2782084221
 21
19.05751465
  0
SPLINE
  5
461
100
AcDbEntity
  8
0
100
AcDbSpline
 62
7
  6
CONTINUOUS
 70
0
 71
3
 72
13
 73
9
 74
0
 42
0.0000001
 43
0.0000001
 44
0.0000000001
 40
0.0
 40
0.0
 40
0.0
 40
0.0
 40
0.1203095868
 40
0.2451725787
 40
0.4999994289
 40
0.7548266029
 40
0.8796899491
 40
1.0
 40
1.0
 40
1.0
 40
1.0
 10
6.399206005
 20
9.0661375309
 30
0.0
 10
6.3992059744
 20
9.0710396756
 30
0.0
 10
6.3983739438
 20
9.0810460701
 30
0.0
 10
6.3936919037
 20
9.1009209716
 30
0.0
 10
6.3822051316
 20
9.1246270669
 30
0.0
 10
6.3634436996
 20
9.143118534
 30
0.0
 10
6.3461251698
 20
9.1539353564
 30
0.0
 10
6.3369159919
 20
9.1579368475
 30
0.0
 10
6.3322735076
 20
9.1595111879
 30
0.0
  0
SPLINE
  5
462
100
AcDbEntity
  8
0
100
AcDbSpline
 62
7
  6
CONTINUOUS
 70
0
 71
3
 72
13
 73
9
 74
0
 42
0.0000001
 43
0.0000001
 44
0.0000000001
 40
0.0
 40
0.0
 40
0.0
 40
0.0
 40
0.1203095249
 40
0.245172526
 40
0.4999994448
 40
0.7548266784
 40
0.8796900239
 40
1.0
 40
1.0
 40
1.0
 40
1.0
 10
5.424206005
 20
9.0661365595
 30
0.0
 10
5.4242059872
 20
9.0710387402
 30
0.0
 10
5.4250379334
 20
9.0810452196
 30
0.0
 10
5.4297198511
 20
9.1009203158
 30
0.0
 10
5.4412065654
 20
9.1246266848
 30
0.0
 10
5.4599680932
 20
9.143118369
 30
0.0
 10
5.4772867393
 20
9.1539353075
 30
0.0
 10
5.4864959845
 20
9.1579368361
 30
0.0
 10
5.4911385024
 20
9.1595111879
 30
0.0
  0
SPLINE
  5
463
100
AcDbEntity
  8
0
100
AcDbSpline
 62
7
  6
CONTINUOUS
 70
0
 71
3
 72
10
 73
6
 74
0
 42
0.0000001
 43
0.0000001
 44
0.0000000001
 40
0.0
 40
0.0
 40
0.0
 40
0.0
 40
0.2402468845
 40
0.4892400822
 40
1.0
 40
1.0
 40
1.0
 40
1.0
 10
6.3322735076
 20
9.1595111879
 30
0.0
 10
6.3269293911
 20
9.1613234629
 30
0.0
 10
6.3163254946
 20
9.1659002465
 30
0.0
 10
6.296313642
 20
9.1782794462
 30
0.0
 10
6.2832896569
 20
9.1910416602
 30
0.0
 10
6.2762293524
 20
9.2007411386
 30
0.0
  0
LINE
  5
464
100
AcDbEntity
  8
0
100
AcDbLine
 62
7
  6
CONTINUOUS
 10
13.3898488558
 20
18.9904786569
 11
13.391840014
 21
18.9911902521
  0
LINE
  5
465
100
AcDbEntity
  8
0
100
AcDbLine
 62
7
  6
CONTINUOUS
 10
13.391840014
 20
18.9911902521
 11
13.4011907628
 21
18.9932313793
  0
LINE
  5
466
100
AcDbEntity
  8
0
100
AcDbLine
 62
7
  6
CONTINUOUS
 10
13.4150400344
 20
18.9957313154
 11
13.4282029651
 21
18.9977421336
  0
LINE
  5
467
100
AcDbEntity
  8
0
100
AcDbLine
 62
7
  6
CONTINUOUS
 10
13.4282029651
 20
18.9977421336
 11
13.4353427016
 21
18.9984961596
  0
SPLINE
  5
468
100
AcDbEntity
  8
0
100
AcDbSpline
 62
7
  6
CONTINUOUS
 70
0
 71
3
 72
17
 73
13
 74
0
 42
0.0000001
 43
0.0000001
 44
0.0000000001
 40
0.0
 40
0.0
 40
0.0
 40
0.0
 40
0.0106644421
 40
0.0298096749
 40
0.0584628285
 40
0.0964373896
 40
0.1985551007
 40
0.3310516195
 40
0.4861665593
 40
0.6556799899
 40
0.8303093117
 40
1.0
 40
1.0
 40
1.0
 40
1.0
 10
13.3189360601
 20
18.9910615176
 30
0.0
 10
13.3189304682
 20
18.9911757546
 30
0.0
 10
13.3191579496
 20
18.9914616743
 30
0.0
 10
13.3196858266
 20
18.9917678327
 30
0.0
 10
13.3205314229
 20
18.9921543453
 30
0.0
 10
13.3222330649
 20
18.9927606337
 30
0.0
 10
13.3250536476
 20
18.9935503362
 30
0.0
 10
13.3291269731
 20
18.9944842926
 30
0.0
 10
13.3339392023
 20
18.9954275685
 30
0.0
 10
13.3392198124
 20
18.996316027
 30
0.0
 10
13.3446745611
 20
18.9971030081
 30
0.0
 10
13.3483408682
 20
18.9975478018
 30
0.0
 10
13.3501503589
 20
18.9977421336
 30
0.0
  0
SPLINE
  5
469
100
AcDbEntity
  8
0
100
AcDbSpline
 62
7
  6
CONTINUOUS
 70
0
 71
3
 72
9
 73
5
 74
0
 42
0.0000001
 43
0.0000001
 44
0.0000000001
 40
0.0
 40
0.0
 40
0.0
 40
0.0
 40
0.5659232185
 40
1.0
 40
1.0
 40
1.0
 40
1.0
 10
13.3501503589
 20
18.9977421336
 30
0.0
 10
13.3522390076
 20
18.9979664458
 30
0.0
 10
13.3559357416
 20
18.998302304
 30
0.0
 10
13.3596460736
 20
18.9984961596
 30
0.0
 10
13.36125733
 20
18.9984961596
 30
0.0
  0
SPLINE
  5
46A
100
AcDbEntity
  8
0
100
AcDbSpline
 62
7
  6
CONTINUOUS
 70
0
 71
3
 72
10
 73
6
 74
0
 42
0.0000001
 43
0.0000001
 44
0.0000000001
 40
0.0
 40
0.0
 40
0.0
 40
0.0
 40
0.3259925725
 40
0.6157601994
 40
1.0
 40
1.0
 40
1.0
 40
1.0
 10
12.5092313693
 20
18.9974858543
 30
0.0
 10
12.5092308958
 20
18.9976782006
 30
0.0
 10
12.5096128591
 20
18.9979428793
 30
0.0
 10
12.5101471688
 20
18.9981033233
 30
0.0
 10
12.5105450462
 20
18.9981892751
 30
0.0
 10
12.5107685121
 20
18.998227518
 30
0.0
  0
LINE
  5
46B
100
AcDbEntity
  8
0
100
AcDbLine
 62
7
  6
CONTINUOUS
 10
12.5107685121
 20
18.998227518
 11
12.5151874343
 21
18.9984961596
  0
SPLINE
  5
46C
100
AcDbEntity
  8
0
100
AcDbSpline
 62
7
  6
CONTINUOUS
 70
0
 71
3
 72
21
 73
17
 74
0
 42
0.0000001
 43
0.0000001
 44
0.0000000001
 40
0.0
 40
0.0
 40
0.0
 40
0.0
 40
0.0010807586
 40
0.0043112873
 40
0.0096737752
 40
0.0171504249
 40
0.0383750863
 40
0.0678431847
 40
0.1054128675
 40
0.1509425285
 40
0.2042908162
 40
0.2653148598
 40
0.4095193182
 40
0.5814639865
 40
0.7789973407
 40
1.0
 40
1.0
 40
1.0
 40
1.0
 10
10.4621941939
 20
12.5022579549
 30
0.0
 10
10.4622051231
 20
12.5022474889
 30
0.0
 10
10.4620952393
 20
12.5023228261
 30
0.0
 10
10.4620348291
 20
12.502349573
 30
0.0
 10
10.4618099592
 20
12.5024886613
 30
0.0
 10
10.4614187404
 20
12.5027174084
 30
0.0
 10
10.4607031407
 20
12.5031418547
 30
0.0
 10
10.4596435245
 20
12.5037613631
 30
0.0
 10
10.4582785587
 20
12.5045558376
 30
0.0
 10
10.4566251251
 20
12.5055106434
 30
0.0
 10
10.4546825173
 20
12.5066244426
 30
0.0
 10
10.4515361958
 20
12.5084153117
 30
0.0
 10
10.4469305755
 20
12.5109996815
 30
0.0
 10
10.440617947
 20
12.5144467742
 30
0.0
 10
10.4333071076
 20
12.5183081015
 30
0.0
 10
10.4280819921
 20
12.5209619924
 30
0.0
 10
10.4253112719
 20
12.522339743
 30
0.0
  0
SPLINE
  5
46D
100
AcDbEntity
  8
0
100
AcDbSpline
 62
7
  6
CONTINUOUS
 70
0
 71
3
 72
9
 73
5
 74
0
 42
0.0000001
 43
0.0000001
 44
0.0000000001
 40
0.0
 40
0.0
 40
0.0
 40
0.0
 40
0.2227953759
 40
1.0
 40
1.0
 40
1.0
 40
1.0
 10
10.4253112719
 20
12.522339743
 30
0.0
 10
10.4220357988
 20
12.5239684838
 30
0.0
 10
10.4072614391
 20
12.5311304513
 30
0.0
 10
10.3921319923
 20
12.5375734131
 30
0.0
 10
10.3801849367
 20
12.5420577088
 30
0.0
  0
SPLINE
  5
46E
100
AcDbEntity
  8
0
100
AcDbSpline
 62
7
  6
CONTINUOUS
 70
0
 71
3
 72
10
 73
6
 74
0
 42
0.0000001
 43
0.0000001
 44
0.0000000001
 40
0.0
 40
0.0
 40
0.0
 40
0.0
 40
0.4747317358
 40
0.7344332601
 40
1.0
 40
1.0
 40
1.0
 40
1.0
 10
10.3801849367
 20
12.5420577088
 30
0.0
 10
10.3615440393
 20
12.5490545204
 30
0.0
 10
10.3318730385
 20
12.557944113
 30
0.0
 10
10.2903776992
 20
12.5643857651
 30
0.0
 10
10.2683323498
 20
12.5656227658
 30
0.0
 10
10.2571941939
 20
12.5656227658
 30
0.0
  0
SPLINE
  5
46F
100
AcDbEntity
  8
0
100
AcDbSpline
 62
7
  6
CONTINUOUS
 70
0
 71
3
 72
10
 73
6
 74
0
 42
0.0000001
 43
0.0000001
 44
0.0000000001
 40
0.0
 40
0.0
 40
0.0
 40
0.0
 40
0.2641136035
 40
0.5228758973
 40
1.0
 40
1.0
 40
1.0
 40
1.0
 10
10.2571941939
 20
12.5656227658
 30
0.0
 10
10.2465889401
 20
12.5656227658
 30
0.0
 10
10.225579639
 20
12.564506736
 30
0.0
 10
10.1858160249
 20
12.5586061409
 30
0.0
 10
10.1572631514
 20
12.5504162782
 30
0.0
 10
10.1392417976
 20
12.5439140337
 30
0.0
  0
SPLINE
  5
470
100
AcDbEntity
  8
0
100
AcDbSpline
 62
7
  6
CONTINUOUS
 70
0
 71
3
 72
9
 73
5
 74
0
 42
0.0000001
 43
0.0000001
 44
0.0000000001
 40
0.0
 40
0.0
 40
0.0
 40
0.0
 40
0.2740863428
 40
1.0
 40
1.0
 40
1.0
 40
1.0
 10
10.1392417976
 20
12.5439140337
 30
0.0
 10
10.1348926972
 20
12.5423448445
 30
0.0
 10
10.1191176516
 20
12.5363635026
 30
0.0
 10
10.1036886727
 20
12.5294891478
 30
0.0
 10
10.0926837797
 20
12.52411877
 30
0.0
  0
LINE
  5
471
100
AcDbEntity
  8
0
100
AcDbLine
 62
7
  6
CONTINUOUS
 10
10.0621395733
 20
12.5080067267
 11
10.0521941939
 21
12.5022579458
  0
SPLINE
  5
472
100
AcDbEntity
  8
0
100
AcDbSpline
 62
7
  6
CONTINUOUS
 70
0
 71
3
 72
26
 73
22
 74
0
 42
0.0000001
 43
0.0000001
 44
0.0000000001
 40
0.0
 40
0.0
 40
0.0
 40
0.0
 40
0.0002705872
 40
0.0010808429
 40
0.0024285393
 40
0.0043114495
 40
0.0096740086
 40
0.0171507229
 40
0.0267238095
 40
0.0383754997
 40
0.0520880394
 40
0.0678436895
 40
0.1054134286
 40
0.1509431191
 40
0.2042914092
 40
0.2653154281
 40
0.3338146635
 40
0.4095201831
 40
0.5814646348
 40
0.7789976962
 40
1.0
 40
1.0
 40
1.0
 40
1.0
 10
10.0521941939
 20
13.6172579656
 30
0.0
 10
10.0521941939
 20
13.617254177
 30
0.0
 10
10.0522150763
 20
13.6172508711
 30
0.0
 10
10.0522366368
 20
13.6172290972
 30
0.0
 10
10.052289508
 20
13.6172025126
 30
0.0
 10
10.0523902277
 20
13.6171393953
 30
0.0
 10
10.0525693127
 20
13.6170350955
 30
0.0
 10
10.0528383009
 20
13.6168745085
 30
0.0
 10
10.0531846194
 20
13.6166702442
 30
0.0
 10
10.0536059825
 20
13.6164219049
 30
0.0
 10
10.0541025454
 20
13.616130476
 30
0.0
 10
10.0549127253
 20
13.6156565381
 30
0.0
 10
10.056109159
 20
13.6149605817
 30
0.0
 10
10.0577635145
 20
13.6140050656
 30
0.0
 10
10.0597058069
 20
13.6128914928
 30
0.0
 10
10.0619310813
 20
13.6116249211
 30
0.0
 10
10.0644337359
 20
13.6102128904
 30
0.0
 10
10.0682996508
 20
13.6080566719
 30
0.0
 10
10.0737704398
 20
13.6050690522
 30
0.0
 10
10.0810812981
 20
13.6012078021
 30
0.0
 10
10.0863064053
 20
13.5985538938
 30
0.0
 10
10.0890771239
 20
13.5971761442
 30
0.0
  0
SPLINE
  5
473
100
AcDbEntity
  8
0
100
AcDbSpline
 62
7
  6
CONTINUOUS
 70
0
 71
3
 72
9
 73
5
 74
0
 42
0.0000001
 43
0.0000001
 44
0.0000000001
 40
0.0
 40
0.0
 40
0.0
 40
0.0
 40
0.2227953938
 40
1.0
 40
1.0
 40
1.0
 40
1.0
 10
10.0890771239
 20
13.5971761442
 30
0.0
 10
10.0923525945
 20
13.5955474049
 30
0.0
 10
10.1071269411
 20
13.588385444
 30
0.0
 10
10.1222563741
 20
13.5819424871
 30
0.0
 10
10.1342034183
 20
13.5774581944
 30
0.0
  0
SPLINE
  5
474
100
AcDbEntity
  8
0
100
AcDbSpline
 62
7
  6
CONTINUOUS
 70
0
 71
3
 72
10
 73
6
 74
0
 42
0.0000001
 43
0.0000001
 44
0.0000000001
 40
0.0
 40
0.0
 40
0.0
 40
0.0
 40
0.4747317174
 40
0.7344332498
 40
1.0
 40
1.0
 40
1.0
 40
1.0
 10
10.1342034183
 20
13.5774581944
 30
0.0
 10
10.1528443195
 20
13.5704613794
 30
0.0
 10
10.1825153277
 20
13.5615717827
 30
0.0
 10
10.2240106782
 20
13.5551301271
 30
0.0
 10
10.2460560346
 20
13.5538931255
 30
0.0
 10
10.2571941939
 20
13.5538931255
 30
0.0
  0
SPLINE
  5
475
100
AcDbEntity
  8
0
100
AcDbSpline
 62
7
  6
CONTINUOUS
 70
0
 71
3
 72
10
 73
6
 74
0
 42
0.0000001
 43
0.0000001
 44
0.0000000001
 40
0.0
 40
0.0
 40
0.0
 40
0.0
 40
0.2641135507
 40
0.5228758101
 40
1.0
 40
1.0
 40
1.0
 40
1.0
 10
10.2571941939
 20
13.5538931255
 30
0.0
 10
10.2677994283
 20
13.5538931255
 30
0.0
 10
10.2888086916
 20
13.5550091521
 30
0.0
 10
10.3285722415
 20
13.56090973
 30
0.0
 10
10.3571250746
 20
13.5690995636
 30
0.0
 10
10.3751464056
 20
13.5756017893
 30
0.0
  0
SPLINE
  5
476
100
AcDbEntity
  8
0
100
AcDbSpline
 62
7
  6
CONTINUOUS
 70
0
 71
3
 72
9
 73
5
 74
0
 42
0.0000001
 43
0.0000001
 44
0.0000000001
 40
0.0
 40
0.0
 40
0.0
 40
0.0
 40
0.2740862943
 40
1.0
 40
1.0
 40
1.0
 40
1.0
 10
10.3751464056
 20
13.5756017893
 30
0.0
 10
10.3794955111
 20
13.5771709778
 30
0.0
 10
10.395270578
 20
13.5831523194
 30
0.0
 10
10.4106995768
 20
13.5900266783
 30
0.0
 10
10.4217044842
 20
13.5953970609
 30
0.0
  0
LINE
  5
477
100
AcDbEntity
  8
0
100
AcDbLine
 62
7
  6
CONTINUOUS
 10
10.4522487643
 20
13.6115091379
 11
10.4621941939
 21
13.6172579553
  0
SPLINE
  5
478
100
AcDbEntity
  8
0
100
AcDbSpline
 62
7
  6
CONTINUOUS
 70
0
 71
3
 72
9
 73
5
 74
0
 42
0.0000001
 43
0.0000001
 44
0.0000000001
 40
0.0
 40
0.0
 40
0.0
 40
0.0
 40
0.2527116919
 40
1.0
 40
1.0
 40
1.0
 40
1.0
 10
13.2425015191
 20
19.8495553446
 30
0.0
 10
13.2471993167
 20
19.8557783675
 30
0.0
 10
13.2663884233
 20
19.8799437712
 30
0.0
 10
13.2879374937
 20
19.9022447569
 30
0.0
 10
13.3051861201
 20
19.917545024
 30
0.0
  0
SPLINE
  5
479
100
AcDbEntity
  8
0
100
AcDbSpline
 62
7
  6
CONTINUOUS
 70
0
 71
3
 72
9
 73
5
 74
0
 42
0.0000001
 43
0.0000001
 44
0.0000000001
 40
0.0
 40
0.0
 40
0.0
 40
0.0
 40
0.2528651912
 40
1.0
 40
1.0
 40
1.0
 40
1.0
 10
12.5809101601
 20
19.8495613491
 30
0.0
 10
12.5762098351
 20
19.8557870587
 30
0.0
 10
12.5570216359
 20
19.879947824
 30
0.0
 10
12.5354744354
 20
19.9022444129
 30
0.0
 10
12.5182319291
 20
19.9175396826
 30
0.0
  0
SPLINE
  5
47A
100
AcDbEntity
  8
0
100
AcDbSpline
 62
7
  6
CONTINUOUS
 70
0
 71
3
 72
12
 73
8
 74
0
 42
0.0000001
 43
0.0000001
 44
0.0000000001
 40
0.0
 40
0.0
 40
0.0
 40
0.0
 40
0.2481827339
 40
0.3724986428
 40
0.4971077995
 40
0.7475382257
 40
1.0
 40
1.0
 40
1.0
 40
1.0
 10
14.0415578433
 20
8.2276790853
 30
0.0
 10
14.0417411058
 20
8.2455139121
 30
0.0
 10
14.0425031908
 20
8.2722843366
 30
0.0
 10
14.0448949166
 20
8.3079332943
 30
0.0
 10
14.0483556372
 20
8.3436572882
 30
0.0
 10
14.0545995428
 20
8.3883413726
 30
0.0
 10
14.0613620861
 20
8.4238579125
 30
0.0
 10
14.06513233
 20
8.4416051376
 30
0.0
  0
SPLINE
  5
47B
100
AcDbEntity
  8
0
100
AcDbSpline
 62
7
  6
CONTINUOUS
 70
0
 71
3
 72
9
 73
5
 74
0
 42
0.0000001
 43
0.0000001
 44
0.0000000001
 40
0.0
 40
0.0
 40
0.0
 40
0.0
 40
0.2502856866
 40
1.0
 40
1.0
 40
1.0
 40
1.0
 10
14.0415400609
 20
8.1964592432
 30
0.0
 10
14.0415800455
 20
8.1915973352
 30
0.0
 10
14.0418118746
 20
8.1721724614
 30
0.0
 10
14.0422884374
 20
8.1527513066
 30
0.0
 10
14.0427098743
 20
8.138193387
 30
0.0
  0
LINE
  5
47C
100
AcDbEntity
  8
0
100
AcDbLine
 62
7
  6
CONTINUOUS
 10
14.0433101618
 20
8.1185678305
 11
14.0445887392
 21
8.0791329747
  0
SPLINE
  5
47D
100
AcDbEntity
  8
0
100
AcDbSpline
 62
7
  6
CONTINUOUS
 70
0
 71
3
 72
12
 73
8
 74
0
 42
0.0000001
 43
0.0000001
 44
0.0000000001
 40
0.0
 40
0.0
 40
0.0
 40
0.0
 40
0.2481834597
 40
0.372498719
 40
0.4971068607
 40
0.7475361976
 40
1.0
 40
1.0
 40
1.0
 40
1.0
 10
15.9988026115
 20
8.2273403645
 30
0.0
 10
15.9986231357
 20
8.2452062565
 30
0.0
 10
15.997866302
 20
8.272023357
 30
0.0
 10
15.9954787864
 20
8.3077347222
 30
0.0
 10
15.9920190221
 20
8.343521246
 30
0.0
 10
15.9857686924
 20
8.3882836362
 30
0.0
 10
15.9789946588
 20
8.423862017
 30
0.0
 10
15.9752173478
 20
8.4416401001
 30
0.0
  0
LINE
  5
47E
100
AcDbEntity
  8
0
100
AcDbLine
 62
7
  6
CONTINUOUS
 10
15.9957681594
 20
8.0791328573
 11
15.997046707
 21
8.1185670238
  0
SPLINE
  5
47F
100
AcDbEntity
  8
0
100
AcDbSpline
 62
7
  6
CONTINUOUS
 70
0
 71
3
 72
9
 73
5
 74
0
 42
0.0000001
 43
0.0000001
 44
0.0000000001
 40
0.0
 40
0.0
 40
0.0
 40
0.0
 40
0.2496953851
 40
1.0
 40
1.0
 40
1.0
 40
1.0
 10
15.9976466342
 20
8.1381802656
 30
0.0
 10
15.9977870409
 20
8.1430299317
 30
0.0
 10
15.9983208873
 20
8.1624529769
 30
0.0
 10
15.9986969743
 20
8.1818811402
 30
0.0
 10
15.9988168643
 20
8.1964594171
 30
0.0
  0
SPLINE
  5
480
100
AcDbEntity
  8
0
100
AcDbSpline
 62
7
  6
CONTINUOUS
 70
0
 71
3
 72
9
 73
5
 74
0
 42
0.0000001
 43
0.0000001
 44
0.0000000001
 40
0.0
 40
0.0
 40
0.0
 40
0.0
 40
0.2503533913
 40
1.0
 40
1.0
 40
1.0
 40
1.0
 10
15.9979730809
 20
8.2276718911
 30
0.0
 10
15.9976262306
 20
8.2431497231
 30
0.0
 10
15.9953835996
 20
8.3049422833
 30
0.0
 10
15.9891588416
 20
8.3666635717
 30
0.0
 10
15.9813287567
 20
8.4123552534
 30
0.0
  0
SPLINE
  5
481
100
AcDbEntity
  8
0
100
AcDbSpline
 62
7
  6
CONTINUOUS
 70
0
 71
3
 72
9
 73
5
 74
0
 42
0.0000001
 43
0.0000001
 44
0.0000000001
 40
0.0
 40
0.0
 40
0.0
 40
0.0
 40
0.2499229722
 40
1.0
 40
1.0
 40
1.0
 40
1.0
 10
15.9813287567
 20
8.4123552534
 30
0.0
 10
15.9779597682
 20
8.4320146506
 30
0.0
 10
15.9621286752
 20
8.5102837072
 30
0.0
 10
15.9385852049
 20
8.5867646989
 30
0.0
 10
15.9192898617
 20
8.6434322468
 30
0.0
  0
SPLINE
  5
482
100
AcDbEntity
  8
0
100
AcDbSpline
 62
7
  6
CONTINUOUS
 70
0
 71
3
 72
9
 73
5
 74
0
 42
0.0000001
 43
0.0000001
 44
0.0000000001
 40
0.0
 40
0.0
 40
0.0
 40
0.0
 40
0.2509582959
 40
1.0
 40
1.0
 40
1.0
 40
1.0
 10
15.9103994839
 20
8.6691892183
 30
0.0
 10
15.9028451277
 20
8.6908061576
 30
0.0
 10
15.8719828787
 20
8.7766775542
 30
0.0
 10
15.8394331406
 20
8.8619305403
 30
0.0
 10
15.816424168
 20
8.9262881173
 30
0.0
  0
SPLINE
  5
483
100
AcDbEntity
  8
0
100
AcDbSpline
 62
7
  6
CONTINUOUS
 70
0
 71
3
 72
9
 73
5
 74
0
 42
0.0000001
 43
0.0000001
 44
0.0000000001
 40
0.0
 40
0.0
 40
0.0
 40
0.0
 40
0.2501111538
 40
1.0
 40
1.0
 40
1.0
 40
1.0
 10
15.7836031723
 20
9.0216952829
 30
0.0
 10
15.7788690074
 20
9.036085381
 30
0.0
 10
15.7603289218
 20
9.0937454977
 30
0.0
 10
15.7435472883
 20
9.1519843306
 30
0.0
 10
15.7323235408
 20
9.1959953029
 30
0.0
  0
SPLINE
  5
484
100
AcDbEntity
  8
0
100
AcDbSpline
 62
7
  6
CONTINUOUS
 70
0
 71
3
 72
9
 73
5
 74
0
 42
0.0000001
 43
0.0000001
 44
0.0000000001
 40
0.0
 40
0.0
 40
0.0
 40
0.0
 40
0.7498888459
 40
1.0
 40
1.0
 40
1.0
 40
1.0
 10
14.308033351
 20
9.1959953029
 30
0.0
 10
14.2968095923
 20
9.1519842868
 30
0.0
 10
14.2800279404
 20
9.0937453964
 30
0.0
 10
14.2614878334
 20
9.0360852234
 30
0.0
 10
14.2567536631
 20
9.0216951111
 30
0.0
  0
SPLINE
  5
485
100
AcDbEntity
  8
0
100
AcDbSpline
 62
7
  6
CONTINUOUS
 70
0
 71
3
 72
9
 73
5
 74
0
 42
0.0000001
 43
0.0000001
 44
0.0000000001
 40
0.0
 40
0.0
 40
0.0
 40
0.0
 40
0.2501805575
 40
1.0
 40
1.0
 40
1.0
 40
1.0
 10
14.1210670332
 20
8.6434322557
 30
0.0
 10
14.1146325416
 20
8.6245351129
 30
0.0
 10
14.0896679617
 20
8.548775102
 30
0.0
 10
14.0691337811
 20
8.4713257453
 30
0.0
 10
14.0590281351
 20
8.4123552534
 30
0.0
  0
SPLINE
  5
486
100
AcDbEntity
  8
0
100
AcDbSpline
 62
7
  6
CONTINUOUS
 70
0
 71
3
 72
9
 73
5
 74
0
 42
0.0000001
 43
0.0000001
 44
0.0000000001
 40
0.0
 40
0.0
 40
0.0
 40
0.0
 40
0.2497326805
 40
1.0
 40
1.0
 40
1.0
 40
1.0
 10
14.0564910169
 20
8.3968282964
 30
0.0
 10
14.0543139072
 20
8.3828319741
 30
0.0
 10
14.0467415133
 20
8.3266081913
 30
0.0
 10
14.0433209881
 20
8.2698764831
 30
0.0
 10
14.0423762381
 20
8.2273324223
 30
0.0
  0
SPLINE
  5
487
100
AcDbEntity
  8
0
100
AcDbSpline
 62
7
  6
CONTINUOUS
 70
0
 71
3
 72
9
 73
5
 74
0
 42
0.0000001
 43
0.0000001
 44
0.0000000001
 40
0.0
 40
0.0
 40
0.0
 40
0.0
 40
0.2491715883
 40
1.0
 40
1.0
 40
1.0
 40
1.0
 10
15.9957681559
 20
8.0791329206
 30
0.0
 10
15.9961058212
 20
8.0898243007
 30
0.0
 10
15.9975385246
 20
8.132728028
 30
0.0
 10
15.9988093339
 20
8.1756488983
 30
0.0
 10
15.9988763096
 20
8.2078812134
 30
0.0
  0
SPLINE
  5
488
100
AcDbEntity
  8
0
100
AcDbSpline
 62
7
  6
CONTINUOUS
 70
0
 71
3
 72
38
 73
34
 74
0
 42
0.0000001
 43
0.0000001
 44
0.0000000001
 40
0.0
 40
0.0
 40
0.0
 40
0.0
 40
0.0153910939
 40
0.0308113236
 40
0.0463099551
 40
0.0619236707
 40
0.0935573159
 40
0.1257386895
 40
0.1583424349
 40
0.1911570858
 40
0.2239334412
 40
0.2564289768
 40
0.2725132681
 40
0.28848878
 40
0.3201679471
 40
0.3827596264
 40
0.44479058
 40
0.4757050433
 40
0.5065860984
 40
0.5374513875
 40
0.5528826473
 40
0.5683150972
 40
0.5991839598
 40
0.6300556458
 40
0.6917950227
 40
0.7535097839
 40
0.7843525955
 40
0.8151842199
 40
0.8460049126
 40
0.8768162511
 40
0.9076204899
 40
0.9384190594
 40
1.0
 40
1.0
 40
1.0
 40
1.0
 10
14.0414765676
 20
8.2119843661
 30
0.0
 10
14.0414815764
 20
8.2294856845
 30
0.0
 10
14.0420342998
 20
8.2645264981
 30
0.0
 10
14.0453096348
 20
8.3171098896
 30
0.0
 10
14.0516843561
 20
8.3696656068
 30
0.0
 10
14.0638437739
 20
8.4399953828
 30
0.0
 10
14.0851388893
 20
8.527870349
 30
0.0
 10
14.117610969
 20
8.6326320386
 30
0.0
 10
14.1546282665
 20
8.737273597
 30
0.0
 10
14.193727759
 20
8.8418617174
 30
0.0
 10
14.2324494291
 20
8.9464594295
 30
0.0
 10
14.2624795647
 20
9.0339854762
 30
0.0
 10
14.2838348426
 20
9.1042246588
 30
0.0
 10
14.3032810048
 20
9.1740511245
 30
0.0
 10
14.3328936295
 20
9.2959045635
 30
0.0
 10
14.3645238127
 20
9.4709624223
 30
0.0
 10
14.3857290477
 20
9.6466083
 30
0.0
 10
14.3988693812
 20
9.7867998727
 30
0.0
 10
14.4074530672
 20
9.8918167912
 30
0.0
 10
14.4140768152
 20
9.9793255783
 30
0.0
 10
14.4193663084
 20
10.0493184829
 30
0.0
 10
14.4247644895
 20
10.119307178
 30
0.0
 10
14.4317032553
 20
10.2067864478
 30
0.0
 10
14.4429850473
 20
10.3467423418
 30
0.0
 10
14.4570311298
 20
10.5216642683
 30
0.0
 10
14.4699412377
 20
10.6966439345
 30
0.0
 10
14.4789478711
 20
10.8366624345
 30
0.0
 10
14.4848797669
 20
10.9416731145
 30
0.0
 10
14.4898345036
 20
11.0466992575
 30
0.0
 10
14.4936345855
 20
11.1517425126
 30
0.0
 10
14.4963735147
 20
11.2567931777
 30
0.0
 10
14.4987795809
 20
11.3968469932
 30
0.0
 10
14.4993606743
 20
11.5018949199
 30
0.0
 10
14.4993642063
 20
11.5719190324
 30
0.0
  0
SPLINE
  5
489
100
AcDbEntity
  8
0
100
AcDbSpline
 62
7
  6
CONTINUOUS
 70
0
 71
3
 72
9
 73
5
 74
0
 42
0.0000001
 43
0.0000001
 44
0.0000000001
 40
0.0
 40
0.0
 40
0.0
 40
0.0
 40
0.2507283956
 40
1.0
 40
1.0
 40
1.0
 40
1.0
 10
14.0414802534
 20
8.208035731
 30
0.0
 10
14.0415016722
 20
8.1972590787
 30
0.0
 10
14.0419824135
 20
8.1542778283
 30
0.0
 10
14.0435721015
 20
8.1113216823
 30
0.0
 10
14.0445887248
 20
8.0791329416
 30
0.0
  0
SPLINE
  5
48A
100
AcDbEntity
  8
0
100
AcDbSpline
 62
7
  6
CONTINUOUS
 70
0
 71
3
 72
11
 73
7
 74
0
 42
0.0000001
 43
0.0000001
 44
0.0000000001
 40
0.0
 40
0.0
 40
0.0
 40
0.0
 40
0.2500544381
 40
0.4999329378
 40
0.7496442591
 40
1.0
 40
1.0
 40
1.0
 40
1.0
 10
14.4993642063
 20
11.5719190324
 30
0.0
 10
14.4993678718
 20
11.6445905203
 30
0.0
 10
14.4985506199
 20
11.7898825246
 30
0.0
 10
14.4959037588
 20
12.0077302365
 30
0.0
 10
14.4929627393
 20
12.2256615295
 30
0.0
 10
14.4912104471
 20
12.3709819756
 30
0.0
 10
14.4904580098
 20
12.4437371383
 30
0.0
  0
SPLINE
  5
48B
100
AcDbEntity
  8
0
100
AcDbSpline
 62
7
  6
CONTINUOUS
 70
0
 71
3
 72
45
 73
41
 74
0
 42
0.0000001
 43
0.0000001
 44
0.0000000001
 40
0.0
 40
0.0
 40
0.0
 40
0.0
 40
0.0624811768
 40
0.0937164574
 40
0.1249486373
 40
0.1561796059
 40
0.1874112423
 40
0.2186448146
 40
0.2498812014
 40
0.2811216213
 40
0.3123667097
 40
0.3436163263
 40
0.374869624
 40
0.4061253194
 40
0.4217536893
 40
0.4373822172
 40
0.4686367904
 40
0.4998810872
 40
0.5311080384
 40
0.562313311
 40
0.5934973256
 40
0.6246694482
 40
0.6558231641
 40
0.6713845818
 40
0.6869327884
 40
0.7024680562
 40
0.7179946195
 40
0.749051556
 40
0.7801494021
 40
0.8113113116
 40
0.8425748128
 40
0.8582576332
 40
0.8739806902
 40
0.8897271891
 40
0.9054753069
 40
0.9212135804
 40
0.936944142
 40
0.9526840687
 40
0.9684458768
 40
1.0
 40
1.0
 40
1.0
 40
1.0
 10
14.4993718493
 20
11.5719191682
 30
0.0
 10
14.4993904645
 20
11.5008011463
 30
0.0
 10
14.4988359536
 20
11.3941270368
 30
0.0
 10
14.4963270524
 20
11.2519269736
 30
0.0
 10
14.4933873929
 20
11.1453150346
 30
0.0
 10
14.489336743
 20
11.0387438735
 30
0.0
 10
14.4842733788
 20
10.9322147551
 30
0.0
 10
14.4782670323
 20
10.8257286152
 30
0.0
 10
14.4713878988
 20
10.7192855969
 30
0.0
 10
14.4638021423
 20
10.612877881
 30
0.0
 10
14.4556891778
 20
10.5064942435
 30
0.0
 10
14.4472197915
 20
10.4001238842
 30
0.0
 10
14.4385917347
 20
10.2937542777
 30
0.0
 10
14.4314578436
 20
10.2051024204
 30
0.0
 10
14.4258895238
 20
10.1341668159
 30
0.0
 10
14.4204640929
 20
10.0632214099
 30
0.0
 10
14.4138593967
 20
9.9745399933
 30
0.0
 10
14.4056475047
 20
9.86817447
 30
0.0
 10
14.3966107565
 20
9.7619307155
 30
0.0
 10
14.3861914284
 20
9.6558800533
 30
0.0
 10
14.3737916479
 20
9.5501015122
 30
0.0
 10
14.3588385338
 20
9.4447090431
 30
0.0
 10
14.3437232438
 20
9.3573338071
 30
0.0
 10
14.3296681885
 20
9.2878671442
 30
0.0
 10
14.318066312
 20
9.2360533063
 30
0.0
 10
14.3053002986
 20
9.1845539243
 30
0.0
 10
14.2866606521
 20
9.1163437276
 30
0.0
 10
14.2606662843
 20
9.0318077456
 30
0.0
 10
14.2261667991
 20
8.9313367984
 30
0.0
 10
14.1892893572
 20
8.8314742738
 30
0.0
 10
14.1581781408
 20
8.7481898074
 30
0.0
 10
14.1340136901
 20
8.6810738028
 30
0.0
 10
14.1164620815
 20
8.6303523205
 30
0.0
 10
14.0998878005
 20
8.57922205
 30
0.0
 10
14.0847304311
 20
8.5276315816
 30
0.0
 10
14.0714316617
 20
8.4755450953
 30
0.0
 10
14.0604156408
 20
8.4229297241
 30
0.0
 10
14.0521963601
 20
8.3697745994
 30
0.0
 10
14.0447070368
 20
8.2983732694
 30
0.0
 10
14.0424705284
 20
8.2445001569
 30
0.0
 10
14.0420627975
 20
8.208586584
 30
0.0
  0
SPLINE
  5
48C
100
AcDbEntity
  8
0
100
AcDbSpline
 62
7
  6
CONTINUOUS
 70
0
 71
3
 72
11
 73
7
 74
0
 42
0.0000001
 43
0.0000001
 44
0.0000000001
 40
0.0
 40
0.0
 40
0.0
 40
0.0
 40
0.2500544384
 40
0.4999329377
 40
0.7496442587
 40
1.0
 40
1.0
 40
1.0
 40
1.0
 10
15.5409926727
 20
11.5719196169
 30
0.0
 10
15.5409890111
 20
11.6445910957
 30
0.0
 10
15.5418062697
 20
11.7898830815
 30
0.0
 10
15.5444531387
 20
12.0077307657
 30
0.0
 10
15.5473941618
 20
12.2256620311
 30
0.0
 10
15.5491464658
 20
12.3709824587
 30
0.0
 10
15.5498989156
 20
12.4437376122
 30
0.0
  0
SPLINE
  5
48D
100
AcDbEntity
  8
0
100
AcDbSpline
 62
7
  6
CONTINUOUS
 70
0
 71
3
 72
45
 73
41
 74
0
 42
0.0000001
 43
0.0000001
 44
0.0000000001
 40
0.0
 40
0.0
 40
0.0
 40
0.0
 40
0.0315541232
 40
0.0473159312
 40
0.0630558579
 40
0.0787864195
 40
0.0945246931
 40
0.1102728109
 40
0.1260193097
 40
0.1417423666
 40
0.1574251869
 40
0.1886886879
 40
0.2198505973
 40
0.2509484433
 40
0.2820053798
 40
0.2975319431
 40
0.313067211
 40
0.3286154177
 40
0.3441768353
 40
0.3753305513
 40
0.406502674
 40
0.4376866887
 40
0.4688919613
 40
0.5001189126
 40
0.5313632094
 40
0.5626177827
 40
0.5782463105
 40
0.5938746804
 40
0.6251303759
 40
0.6563836736
 40
0.6876332902
 40
0.7188783785
 40
0.7501187985
 40
0.7813551853
 40
0.8125887576
 40
0.843820394
 40
0.8750513626
 40
0.9062835425
 40
0.9375188232
 40
1.0
 40
1.0
 40
1.0
 40
1.0
 10
15.9982940925
 20
8.2085867437
 30
0.0
 10
15.9978863583
 20
8.2445003178
 30
0.0
 10
15.995649844
 20
8.2983734318
 30
0.0
 10
15.9881605108
 20
8.3697747631
 30
0.0
 10
15.979941221
 20
8.4229298882
 30
0.0
 10
15.9689251918
 20
8.4755452595
 30
0.0
 10
15.9556264154
 20
8.527631746
 30
0.0
 10
15.9404690403
 20
8.5792222146
 30
0.0
 10
15.9238947548
 20
8.6303524854
 30
0.0
 10
15.9063431432
 20
8.6810739683
 30
0.0
 10
15.8821786895
 20
8.7481899739
 30
0.0
 10
15.8510674713
 20
8.8314744423
 30
0.0
 10
15.8141900308
 20
8.9313369708
 30
0.0
 10
15.7796905495
 20
9.0318079229
 30
0.0
 10
15.7536961864
 20
9.1163439094
 30
0.0
 10
15.7350565447
 20
9.18455411
 30
0.0
 10
15.7222905354
 20
9.236053495
 30
0.0
 10
15.7106886626
 20
9.2878673358
 30
0.0
 10
15.6966336118
 20
9.3573340022
 30
0.0
 10
15.6815183269
 20
9.4447092423
 30
0.0
 10
15.6665652177
 20
9.5501017159
 30
0.0
 10
15.6541654412
 20
9.6558802613
 30
0.0
 10
15.6437461161
 20
9.7619309276
 30
0.0
 10
15.6347093698
 20
9.8681746861
 30
0.0
 10
15.6264974786
 20
9.9745402132
 30
0.0
 10
15.6198927822
 20
10.0632216329
 30
0.0
 10
15.6144673505
 20
10.1341670413
 30
0.0
 10
15.6088990301
 20
10.2051026482
 30
0.0
 10
15.6017651384
 20
10.2937545086
 30
0.0
 10
15.5931370814
 20
10.4001241186
 30
0.0
 10
15.5846676954
 20
10.5064944816
 30
0.0
 10
15.5765547316
 20
10.6128781228
 30
0.0
 10
15.5689689763
 20
10.7192858425
 30
0.0
 10
15.5620898444
 20
10.8257288645
 30
0.0
 10
15.5560834999
 20
10.9322150081
 30
0.0
 10
15.5510201378
 20
11.0387441304
 30
0.0
 10
15.5469694904
 20
11.1453152952
 30
0.0
 10
15.5440298335
 20
11.251927238
 30
0.0
 10
15.5415209355
 20
11.3941273062
 30
0.0
 10
15.5409664264
 20
11.5008014193
 30
0.0
 10
15.5409850427
 20
11.5719194437
 30
0.0
  0
SPLINE
  5
48E
100
AcDbEntity
  8
0
100
AcDbSpline
 62
7
  6
CONTINUOUS
 70
0
 71
3
 72
21
 73
17
 74
0
 42
0.0000001
 43
0.0000001
 44
0.0000000001
 40
0.0
 40
0.0
 40
0.0
 40
0.0
 40
0.0623750199
 40
0.1247793979
 40
0.1872284088
 40
0.2497040906
 40
0.3121737227
 40
0.3746082262
 40
0.4370005855
 40
0.4993843533
 40
0.6242471498
 40
0.7495010347
 40
0.8122269682
 40
0.8748952583
 40
0.9374792311
 40
1.0
 40
1.0
 40
1.0
 40
1.0
 10
15.5499596328
 20
12.4546982368
 30
0.0
 10
15.5499662255
 20
12.4920958601
 30
0.0
 10
15.5460887754
 20
12.5669632313
 30
0.0
 10
15.5290140739
 20
12.6780888788
 30
0.0
 10
15.5011008557
 20
12.7870665412
 30
0.0
 10
15.462760864
 20
12.8928619825
 30
0.0
 10
15.4143990358
 20
12.9944606829
 30
0.0
 10
15.3564165706
 20
13.0908372271
 30
0.0
 10
15.2892013397
 20
13.1809742888
 30
0.0
 10
15.1878292937
 20
13.2914113287
 30
0.0
 10
15.0399727812
 20
13.4087423377
 30
0.0
 10
14.8719436958
 20
13.4948669155
 30
0.0
 10
14.7295157286
 20
13.543421462
 30
0.0
 10
14.6196029603
 20
13.5692157266
 30
0.0
 10
14.5077962661
 20
13.5838686944
 30
0.0
 10
14.4326498754
 20
13.5858882423
 30
0.0
 10
14.3951783794
 20
13.584881811
 30
0.0
  0
LINE
  5
48F
100
AcDbEntity
  8
0
100
AcDbLine
 62
7
  6
CONTINUOUS
 10
13.5452035878
 20
19.05751465
 11
13.546928844
 21
19.0574486327
  0
SPLINE
  5
490
100
AcDbEntity
  8
0
100
AcDbSpline
 62
7
  6
CONTINUOUS
 70
0
 71
3
 72
10
 73
6
 74
0
 42
0.0000001
 43
0.0000001
 44
0.0000000001
 40
0.0
 40
0.0
 40
0.0
 40
0.0
 40
0.3967434572
 40
0.6914103099
 40
1.0
 40
1.0
 40
1.0
 40
1.0
 10
13.546928844
 20
19.0574486327
 30
0.0
 10
13.5471218256
 20
19.0574304432
 30
0.0
 10
13.5474679418
 20
19.0573863542
 30
0.0
 10
13.547908716
 20
19.0572927525
 30
0.0
 10
13.5482680392
 20
19.0571359032
 30
0.0
 10
13.5482762939
 20
19.0569853617
 30
0.0
  0
SPLINE
  5
491
100
AcDbEntity
  8
0
100
AcDbSpline
 62
7
  6
CONTINUOUS
 70
0
 71
3
 72
11
 73
7
 74
0
 42
0.0000001
 43
0.0000001
 44
0.0000000001
 40
0.0
 40
0.0
 40
0.0
 40
0.0
 40
0.3511657815
 40
0.6386512169
 40
0.8563062951
 40
1.0
 40
1.0
 40
1.0
 40
1.0
 10
13.4289546154
 20
19.05751465
 30
0.0
 10
13.4297138745
 20
19.05751465
 30
0.0
 10
13.4310941818
 20
19.057490101
 30
0.0
 10
13.4329452546
 20
19.0573652111
 30
0.0
 10
13.4343285853
 20
19.0571589555
 30
0.0
 10
13.4350945784
 20
19.0569444815
 30
0.0
 10
13.4353635298
 20
19.056788956
 30
0.0
  0
SPLINE
  5
492
100
AcDbEntity
  8
0
100
AcDbSpline
 62
7
  6
CONTINUOUS
 70
0
 71
3
 72
10
 73
6
 74
0
 42
0.0000001
 43
0.0000001
 44
0.0000000001
 40
0.0
 40
0.0
 40
0.0
 40
0.0
 40
0.5795113489
 40
0.8129785011
 40
1.0
 40
1.0
 40
1.0
 40
1.0
 10
13.277456005
 20
19.05751465
 30
0.0
 10
13.2792797529
 20
19.05751465
 30
0.0
 10
13.2818412337
 20
19.0574488564
 30
0.0
 10
13.2849738095
 20
19.0571404399
 30
0.0
 10
13.2862817347
 20
19.0569237885
 30
0.0
 10
13.2868546474
 20
19.056788956
 30
0.0
  0
SPLINE
  5
493
100
AcDbEntity
  8
0
100
AcDbSpline
 62
7
  6
CONTINUOUS
 70
0
 71
3
 72
10
 73
6
 74
0
 42
0.0000001
 43
0.0000001
 44
0.0000000001
 40
0.0
 40
0.0
 40
0.0
 40
0.0
 40
0.3751647563
 40
0.6588743675
 40
1.0
 40
1.0
 40
1.0
 40
1.0
 10
13.2868546474
 20
19.056788956
 30
0.0
 10
13.2871642258
 20
19.0567160981
 30
0.0
 10
13.2877106476
 20
19.056559676
 30
0.0
 10
13.2884685638
 20
19.0562570639
 30
0.0
 10
13.2889543636
 20
19.0558248977
 30
0.0
 10
13.2889552535
 20
19.0555357186
 30
0.0
  0
SPLINE
  5
494
100
AcDbEntity
  8
0
100
AcDbSpline
 62
7
  6
CONTINUOUS
 70
0
 71
3
 72
15
 73
11
 74
0
 42
0.0000001
 43
0.0000001
 44
0.0000000001
 40
0.0
 40
0.0
 40
0.0
 40
0.0
 40
0.298207319
 40
0.4551052036
 40
0.6049186605
 40
0.7402824992
 40
0.8542265358
 40
0.941844862
 40
0.9747365438
 40
1.0
 40
1.0
 40
1.0
 40
1.0
 10
12.545956005
 20
19.05751465
 30
0.0
 10
12.5493931176
 20
19.05751465
 30
0.0
 10
12.5546394247
 20
19.0572640644
 30
0.0
 10
12.5615814511
 20
19.0566102656
 30
0.0
 10
12.5666342766
 20
19.0559445265
 30
0.0
 10
12.5711701508
 20
19.0551648049
 30
0.0
 10
12.5749569437
 20
19.0543009344
 30
0.0
 10
12.5775474704
 20
19.0535055815
 30
0.0
 10
12.5790863443
 20
19.0528287882
 30
0.0
 10
12.579667945
 20
19.0524872264
 30
0.0
 10
12.579898357
 20
19.0523091851
 30
0.0
  0
SPLINE
  5
495
100
AcDbEntity
  8
0
100
AcDbSpline
 62
7
  6
CONTINUOUS
 70
0
 71
3
 72
9
 73
5
 74
0
 42
0.0000001
 43
0.0000001
 44
0.0000000001
 40
0.0
 40
0.0
 40
0.0
 40
0.0
 40
0.319751701
 40
1.0
 40
1.0
 40
1.0
 40
1.0
 10
12.579898357
 20
19.0523091851
 30
0.0
 10
12.5799837977
 20
19.0522431644
 30
0.0
 10
12.580236744
 20
19.0520292503
 30
0.0
 10
12.5804547251
 20
19.0517110137
 30
0.0
 10
12.5804541091
 20
19.0514813032
 30
0.0
  0
SPLINE
  5
496
100
AcDbEntity
  8
0
100
AcDbSpline
 62
7
  6
CONTINUOUS
 70
0
 71
3
 72
13
 73
9
 74
0
 42
0.0000001
 43
0.0000001
 44
0.0000000001
 40
0.0
 40
0.0
 40
0.0
 40
0.0
 40
0.114150559
 40
0.2472704646
 40
0.5367776464
 40
0.8055265431
 40
0.9148348614
 40
1.0
 40
1.0
 40
1.0
 40
1.0
 10
12.3944573945
 20
19.05751465
 30
0.0
 10
12.3958696126
 20
19.05751465
 30
0.0
 10
12.3989285932
 20
19.0574196029
 30
0.0
 10
12.4055555678
 20
19.0569780997
 30
0.0
 10
12.4140583771
 20
19.0560125346
 30
0.0
 10
12.4222125424
 20
19.0546533306
 30
0.0
 10
12.427793913
 20
19.0533498193
 30
0.0
 10
12.4301060113
 20
19.0526708692
 30
0.0
 10
12.4310956112
 20
19.0523091851
 30
0.0
  0
SPLINE
  5
497
100
AcDbEntity
  8
0
100
AcDbSpline
 62
7
  6
CONTINUOUS
 70
0
 71
3
 72
10
 73
6
 74
0
 42
0.0000001
 43
0.0000001
 44
0.0000000001
 40
0.0
 40
0.0
 40
0.0
 40
0.0
 40
0.6700197481
 40
0.8716785316
 40
1.0
 40
1.0
 40
1.0
 40
1.0
 10
12.4310956112
 20
19.0523091851
 30
0.0
 10
12.4317692536
 20
19.0520629788
 30
0.0
 10
12.432649063
 20
19.0517077126
 30
0.0
 10
12.433519739
 20
19.0510926932
 30
0.0
 10
12.4337217622
 20
19.0507625199
 30
0.0
 10
12.4337227878
 20
19.0506251616
 30
0.0
  0
SPLINE
  5
498
100
AcDbEntity
  8
0
100
AcDbSpline
 62
7
  6
CONTINUOUS
 70
0
 71
3
 72
19
 73
15
 74
0
 42
0.0000001
 43
0.0000001
 44
0.0000000001
 40
0.0
 40
0.0
 40
0.0
 40
0.0
 40
0.1093389572
 40
0.2563828953
 40
0.424457801
 40
0.5957615719
 40
0.6771508894
 40
0.7530383945
 40
0.8214797753
 40
0.8805645678
 40
0.928822863
 40
0.9652017746
 40
0.9888304212
 40
1.0
 40
1.0
 40
1.0
 40
1.0
 10
12.2782084221
 20
19.05751465
 30
0.0
 10
12.2798069088
 20
19.05751465
 30
0.0
 10
12.2835528013
 20
19.0572940062
 30
0.0
 10
12.2897287607
 20
19.0566926015
 30
0.0
 10
12.2967811717
 20
19.0557678205
 30
0.0
 10
12.3028575545
 20
19.0548039753
 30
0.0
 10
12.3075824865
 20
19.0539375502
 30
0.0
 10
12.3108183227
 20
19.0532867454
 30
0.0
 10
12.3137202028
 20
19.052643726
 30
0.0
 10
12.3162188566
 20
19.0520184305
 30
0.0
 10
12.3182254849
 20
19.0514460834
 30
0.0
 10
12.3197532576
 20
19.0509023386
 30
0.0
 10
12.3206374679
 20
19.0505106364
 30
0.0
 10
12.3211255256
 20
19.0501293666
 30
0.0
 10
12.3211166812
 20
19.049966312
 30
0.0
  0
SPLINE
  5
499
100
AcDbEntity
  8
0
100
AcDbSpline
 62
7
  6
CONTINUOUS
 70
0
 71
3
 72
15
 73
11
 74
0
 42
0.0000001
 43
0.0000001
 44
0.0000000001
 40
0.0
 40
0.0
 40
0.0
 40
0.0
 40
0.0274065941
 40
0.0669525115
 40
0.1773551697
 40
0.3199523413
 40
0.4802533326
 40
0.7931561548
 40
0.9160593801
 40
1.0
 40
1.0
 40
1.0
 40
1.0
 10
12.205131263
 20
19.05751465
 30
0.0
 10
12.2055363674
 20
19.05751465
 30
0.0
 10
12.2065254091
 20
19.0574596446
 30
0.0
 10
12.2091366651
 20
19.0572304049
 30
0.0
 10
12.2134303601
 20
19.0567073161
 30
0.0
 10
12.2194787399
 20
19.0558478292
 30
0.0
 10
12.2284680197
 20
19.0544172562
 30
0.0
 10
12.2371439357
 20
19.0528616986
 30
0.0
 10
12.2446580754
 20
19.0512668899
 30
0.0
 10
12.2476342579
 20
19.0505554723
 30
0.0
 10
12.2488233472
 20
19.0502011766
 30
0.0
  0
LINE
  5
49A
100
AcDbEntity
  8
0
100
AcDbLine
 62
7
  6
CONTINUOUS
 10
12.2488233472
 20
19.0502011766
 11
12.2503262757
 21
19.0495505851
  0
LINE
  5
49B
100
AcDbEntity
  8
0
100
AcDbLine
 62
7
  6
CONTINUOUS
 10
12.180206005
 20
19.05751465
 11
12.1862416123
 21
19.0564789826
  0
LINE
  5
49C
100
AcDbEntity
  8
0
100
AcDbLine
 62
7
  6
CONTINUOUS
 10
12.1862416123
 20
19.0564789826
 11
12.1916383267
 21
19.055546307
  0
LINE
  5
49D
100
AcDbEntity
  8
0
100
AcDbLine
 62
7
  6
CONTINUOUS
 10
12.2231783846
 20
19.0499554824
 11
12.226206005
 21
19.0494036089
  0
LINE
  5
49E
100
AcDbEntity
  8
0
100
AcDbLine
 62
7
  6
CONTINUOUS
 10
13.6371750299
 20
19.0564797999
 11
13.6401528448
 21
19.0569916603
  0
LINE
  5
49F
100
AcDbEntity
  8
0
100
AcDbLine
 62
7
  6
CONTINUOUS
 10
13.6401528448
 20
19.0569916603
 11
13.643206005
 21
19.05751465
  0
LINE
  5
4A0
100
AcDbEntity
  8
0
100
AcDbLine
 62
7
  6
CONTINUOUS
 10
13.597206005
 20
19.0494036089
 11
13.6016636668
 21
19.0502144056
  0
LINE
  5
4A1
100
AcDbEntity
  8
0
100
AcDbLine
 62
7
  6
CONTINUOUS
 10
13.6016636668
 20
19.0502144056
 11
13.6087264133
 21
19.0514848807
  0
SPLINE
  5
4A2
100
AcDbEntity
  8
0
100
AcDbSpline
 62
7
  6
CONTINUOUS
 70
0
 71
3
 72
13
 73
9
 74
0
 42
0.0000001
 43
0.0000001
 44
0.0000000001
 40
0.0
 40
0.0
 40
0.0
 40
0.0
 40
0.1090494191
 40
0.2383495119
 40
0.5249161644
 40
0.7970354521
 40
0.91007693
 40
1.0
 40
1.0
 40
1.0
 40
1.0
 10
12.5151874343
 20
18.9984961596
 30
0.0
 10
12.5165456027
 20
18.9984961596
 30
0.0
 10
12.5195139653
 20
18.9984002469
 30
0.0
 10
12.5260374673
 20
18.9979587383
 30
0.0
 10
12.5345551972
 20
18.9969896426
 30
0.0
 10
12.5428172656
 20
18.9956335601
 30
0.0
 10
12.5485914337
 20
18.9943375252
 30
0.0
 10
12.5510299273
 20
18.993660464
 30
0.0
 10
12.5520912745
 20
18.9933029082
 30
0.0
  0
SPLINE
  5
4A3
100
AcDbEntity
  8
0
100
AcDbSpline
 62
7
  6
CONTINUOUS
 70
0
 71
3
 72
10
 73
6
 74
0
 42
0.0000001
 43
0.0000001
 44
0.0000000001
 40
0.0
 40
0.0
 40
0.0
 40
0.0
 40
0.6795055234
 40
0.8798750955
 40
1.0
 40
1.0
 40
1.0
 40
1.0
 10
12.5520912745
 20
18.9933029082
 30
0.0
 10
12.5528925646
 20
18.9930329626
 30
0.0
 10
12.55393794
 20
18.9926422106
 30
0.0
 10
12.5549773964
 20
18.9919872315
 30
0.0
 10
12.5552362693
 20
18.9916262193
 30
0.0
 10
12.5552366948
 20
18.9914767431
 30
0.0
  0
SPLINE
  5
4A4
100
AcDbEntity
  8
0
100
AcDbSpline
 62
7
  6
CONTINUOUS
 70
0
 71
3
 72
16
 73
12
 74
0
 42
0.0000001
 43
0.0000001
 44
0.0000000001
 40
0.0
 40
0.0
 40
0.0
 40
0.0
 40
0.0825041393
 40
0.2053254678
 40
0.3557188736
 40
0.518599935
 40
0.6785566803
 40
0.8207449793
 40
0.9313640899
 40
0.9715194866
 40
1.0
 40
1.0
 40
1.0
 40
1.0
 10
12.4128115395
 20
18.9984961596
 30
0.0
 10
12.4140324123
 20
18.9984961596
 30
0.0
 10
12.4170670312
 20
18.9982715752
 30
0.0
 10
12.4223004727
 20
18.9977203201
 30
0.0
 10
12.4286973603
 20
18.9968581129
 30
0.0
 10
12.435617638
 20
18.9957859221
 30
0.0
 10
12.4423948197
 20
18.9945882627
 30
0.0
 10
12.4483835008
 20
18.9933873743
 30
0.0
 10
12.4526086323
 20
18.9924050642
 30
0.0
 10
12.4551589134
 20
18.9916766843
 30
0.0
 10
12.4561226042
 20
18.9913501539
 30
0.0
 10
12.4565103713
 20
18.9911850664
 30
0.0
  0
SPLINE
  5
4A5
100
AcDbEntity
  8
0
100
AcDbSpline
 62
9
  6
CONTINUOUS
 70
0
 71
3
 72
31
 73
27
 74
0
 42
0.0000001
 43
0.0000001
 44
0.0000000001
 40
0.0
 40
0.0
 40
0.0
 40
0.0
 40
0.0002649625
 40
0.0005958563
 40
0.0010588488
 40
0.0023806011
 40
0.0042291613
 40
0.0066034718
 40
0.009502475
 40
0.0129251133
 40
0.0168703292
 40
0.0263242649
 40
0.0378558251
 40
0.0514565545
 40
0.0671179996
 40
0.0848292483
 40
0.1045704784
 40
0.1500555289
 40
0.2033984493
 40
0.2644245431
 40
0.3329461301
 40
0.4087242832
 40
0.4915074557
 40
0.5810441238
 40
0.7791588094
 40
1.0
 40
1.0
 40
1.0
 40
1.0
 10
13.5350345933
 20
12.0662410714
 30
0.0
 10
13.5350165537
 20
12.066252837
 30
0.0
 10
13.5349626118
 20
12.0662331276
 30
0.0
 10
13.5348794022
 20
12.0662417482
 30
0.0
 10
13.5347058268
 20
12.0662337363
 30
0.0
 10
13.5344117309
 20
12.0662338185
 30
0.0
 10
13.5339604991
 20
12.0662256873
 30
0.0
 10
13.5333818794
 20
12.0662187479
 30
0.0
 10
13.5326750123
 20
12.0662092182
 30
0.0
 10
13.5318405729
 20
12.0661986124
 30
0.0
 10
13.5304733187
 20
12.0661813936
 30
0.0
 10
13.528446996
 20
12.0661568033
 30
0.0
 10
13.52563586
 20
12.0661241228
 30
0.0
 10
13.5223201681
 20
12.0660873545
 30
0.0
 10
13.5185021709
 20
12.0660470573
 30
0.0
 10
13.5141850508
 20
12.0660038029
 30
0.0
 10
13.507443825
 20
12.0659394892
 30
0.0
 10
13.4978063679
 20
12.0658541747
 30
0.0
 10
13.4848131386
 20
12.0657492999
 30
0.0
 10
13.4699473735
 20
12.0656402475
 30
0.0
 10
13.4532579386
 20
12.0655296857
 30
0.0
 10
13.434799941
 20
12.0654216247
 30
0.0
 10
13.4146336829
 20
12.0653200339
 30
0.0
 10
13.3845233711
 20
12.0651943454
 30
0.0
 10
13.3431909669
 20
12.0650791597
 30
0.0
 10
13.3091363637
 20
12.0650431977
 30
0.0
 10
13.2911854071
 20
12.0650394829
 30
0.0
  0
SPLINE
  5
4A6
100
AcDbEntity
  8
0
100
AcDbSpline
 62
9
  6
CONTINUOUS
 70
0
 71
3
 72
38
 73
34
 74
0
 42
0.0000001
 43
0.0000001
 44
0.0000000001
 40
0.0
 40
0.0
 40
0.0
 40
0.0
 40
0.1179200373
 40
0.2274955527
 40
0.4270004448
 40
0.5170281863
 40
0.6002741859
 40
0.6764508949
 40
0.7452022304
 40
0.8061816765
 40
0.8591555281
 40
0.8825754379
 40
0.9039140145
 40
0.9231429132
 40
0.9402337009
 40
0.9551628178
 40
0.9679264332
 40
0.9734965284
 40
0.9785256782
 40
0.9830140438
 40
0.9869618083
 40
0.9903691942
 40
0.9932364962
 40
0.9955641532
 40
0.9973529287
 40
0.9980457236
 40
0.9986046021
 40
0.9990303559
 40
0.9993248425
 40
0.9994942753
 40
0.9995792236
 40
0.9997283664
 40
1.0
 40
1.0
 40
1.0
 40
1.0
 10
12.366481266
 20
11.2519093264
 30
0.0
 10
12.3433393935
 20
11.2565336976
 30
0.0
 10
12.2987106028
 20
11.2655427917
 30
0.0
 10
12.2148049084
 20
11.281750064
 30
0.0
 10
12.1361657686
 20
11.2957751059
 30
0.0
 10
12.0625268828
 20
11.3077442933
 30
0.0
 10
12.0131778495
 20
11.3152950325
 30
0.0
 10
11.9679787479
 20
11.3218022471
 30
0.0
 10
11.9271442152
 20
11.3273432733
 30
0.0
 10
11.8908764398
 20
11.3319963357
 30
0.0
 10
11.8635846625
 20
11.3353144793
 30
0.0
 10
11.8441580905
 20
11.3375886592
 30
0.0
 10
11.8314354083
 20
11.3390456296
 30
0.0
 10
11.8199684281
 20
11.3403344344
 30
0.0
 10
11.8097743973
 20
11.3414642319
 30
0.0
 10
11.800865658
 20
11.3424448277
 30
0.0
 10
11.7942488246
 20
11.3431741408
 30
0.0
 10
11.7896020225
 20
11.3436924628
 30
0.0
 10
11.786601628
 20
11.344031514
 30
0.0
 10
11.7839245197
 20
11.3443399573
 30
0.0
 10
11.7815707458
 20
11.344618893
 30
0.0
 10
11.779540273
 20
11.344869373
 30
0.0
 10
11.7778332494
 20
11.3450923735
 30
0.0
 10
11.7764491767
 20
11.3452887195
 30
0.0
 10
11.7754992872
 20
11.3454411263
 30
0.0
 10
11.7749003538
 20
11.345553429
 30
0.0
 10
11.7745741779
 20
11.3456257434
 30
0.0
 10
11.7743214555
 20
11.3456874917
 30
0.0
 10
11.7741634876
 20
11.3457518996
 30
0.0
 10
11.7740467803
 20
11.3457924273
 30
0.0
 10
11.7740360466
 20
11.3458886229
 30
0.0
 10
11.7741548404
 20
11.3459232375
 30
0.0
 10
11.7742272467
 20
11.3459444737
 30
0.0
 10
11.7742806101
 20
11.3459548465
 30
0.0
  0
SPLINE
  5
4A7
100
AcDbEntity
  8
0
100
AcDbSpline
 62
9
  6
CONTINUOUS
 70
0
 71
3
 72
16
 73
12
 74
0
 42
0.0000001
 43
0.0000001
 44
0.0000000001
 40
0.0
 40
0.0
 40
0.0
 40
0.0
 40
0.112925818
 40
0.2188412494
 40
0.413860067
 40
0.5855436736
 40
0.7310792429
 40
0.8472941238
 40
0.9318579551
 40
0.9829333662
 40
1.0
 40
1.0
 40
1.0
 40
1.0
 10
12.5266922043
 20
11.3057460165
 30
0.0
 10
12.5045573015
 20
11.3089101394
 30
0.0
 10
12.4616736953
 20
11.3151262474
 30
0.0
 10
12.3805269548
 20
11.3265486796
 30
0.0
 10
12.2877639766
 20
11.3389074374
 30
0.0
 10
12.1870943624
 20
11.3512827427
 30
0.0
 10
12.1018219749
 20
11.3609904146
 30
0.0
 10
12.0336347906
 20
11.3682503887
 30
0.0
 10
11.9840137182
 20
11.3732144733
 30
0.0
 10
11.9539128311
 20
11.3760761905
 30
0.0
 10
11.9404768886
 20
11.3773108045
 30
0.0
 10
11.9371105027
 20
11.3776057714
 30
0.0
  0
SPLINE
  5
4A8
100
AcDbEntity
  8
0
100
AcDbSpline
 62
9
  6
CONTINUOUS
 70
0
 71
3
 72
9
 73
5
 74
0
 42
0.0000001
 43
0.0000001
 44
0.0000000001
 40
0.0
 40
0.0
 40
0.0
 40
0.0
 40
0.2797941574
 40
1.0
 40
1.0
 40
1.0
 40
1.0
 10
12.5202266819
 20
18.8188839844
 30
0.0
 10
12.519679154
 20
18.8184072278
 30
0.0
 10
12.517699197
 20
18.8167301339
 30
0.0
 10
12.5156303558
 20
18.8151565838
 30
0.0
 10
12.5140884944
 20
18.8141006502
 30
0.0
  0
SPLINE
  5
4A9
100
AcDbEntity
  8
0
100
AcDbSpline
 62
9
  6
CONTINUOUS
 70
0
 71
3
 72
18
 73
14
 74
0
 42
0.0000001
 43
0.0000001
 44
0.0000000001
 40
0.0
 40
0.0
 40
0.0
 40
0.0
 40
0.2352734416
 40
0.4381904978
 40
0.6094073362
 40
0.7493970681
 40
0.8584461602
 40
0.9014085463
 40
0.9366573021
 40
0.9641752843
 40
0.9839337148
 40
0.9958923313
 40
1.0
 40
1.0
 40
1.0
 40
1.0
 10
12.5140884944
 20
18.8141006502
 30
0.0
 10
12.5134646867
 20
18.8136734397
 30
0.0
 10
12.5122864523
 20
18.8129012954
 30
0.0
 10
12.510602261
 20
18.8119007186
 30
0.0
 10
12.5091453351
 20
18.8111203859
 30
0.0
 10
12.5079274475
 20
18.8105357561
 30
0.0
 10
12.5070639385
 20
18.8101674958
 30
0.0
 10
12.5065027642
 20
18.8099503124
 30
0.0
 10
12.5061825469
 20
18.8098360035
 30
0.0
 10
12.5059328444
 20
18.8097483812
 30
0.0
 10
12.505747583
 20
18.8096977634
 30
0.0
 10
12.5056436365
 20
18.8096537142
 30
0.0
 10
12.5055870549
 20
18.809651991
 30
0.0
 10
12.5055772704
 20
18.8096431302
 30
0.0
  0
SPLINE
  5
4AA
100
AcDbEntity
  8
0
100
AcDbSpline
 62
9
  6
CONTINUOUS
 70
0
 71
3
 72
17
 73
13
 74
0
 42
0.0000001
 43
0.0000001
 44
0.0000000001
 40
0.0
 40
0.0
 40
0.0
 40
0.0
 40
0.2391460672
 40
0.4438063809
 40
0.6152894362
 40
0.7543608816
 40
0.8616442974
 40
0.9377191742
 40
0.964246334
 40
0.9832234268
 40
0.9948471408
 40
1.0
 40
1.0
 40
1.0
 40
1.0
 10
13.3032802246
 20
18.818932475
 30
0.0
 10
13.3043246586
 20
18.8180226028
 30
0.0
 10
13.3063015805
 20
18.8163777314
 30
0.0
 10
13.3091397391
 20
18.8142207769
 30
0.0
 10
13.3115768211
 20
18.8124979545
 30
0.0
 10
13.313605437
 20
18.8111755004
 30
0.0
 10
13.3152106227
 20
18.8102235017
 30
0.0
 10
13.3162934311
 20
18.8096599801
 30
0.0
 10
13.3169325079
 20
18.8093763465
 30
0.0
 10
13.3172550073
 20
18.8092669014
 30
0.0
 10
13.3174372336
 20
18.8092142243
 30
0.0
 10
13.3175613278
 20
18.8092247962
 30
0.0
 10
13.3175728502
 20
18.8092523286
 30
0.0
  0
SPLINE
  5
4AB
100
AcDbEntity
  8
0
100
AcDbSpline
 62
9
  6
CONTINUOUS
 70
0
 71
3
 72
11
 73
7
 74
0
 42
0.0000001
 43
0.0000001
 44
0.0000000001
 40
0.0
 40
0.0
 40
0.0
 40
0.0
 40
0.0687612195
 40
0.2693206665
 40
0.5870691504
 40
1.0
 40
1.0
 40
1.0
 40
1.0
 10
13.4794533705
 20
11.8434092849
 30
0.0
 10
13.4726392191
 20
11.8436918428
 30
0.0
 10
13.4459485215
 20
11.8447643344
 30
0.0
 10
13.3877583399
 20
11.8468609078
 30
0.0
 10
13.295444616
 20
11.8499031684
 30
0.0
 10
13.2230044498
 20
11.8520411431
 30
0.0
 10
13.1820644712
 20
11.853187604
 30
0.0
  0
SPLINE
  5
4AC
100
AcDbEntity
  8
0
100
AcDbSpline
 62
9
  6
CONTINUOUS
 70
0
 71
3
 72
11
 73
7
 74
0
 42
0.0000001
 43
0.0000001
 44
0.0000000001
 40
0.0
 40
0.0
 40
0.0
 40
0.0
 40
0.306421238
 40
0.4496994025
 40
0.5838609827
 40
1.0
 40
1.0
 40
1.0
 40
1.0
 10
13.1942718489
 20
12.2803361233
 30
0.0
 10
13.1939027344
 20
12.278733942
 30
0.0
 10
13.1931143207
 20
12.2764325313
 30
0.0
 10
13.1916086793
 20
12.2736633713
 30
0.0
 10
13.1895082178
 20
12.2706627115
 30
0.0
 10
13.1868039297
 20
12.2684206258
 30
0.0
 10
13.1845710718
 20
12.2684203445
 30
0.0
  0
SPLINE
  5
4AD
100
AcDbEntity
  8
0
100
AcDbSpline
 62
9
  6
CONTINUOUS
 70
0
 71
3
 72
31
 73
27
 74
0
 42
0.0000001
 43
0.0000001
 44
0.0000000001
 40
0.0
 40
0.0
 40
0.0
 40
0.0
 40
0.0672985914
 40
0.1304051333
 40
0.2476663543
 40
0.4538338679
 40
0.5442016095
 40
0.6263946213
 40
0.7004978074
 40
0.7664685336
 40
0.8242371666
 40
0.8500445983
 40
0.8738011157
 40
0.8955051201
 40
0.9151513176
 40
0.9327325274
 40
0.9482402938
 40
0.9616688678
 40
0.9730271174
 40
0.982326605
 40
0.9895776166
 40
0.9947891847
 40
0.997969225
 40
0.998799832
 40
0.9991267032
 40
1.0
 40
1.0
 40
1.0
 40
1.0
 10
11.6283906271
 20
11.1026597232
 30
0.0
 10
11.615724358
 20
11.1065531766
 30
0.0
 10
11.5912008729
 20
11.1141625426
 30
0.0
 10
11.5445412938
 20
11.1283416575
 30
0.0
 10
11.4713998727
 20
11.1494006055
 30
0.0
 10
11.3922468722
 20
11.1689407825
 30
0.0
 10
11.3190982852
 20
11.1834886963
 30
0.0
 10
11.2711999671
 20
11.1915714778
 30
0.0
 10
11.2278453769
 20
11.1975929602
 30
0.0
 10
11.1891169451
 20
11.2018396858
 30
0.0
 10
11.1597627542
 20
11.2042168953
 30
0.0
 10
11.1386647678
 20
11.2054588817
 30
0.0
 10
11.1246455566
 20
11.2060857652
 30
0.0
 10
11.1118315995
 20
11.2064787469
 30
0.0
 10
11.1002291411
 20
11.2066727977
 30
0.0
 10
11.0898453992
 20
11.2067028752
 30
0.0
 10
11.0806858153
 20
11.2066039649
 30
0.0
 10
11.0727553192
 20
11.2064107418
 30
0.0
 10
11.0660440686
 20
11.2061582525
 30
0.0
 10
11.0605672307
 20
11.2058807625
 30
0.0
 10
11.0562607135
 20
11.2056143918
 30
0.0
 10
11.053256697
 20
11.2053895659
 30
0.0
 10
11.0513283324
 20
11.2052509798
 30
0.0
 10
11.0505953674
 20
11.2051877255
 30
0.0
 10
11.0500417203
 20
11.2051815686
 30
0.0
 10
11.0505871438
 20
11.2052830868
 30
0.0
 10
11.0507559376
 20
11.205315897
 30
0.0
  0
LINE
  5
4AE
100
AcDbEntity
  8
0
100
AcDbLine
 62
9
  6
CONTINUOUS
 10
12.6417061324
 20
12.279704623
 11
12.635479187
 21
12.2800175213
  0
LINE
  5
4AF
100
AcDbEntity
  8
0
100
AcDbLine
 62
9
  6
CONTINUOUS
 10
12.635479187
 20
12.2800175213
 11
12.629139042
 21
12.2803361504
  0
SPLINE
  5
4B0
100
AcDbEntity
  8
0
100
AcDbSpline
 62
7
  6
CONTINUOUS
 70
0
 71
3
 72
21
 73
17
 74
0
 42
0.0000001
 43
0.0000001
 44
0.0000000001
 40
0.0
 40
0.0
 40
0.0
 40
0.0
 40
0.1418035594
 40
0.2085172213
 40
0.2721411918
 40
0.3326750823
 40
0.3903572683
 40
0.4458028633
 40
0.5000001761
 40
0.5541975268
 40
0.6096431428
 40
0.667325255
 40
0.72785898
 40
0.7914828499
 40
0.8581964278
 40
1.0
 40
1.0
 40
1.0
 40
1.0
 10
12.2815606757
 20
14.0349390918
 30
0.0
 10
12.2899540525
 20
14.0243828583
 30
0.0
 10
12.3030146672
 20
14.0093771764
 30
0.0
 10
12.3220144989
 20
13.9917670553
 30
0.0
 10
12.3363783032
 20
13.9806198187
 30
0.0
 10
12.3511352423
 20
13.9715246354
 30
0.0
 10
12.3662598729
 20
13.9647499206
 30
0.0
 10
12.381684875
 20
13.960548114
 30
0.0
 10
12.3972869686
 20
13.9591267179
 30
0.0
 10
12.4128890716
 20
13.9605481064
 30
0.0
 10
12.4283140455
 20
13.9647499989
 30
0.0
 10
12.4434386846
 20
13.9715246393
 30
0.0
 10
12.4581955648
 20
13.9806198636
 30
0.0
 10
12.4725593451
 20
13.9917670716
 30
0.0
 10
12.4915591688
 20
14.0093771793
 30
0.0
 10
12.504619777
 20
14.0243828573
 30
0.0
 10
12.5130131546
 20
14.0349390918
 30
0.0
  0
SPLINE
  5
4B1
100
AcDbEntity
  8
0
100
AcDbSpline
 62
7
  6
CONTINUOUS
 70
0
 71
3
 72
21
 73
17
 74
0
 42
0.0000001
 43
0.0000001
 44
0.0000000001
 40
0.0
 40
0.0
 40
0.0
 40
0.0
 40
0.1418035594
 40
0.2085172213
 40
0.2721411918
 40
0.3326750823
 40
0.3903572683
 40
0.4458028633
 40
0.5000001761
 40
0.5541975268
 40
0.6096431428
 40
0.667325255
 40
0.72785898
 40
0.7914828499
 40
0.8581964278
 40
1.0
 40
1.0
 40
1.0
 40
1.0
 10
13.3103988554
 20
14.0349390918
 30
0.0
 10
13.3187922322
 20
14.0243828583
 30
0.0
 10
13.3318528469
 20
14.0093771764
 30
0.0
 10
13.3508526786
 20
13.9917670553
 30
0.0
 10
13.3652164829
 20
13.9806198187
 30
0.0
 10
13.379973422
 20
13.9715246354
 30
0.0
 10
13.3950980526
 20
13.9647499206
 30
0.0
 10
13.4105230547
 20
13.960548114
 30
0.0
 10
13.4261251483
 20
13.9591267179
 30
0.0
 10
13.4417272513
 20
13.9605481064
 30
0.0
 10
13.4571522252
 20
13.9647499989
 30
0.0
 10
13.4722768643
 20
13.9715246393
 30
0.0
 10
13.4870337445
 20
13.9806198636
 30
0.0
 10
13.5013975247
 20
13.9917670716
 30
0.0
 10
13.5203973485
 20
14.0093771793
 30
0.0
 10
13.5334579567
 20
14.0243828573
 30
0.0
 10
13.5418513343
 20
14.0349390918
 30
0.0
  0
SPLINE
  5
4B2
100
AcDbEntity
  8
0
100
AcDbSpline
 62
7
  6
CONTINUOUS
 70
0
 71
3
 72
13
 73
9
 74
0
 42
0.0000001
 43
0.0000001
 44
0.0000000001
 40
0.0
 40
0.0
 40
0.0
 40
0.0
 40
0.2387565772
 40
0.4822003767
 40
0.6071288959
 40
0.7350161632
 40
0.8662298417
 40
1.0
 40
1.0
 40
1.0
 40
1.0
 10
12.1301735752
 20
13.5112612247
 30
0.0
 10
12.1327234782
 20
13.5172517757
 30
0.0
 10
12.138568315
 20
13.5290712584
 30
0.0
 10
12.148289844
 20
13.5426339561
 30
0.0
 10
12.1581141169
 20
13.5520016167
 30
0.0
 10
12.1668053562
 20
13.5579546624
 30
0.0
 10
12.1767932575
 20
13.5620613738
 30
0.0
 10
12.1840464202
 20
13.5631208045
 30
0.0
 10
12.1876942031
 20
13.5631208045
 30
0.0
  0
SPLINE
  5
4B3
100
AcDbEntity
  8
0
100
AcDbSpline
 62
7
  6
CONTINUOUS
 70
0
 71
3
 72
16
 73
12
 74
0
 42
0.0000001
 43
0.0000001
 44
0.0000000001
 40
0.0
 40
0.0
 40
0.0
 40
0.0
 40
0.0688221504
 40
0.1365907857
 40
0.2671751144
 40
0.3932893439
 40
0.5167356324
 40
0.638623769
 40
0.7595829935
 40
0.8799708242
 40
1.0
 40
1.0
 40
1.0
 40
1.0
 10
12.1876942031
 20
13.5631208045
 30
0.0
 10
12.1909099445
 20
13.5631208045
 30
0.0
 10
12.1973127311
 20
13.5622995217
 30
0.0
 10
12.2091234233
 20
13.5580121044
 30
0.0
 10
12.22157517
 20
13.5488646032
 30
0.0
 10
12.2329022718
 20
13.5350543575
 30
0.0
 10
12.2415820849
 20
13.5199581921
 30
0.0
 10
12.2483129502
 20
13.5041917957
 30
0.0
 10
12.2535827747
 20
13.4880406502
 30
0.0
 10
12.2577162728
 20
13.4716587929
 30
0.0
 10
12.2598719524
 20
13.4606288156
 30
0.0
 10
12.2608264715
 20
13.45510223
 30
0.0
  0
SPLINE
  5
4B4
100
AcDbEntity
  8
0
100
AcDbSpline
 62
7
  6
CONTINUOUS
 70
0
 71
3
 72
21
 73
17
 74
0
 42
0.0000001
 43
0.0000001
 44
0.0000000001
 40
0.0
 40
0.0
 40
0.0
 40
0.0
 40
0.1228457893
 40
0.2455079635
 40
0.3681337054
 40
0.4908215375
 40
0.5522513889
 40
0.6137884271
 40
0.6755131818
 40
0.7375706383
 40
0.8002328175
 40
0.8640445868
 40
0.8967697552
 40
0.9302911821
 40
0.9647658208
 40
1.0
 40
1.0
 40
1.0
 40
1.0
 10
12.2608264715
 20
13.45510223
 30
0.0
 10
12.2631794866
 20
13.4414784704
 30
0.0
 10
12.2664345149
 20
13.413997426
 30
0.0
 10
12.268440563
 20
13.3725955207
 30
0.0
 10
12.2681826883
 20
13.3311642804
 30
0.0
 10
12.2660181099
 20
13.2966827788
 30
0.0
 10
12.2627089449
 20
13.2692269485
 30
0.0
 10
12.2592343341
 20
13.2487233136
 30
0.0
 10
12.2544988694
 20
13.228395334
 30
0.0
 10
12.2481008181
 20
13.2083774799
 30
0.0
 10
12.23943868
 20
13.1889549143
 30
0.0
 10
12.2295619282
 20
13.1738374708
 30
0.0
 10
12.2193809312
 20
13.1632567215
 30
0.0
 10
12.2102357309
 20
13.1564398905
 30
0.0
 10
12.1995405845
 20
13.1516396402
 30
0.0
 10
12.1916595726
 20
13.1503949127
 30
0.0
 10
12.1876942032
 20
13.1503949127
 30
0.0
  0
SPLINE
  5
4B5
100
AcDbEntity
  8
0
100
AcDbSpline
 62
7
  6
CONTINUOUS
 70
0
 71
3
 72
13
 73
9
 74
0
 42
0.0000001
 43
0.0000001
 44
0.0000000001
 40
0.0
 40
0.0
 40
0.0
 40
0.0
 40
0.133770505
 40
0.2649839403
 40
0.3928712316
 40
0.517799653
 40
0.761243448
 40
1.0
 40
1.0
 40
1.0
 40
1.0
 10
12.1876942032
 20
13.1503949127
 30
0.0
 10
12.1840464099
 20
13.1503949127
 30
0.0
 10
12.1767932801
 20
13.1514546083
 30
0.0
 10
12.1668053499
 20
13.1555611991
 30
0.0
 10
12.158114126
 20
13.1615142802
 30
0.0
 10
12.1482898452
 20
13.1708819261
 30
0.0
 10
12.1385683177
 20
13.1844446316
 30
0.0
 10
12.1327234786
 20
13.1962641148
 30
0.0
 10
12.1301735752
 20
13.2022546668
 30
0.0
  0
SPLINE
  5
4B6
100
AcDbEntity
  8
0
100
AcDbSpline
 62
7
  6
CONTINUOUS
 70
0
 71
3
 72
13
 73
9
 74
0
 42
0.0000001
 43
0.0000001
 44
0.0000000001
 40
0.0
 40
0.0
 40
0.0
 40
0.0
 40
0.2387565772
 40
0.4822003765
 40
0.6071288957
 40
0.7350161626
 40
0.8662298415
 40
1.0
 40
1.0
 40
1.0
 40
1.0
 10
12.1301735752
 20
12.9172612247
 30
0.0
 10
12.1327234782
 20
12.9232517757
 30
0.0
 10
12.138568315
 20
12.9350712583
 30
0.0
 10
12.148289844
 20
12.948633956
 30
0.0
 10
12.1581141167
 20
12.9580016167
 30
0.0
 10
12.1668053562
 20
12.9639546621
 30
0.0
 10
12.1767932573
 20
12.9680613745
 30
0.0
 10
12.1840464203
 20
12.9691208035
 30
0.0
 10
12.1876942031
 20
12.9691208035
 30
0.0
  0
SPLINE
  5
4B7
100
AcDbEntity
  8
0
100
AcDbSpline
 62
7
  6
CONTINUOUS
 70
0
 71
3
 72
21
 73
17
 74
0
 42
0.0000001
 43
0.0000001
 44
0.0000000001
 40
0.0
 40
0.0
 40
0.0
 40
0.0
 40
0.1418035594
 40
0.2085172213
 40
0.2721411918
 40
0.3326750823
 40
0.3903572683
 40
0.4458028633
 40
0.5000001761
 40
0.5541975268
 40
0.6096431428
 40
0.667325255
 40
0.72785898
 40
0.7914828499
 40
0.8581964278
 40
1.0
 40
1.0
 40
1.0
 40
1.0
 10
13.5418513343
 20
14.3811122328
 30
0.0
 10
13.5334579575
 20
14.3916684664
 30
0.0
 10
13.5203973428
 20
14.4066741482
 30
0.0
 10
13.501397511
 20
14.4242842693
 30
0.0
 10
13.4870337068
 20
14.4354315059
 30
0.0
 10
13.4722767676
 20
14.4445266893
 30
0.0
 10
13.457152137
 20
14.451301404
 30
0.0
 10
13.4417271349
 20
14.4555032106
 30
0.0
 10
13.4261250413
 20
14.4569246068
 30
0.0
 10
13.4105229384
 20
14.4555032182
 30
0.0
 10
13.3950979644
 20
14.4513013257
 30
0.0
 10
13.3799733253
 20
14.4445266854
 30
0.0
 10
13.3652164452
 20
14.435431461
 30
0.0
 10
13.3508526649
 20
14.4242842531
 30
0.0
 10
13.3318528412
 20
14.4066741454
 30
0.0
 10
13.3187922329
 20
14.3916684673
 30
0.0
 10
13.3103988554
 20
14.3811122328
 30
0.0
  0
SPLINE
  5
4B8
100
AcDbEntity
  8
0
100
AcDbSpline
 62
7
  6
CONTINUOUS
 70
0
 71
3
 72
14
 73
10
 74
0
 42
0.0000001
 43
0.0000001
 44
0.0000000001
 40
0.0
 40
0.0
 40
0.0
 40
0.0
 40
0.1354655842
 40
0.266625153
 40
0.3934802382
 40
0.5173951951
 40
0.6394647048
 40
0.7603581828
 40
1.0
 40
1.0
 40
1.0
 40
1.0
 10
12.1876942031
 20
12.9691208035
 30
0.0
 10
12.1930232911
 20
12.9691208035
 30
0.0
 10
12.2035892937
 20
12.9668727715
 30
0.0
 10
12.216958902
 20
12.9586899421
 30
0.0
 10
12.227594935
 20
12.9479339057
 30
0.0
 10
12.2360450277
 20
12.9358879176
 30
0.0
 10
12.2428324206
 20
12.9231193726
 30
0.0
 10
12.2501427222
 20
12.905577827
 30
0.0
 10
12.2541506758
 20
12.8919245411
 30
0.0
 10
12.2563710415
 20
12.8827624653
 30
0.0
  0
SPLINE
  5
4B9
100
AcDbEntity
  8
0
100
AcDbSpline
 62
7
  6
CONTINUOUS
 70
0
 71
3
 72
9
 73
5
 74
0
 42
0.0000001
 43
0.0000001
 44
0.0000000001
 40
0.0
 40
0.0
 40
0.0
 40
0.0
 40
0.2503458422
 40
1.0
 40
1.0
 40
1.0
 40
1.0
 10
12.2563710415
 20
12.8827624653
 30
0.0
 10
12.2568057183
 20
12.8809688227
 30
0.0
 10
12.2584740292
 20
12.8737877276
 30
0.0
 10
12.2598858964
 20
12.8665480817
 30
0.0
 10
12.2608264727
 20
12.8611022234
 30
0.0
  0
SPLINE
  5
4BA
100
AcDbEntity
  8
0
100
AcDbSpline
 62
7
  6
CONTINUOUS
 70
0
 71
3
 72
11
 73
7
 74
0
 42
0.0000001
 43
0.0000001
 44
0.0000000001
 40
0.0
 40
0.0
 40
0.0
 40
0.0
 40
0.2501748297
 40
0.4999983623
 40
0.7498231793
 40
1.0
 40
1.0
 40
1.0
 40
1.0
 10
12.2608264727
 20
12.8611022234
 30
0.0
 10
12.2636298408
 20
12.8448709554
 30
0.0
 10
12.2671939896
 20
12.8120769775
 30
0.0
 10
12.2687502775
 20
12.7627043881
 30
0.0
 10
12.2671870314
 20
12.7133318855
 30
0.0
 10
12.2636161355
 20
12.6805382698
 30
0.0
 10
12.2608081485
 20
12.6643076673
 30
0.0
  0
SPLINE
  5
4BB
100
AcDbEntity
  8
0
100
AcDbSpline
 62
7
  6
CONTINUOUS
 70
0
 71
3
 72
16
 73
12
 74
0
 42
0.0000001
 43
0.0000001
 44
0.0000000001
 40
0.0
 40
0.0
 40
0.0
 40
0.0
 40
0.1200270517
 40
0.2404132915
 40
0.3613717243
 40
0.4832601282
 40
0.6067080275
 40
0.7328250315
 40
0.8634116506
 40
0.9311796776
 40
1.0
 40
1.0
 40
1.0
 40
1.0
 10
12.2608081485
 20
12.6643076673
 30
0.0
 10
12.2598528133
 20
12.658785681
 30
0.0
 10
12.2576955938
 20
12.6477649447
 30
0.0
 10
12.2535601091
 20
12.631397139
 30
0.0
 10
12.2482888141
 20
12.615260249
 30
0.0
 10
12.2415572462
 20
12.5995083517
 30
0.0
 10
12.2328779922
 20
12.5844269764
 30
0.0
 10
12.2215536101
 20
12.5706317409
 30
0.0
 10
12.2091077645
 20
12.5614960989
 30
0.0
 10
12.1973051097
 20
12.5572151446
 30
0.0
 10
12.1909073972
 20
12.5563949115
 30
0.0
 10
12.1876942032
 20
12.5563949115
 30
0.0
  0
SPLINE
  5
4BC
100
AcDbEntity
  8
0
100
AcDbSpline
 62
7
  6
CONTINUOUS
 70
0
 71
3
 72
21
 73
17
 74
0
 42
0.0000001
 43
0.0000001
 44
0.0000000001
 40
0.0
 40
0.0
 40
0.0
 40
0.0
 40
0.1418035594
 40
0.2085172213
 40
0.2721411918
 40
0.3326750823
 40
0.3903572683
 40
0.4458028633
 40
0.5000001761
 40
0.5541975268
 40
0.6096431428
 40
0.667325255
 40
0.72785898
 40
0.7914828499
 40
0.8581964278
 40
1.0
 40
1.0
 40
1.0
 40
1.0
 10
12.5130131546
 20
14.3811122328
 30
0.0
 10
12.5046197778
 20
14.3916684664
 30
0.0
 10
12.4915591631
 20
14.4066741482
 30
0.0
 10
12.4725593313
 20
14.4242842693
 30
0.0
 10
12.4581955271
 20
14.4354315059
 30
0.0
 10
12.4434385879
 20
14.4445266893
 30
0.0
 10
12.4283139573
 20
14.451301404
 30
0.0
 10
12.4128889553
 20
14.4555032106
 30
0.0
 10
12.3972868616
 20
14.4569246068
 30
0.0
 10
12.3816847587
 20
14.4555032182
 30
0.0
 10
12.3662597847
 20
14.4513013257
 30
0.0
 10
12.3511351456
 20
14.4445266854
 30
0.0
 10
12.3363782655
 20
14.435431461
 30
0.0
 10
12.3220144852
 20
14.4242842531
 30
0.0
 10
12.3030146615
 20
14.4066741454
 30
0.0
 10
12.2899540532
 20
14.3916684673
 30
0.0
 10
12.2815606757
 20
14.3811122328
 30
0.0
  0
SPLINE
  5
4BD
100
AcDbEntity
  8
0
100
AcDbSpline
 62
7
  6
CONTINUOUS
 70
0
 71
3
 72
13
 73
9
 74
0
 42
0.0000001
 43
0.0000001
 44
0.0000000001
 40
0.0
 40
0.0
 40
0.0
 40
0.0
 40
0.1337705048
 40
0.2649839396
 40
0.3928712314
 40
0.5177996528
 40
0.7612434479
 40
1.0
 40
1.0
 40
1.0
 40
1.0
 10
12.1876942032
 20
12.5563949115
 30
0.0
 10
12.1840464099
 20
12.5563949115
 30
0.0
 10
12.1767932804
 20
12.5574546091
 30
0.0
 10
12.1668053499
 20
12.5615611988
 30
0.0
 10
12.1581141261
 20
12.5675142802
 30
0.0
 10
12.1482898452
 20
12.5768819259
 30
0.0
 10
12.1385683177
 20
12.5904446316
 30
0.0
 10
12.1327234787
 20
12.6022641148
 30
0.0
 10
12.1301735752
 20
12.6082546668
 30
0.0
  0
SPLINE
  5
4BE
100
AcDbEntity
  8
0
100
AcDbSpline
 62
9
  6
CONTINUOUS
 70
0
 71
3
 72
9
 73
5
 74
0
 42
0.0000001
 43
0.0000001
 44
0.0000000001
 40
0.0
 40
0.0
 40
0.0
 40
0.0
 40
0.5031005949
 40
1.0
 40
1.0
 40
1.0
 40
1.0
 10
12.534982854
 20
13.5953247113
 30
0.0
 10
12.550748435
 20
13.6139365682
 30
0.0
 10
12.5842751877
 20
13.6491416325
 30
0.0
 10
12.622007225
 20
13.6798391524
 30
0.0
 10
12.6416815396
 20
13.6937423799
 30
0.0
  0
SPLINE
  5
4BF
100
AcDbEntity
  8
0
100
AcDbSpline
 62
9
  6
CONTINUOUS
 70
0
 71
3
 72
9
 73
5
 74
0
 42
0.0000001
 43
0.0000001
 44
0.0000000001
 40
0.0
 40
0.0
 40
0.0
 40
0.0
 40
0.4968884377
 40
1.0
 40
1.0
 40
1.0
 40
1.0
 10
13.1817263717
 20
13.6937964633
 30
0.0
 10
13.2014508392
 20
13.6798677334
 30
0.0
 10
13.2392667707
 20
13.6490877926
 30
0.0
 10
13.2728217371
 20
13.6137526854
 30
0.0
 10
13.2886075598
 20
13.5950827039
 30
0.0
  0
SPLINE
  5
4C0
100
AcDbEntity
  8
0
100
AcDbSpline
 62
9
  6
CONTINUOUS
 70
0
 71
3
 72
11
 73
7
 74
0
 42
0.0000001
 43
0.0000001
 44
0.0000000001
 40
0.0
 40
0.0
 40
0.0
 40
0.0
 40
0.1842644113
 40
0.4106452008
 40
0.6812273858
 40
1.0
 40
1.0
 40
1.0
 40
1.0
 10
13.3052497607
 20
19.9174285551
 30
0.0
 10
13.3020381179
 20
19.9146067323
 30
0.0
 10
13.2943102954
 20
19.9089719635
 30
0.0
 10
13.2806116125
 20
19.9010587533
 30
0.0
 10
13.2635496676
 20
19.8928348187
 30
0.0
 10
13.250916983
 20
19.8875873041
 30
0.0
 10
13.2440358699
 20
19.8848760571
 30
0.0
  0
SPLINE
  5
4C1
100
AcDbEntity
  8
0
100
AcDbSpline
 62
9
  6
CONTINUOUS
 70
0
 71
3
 72
9
 73
5
 74
0
 42
0.0000001
 43
0.0000001
 44
0.0000000001
 40
0.0
 40
0.0
 40
0.0
 40
0.0
 40
0.23398405
 40
1.0
 40
1.0
 40
1.0
 40
1.0
 10
13.2440358699
 20
19.8848760571
 30
0.0
 10
13.2420693308
 20
19.8841012154
 30
0.0
 10
13.2336468978
 20
19.8808349966
 30
0.0
 10
13.2251601168
 20
19.8777362539
 30
0.0
 10
13.2186367876
 20
19.8754277178
 30
0.0
  0
LINE
  5
4C2
100
AcDbEntity
  8
0
100
AcDbLine
 62
9
  6
CONTINUOUS
 10
13.2186367876
 20
19.8754277178
 11
13.1896170128
 21
19.8655658866
  0
SPLINE
  5
4C3
100
AcDbEntity
  8
0
100
AcDbSpline
 62
9
  6
CONTINUOUS
 70
0
 71
3
 72
14
 73
10
 74
0
 42
0.0000001
 43
0.0000001
 44
0.0000000001
 40
0.0
 40
0.0
 40
0.0
 40
0.0
 40
0.0278659166
 40
0.0508704918
 40
0.0809555314
 40
0.1631426999
 40
0.2750065153
 40
0.5850997436
 40
1.0
 40
1.0
 40
1.0
 40
1.0
 10
12.3190390594
 20
20.310226412
 30
0.0
 10
12.3190603028
 20
20.3099934424
 30
0.0
 10
12.3194625233
 20
20.3096743759
 30
0.0
 10
12.3200685409
 20
20.3094243713
 30
0.0
 10
12.3211705874
 20
20.3090992332
 30
0.0
 10
12.3230238036
 20
20.3087934678
 30
0.0
 10
12.3272406458
 20
20.3083747552
 30
0.0
 10
12.3342662953
 20
20.3081655804
 30
0.0
 10
12.3403532588
 20
20.3082021035
 30
0.0
 10
12.343835774
 20
20.3082666648
 30
0.0
  0
SPLINE
  5
4C4
100
AcDbEntity
  8
0
100
AcDbSpline
 62
9
  6
CONTINUOUS
 70
0
 71
3
 72
9
 73
5
 74
0
 42
0.0000001
 43
0.0000001
 44
0.0000000001
 40
0.0
 40
0.0
 40
0.0
 40
0.0
 40
0.4583306901
 40
1.0
 40
1.0
 40
1.0
 40
1.0
 10
12.343835774
 20
20.3082666648
 30
0.0
 10
12.3529981638
 20
20.3084365234
 30
0.0
 10
12.3729770343
 20
20.3093729837
 30
0.0
 10
12.3929163202
 20
20.3108770552
 30
0.0
 10
12.4037043439
 20
20.3118325457
 30
0.0
  0
SPLINE
  5
4C5
100
AcDbEntity
  8
0
100
AcDbSpline
 62
9
  6
CONTINUOUS
 70
0
 71
3
 72
35
 73
31
 74
0
 42
0.0000001
 43
0.0000001
 44
0.0000000001
 40
0.0
 40
0.0
 40
0.0
 40
0.0
 40
0.2144495372
 40
0.314754924
 40
0.4097996668
 40
0.4990999042
 40
0.5822049758
 40
0.6587344108
 40
0.7283166504
 40
0.7905826846
 40
0.8452191191
 40
0.8695950297
 40
0.8919665282
 40
0.9123014553
 40
0.9305676482
 40
0.9467334893
 40
0.9607787254
 40
0.9726938285
 40
0.9824696916
 40
0.9865525634
 40
0.9900972126
 40
0.9931025033
 40
0.9955673023
 40
0.9974904812
 40
0.9982486143
 40
0.9988709267
 40
0.9993572868
 40
0.9997075756
 40
0.9999217189
 40
1.0
 40
1.0
 40
1.0
 40
1.0
 10
12.639767142
 20
12.0651694235
 30
0.0
 10
12.6146480976
 20
12.0650943906
 30
0.0
 10
12.5777798877
 20
12.065018254
 30
0.0
 10
12.5297787402
 20
12.0650119438
 30
0.0
 10
12.4964367459
 20
12.0650433147
 30
0.0
 10
12.4651095252
 20
12.0651043369
 30
0.0
 10
12.4359511233
 20
12.0651883289
 30
0.0
 10
12.4091024343
 20
12.0652925562
 30
0.0
 10
12.3846947846
 20
12.0654134969
 30
0.0
 10
12.3628516507
 20
12.0655488303
 30
0.0
 10
12.3463037224
 20
12.0656724637
 30
0.0
 10
12.3344287185
 20
12.0657709742
 30
0.0
 10
12.3265714528
 20
12.0658398684
 30
0.0
 10
12.3194298356
 20
12.0659052986
 30
0.0
 10
12.3130150947
 20
12.065966021
 30
0.0
 10
12.3073370597
 20
12.0660205643
 30
0.0
 10
12.3024029188
 20
12.0660684456
 30
0.0
 10
12.298217231
 20
12.0661102156
 30
0.0
 10
12.2951984275
 20
12.0661418448
 30
0.0
 10
12.2931600378
 20
12.066164747
 30
0.0
 10
12.2919146819
 20
12.0661796219
 30
0.0
 10
12.2908588135
 20
12.0661932037
 30
0.0
 10
12.2899929915
 20
12.0662057689
 30
0.0
 10
12.2893900954
 20
12.0662154903
 30
0.0
 10
12.2890035103
 20
12.0662236279
 30
0.0
 10
12.288784265
 20
12.0662277638
 30
0.0
 10
12.2886150951
 20
12.066234838
 30
0.0
 10
12.2884882917
 20
12.0662338706
 30
0.0
 10
12.2884199459
 20
12.0662473698
 30
0.0
 10
12.2883783326
 20
12.0662399039
 30
0.0
 10
12.2883726716
 20
12.0662471171
 30
0.0
  0
SPLINE
  5
4C6
100
AcDbEntity
  8
0
100
AcDbSpline
 62
9
  6
CONTINUOUS
 70
0
 71
3
 72
31
 73
27
 74
0
 42
0.0000001
 43
0.0000001
 44
0.0000000001
 40
0.0
 40
0.0
 40
0.0
 40
0.0
 40
0.0006758773
 40
0.0012973363
 40
0.0025184937
 40
0.0044356781
 40
0.0070522432
 40
0.0103558948
 40
0.0143298706
 40
0.0189557386
 40
0.0242143605
 40
0.0300862988
 40
0.0435919745
 40
0.0593169223
 40
0.0771208943
 40
0.0969388923
 40
0.1187299303
 40
0.1680642292
 40
0.2247873268
 40
0.2885602538
 40
0.3590026507
 40
0.4356685686
 40
0.5181080971
 40
0.6058735804
 40
0.7954133143
 40
1.0
 40
1.0
 40
1.0
 40
1.0
 10
12.3557133073
 20
12.3512811164
 30
0.0
 10
12.3557293225
 20
12.3512404118
 30
0.0
 10
12.3557856195
 20
12.3511419238
 30
0.0
 10
12.3559562088
 20
12.3512502886
 30
0.0
 10
12.3560679535
 20
12.3514538901
 30
0.0
 10
12.3562441466
 20
12.3517887035
 30
0.0
 10
12.3564377834
 20
12.352255439
 30
0.0
 10
12.356671487
 20
12.3528524559
 30
0.0
 10
12.3569370884
 20
12.353575357
 30
0.0
 10
12.3572387894
 20
12.3544200861
 30
0.0
 10
12.3575765215
 20
12.3553822422
 30
0.0
 10
12.3581018083
 20
12.3568876621
 30
0.0
 10
12.3588522521
 20
12.359031922
 30
0.0
 10
12.3598794651
 20
12.3618974422
 30
0.0
 10
12.3610825838
 20
12.3651336411
 30
0.0
 10
12.3624525157
 20
12.3687264791
 30
0.0
 10
12.3645807583
 20
12.3742139742
 30
0.0
 10
12.3676161135
 20
12.3819113198
 30
0.0
 10
12.3716669425
 20
12.3921287839
 30
0.0
 10
12.3762039707
 20
12.4036230359
 30
0.0
 10
12.3811667632
 20
12.4163367365
 30
0.0
 10
12.3864962924
 20
12.4302039544
 30
0.0
 10
12.3921325578
 20
12.4451540642
 30
0.0
 10
12.4001733255
 20
12.4670039912
 30
0.0
 10
12.4106177241
 20
12.4963909271
 30
0.0
 10
12.4191548392
 20
12.5204271722
 30
0.0
 10
12.4236463735
 20
12.5328826379
 30
0.0
  0
SPLINE
  5
4C7
100
AcDbEntity
  8
0
100
AcDbSpline
 62
9
  6
CONTINUOUS
 70
0
 71
3
 72
13
 73
9
 74
0
 42
0.0000001
 43
0.0000001
 44
0.0000000001
 40
0.0
 40
0.0
 40
0.0
 40
0.0
 40
0.2506498188
 40
0.3757339183
 40
0.5006411873
 40
0.6254778146
 40
0.750370652
 40
1.0
 40
1.0
 40
1.0
 40
1.0
 10
12.4336725859
 20
12.5324701228
 30
0.0
 10
12.4460432339
 20
12.5086729573
 30
0.0
 10
12.4658841066
 20
12.4736391691
 30
0.0
 10
12.4953028419
 20
12.4288510487
 30
0.0
 10
12.5188970304
 20
12.3963976713
 30
0.0
 10
12.5440309348
 20
12.3651440082
 30
0.0
 10
12.5795290882
 20
12.325196191
 30
0.0
 10
12.6085729034
 20
12.2973842028
 30
0.0
 10
12.6291357151
 20
12.2803353485
 30
0.0
  0
SPLINE
  5
4C8
100
AcDbEntity
  8
0
100
AcDbSpline
 62
9
  6
CONTINUOUS
 70
0
 71
3
 72
19
 73
15
 74
0
 42
0.0000001
 43
0.0000001
 44
0.0000000001
 40
0.0
 40
0.0
 40
0.0
 40
0.0
 40
0.0792032214
 40
0.1478480218
 40
0.2100563123
 40
0.2674766789
 40
0.3719743717
 40
0.4655984923
 40
0.6270035076
 40
0.7585426718
 40
0.862008957
 40
0.9374672075
 40
0.9840447115
 40
1.0
 40
1.0
 40
1.0
 40
1.0
 10
7.1615028136
 20
10.1994085526
 30
0.0
 10
7.148279143
 20
10.2023993575
 30
0.0
 10
7.1237111421
 20
10.2085026036
 30
0.0
 10
7.0890656091
 20
10.2181304399
 30
0.0
 10
7.0581656017
 20
10.2272906892
 30
0.0
 10
7.0215339723
 20
10.2386945827
 30
0.0
 10
6.9799262575
 20
10.2521974252
 30
0.0
 10
6.9215675846
 20
10.2717359545
 30
0.0
 10
6.8589421043
 20
10.2931060774
 30
0.0
 10
6.7946741745
 20
10.3148791742
 30
0.0
 10
6.7442281736
 20
10.3315986864
 30
0.0
 10
6.7074742188
 20
10.3433963352
 30
0.0
 10
6.6849060346
 20
10.3503715779
 30
0.0
 10
6.674642245
 20
10.3534101212
 30
0.0
 10
6.6720206276
 20
10.3541759738
 30
0.0
  0
SPLINE
  5
4C9
100
AcDbEntity
  8
0
100
AcDbSpline
 62
7
  6
CONTINUOUS
 70
0
 71
3
 72
21
 73
17
 74
0
 42
0.0000001
 43
0.0000001
 44
0.0000000001
 40
0.0
 40
0.0
 40
0.0
 40
0.0
 40
0.1418035594
 40
0.2085172213
 40
0.2721411918
 40
0.3326750823
 40
0.3903572683
 40
0.4458028633
 40
0.5000001761
 40
0.5541975268
 40
0.6096431428
 40
0.667325255
 40
0.72785898
 40
0.7914828499
 40
0.8581964278
 40
1.0
 40
1.0
 40
1.0
 40
1.0
 10
13.6640918754
 20
12.6610650954
 30
0.0
 10
13.6535356419
 20
12.6526717186
 30
0.0
 10
13.63852996
 20
12.6396111039
 30
0.0
 10
13.6209198389
 20
12.6206112721
 30
0.0
 10
13.6097726023
 20
12.6062474679
 30
0.0
 10
13.600677419
 20
12.5914905287
 30
0.0
 10
13.5939027042
 20
12.5763658981
 30
0.0
 10
13.5897008976
 20
12.5609408961
 30
0.0
 10
13.5882795015
 20
12.5453388024
 30
0.0
 10
13.58970089
 20
12.5297366995
 30
0.0
 10
13.5939027825
 20
12.5143117255
 30
0.0
 10
13.6006774229
 20
12.4991870865
 30
0.0
 10
13.6097726472
 20
12.4844302063
 30
0.0
 10
13.6209198552
 20
12.470066426
 30
0.0
 10
13.6385299629
 20
12.4510666023
 30
0.0
 10
13.6535356409
 20
12.438005994
 30
0.0
 10
13.6640918754
 20
12.4296126165
 30
0.0
  0
SPLINE
  5
4CA
100
AcDbEntity
  8
0
100
AcDbSpline
 62
9
  6
CONTINUOUS
 70
0
 71
3
 72
26
 73
22
 74
0
 42
0.0000001
 43
0.0000001
 44
0.0000000001
 40
0.0
 40
0.0
 40
0.0
 40
0.0
 40
0.0098668429
 40
0.0209908617
 40
0.0335145019
 40
0.0475108488
 40
0.0800006233
 40
0.1184262933
 40
0.1625424931
 40
0.2120742549
 40
0.2667269799
 40
0.3262331741
 40
0.3903498902
 40
0.4589156001
 40
0.5318724193
 40
0.6094712247
 40
0.6922294641
 40
0.781520328
 40
0.829452389
 40
0.8806327932
 40
1.0
 40
1.0
 40
1.0
 40
1.0
 10
7.7455084023
 20
9.9422940594
 30
0.0
 10
7.7434238435
 20
9.9419638977
 30
0.0
 10
7.7389172688
 20
9.9416978636
 30
0.0
 10
7.7317574748
 20
9.942285748
 30
0.0
 10
7.7238340241
 20
9.9437838514
 30
0.0
 10
7.711648609
 20
9.9471128347
 30
0.0
 10
7.6946189225
 20
9.9535205411
 30
0.0
 10
7.6722452224
 20
9.9637799085
 30
0.0
 10
7.6471079151
 20
9.976687459
 30
0.0
 10
7.6192782914
 20
9.9919150945
 30
0.0
 10
7.5888001388
 20
10.0091513472
 30
0.0
 10
7.5556871717
 20
10.0280641704
 30
0.0
 10
7.5199228822
 20
10.0483359249
 30
0.0
 10
7.4814335584
 20
10.0696317345
 30
0.0
 10
7.440057223
 20
10.0916577338
 30
0.0
 10
7.3954497027
 20
10.1140501794
 30
0.0
 10
7.3470142979
 20
10.1365600684
 30
0.0
 10
7.3035724618
 20
10.1546845944
 30
0.0
 10
7.2658344127
 20
10.1688409458
 30
0.0
 10
7.2215919607
 20
10.1839002944
 30
0.0
 10
7.1864067532
 20
10.1937760147
 30
0.0
 10
7.1615028136
 20
10.1994085526
 30
0.0
  0
SPLINE
  5
4CB
100
AcDbEntity
  8
0
100
AcDbSpline
 62
9
  6
CONTINUOUS
 70
0
 71
3
 72
11
 73
7
 74
0
 42
0.0000001
 43
0.0000001
 44
0.0000000001
 40
0.0
 40
0.0
 40
0.0
 40
0.0
 40
0.3064208366
 40
0.4496991163
 40
0.5838608769
 40
1.0
 40
1.0
 40
1.0
 40
1.0
 10
12.62914001
 20
12.2803361311
 30
0.0
 10
12.62950913
 20
12.2787339556
 30
0.0
 10
12.6302975474
 20
12.2764325524
 30
0.0
 10
12.6318031852
 20
12.2736633958
 30
0.0
 10
12.6339036381
 20
12.2706627354
 30
0.0
 10
12.6366079165
 20
12.268420634
 30
0.0
 10
12.638840772
 20
12.2684203544
 30
0.0
  0
SPLINE
  5
4CC
100
AcDbEntity
  8
0
100
AcDbSpline
 62
7
  6
CONTINUOUS
 70
0
 71
3
 72
21
 73
17
 74
0
 42
0.0000001
 43
0.0000001
 44
0.0000000001
 40
0.0
 40
0.0
 40
0.0
 40
0.0
 40
0.1418035594
 40
0.2085172213
 40
0.2721411918
 40
0.3326750823
 40
0.3903572683
 40
0.4458028633
 40
0.5000001761
 40
0.5541975268
 40
0.6096431428
 40
0.667325255
 40
0.72785898
 40
0.7914828499
 40
0.8581964278
 40
1.0
 40
1.0
 40
1.0
 40
1.0
 10
14.0102650164
 20
12.4296126165
 30
0.0
 10
14.02082125
 20
12.4380059933
 30
0.0
 10
14.0358269318
 20
12.451066608
 30
0.0
 10
14.0534370529
 20
12.4700664397
 30
0.0
 10
14.0645842895
 20
12.484430244
 30
0.0
 10
14.0736794729
 20
12.4991871831
 30
0.0
 10
14.0804541876
 20
12.5143118137
 30
0.0
 10
14.0846559942
 20
12.5297368158
 30
0.0
 10
14.0860773904
 20
12.5453389094
 30
0.0
 10
14.0846560018
 20
12.5609410124
 30
0.0
 10
14.0804541093
 20
12.5763659863
 30
0.0
 10
14.073679469
 20
12.5914906254
 30
0.0
 10
14.0645842446
 20
12.6062475056
 30
0.0
 10
14.0534370367
 20
12.6206112859
 30
0.0
 10
14.035826929
 20
12.6396111096
 30
0.0
 10
14.0208212509
 20
12.6526717178
 30
0.0
 10
14.0102650164
 20
12.6610650954
 30
0.0
  0
SPLINE
  5
4CD
100
AcDbEntity
  8
0
100
AcDbSpline
 62
7
  6
CONTINUOUS
 70
0
 71
3
 72
12
 73
8
 74
0
 42
0.0000001
 43
0.0000001
 44
0.0000000001
 40
0.0
 40
0.0
 40
0.0
 40
0.0
 40
0.249937397
 40
0.4999421637
 40
0.6249989784
 40
0.7500948018
 40
1.0
 40
1.0
 40
1.0
 40
1.0
 10
14.0102650164
 20
12.8283054669
 30
0.0
 10
14.0211996138
 20
12.845693903
 30
0.0
 10
14.0415739149
 20
12.8814581673
 30
0.0
 10
14.0618167964
 20
12.9288320397
 30
0.0
 10
14.0738700498
 20
12.9681718313
 30
0.0
 10
14.0827763354
 20
13.0083209592
 30
0.0
 10
14.0856092265
 20
13.0392198245
 30
0.0
 10
14.0856092265
 20
13.0597579458
 30
0.0
  0
SPLINE
  5
4CE
100
AcDbEntity
  8
0
100
AcDbSpline
 62
9
  6
CONTINUOUS
 70
0
 71
3
 72
21
 73
17
 74
0
 42
0.0000001
 43
0.0000001
 44
0.0000000001
 40
0.0
 40
0.0
 40
0.0
 40
0.0
 40
0.0062264549
 40
0.0243009175
 40
0.0533190198
 40
0.0923808312
 40
0.1405742351
 40
0.1969226846
 40
0.3301510527
 40
0.4842363739
 40
0.6512242243
 40
0.7372707377
 40
0.8240148457
 40
0.9111629805
 40
0.9551272189
 40
1.0
 40
1.0
 40
1.0
 40
1.0
 10
12.4272490863
 20
10.6838089374
 30
0.0
 10
12.425728551
 20
10.6849111711
 30
0.0
 10
12.4197572322
 20
10.6891618989
 30
0.0
 10
12.4065903179
 20
10.698396005
 30
0.0
 10
12.3851542241
 20
10.7130857196
 30
0.0
 10
12.3560041671
 20
10.7325857271
 30
0.0
 10
12.3197055507
 20
10.7562200806
 30
0.0
 10
12.2591267372
 20
10.7946075921
 30
0.0
 10
12.1704441321
 20
10.8483004323
 30
0.0
 10
12.0511142711
 20
10.9156987297
 30
0.0
 10
11.9420741873
 20
10.9722540993
 30
0.0
 10
11.8494899885
 20
11.016222845
 30
0.0
 10
11.7777392876
 20
11.0478544215
 30
0.0
 10
11.7167184119
 20
11.0722846451
 30
0.0
 10
11.6667863766
 20
11.0903067406
 30
0.0
 10
11.6413277075
 20
11.0986830259
 30
0.0
 10
11.6283906271
 20
11.1026597232
 30
0.0
  0
SPLINE
  5
4CF
100
AcDbEntity
  8
0
100
AcDbSpline
 62
7
  6
CONTINUOUS
 70
0
 71
3
 72
12
 73
8
 74
0
 42
0.0000001
 43
0.0000001
 44
0.0000000001
 40
0.0
 40
0.0
 40
0.0
 40
0.0
 40
0.2499272328
 40
0.3750436261
 40
0.5000944538
 40
0.750081078
 40
1.0
 40
1.0
 40
1.0
 40
1.0
 10
14.0856092265
 20
13.0597579458
 30
0.0
 10
14.0856092265
 20
13.0802978711
 30
0.0
 10
14.0827696484
 20
13.1111993436
 30
0.0
 10
14.0738701892
 20
13.1513529156
 30
0.0
 10
14.0618156566
 20
13.1906922459
 30
0.0
 10
14.0415706259
 20
13.238061174
 30
0.0
 10
14.0211988019
 20
13.2738232797
 30
0.0
 10
14.0102650164
 20
13.2912104247
 30
0.0
  0
SPLINE
  5
4D0
100
AcDbEntity
  8
0
100
AcDbSpline
 62
7
  6
CONTINUOUS
 70
0
 71
3
 72
21
 73
17
 74
0
 42
0.0000001
 43
0.0000001
 44
0.0000000001
 40
0.0
 40
0.0
 40
0.0
 40
0.0
 40
0.1418035594
 40
0.2085172213
 40
0.2721411918
 40
0.3326750823
 40
0.3903572683
 40
0.4458028633
 40
0.5000001761
 40
0.5541975268
 40
0.6096431428
 40
0.667325255
 40
0.72785898
 40
0.7914828499
 40
0.8581964278
 40
1.0
 40
1.0
 40
1.0
 40
1.0
 10
14.0102650164
 20
13.4584507962
 30
0.0
 10
14.02082125
 20
13.466844173
 30
0.0
 10
14.0358269318
 20
13.4799047877
 30
0.0
 10
14.0534370529
 20
13.4989046194
 30
0.0
 10
14.0645842895
 20
13.5132684237
 30
0.0
 10
14.0736794729
 20
13.5280253628
 30
0.0
 10
14.0804541876
 20
13.5431499934
 30
0.0
 10
14.0846559942
 20
13.5585749955
 30
0.0
 10
14.0860773904
 20
13.5741770891
 30
0.0
 10
14.0846560018
 20
13.5897791921
 30
0.0
 10
14.0804541093
 20
13.605204166
 30
0.0
 10
14.073679469
 20
13.6203288051
 30
0.0
 10
14.0645842446
 20
13.6350856853
 30
0.0
 10
14.0534370367
 20
13.6494494656
 30
0.0
 10
14.035826929
 20
13.6684492893
 30
0.0
 10
14.0208212509
 20
13.6815098975
 30
0.0
 10
14.0102650164
 20
13.6899032751
 30
0.0
  0
SPLINE
  5
4D1
100
AcDbEntity
  8
0
100
AcDbSpline
 62
7
  6
CONTINUOUS
 70
0
 71
3
 72
12
 73
8
 74
0
 42
0.0000001
 43
0.0000001
 44
0.0000000001
 40
0.0
 40
0.0
 40
0.0
 40
0.0
 40
0.2499307635
 40
0.4999296626
 40
0.6249840591
 40
0.7500866416
 40
1.0
 40
1.0
 40
1.0
 40
1.0
 10
13.6640918754
 20
12.8283054669
 30
0.0
 10
13.6531575714
 20
12.8456934364
 30
0.0
 10
13.6327849971
 20
12.8814574745
 30
0.0
 10
13.6125412145
 20
12.9288294345
 30
0.0
 10
13.600486421
 20
12.9681687012
 30
0.0
 10
13.5915822589
 20
13.0083193304
 30
0.0
 10
13.5887476653
 20
13.0392191598
 30
0.0
 10
13.5887476653
 20
13.0597579458
 30
0.0
  0
SPLINE
  5
4D2
100
AcDbEntity
  8
0
100
AcDbSpline
 62
7
  6
CONTINUOUS
 70
0
 71
3
 72
12
 73
8
 74
0
 42
0.0000001
 43
0.0000001
 44
0.0000000001
 40
0.0
 40
0.0
 40
0.0
 40
0.0
 40
0.24992322
 40
0.3750352174
 40
0.5000869742
 40
0.7500776186
 40
1.0
 40
1.0
 40
1.0
 40
1.0
 10
13.5887476653
 20
13.0597579458
 30
0.0
 10
13.5887476653
 20
13.0802975345
 30
0.0
 10
13.5915854566
 20
13.1111985256
 30
0.0
 10
13.600486563
 20
13.1513511472
 30
0.0
 10
13.6125418342
 20
13.1906902374
 30
0.0
 10
13.6327865288
 20
13.2380599767
 30
0.0
 10
13.6531579422
 20
13.2738230449
 30
0.0
 10
13.6640918754
 20
13.2912104247
 30
0.0
  0
SPLINE
  5
4D3
100
AcDbEntity
  8
0
100
AcDbSpline
 62
9
  6
CONTINUOUS
 70
0
 71
3
 72
24
 73
20
 74
0
 42
0.0000001
 43
0.0000001
 44
0.0000000001
 40
0.0
 40
0.0
 40
0.0
 40
0.0
 40
0.0006402796
 40
0.0025454306
 40
0.0056515756
 40
0.009894912
 40
0.0215384863
 40
0.0369683071
 40
0.0556791195
 40
0.0771689606
 40
0.1265936837
 40
0.1827506769
 40
0.2441706905
 40
0.3094519334
 40
0.3773662044
 40
0.5198650128
 40
0.6711988317
 40
0.8312829973
 40
1.0
 40
1.0
 40
1.0
 40
1.0
 10
12.4850010405
 20
18.7543268466
 30
0.0
 10
12.4850032647
 20
18.7543327854
 30
0.0
 10
12.4850074089
 20
18.7542789496
 30
0.0
 10
12.4850217873
 20
18.7542523899
 30
0.0
 10
12.4850422763
 20
18.7541478252
 30
0.0
 10
12.4850874189
 20
18.7539740377
 30
0.0
 10
12.4851632897
 20
18.7536670158
 30
0.0
 10
12.4852802039
 20
18.7532316897
 30
0.0
 10
12.4854294491
 20
18.7527002668
 30
0.0
 10
12.4856834268
 20
18.7518500693
 30
0.0
 10
12.486078935
 20
18.7506546301
 30
0.0
 10
12.4866606232
 20
18.7491058534
 30
0.0
 10
12.4873652551
 20
18.747436848
 30
0.0
 10
12.4881926285
 20
18.7456950449
 30
0.0
 10
12.4894877787
 20
18.7432899509
 30
0.0
 10
12.4914297413
 20
18.7402710364
 30
0.0
 10
12.4942316653
 20
18.7367458152
 30
0.0
 10
12.4975489465
 20
18.733328197
 30
0.0
 10
12.5000379996
 20
18.7312188264
 30
0.0
 10
12.5013625306
 20
18.7301999856
 30
0.0
  0
SPLINE
  5
4D4
100
AcDbEntity
  8
0
100
AcDbSpline
 62
9
  6
CONTINUOUS
 70
0
 71
3
 72
9
 73
5
 74
0
 42
0.0000001
 43
0.0000001
 44
0.0000000001
 40
0.0
 40
0.0
 40
0.0
 40
0.0
 40
0.2336940976
 40
1.0
 40
1.0
 40
1.0
 40
1.0
 10
12.5013625306
 20
18.7301999856
 30
0.0
 10
12.5022462713
 20
18.7295202046
 30
0.0
 10
12.5061195717
 20
18.7267307336
 30
0.0
 10
12.5103485999
 20
18.7244509806
 30
0.0
 10
12.5136849914
 20
18.7229560212
 30
0.0
  0
SPLINE
  5
4D5
100
AcDbEntity
  8
0
100
AcDbSpline
 62
7
  6
CONTINUOUS
 70
0
 71
3
 72
21
 73
17
 74
0
 42
0.0000001
 43
0.0000001
 44
0.0000000001
 40
0.0
 40
0.0
 40
0.0
 40
0.0
 40
0.1418035594
 40
0.2085172213
 40
0.2721411918
 40
0.3326750823
 40
0.3903572683
 40
0.4458028633
 40
0.5000001761
 40
0.5541975268
 40
0.6096431428
 40
0.667325255
 40
0.72785898
 40
0.7914828499
 40
0.8581964278
 40
1.0
 40
1.0
 40
1.0
 40
1.0
 10
13.6640918754
 20
13.6899032751
 30
0.0
 10
13.6535356419
 20
13.6815098983
 30
0.0
 10
13.63852996
 20
13.6684492836
 30
0.0
 10
13.6209198389
 20
13.6494494518
 30
0.0
 10
13.6097726023
 20
13.6350856476
 30
0.0
 10
13.600677419
 20
13.6203287084
 30
0.0
 10
13.5939027042
 20
13.6052040778
 30
0.0
 10
13.5897008976
 20
13.5897790758
 30
0.0
 10
13.5882795015
 20
13.5741769821
 30
0.0
 10
13.58970089
 20
13.5585748792
 30
0.0
 10
13.5939027825
 20
13.5431499052
 30
0.0
 10
13.6006774229
 20
13.5280252661
 30
0.0
 10
13.6097726472
 20
13.513268386
 30
0.0
 10
13.6209198552
 20
13.4989046057
 30
0.0
 10
13.6385299629
 20
13.479904782
 30
0.0
 10
13.6535356409
 20
13.4668441737
 30
0.0
 10
13.6640918754
 20
13.4584507962
 30
0.0
  0
SPLINE
  5
4D6
100
AcDbEntity
  8
0
100
AcDbSpline
 62
7
  6
CONTINUOUS
 70
0
 71
3
 72
9
 73
5
 74
0
 42
0.0000001
 43
0.0000001
 44
0.0000000001
 40
0.0
 40
0.0
 40
0.0
 40
0.0
 40
0.5657027573
 40
1.0
 40
1.0
 40
1.0
 40
1.0
 10
13.333561806
 20
18.9911850664
 30
0.0
 10
13.3315028648
 20
18.9909492479
 30
0.0
 10
13.3278568601
 20
18.9905931326
 30
0.0
 10
13.3241953283
 20
18.9903851185
 30
0.0
 10
13.3226043189
 20
18.9903851185
 30
0.0
  0
SPLINE
  5
4D7
100
AcDbEntity
  8
0
100
AcDbSpline
 62
9
  6
CONTINUOUS
 70
0
 71
3
 72
26
 73
22
 74
0
 42
0.0000001
 43
0.0000001
 44
0.0000000001
 40
0.0
 40
0.0
 40
0.0
 40
0.0
 40
0.0098761759
 40
0.0210048544
 40
0.0335353459
 40
0.0475425435
 40
0.0800590448
 40
0.1184935847
 40
0.1625660734
 40
0.2119792713
 40
0.2664204368
 40
0.3256096905
 40
0.3892998733
 40
0.4573457046
 40
0.5297236867
 40
0.6067572909
 40
0.6890747139
 40
0.7782636529
 40
0.8263853404
 40
0.8780401641
 40
1.0
 40
1.0
 40
1.0
 40
1.0
 10
7.3555675549
 20
9.8805334965
 30
0.0
 10
7.3535504641
 20
9.8802140207
 30
0.0
 10
7.3491889091
 20
9.879968587
 30
0.0
 10
7.3422662974
 20
9.8805840247
 30
0.0
 10
7.3346153146
 20
9.8821045054
 30
0.0
 10
7.3228621255
 20
9.8854538094
 30
0.0
 10
7.3064670263
 20
9.891854108
 30
0.0
 10
7.2849654697
 20
9.9020410732
 30
0.0
 10
7.260844405
 20
9.9147946625
 30
0.0
 10
7.2341671947
 20
9.92976359
 30
0.0
 10
7.2049658093
 20
9.9466154896
 30
0.0
 10
7.1732390059
 20
9.9649968734
 30
0.0
 10
7.138951722
 20
9.9845705409
 30
0.0
 10
7.1020037074
 20
10.004978493
 30
0.0
 10
7.0621988328
 20
10.0259066264
 30
0.0
 10
7.0191479747
 20
10.0469670311
 30
0.0
 10
6.9721907929
 20
10.0678896429
 30
0.0
 10
6.9298842023
 20
10.0844609463
 30
0.0
 10
6.8929470597
 20
10.0972283415
 30
0.0
 10
6.8491332096
 20
10.1107575726
 30
0.0
 10
6.8142110664
 20
10.1193551093
 30
0.0
 10
6.7894570005
 20
10.12417702
 30
0.0
  0
SPLINE
  5
4D8
100
AcDbEntity
  8
0
100
AcDbSpline
 62
9
  6
CONTINUOUS
 70
0
 71
3
 72
15
 73
11
 74
0
 42
0.0000001
 43
0.0000001
 44
0.0000000001
 40
0.0
 40
0.0
 40
0.0
 40
0.0
 40
0.019709136
 40
0.0751055669
 40
0.1608632523
 40
0.2728431439
 40
0.4081162132
 40
0.5660028406
 40
0.7517998174
 40
1.0
 40
1.0
 40
1.0
 40
1.0
 10
6.8883179601
 20
9.8065284309
 30
0.0
 10
6.8851063783
 20
9.8079761631
 30
0.0
 10
6.8728428154
 20
9.8134363339
 30
0.0
 10
6.8463985273
 20
9.8247271246
 30
0.0
 10
6.804490973
 20
9.8417884818
 30
0.0
 10
6.748775249
 20
9.8627565765
 30
0.0
 10
6.68015482
 20
9.8859399061
 30
0.0
 10
6.5978721945
 20
9.9097038979
 30
0.0
 10
6.4946179767
 20
9.9330489218
 30
0.0
 10
6.4176576153
 20
9.9438871771
 30
0.0
 10
6.3734812086
 20
9.9479458407
 30
0.0
  0
SPLINE
  5
4D9
100
AcDbEntity
  8
0
100
AcDbSpline
 62
9
  6
CONTINUOUS
 70
0
 71
3
 72
13
 73
9
 74
0
 42
0.0000001
 43
0.0000001
 44
0.0000000001
 40
0.0
 40
0.0
 40
0.0
 40
0.0
 40
0.0800377356
 40
0.1662331662
 40
0.2634947315
 40
0.3752063893
 40
0.6497190587
 40
1.0
 40
1.0
 40
1.0
 40
1.0
 10
15.5499020215
 20
12.4437373521
 30
0.0
 10
15.5499020215
 20
12.4445272814
 30
0.0
 10
15.5496534354
 20
12.4461758239
 30
0.0
 10
15.5485766639
 20
12.4485699532
 30
0.0
 10
15.5468299338
 20
12.4509230601
 30
0.0
 10
15.5433846047
 20
12.4542469973
 30
0.0
 10
15.537247939
 20
12.4582390516
 30
0.0
 10
15.5316604285
 20
12.4608665158
 30
0.0
 10
15.5284751722
 20
12.4622102318
 30
0.0
  0
SPLINE
  5
4DA
100
AcDbEntity
  8
0
100
AcDbSpline
 62
9
  6
CONTINUOUS
 70
0
 71
3
 72
36
 73
32
 74
0
 42
0.0000001
 43
0.0000001
 44
0.0000000001
 40
0.0
 40
0.0
 40
0.0
 40
0.0
 40
0.0154506451
 40
0.0344051434
 40
0.0567662837
 40
0.0824152117
 40
0.1111837662
 40
0.1428542331
 40
0.2139223064
 40
0.2934772816
 40
0.3790395225
 40
0.4679492915
 40
0.5574191083
 40
0.6446575748
 40
0.7269290874
 40
0.7654035552
 40
0.8016907596
 40
0.8355143875
 40
0.8666318533
 40
0.8948011896
 40
0.9198129931
 40
0.9415114246
 40
0.9597810522
 40
0.9676011504
 40
0.9745425179
 40
0.980616977
 40
0.985849252
 40
0.9902867876
 40
0.9940128154
 40
0.9971712739
 40
1.0
 40
1.0
 40
1.0
 40
1.0
 10
15.5284751722
 20
12.4622102318
 30
0.0
 10
15.5234736543
 20
12.4643201468
 30
0.0
 10
15.5120426867
 20
12.4683161441
 30
0.0
 10
15.492790336
 20
12.4735519075
 30
0.0
 10
15.4698002471
 20
12.4785882575
 30
0.0
 10
15.4432469157
 20
12.4833645478
 30
0.0
 10
15.4133302438
 20
12.4878382753
 30
0.0
 10
15.3674811253
 20
12.4935732311
 30
0.0
 10
15.3037003598
 20
12.4995588887
 30
0.0
 10
15.2208784198
 20
12.5048255896
 30
0.0
 10
15.1316860224
 20
12.5082272984
 30
0.0
 10
15.0389576063
 20
12.5096512264
 30
0.0
 10
14.9456312233
 20
12.5090393024
 30
0.0
 10
14.8546726995
 20
12.5064250001
 30
0.0
 10
14.7816934984
 20
12.5025604344
 30
0.0
 10
14.7266729975
 20
12.4984610541
 30
0.0
 10
14.6886764688
 20
12.4950246705
 30
0.0
 10
14.6533171645
 20
12.4911853082
 30
0.0
 10
14.6208726073
 20
12.4869818348
 30
0.0
 10
14.5916014718
 20
12.4824455347
 30
0.0
 10
14.5657351947
 20
12.477614394
 30
0.0
 10
14.5434720785
 20
12.472532156
 30
0.0
 10
14.5273089764
 20
12.4679359147
 30
0.0
 10
14.5163613269
 20
12.4640743545
 30
0.0
 10
14.5095857435
 20
12.4612929804
 30
0.0
 10
14.5038180236
 20
12.4584806466
 30
0.0
 10
14.4990619874
 20
12.4556390515
 30
0.0
 10
14.4953160328
 20
12.4527664086
 30
0.0
 10
14.4925783366
 20
12.4498465174
 30
0.0
 10
14.4908632725
 20
12.4468475486
 30
0.0
 10
14.4904548705
 20
12.4447311663
 30
0.0
 10
14.4904548705
 20
12.4437373373
 30
0.0
  0
SPLINE
  5
4DB
100
AcDbEntity
  8
0
100
AcDbSpline
 62
9
  6
CONTINUOUS
 70
0
 71
3
 72
11
 73
7
 74
0
 42
0.0000001
 43
0.0000001
 44
0.0000000001
 40
0.0
 40
0.0
 40
0.0
 40
0.0
 40
0.2465218901
 40
0.4957127112
 40
0.7467935051
 40
1.0
 40
1.0
 40
1.0
 40
1.0
 10
14.461808221
 20
12.5137120752
 30
0.0
 10
14.4575093052
 20
12.518061771
 30
0.0
 10
14.4480050572
 20
12.5259973956
 30
0.0
 10
14.4317667914
 20
12.5351217145
 30
0.0
 10
14.4139615128
 20
12.5411531858
 30
0.0
 10
14.4014576053
 20
12.5427986414
 30
0.0
 10
14.395178444
 20
12.5429672905
 30
0.0
  0
SPLINE
  5
4DC
100
AcDbEntity
  8
0
100
AcDbSpline
 62
9
  6
CONTINUOUS
 70
0
 71
3
 72
19
 73
15
 74
0
 42
0.0000001
 43
0.0000001
 44
0.0000000001
 40
0.0
 40
0.0
 40
0.0
 40
0.0
 40
0.005937254
 40
0.0193997753
 40
0.0404466567
 40
0.0690789072
 40
0.1052880757
 40
0.1490628118
 40
0.2003905798
 40
0.2592582698
 40
0.3995594588
 40
0.5698572982
 40
0.7700412126
 40
1.0
 40
1.0
 40
1.0
 40
1.0
 10
14.0445959173
 20
8.0791373548
 30
0.0
 10
14.0446423
 20
8.0791720627
 30
0.0
 10
14.0448449152
 20
8.0791823899
 30
0.0
 10
14.0452251715
 20
8.0792373977
 30
0.0
 10
14.045846553
 20
8.0792688988
 30
0.0
 10
14.0466807777
 20
8.0793142773
 30
0.0
 10
14.0477407965
 20
8.0793550692
 30
0.0
 10
14.0490209469
 20
8.0793982419
 30
0.0
 10
14.0505227791
 20
8.0794410616
 30
0.0
 10
14.0529661014
 20
8.0795024659
 30
0.0
 10
14.0565703171
 20
8.0795777049
 30
0.0
 10
14.0615533496
 20
8.0796649331
 30
0.0
 10
14.067411304
 20
8.0797531894
 30
0.0
 10
14.0716079173
 20
8.0798088789
 30
0.0
 10
14.0738514893
 20
8.0798371906
 30
0.0
  0
SPLINE
  5
4DD
100
AcDbEntity
  8
0
100
AcDbSpline
 62
9
  6
CONTINUOUS
 70
0
 71
3
 72
19
 73
15
 74
0
 42
0.0000001
 43
0.0000001
 44
0.0000000001
 40
0.0
 40
0.0
 40
0.0
 40
0.0
 40
0.0273622031
 40
0.0675853782
 40
0.1196268369
 40
0.1821341189
 40
0.3316296509
 40
0.4998519724
 40
0.6680929747
 40
0.817647811
 40
0.8801999299
 40
0.932294013
 40
0.9725754929
 40
1.0
 40
1.0
 40
1.0
 40
1.0
 10
14.0738514893
 20
8.0798371906
 30
0.0
 10
14.0911109721
 20
8.0800549888
 30
0.0
 10
14.1337443447
 20
8.0804255213
 30
0.0
 10
14.209206803
 20
8.0809047385
 30
0.0
 10
14.306840328
 20
8.0813619133
 30
0.0
 10
14.4734059298
 20
8.0819546676
 30
0.0
 10
14.7132623645
 20
8.0824645621
 30
0.0
 10
15.0198190671
 20
8.0826766981
 30
0.0
 10
15.3264131814
 20
8.0824655137
 30
0.0
 10
15.566347097
 20
8.0819563008
 30
0.0
 10
15.7330115935
 20
8.0813640053
 30
0.0
 10
15.8307433813
 20
8.080906941
 30
0.0
 10
15.9063151232
 20
8.08042774
 30
0.0
 10
15.9490245799
 20
8.0800571504
 30
0.0
 10
15.9663233707
 20
8.0798394951
 30
0.0
  0
SPLINE
  5
4DE
100
AcDbEntity
  8
0
100
AcDbSpline
 62
9
  6
CONTINUOUS
 70
0
 71
3
 72
19
 73
15
 74
0
 42
0.0000001
 43
0.0000001
 44
0.0000000001
 40
0.0
 40
0.0
 40
0.0
 40
0.0
 40
0.2299642117
 40
0.4301533935
 40
0.6004556691
 40
0.7407597853
 40
0.799628159
 40
0.8509559753
 40
0.8947300357
 40
0.9309377129
 40
0.9595675583
 40
0.9806110085
 40
0.9940689153
 40
1.0
 40
1.0
 40
1.0
 40
1.0
 10
15.9663233707
 20
8.0798394951
 30
0.0
 10
15.96858095
 20
8.07981109
 30
0.0
 10
15.9728037698
 20
8.079755217
 30
0.0
 10
15.9786983078
 20
8.0796666708
 30
0.0
 10
15.9837124588
 20
8.0795791562
 30
0.0
 10
15.9873391732
 20
8.0795036705
 30
0.0
 10
15.9897977311
 20
8.0794420638
 30
0.0
 10
15.9913089077
 20
8.0793991046
 30
0.0
 10
15.9925970019
 20
8.0793557865
 30
0.0
 10
15.9936635757
 20
8.0793148706
 30
0.0
 10
15.9945029158
 20
8.079269317
 30
0.0
 10
15.9951280812
 20
8.0792377736
 30
0.0
 10
15.9955105478
 20
8.0791824765
 30
0.0
 10
15.9957143533
 20
8.0791722459
 30
0.0
 10
15.9957609733
 20
8.0791373549
 30
0.0
  0
SPLINE
  5
4DF
100
AcDbEntity
  8
0
100
AcDbSpline
 62
9
  6
CONTINUOUS
 70
0
 71
3
 72
9
 73
5
 74
0
 42
0.0000001
 43
0.0000001
 44
0.0000000001
 40
0.0
 40
0.0
 40
0.0
 40
0.0
 40
0.4816189263
 40
1.0
 40
1.0
 40
1.0
 40
1.0
 10
14.0645858317
 20
8.0597579458
 30
0.0
 10
14.062909285
 20
8.0597579713
 30
0.0
 10
14.0594222138
 20
8.0602645751
 30
0.0
 10
14.056157048
 20
8.0615832883
 30
0.0
 10
14.0545862306
 20
8.0624714428
 30
0.0
  0
LINE
  5
4E0
100
AcDbEntity
  8
0
100
AcDbLine
 62
9
  6
CONTINUOUS
 10
14.0545862306
 20
8.0624714428
 11
14.0514180341
 21
8.0647037513
  0
SPLINE
  5
4E1
100
AcDbEntity
  8
0
100
AcDbSpline
 62
9
  6
CONTINUOUS
 70
0
 71
3
 72
9
 73
5
 74
0
 42
0.0000001
 43
0.0000001
 44
0.0000000001
 40
0.0
 40
0.0
 40
0.0
 40
0.0
 40
0.7485488369
 40
1.0
 40
1.0
 40
1.0
 40
1.0
 10
14.0514180341
 20
8.0647037513
 30
0.0
 10
14.0501657367
 20
8.0657963062
 30
0.0
 10
14.0486970371
 20
8.0675082229
 30
0.0
 10
14.0475402223
 20
8.0694032431
 30
0.0
 10
14.0472679035
 20
8.0698905838
 30
0.0
  0
SPLINE
  5
4E2
100
AcDbEntity
  8
0
100
AcDbSpline
 62
9
  6
CONTINUOUS
 70
0
 71
3
 72
9
 73
5
 74
0
 42
0.0000001
 43
0.0000001
 44
0.0000000001
 40
0.0
 40
0.0
 40
0.0
 40
0.0
 40
0.259387404
 40
1.0
 40
1.0
 40
1.0
 40
1.0
 10
14.0472679035
 20
8.0698905838
 30
0.0
 10
14.0468598839
 20
8.0706207739
 30
0.0
 10
14.0454531861
 20
8.0735224591
 30
0.0
 10
14.044670024
 20
8.0767502261
 30
0.0
 10
14.0445959173
 20
8.0791373548
 30
0.0
  0
SPLINE
  5
4E3
100
AcDbEntity
  8
0
100
AcDbSpline
 62
9
  6
CONTINUOUS
 70
0
 71
3
 72
9
 73
5
 74
0
 42
0.0000001
 43
0.0000001
 44
0.0000000001
 40
0.0
 40
0.0
 40
0.0
 40
0.0
 40
0.237386856
 40
1.0
 40
1.0
 40
1.0
 40
1.0
 10
15.97577106
 20
8.0597579458
 30
0.0
 10
15.9765959425
 20
8.0597579588
 30
0.0
 10
15.9800671688
 20
8.0600167552
 30
0.0
 10
15.9834600623
 20
8.0611845305
 30
0.0
 10
15.9857675248
 20
8.0624875721
 30
0.0
  0
LINE
  5
4E4
100
AcDbEntity
  8
0
100
AcDbLine
 62
9
  6
CONTINUOUS
 10
15.9857675248
 20
8.0624875721
 11
15.9889261281
 21
8.0646982893
  0
SPLINE
  5
4E5
100
AcDbEntity
  8
0
100
AcDbSpline
 62
9
  6
CONTINUOUS
 70
0
 71
3
 72
8
 73
4
 74
0
 42
0.0000001
 43
0.0000001
 44
0.0000000001
 40
0.0
 40
0.0
 40
0.0
 40
0.0
 40
1.0
 40
1.0
 40
1.0
 40
1.0
 10
15.9889261281
 20
8.0646982893
 30
0.0
 10
15.9906078236
 20
8.0661486856
 30
0.0
 10
15.9920228826
 20
8.0679477815
 30
0.0
 10
15.9931048092
 20
8.0698871586
 30
0.0
  0
SPLINE
  5
4E6
100
AcDbEntity
  8
0
100
AcDbSpline
 62
9
  6
CONTINUOUS
 70
0
 71
3
 72
9
 73
5
 74
0
 42
0.0000001
 43
0.0000001
 44
0.0000000001
 40
0.0
 40
0.0
 40
0.0
 40
0.0
 40
0.2611169214
 40
1.0
 40
1.0
 40
1.0
 40
1.0
 10
15.9931048092
 20
8.0698871586
 30
0.0
 10
15.9935150042
 20
8.0706224421
 30
0.0
 10
15.9949153473
 20
8.0735274765
 30
0.0
 10
15.9956870362
 20
8.0767559981
 30
0.0
 10
15.9957609636
 20
8.0791373551
 30
0.0
  0
SPLINE
  5
4E7
100
AcDbEntity
  8
0
100
AcDbSpline
 62
9
  6
CONTINUOUS
 70
0
 71
3
 72
31
 73
27
 74
0
 42
0.0000001
 43
0.0000001
 44
0.0000000001
 40
0.0
 40
0.0
 40
0.0
 40
0.0
 40
0.0002746387
 40
0.0006172151
 40
0.0010962962
 40
0.0024629728
 40
0.0043726694
 40
0.0068233871
 40
0.0098131274
 40
0.0133398922
 40
0.0174016836
 40
0.0271223574
 40
0.0389591746
 40
0.0528961671
 40
0.0689173732
 40
0.0870068375
 40
0.107148611
 40
0.153525227
 40
0.2078700208
 40
0.2698742265
 40
0.3392078027
 40
0.41554109
 40
0.4985448484
 40
0.5878897156
 40
0.7839724878
 40
1.0
 40
1.0
 40
1.0
 40
1.0
 10
12.341706108
 20
11.9119038434
 30
0.0
 10
12.3417313602
 20
11.9119144593
 30
0.0
 10
12.3417962299
 20
11.9118939903
 30
0.0
 10
12.3419037768
 20
11.9118994912
 30
0.0
 10
12.3421228886
 20
11.9118863249
 30
0.0
 10
12.3424964968
 20
11.9118770379
 30
0.0
 10
12.3430677264
 20
11.9118551219
 30
0.0
 10
12.343800266
 20
11.9118305293
 30
0.0
 10
12.3446941981
 20
11.911799756
 30
0.0
 10
12.3457486779
 20
11.9117643533
 30
0.0
 10
12.3474741813
 20
11.9117070476
 30
0.0
 10
12.3500281364
 20
11.9116242296
 30
0.0
 10
12.353566654
 20
11.911512822
 30
0.0
 10
12.3577334068
 20
11.911385686
 30
0.0
 10
12.3625236587
 20
11.9112442099
 30
0.0
 10
12.3679326689
 20
11.9110898004
 30
0.0
 10
12.3763683733
 20
11.910857428
 30
0.0
 10
12.3884193722
 20
11.9105442397
 30
0.0
 10
12.4046452337
 20
11.9101566568
 30
0.0
 10
12.4231613095
 20
11.9097630611
 30
0.0
 10
12.4438712752
 20
11.9093842406
 30
0.0
 10
12.4666766655
 20
11.9090416267
 30
0.0
 10
12.4914789509
 20
11.9087559589
 30
0.0
 10
12.5282258043
 20
11.908473225
 30
0.0
 10
12.5782419368
 20
11.9083771692
 30
0.0
 10
12.6193462838
 20
11.9085262913
 30
0.0
 10
12.6408927934
 20
11.9086525239
 30
0.0
  0
SPLINE
  5
4E8
100
AcDbEntity
  8
0
100
AcDbSpline
 62
7
  6
CONTINUOUS
 70
0
 71
3
 72
13
 73
9
 74
0
 42
0.0000001
 43
0.0000001
 44
0.0000000001
 40
0.0
 40
0.0
 40
0.0
 40
0.0
 40
0.0957754227
 40
0.1812616616
 40
0.2957905694
 40
0.4380192426
 40
0.6049759026
 40
1.0
 40
1.0
 40
1.0
 40
1.0
 10
12.5804541091
 20
19.0514813032
 30
0.0
 10
12.5804530816
 20
19.0510981565
 30
0.0
 10
12.5796969106
 20
19.0505708168
 30
0.0
 10
12.5786298046
 20
19.0502271394
 30
0.0
 10
12.5772685479
 20
19.049926958
 30
0.0
 10
12.5755957073
 20
19.0497018914
 30
0.0
 10
12.5727846633
 20
19.0494591037
 30
0.0
 10
12.5705362926
 20
19.0494036089
 30
0.0
 10
12.568956005
 20
19.0494036089
 30
0.0
  0
SPLINE
  5
4E9
100
AcDbEntity
  8
0
100
AcDbSpline
 62
7
  6
CONTINUOUS
 70
0
 71
3
 72
13
 73
9
 74
0
 42
0.0000001
 43
0.0000001
 44
0.0000000001
 40
0.0
 40
0.0
 40
0.0
 40
0.0
 40
0.0976053033
 40
0.1822206165
 40
0.2939609829
 40
0.4325916918
 40
0.5972496563
 40
1.0
 40
1.0
 40
1.0
 40
1.0
 10
12.5552366948
 20
18.9914767431
 30
0.0
 10
12.5552372721
 20
18.9912739245
 30
0.0
 10
12.5548567645
 20
18.9909843993
 30
0.0
 10
12.5543020044
 20
18.9908068723
 30
0.0
 10
12.5536123752
 20
18.9906501464
 30
0.0
 10
12.5527606682
 20
18.9905349789
 30
0.0
 10
12.5512968473
 20
18.9904102855
 30
0.0
 10
12.550117517
 20
18.9903851185
 30
0.0
 10
12.5492806198
 20
18.9903851185
 30
0.0
  0
SPLINE
  5
4EA
100
AcDbEntity
  8
0
100
AcDbSpline
 62
9
  6
CONTINUOUS
 70
0
 71
3
 72
9
 73
5
 74
0
 42
0.0000001
 43
0.0000001
 44
0.0000000001
 40
0.0
 40
0.0
 40
0.0
 40
0.0
 40
0.4777985251
 40
1.0
 40
1.0
 40
1.0
 40
1.0
 10
13.351795499
 20
20.3188914367
 30
0.0
 10
13.3594147411
 20
20.3178495624
 30
0.0
 10
13.3753961685
 20
20.3159238148
 30
0.0
 10
13.3914139957
 20
20.3143385036
 30
0.0
 10
13.3997860322
 20
20.313596996
 30
0.0
  0
SPLINE
  5
4EB
100
AcDbEntity
  8
0
100
AcDbSpline
 62
9
  6
CONTINUOUS
 70
0
 71
3
 72
9
 73
5
 74
0
 42
0.0000001
 43
0.0000001
 44
0.0000000001
 40
0.0
 40
0.0
 40
0.0
 40
0.0
 40
0.5226999108
 40
1.0
 40
1.0
 40
1.0
 40
1.0
 10
12.4236259777
 20
20.313596996
 30
0.0
 10
12.4320781587
 20
20.314345602
 30
0.0
 10
12.4482337728
 20
20.315946039
 30
0.0
 10
12.4643522447
 20
20.3178935172
 30
0.0
 10
12.4720284391
 20
20.318947891
 30
0.0
  0
LINE
  5
4EC
100
AcDbEntity
  8
0
100
AcDbLine
 62
9
  6
CONTINUOUS
 10
12.6415812854
 20
11.8645562855
 11
12.341706005
 21
11.8684193631
  0
SPLINE
  5
4ED
100
AcDbEntity
  8
0
100
AcDbSpline
 62
9
  6
CONTINUOUS
 70
0
 71
3
 72
9
 73
5
 74
0
 42
0.0000001
 43
0.0000001
 44
0.0000000001
 40
0.0
 40
0.0
 40
0.0
 40
0.0
 40
0.2733780398
 40
1.0
 40
1.0
 40
1.0
 40
1.0
 10
12.633794993
 20
19.8655658783
 30
0.0
 10
12.6299845337
 20
19.8668165884
 30
0.0
 10
12.6160621513
 20
19.8714396041
 30
0.0
 10
12.6022065577
 20
19.8762691075
 30
0.0
 10
12.5922119714
 20
19.8799751798
 30
0.0
  0
SPLINE
  5
4EE
100
AcDbEntity
  8
0
100
AcDbSpline
 62
9
  6
CONTINUOUS
 70
0
 71
3
 72
11
 73
7
 74
0
 42
0.0000001
 43
0.0000001
 44
0.0000000001
 40
0.0
 40
0.0
 40
0.0
 40
0.0
 40
0.3039148472
 40
0.5699108239
 40
0.801569891
 40
1.0
 40
1.0
 40
1.0
 40
1.0
 10
12.5793738832
 20
19.8848769339
 30
0.0
 10
12.5736812962
 20
19.8871198823
 30
0.0
 10
12.5630691556
 20
19.8914898266
 30
0.0
 10
12.548419885
 20
19.8982743635
 30
0.0
 10
12.5360382554
 20
19.9048540154
 30
0.0
 10
12.5286914831
 20
19.909460692
 30
0.0
 10
12.5254247532
 20
19.9117601375
 30
0.0
  0
SPLINE
  5
4EF
100
AcDbEntity
  8
0
100
AcDbSpline
 62
9
  6
CONTINUOUS
 70
0
 71
3
 72
9
 73
5
 74
0
 42
0.0000001
 43
0.0000001
 44
0.0000000001
 40
0.0
 40
0.0
 40
0.0
 40
0.0
 40
0.2656895475
 40
1.0
 40
1.0
 40
1.0
 40
1.0
 10
12.5254247532
 20
19.9117601375
 30
0.0
 10
12.5247573075
 20
19.9122299513
 30
0.0
 10
12.5222653478
 20
19.914026328
 30
0.0
 10
12.5198561173
 20
19.9159403173
 30
0.0
 10
12.5181614669
 20
19.9174292847
 30
0.0
  0
SPLINE
  5
4F0
100
AcDbEntity
  8
0
100
AcDbSpline
 62
9
  6
CONTINUOUS
 70
0
 71
3
 72
18
 73
14
 74
0
 42
0.0000001
 43
0.0000001
 44
0.0000000001
 40
0.0
 40
0.0
 40
0.0
 40
0.0
 40
0.1934199013
 40
0.3800575379
 40
0.551719337
 40
0.7021078413
 40
0.8256909838
 40
0.9180823079
 40
0.9514160311
 40
0.9759040624
 40
0.9848659372
 40
0.9917160208
 40
1.0
 40
1.0
 40
1.0
 40
1.0
 10
13.419707666
 20
20.3118325457
 30
0.0
 10
13.4251774323
 20
20.311348091
 30
0.0
 10
13.4359317852
 20
20.3104694723
 30
0.0
 10
13.4515595211
 20
20.3094065052
 30
0.0
 10
13.4659822043
 20
20.3086556273
 30
0.0
 10
13.4786278792
 20
20.3082328645
 30
0.0
 10
13.4890297752
 20
20.3081636864
 30
0.0
 10
13.4961078607
 20
20.3083707907
 30
0.0
 10
13.5003571809
 20
20.3087892638
 30
0.0
 10
13.502224739
 20
20.3090954459
 30
0.0
 10
13.5033355333
 20
20.3094215
 30
0.0
 10
13.503945724
 20
20.3096720646
 30
0.0
 10
13.504351594
 20
20.309992202
 30
0.0
 10
13.5043729506
 20
20.310226412
 30
0.0
  0
SPLINE
  5
4F1
100
AcDbEntity
  8
0
100
AcDbSpline
 62
9
  6
CONTINUOUS
 70
0
 71
3
 72
15
 73
11
 74
0
 42
0.0000001
 43
0.0000001
 44
0.0000000001
 40
0.0
 40
0.0
 40
0.0
 40
0.0
 40
0.0269765821
 40
0.0493930359
 40
0.0789518389
 40
0.115924337
 40
0.1604073887
 40
0.2719427828
 40
0.5827436083
 40
1.0
 40
1.0
 40
1.0
 40
1.0
 10
13.54881654
 20
20.8095956419
 30
0.0
 10
13.54881654
 20
20.8093688715
 30
0.0
 10
13.5484379539
 20
20.8090296097
 30
0.0
 10
13.547849111
 20
20.808781211
 30
0.0
 10
13.5471252521
 20
20.8085571637
 30
0.0
 10
13.5462152706
 20
20.8083617963
 30
0.0
 10
13.5446119329
 20
20.8081019824
 30
0.0
 10
13.5407052271
 20
20.8077160701
 30
0.0
 10
13.5336451696
 20
20.8074956667
 30
0.0
 10
13.5275251023
 20
20.8075343605
 30
0.0
 10
13.5240181664
 20
20.8075993745
 30
0.0
  0
SPLINE
  5
4F2
100
AcDbEntity
  8
0
100
AcDbSpline
 62
9
  6
CONTINUOUS
 70
0
 71
3
 72
9
 73
5
 74
0
 42
0.0000001
 43
0.0000001
 44
0.0000000001
 40
0.0
 40
0.0
 40
0.0
 40
0.0
 40
0.2238782924
 40
1.0
 40
1.0
 40
1.0
 40
1.0
 10
13.5240181664
 20
20.8075993745
 30
0.0
 10
13.5219668243
 20
20.8076374037
 30
0.0
 10
13.5128053205
 20
20.8078737847
 30
0.0
 10
13.5036502668
 20
20.8083236815
 30
0.0
 10
13.496550233
 20
20.8087468865
 30
0.0
  0
SPLINE
  5
4F3
100
AcDbEntity
  8
0
100
AcDbSpline
 62
9
  6
CONTINUOUS
 70
0
 71
3
 72
16
 73
12
 74
0
 42
0.0000001
 43
0.0000001
 44
0.0000000001
 40
0.0
 40
0.0
 40
0.0
 40
0.0
 40
0.3627062917
 40
0.5304161065
 40
0.6801089259
 40
0.80615858
 40
0.903889909
 40
0.940801988
 40
0.9692842086
 40
0.9890960717
 40
1.0
 40
1.0
 40
1.0
 40
1.0
 10
13.4641495965
 20
20.8111652555
 30
0.0
 10
13.465121788
 20
20.8220884316
 30
0.0
 10
13.4665252471
 20
20.8380639561
 30
0.0
 10
13.4682839691
 20
20.858551568
 30
0.0
 10
13.4694101954
 20
20.8719119006
 30
0.0
 10
13.4703349664
 20
20.8831658437
 30
0.0
 10
13.4709593485
 20
20.891023192
 30
0.0
 10
13.4713261133
 20
20.8959415002
 30
0.0
 10
13.471508838
 20
20.8985114312
 30
0.0
 10
13.4716164613
 20
20.9002976336
 30
0.0
 10
13.4716668219
 20
20.9012255766
 30
0.0
 10
13.4716668219
 20
20.9015552548
 30
0.0
  0
SPLINE
  5
4F4
100
AcDbEntity
  8
0
100
AcDbSpline
 62
9
  6
CONTINUOUS
 70
0
 71
3
 72
16
 73
12
 74
0
 42
0.0000001
 43
0.0000001
 44
0.0000000001
 40
0.0
 40
0.0
 40
0.0
 40
0.0
 40
0.1747304758
 40
0.3082572365
 40
0.5157967133
 40
0.6733094912
 40
0.794394884
 40
0.8851570128
 40
0.9488536417
 40
0.987140527
 40
1.0
 40
1.0
 40
1.0
 40
1.0
 10
6.3734812086
 20
9.9479458407
 30
0.0
 10
6.3493563749
 20
9.9501622859
 30
0.0
 10
6.3068555322
 20
9.9547127651
 30
0.0
 10
6.235816322
 20
9.962940958
 30
0.0
 10
6.1671276811
 20
9.9707438117
 30
0.0
 10
6.1000017979
 20
9.9769302187
 30
0.0
 10
6.0488815251
 20
9.9801409274
 30
0.0
 10
6.0106862726
 20
9.9812463452
 30
0.0
 10
5.9839552537
 20
9.9810863389
 30
0.0
 10
5.9680454817
 20
9.9803991964
 30
0.0
 10
5.9609685451
 20
9.9799171166
 30
0.0
 10
5.9591945536
 20
9.9797384092
 30
0.0
  0
SPLINE
  5
4F5
100
AcDbEntity
  8
0
100
AcDbSpline
 62
9
  6
CONTINUOUS
 70
0
 71
3
 72
12
 73
8
 74
0
 42
0.0000001
 43
0.0000001
 44
0.0000000001
 40
0.0
 40
0.0
 40
0.0
 40
0.0
 40
0.2997336952
 40
0.5672806104
 40
0.8012492927
 40
0.9051209898
 40
1.0
 40
1.0
 40
1.0
 40
1.0
 10
12.6415522104
 20
19.114105207
 30
0.0
 10
12.6362660702
 20
19.0874475165
 30
0.0
 10
12.6261585613
 20
19.0370144742
 30
0.0
 10
12.6111649765
 20
18.9659288594
 30
0.0
 10
12.5988484543
 20
18.9124293182
 30
0.0
 10
12.588948247
 20
18.8744616179
 30
0.0
 10
12.5839563261
 20
18.8571427298
 30
0.0
 10
12.581425414
 20
18.8489208068
 30
0.0
  0
SPLINE
  5
4F6
100
AcDbEntity
  8
0
100
AcDbSpline
 62
9
  6
CONTINUOUS
 70
0
 71
3
 72
9
 73
5
 74
0
 42
0.0000001
 43
0.0000001
 44
0.0000000001
 40
0.0
 40
0.0
 40
0.0
 40
0.0
 40
0.2687831607
 40
1.0
 40
1.0
 40
1.0
 40
1.0
 10
12.581425414
 20
18.8489208068
 30
0.0
 10
12.5803283391
 20
18.8453568485
 30
0.0
 10
12.5761412374
 20
18.8321302882
 30
0.0
 10
12.5715288578
 20
18.81903576
 30
0.0
 10
12.5678582253
 20
18.8095785083
 30
0.0
  0
SPLINE
  5
4F7
100
AcDbEntity
  8
0
100
AcDbSpline
 62
9
  6
CONTINUOUS
 70
0
 71
3
 72
11
 73
7
 74
0
 42
0.0000001
 43
0.0000001
 44
0.0000000001
 40
0.0
 40
0.0
 40
0.0
 40
0.0
 40
0.3710864584
 40
0.6534084952
 40
0.8597318094
 40
1.0
 40
1.0
 40
1.0
 40
1.0
 10
12.5620965944
 20
18.7954525024
 30
0.0
 10
12.5578083432
 20
18.7854606935
 30
0.0
 10
12.5495610981
 20
18.7681346393
 30
0.0
 10
12.5360481286
 20
18.7467970335
 30
0.0
 10
12.5242286564
 20
18.7325880321
 30
0.0
 10
12.5168050427
 20
18.7256313072
 30
0.0
 10
12.5136849857
 20
18.7229560214
 30
0.0
  0
SPLINE
  5
4F8
100
AcDbEntity
  8
0
100
AcDbSpline
 62
9
  6
CONTINUOUS
 70
0
 71
3
 72
14
 73
10
 74
0
 42
0.0000001
 43
0.0000001
 44
0.0000000001
 40
0.0
 40
0.0
 40
0.0
 40
0.0
 40
0.1245072018
 40
0.2493925504
 40
0.3745728256
 40
0.4997081412
 40
0.6246972184
 40
0.7496694297
 40
1.0
 40
1.0
 40
1.0
 40
1.0
 10
13.1942768673
 20
12.2803353485
 30
0.0
 10
13.2046712355
 20
12.2886324635
 30
0.0
 10
13.2247678121
 20
12.3061735729
 30
0.0
 10
13.252903282
 20
12.334661428
 30
0.0
 10
13.2792905892
 20
12.3648539908
 30
0.0
 10
13.3042301986
 20
12.396257702
 30
0.0
 10
13.3277748927
 20
12.4286947619
 30
0.0
 10
13.3572575713
 20
12.4732813322
 30
0.0
 10
13.3771943073
 20
12.508135396
 30
0.0
 10
13.3894953484
 20
12.53187826
 30
0.0
  0
SPLINE
  5
4F9
100
AcDbEntity
  8
0
100
AcDbSpline
 62
9
  6
CONTINUOUS
 70
0
 71
3
 72
13
 73
9
 74
0
 42
0.0000001
 43
0.0000001
 44
0.0000000001
 40
0.0
 40
0.0
 40
0.0
 40
0.0
 40
0.2488886373
 40
0.497977523
 40
0.6227874622
 40
0.747935881
 40
0.8736271516
 40
1.0
 40
1.0
 40
1.0
 40
1.0
 10
13.4003669258
 20
13.5871370538
 30
0.0
 10
13.3874418199
 20
13.6132731171
 30
0.0
 10
13.3592344736
 20
13.6644480125
 30
0.0
 10
13.3176698952
 20
13.7246003458
 30
0.0
 10
13.2803347269
 20
13.7696299146
 30
0.0
 10
13.2502388361
 20
13.8017778203
 30
0.0
 10
13.2180600479
 20
13.8321018092
 30
0.0
 10
13.1953169165
 20
13.8509825362
 30
0.0
 10
13.1835553779
 20
13.8599737961
 30
0.0
  0
SPLINE
  5
4FA
100
AcDbEntity
  8
0
100
AcDbSpline
 62
9
  6
CONTINUOUS
 70
0
 71
3
 72
13
 73
9
 74
0
 42
0.0000001
 43
0.0000001
 44
0.0000000001
 40
0.0
 40
0.0
 40
0.0
 40
0.0
 40
0.1530527125
 40
0.2985385262
 40
0.5661693981
 40
0.800566458
 40
0.904727317
 40
1.0
 40
1.0
 40
1.0
 40
1.0
 10
13.1818721072
 20
19.1138463231
 30
0.0
 10
13.1845779058
 20
19.1003405132
 30
0.0
 10
13.1899132867
 20
19.0740081804
 30
0.0
 10
13.2001057417
 20
19.0240847534
 30
0.0
 10
13.2120498518
 20
18.9670478776
 30
0.0
 10
13.2242042577
 20
18.9138555626
 30
0.0
 10
13.2339756607
 20
18.8760522273
 30
0.0
 10
13.2389012036
 20
18.8587897645
 30
0.0
 10
13.2413976778
 20
18.8505870553
 30
0.0
  0
SPLINE
  5
4FB
100
AcDbEntity
  8
0
100
AcDbSpline
 62
9
  6
CONTINUOUS
 70
0
 71
3
 72
15
 73
11
 74
0
 42
0.0000001
 43
0.0000001
 44
0.0000000001
 40
0.0
 40
0.0
 40
0.0
 40
0.0
 40
0.2129314653
 40
0.396572757
 40
0.5527377791
 40
0.6835205706
 40
0.7914674812
 40
0.878927924
 40
0.9478939154
 40
1.0
 40
1.0
 40
1.0
 40
1.0
 10
13.2413976778
 20
18.8505870553
 30
0.0
 10
13.244427884
 20
18.8406306534
 30
0.0
 10
13.250480617
 20
18.8222067204
 30
0.0
 10
13.2602923824
 20
18.7970201374
 30
0.0
 10
13.2699701562
 20
18.7761349425
 30
0.0
 10
13.2793493352
 20
18.7592443883
 30
0.0
 10
13.2881771895
 20
18.7459474335
 30
0.0
 10
13.2962132974
 20
18.735807576
 30
0.0
 10
13.3032407516
 20
18.728406596
 30
0.0
 10
13.307713465
 20
18.7245146301
 30
0.0
 10
13.3097287227
 20
18.7229574871
 30
0.0
  0
SPLINE
  5
4FC
100
AcDbEntity
  8
0
100
AcDbSpline
 62
9
  6
CONTINUOUS
 70
0
 71
3
 72
11
 73
7
 74
0
 42
0.0000001
 43
0.0000001
 44
0.0000000001
 40
0.0
 40
0.0
 40
0.0
 40
0.0
 40
0.2852385202
 40
0.5455657455
 40
0.7821078843
 40
1.0
 40
1.0
 40
1.0
 40
1.0
 10
12.6400630582
 20
18.6527340736
 30
0.0
 10
12.6274037314
 20
18.6581510526
 30
0.0
 10
12.6034979886
 20
18.6692446447
 30
0.0
 10
12.5701379735
 20
18.6869575608
 30
0.0
 10
12.5405092829
 20
18.704669711
 30
0.0
 10
12.5222776142
 20
18.7168892094
 30
0.0
 10
12.5136849858
 20
18.7229560216
 30
0.0
  0
SPLINE
  5
4FD
100
AcDbEntity
  8
0
100
AcDbSpline
 62
9
  6
CONTINUOUS
 70
0
 71
3
 72
14
 73
10
 74
0
 42
0.0000001
 43
0.0000001
 44
0.0000000001
 40
0.0
 40
0.0
 40
0.0
 40
0.0
 40
0.0309280107
 40
0.0928882561
 40
0.184600282
 40
0.3041623123
 40
0.4487192432
 40
0.6152869567
 40
1.0
 40
1.0
 40
1.0
 40
1.0
 10
13.4517451881
 20
20.9033197051
 30
0.0
 10
13.4517451881
 20
20.9027237712
 30
0.0
 10
13.4516211501
 20
20.9009364424
 30
0.0
 10
13.4513899056
 20
20.8973883179
 30
0.0
 10
13.4509830362
 20
20.8921385322
 30
0.0
 10
13.4504427368
 20
20.8853038394
 30
0.0
 10
13.4497649718
 20
20.8770327973
 30
0.0
 10
13.4486494405
 20
20.8636716337
 30
0.0
 10
13.4477434404
 20
20.853087998
 30
0.0
 10
13.4471046803
 20
20.8457027571
 30
0.0
  0
SPLINE
  5
4FE
100
AcDbEntity
  8
0
100
AcDbSpline
 62
9
  6
CONTINUOUS
 70
0
 71
3
 72
19
 73
15
 74
0
 42
0.0000001
 43
0.0000001
 44
0.0000000001
 40
0.0
 40
0.0
 40
0.0
 40
0.0
 40
0.1921193442
 40
0.3779048721
 40
0.5491501685
 40
0.6995213741
 40
0.8234412593
 40
0.8740742849
 40
0.9164727668
 40
0.9502110624
 40
0.9751507243
 40
0.9843447845
 40
0.9914188511
 40
1.0
 40
1.0
 40
1.0
 40
1.0
 10
13.4442279627
 20
20.8129297058
 30
0.0
 10
13.4387299672
 20
20.8134166608
 30
0.0
 10
13.4279216517
 20
20.8144485604
 30
0.0
 10
13.4122375841
 20
20.8161620688
 30
0.0
 10
13.3977722168
 20
20.8179726667
 30
0.0
 10
13.3851027045
 20
20.8198018852
 30
0.0
 10
13.375897958
 20
20.821366117
 30
0.0
 10
13.3697889794
 20
20.822607928
 30
0.0
 10
13.3662418279
 20
20.8234327518
 30
0.0
 10
13.3634410007
 20
20.8242143584
 30
0.0
 10
13.3616027729
 20
20.8248527794
 30
0.0
 10
13.3605238564
 20
20.825371901
 30
0.0
 10
13.3599373303
 20
20.8257342961
 30
0.0
 10
13.3595610192
 20
20.8261113866
 30
0.0
 10
13.3595610192
 20
20.8263579198
 30
0.0
  0
SPLINE
  5
4FF
100
AcDbEntity
  8
0
100
AcDbSpline
 62
9
  6
CONTINUOUS
 70
0
 71
3
 72
19
 73
15
 74
0
 42
0.0000001
 43
0.0000001
 44
0.0000000001
 40
0.0
 40
0.0
 40
0.0
 40
0.0
 40
0.0085811489
 40
0.0156552155
 40
0.0248492757
 40
0.0497889376
 40
0.0835272332
 40
0.1259257151
 40
0.1765587407
 40
0.3004786259
 40
0.4508498315
 40
0.6220951279
 40
0.8078806558
 40
1.0
 40
1.0
 40
1.0
 40
1.0
 10
12.4638509907
 20
20.8263579198
 30
0.0
 10
12.4638509907
 20
20.8261113866
 30
0.0
 10
12.4634746797
 20
20.8257342961
 30
0.0
 10
12.4628881535
 20
20.825371901
 30
0.0
 10
12.4618092371
 20
20.8248527794
 30
0.0
 10
12.4599710093
 20
20.8242143584
 30
0.0
 10
12.4571701821
 20
20.8234327518
 30
0.0
 10
12.4536230306
 20
20.822607928
 30
0.0
 10
12.447514052
 20
20.821366117
 30
0.0
 10
12.4383093055
 20
20.8198018852
 30
0.0
 10
12.4256397931
 20
20.8179726667
 30
0.0
 10
12.4111744259
 20
20.8161620688
 30
0.0
 10
12.3954903582
 20
20.8144485604
 30
0.0
 10
12.3846820427
 20
20.8134166608
 30
0.0
 10
12.3791840472
 20
20.8129297058
 30
0.0
  0
SPLINE
  5
500
100
AcDbEntity
  8
0
100
AcDbSpline
 62
9
  6
CONTINUOUS
 70
0
 71
3
 72
9
 73
5
 74
0
 42
0.0000001
 43
0.0000001
 44
0.0000000001
 40
0.0
 40
0.0
 40
0.0
 40
0.0
 40
0.2265312729
 40
1.0
 40
1.0
 40
1.0
 40
1.0
 10
12.5504983386
 20
18.5901260394
 30
0.0
 10
12.5567858387
 20
18.5836490764
 30
0.0
 10
12.5850654607
 20
18.5555789127
 30
0.0
 10
12.6158299727
 20
18.5299382484
 30
0.0
 10
12.641016778
 20
18.5121738704
 30
0.0
  0
SPLINE
  5
501
100
AcDbEntity
  8
0
100
AcDbSpline
 62
9
  6
CONTINUOUS
 70
0
 71
3
 72
14
 73
10
 74
0
 42
0.0000001
 43
0.0000001
 44
0.0000000001
 40
0.0
 40
0.0
 40
0.0
 40
0.0
 40
0.3847130433
 40
0.5512807568
 40
0.6958376877
 40
0.815399718
 40
0.9071117439
 40
0.9690719893
 40
1.0
 40
1.0
 40
1.0
 40
1.0
 10
12.3763073296
 20
20.8457027571
 30
0.0
 10
12.3756685696
 20
20.853087998
 30
0.0
 10
12.3747625694
 20
20.8636716337
 30
0.0
 10
12.3736470381
 20
20.8770327973
 30
0.0
 10
12.3729692731
 20
20.8853038394
 30
0.0
 10
12.3724289738
 20
20.8921385322
 30
0.0
 10
12.3720221043
 20
20.8973883179
 30
0.0
 10
12.3717908599
 20
20.9009364424
 30
0.0
 10
12.3716668219
 20
20.9027237712
 30
0.0
 10
12.3716668219
 20
20.9033197051
 30
0.0
  0
SPLINE
  5
502
100
AcDbEntity
  8
0
100
AcDbSpline
 62
9
  6
CONTINUOUS
 70
0
 71
3
 72
16
 73
12
 74
0
 42
0.0000001
 43
0.0000001
 44
0.0000000001
 40
0.0
 40
0.0
 40
0.0
 40
0.0
 40
0.0109039283
 40
0.0307157914
 40
0.059198012
 40
0.096110091
 40
0.19384142
 40
0.3198910741
 40
0.4695838935
 40
0.6372937083
 40
1.0
 40
1.0
 40
1.0
 40
1.0
 10
12.3517451881
 20
20.9015552548
 30
0.0
 10
12.3517451881
 20
20.9012255766
 30
0.0
 10
12.3517955487
 20
20.9002976336
 30
0.0
 10
12.351903172
 20
20.8985114312
 30
0.0
 10
12.3520858967
 20
20.8959415002
 30
0.0
 10
12.3524526614
 20
20.891023192
 30
0.0
 10
12.3530770436
 20
20.8831658437
 30
0.0
 10
12.3540018145
 20
20.8719119006
 30
0.0
 10
12.3551280408
 20
20.858551568
 30
0.0
 10
12.3568867628
 20
20.8380639561
 30
0.0
 10
12.3582902219
 20
20.8220884316
 30
0.0
 10
12.3592624135
 20
20.8111652555
 30
0.0
  0
SPLINE
  5
503
100
AcDbEntity
  8
0
100
AcDbSpline
 62
9
  6
CONTINUOUS
 70
0
 71
3
 72
20
 73
16
 74
0
 42
0.0000001
 43
0.0000001
 44
0.0000000001
 40
0.0
 40
0.0
 40
0.0
 40
0.0
 40
0.2114530284
 40
0.4046946081
 40
0.5757300971
 40
0.7209992488
 40
0.7830685474
 40
0.8376313876
 40
0.8843558265
 40
0.9230201017
 40
0.9535804249
 40
0.976101973
 40
0.9844544815
 40
0.9910107751
 40
1.0
 40
1.0
 40
1.0
 40
1.0
 10
12.3268617769
 20
20.8087468865
 30
0.0
 10
12.3231519164
 20
20.8085257564
 30
0.0
 10
12.3160491364
 20
20.8081440743
 30
0.0
 10
12.3059379511
 20
20.8077393102
 30
0.0
 10
12.2969842727
 20
20.8075314302
 30
0.0
 10
12.2903331186
 20
20.807522434
 30
0.0
 10
12.2857310808
 20
20.8076320974
 30
0.0
 10
12.2828625214
 20
20.8077599113
 30
0.0
 10
12.2804088276
 20
20.8079373016
 30
0.0
 10
12.2783823988
 20
20.8081611502
 30
0.0
 10
12.276791804
 20
20.8084319323
 30
0.0
 10
12.2757439932
 20
20.8087028847
 30
0.0
 10
12.2751371954
 20
20.808969062
 30
0.0
 10
12.2747830824
 20
20.8091832518
 30
0.0
 10
12.27459547
 20
20.8094376496
 30
0.0
 10
12.27459547
 20
20.8095956419
 30
0.0
  0
SPLINE
  5
504
100
AcDbEntity
  8
0
100
AcDbSpline
 62
9
  6
CONTINUOUS
 70
0
 71
3
 72
9
 73
5
 74
0
 42
0.0000001
 43
0.0000001
 44
0.0000000001
 40
0.0
 40
0.0
 40
0.0
 40
0.0
 40
0.2716943018
 40
1.0
 40
1.0
 40
1.0
 40
1.0
 10
13.1823906799
 20
18.5121706562
 30
0.0
 10
13.191239882
 20
18.5184119132
 30
0.0
 10
13.223158905
 20
18.542305071
 30
0.0
 10
13.2526949439
 20
18.569298054
 30
0.0
 10
13.2729136716
 20
18.590126038
 30
0.0
  0
SPLINE
  5
505
100
AcDbEntity
  8
0
100
AcDbSpline
 62
9
  6
CONTINUOUS
 70
0
 71
3
 72
27
 73
23
 74
0
 42
0.0000001
 43
0.0000001
 44
0.0000000001
 40
0.0
 40
0.0
 40
0.0
 40
0.0
 40
0.1448914525
 40
0.2881060659
 40
0.4296279416
 40
0.4997031386
 40
0.5692410891
 40
0.638088145
 40
0.7057434792
 40
0.7716006146
 40
0.8350344569
 40
0.8655594103
 40
0.8947264222
 40
0.9219403804
 40
0.9466033578
 40
0.9679941566
 40
0.9770937153
 40
0.9849084456
 40
0.9912724782
 40
0.9960198228
 40
0.9989843883
 40
1.0
 40
1.0
 40
1.0
 40
1.0
 10
13.2729136818
 20
18.5901260044
 30
0.0
 10
13.2781380308
 20
18.5955077327
 30
0.0
 10
13.2878978498
 20
18.6068364928
 30
0.0
 10
13.3005250785
 20
18.6251876747
 30
0.0
 10
13.309428526
 20
18.6412862922
 30
0.0
 10
13.3155917872
 20
18.6544740969
 30
0.0
 10
13.3197313947
 20
18.6644435169
 30
0.0
 10
13.3234040998
 20
18.6744602073
 30
0.0
 10
13.3266234203
 20
18.6844312803
 30
0.0
 10
13.3293934026
 20
18.6942452005
 30
0.0
 10
13.3313514121
 20
18.7022852198
 30
0.0
 10
13.3326885284
 20
18.7085174527
 30
0.0
 10
13.3335626437
 20
18.7129304874
 30
0.0
 10
13.3343193507
 20
18.7170577394
 30
0.0
 10
13.3349540306
 20
18.7207952055
 30
0.0
 10
13.3353959093
 20
18.723621012
 30
0.0
 10
13.3356857418
 20
18.7255741051
 30
0.0
 10
13.335858074
 20
18.7267863787
 30
0.0
 10
13.3359888571
 20
18.7277033677
 30
0.0
 10
13.3360959603
 20
18.7285535242
 30
0.0
 10
13.3361372491
 20
18.7287661248
 30
0.0
 10
13.336182455
 20
18.7292213309
 30
0.0
 10
13.3361813342
 20
18.7291687687
 30
0.0
  0
SPLINE
  5
506
100
AcDbEntity
  8
0
100
AcDbSpline
 62
9
  6
CONTINUOUS
 70
0
 71
3
 72
10
 73
6
 74
0
 42
0.0000001
 43
0.0000001
 44
0.0000000001
 40
0.0
 40
0.0
 40
0.0
 40
0.0
 40
0.2848044838
 40
0.5477187571
 40
1.0
 40
1.0
 40
1.0
 40
1.0
 10
13.182795386
 20
18.6524747335
 30
0.0
 10
13.195497975
 20
18.6578791967
 30
0.0
 10
13.2196208576
 20
18.6690134698
 30
0.0
 10
13.2623808888
 20
18.6918773421
 30
0.0
 10
13.2917080097
 20
18.7104702873
 30
0.0
 10
13.3097270249
 20
18.7229560231
 30
0.0
  0
SPLINE
  5
507
100
AcDbEntity
  8
0
100
AcDbSpline
 62
9
  6
CONTINUOUS
 70
0
 71
3
 72
11
 73
7
 74
0
 42
0.0000001
 43
0.0000001
 44
0.0000000001
 40
0.0
 40
0.0
 40
0.0
 40
0.0
 40
0.241384102
 40
0.4912720166
 40
0.7461987645
 40
1.0
 40
1.0
 40
1.0
 40
1.0
 10
13.3097270249
 20
18.7229560231
 30
0.0
 10
13.3013611626
 20
18.7150274402
 30
0.0
 10
13.2868516753
 20
18.6961061557
 30
0.0
 10
13.2733367062
 20
18.6627075061
 30
0.0
 10
13.2687480089
 20
18.6264368516
 30
0.0
 10
13.2707600318
 20
18.6020521222
 30
0.0
 10
13.2729136739
 20
18.5901260399
 30
0.0
  0
SPLINE
  5
508
100
AcDbEntity
  8
0
100
AcDbSpline
 62
9
  6
CONTINUOUS
 70
0
 71
3
 72
12
 73
8
 74
0
 42
0.0000001
 43
0.0000001
 44
0.0000000001
 40
0.0
 40
0.0
 40
0.0
 40
0.0
 40
0.2305809723
 40
0.4759078959
 40
0.6039734575
 40
0.7348317922
 40
1.0
 40
1.0
 40
1.0
 40
1.0
 10
12.5136849914
 20
18.7229560212
 30
0.0
 10
12.521680407
 20
18.7153785173
 30
0.0
 10
12.5358722505
 20
18.6971860804
 30
0.0
 10
12.5471862784
 20
18.6702759591
 30
0.0
 10
12.5520626502
 20
18.6466260622
 30
0.0
 10
12.5542076494
 20
18.6216402772
 30
0.0
 10
12.5527495298
 20
18.6025924524
 30
0.0
 10
12.5504983154
 20
18.5901260489
 30
0.0
  0
SPLINE
  5
509
100
AcDbEntity
  8
0
100
AcDbSpline
 62
9
  6
CONTINUOUS
 70
0
 71
3
 72
11
 73
7
 74
0
 42
0.0000001
 43
0.0000001
 44
0.0000000001
 40
0.0
 40
0.0
 40
0.0
 40
0.0
 40
0.3048835352
 40
0.5708890628
 40
0.8058883638
 40
1.0
 40
1.0
 40
1.0
 40
1.0
 10
13.3097270216
 20
18.7229560243
 30
0.0
 10
13.3135455379
 20
18.7246670703
 30
0.0
 10
13.3204567115
 20
18.7284930651
 30
0.0
 10
13.3288051421
 20
18.7358780396
 30
0.0
 10
13.3344661751
 20
18.7436548092
 30
0.0
 10
13.3368328266
 20
18.7490969425
 30
0.0
 10
13.3376531967
 20
18.7516315518
 30
0.0
  0
LINE
  5
50A
100
AcDbEntity
  8
0
100
AcDbLine
 62
9
  6
CONTINUOUS
 10
13.3376531967
 20
18.7516315518
 11
13.3384109738
 21
18.7543267702
  0
LINE
  5
50B
100
AcDbEntity
  8
0
100
AcDbLine
 62
9
  6
CONTINUOUS
 10
13.1942725179
 20
12.2803360109
 11
13.1817059668
 21
12.2797045132
  0
SPLINE
  5
50C
100
AcDbEntity
  8
0
100
AcDbSpline
 62
7
  6
CONTINUOUS
 70
0
 71
3
 72
13
 73
9
 74
0
 42
0.0000001
 43
0.0000001
 44
0.0000000001
 40
0.0
 40
0.0
 40
0.0
 40
0.0
 40
0.4019345552
 40
0.5670318053
 40
0.7063024896
 40
0.8186009159
 40
0.9034006644
 40
1.0
 40
1.0
 40
1.0
 40
1.0
 10
13.3964277035
 20
19.0494036089
 30
0.0
 10
13.3954835076
 20
19.0494036089
 30
0.0
 10
13.39415121
 20
19.049432388
 30
0.0
 10
13.3924956251
 20
19.0495724742
 30
0.0
 10
13.3915289146
 20
19.0497016576
 30
0.0
 10
13.3907452905
 20
19.0498774528
 30
0.0
 10
13.3901185567
 20
19.0500743442
 30
0.0
 10
13.3896868582
 20
19.050398024
 30
0.0
 10
13.3896880141
 20
19.0506249453
 30
0.0
  0
SPLINE
  5
50D
100
AcDbEntity
  8
0
100
AcDbSpline
 62
7
  6
CONTINUOUS
 70
0
 71
3
 72
13
 73
9
 74
0
 42
0.0000001
 43
0.0000001
 44
0.0000000001
 40
0.0
 40
0.0
 40
0.0
 40
0.0
 40
0.3951020686
 40
0.5620777055
 40
0.7043157248
 40
0.8188453002
 40
0.9043166864
 40
1.0
 40
1.0
 40
1.0
 40
1.0
 10
13.254456005
 20
19.0494036089
 30
0.0
 10
13.2528752303
 20
19.0494036089
 30
0.0
 10
13.2506262263
 20
19.0494592567
 30
0.0
 10
13.2478144557
 20
19.0497023747
 30
0.0
 10
13.2461413616
 20
19.0499275749
 30
0.0
 10
13.2447798928
 20
19.0502278052
 30
0.0
 10
13.2437131932
 20
19.0505709842
 30
0.0
 10
13.2429567327
 20
19.0510981334
 30
0.0
 10
13.2429562123
 20
19.051480955
 30
0.0
  0
SPLINE
  5
50E
100
AcDbEntity
  8
0
100
AcDbSpline
 62
9
  6
CONTINUOUS
 70
0
 71
3
 72
9
 73
5
 74
0
 42
0.0000001
 43
0.0000001
 44
0.0000000001
 40
0.0
 40
0.0
 40
0.0
 40
0.0
 40
0.5063731247
 40
1.0
 40
1.0
 40
1.0
 40
1.0
 10
13.3223550373
 20
12.5248158084
 30
0.0
 10
13.3028706665
 20
12.4980707894
 30
0.0
 10
13.2603663141
 20
12.4480394536
 30
0.0
 10
13.2100508947
 20
12.4057409259
 30
0.0
 10
13.1835518834
 20
12.3873477161
 30
0.0
  0
SPLINE
  5
50F
100
AcDbEntity
  8
0
100
AcDbSpline
 62
9
  6
CONTINUOUS
 70
0
 71
3
 72
9
 73
5
 74
0
 42
0.0000001
 43
0.0000001
 44
0.0000000001
 40
0.0
 40
0.0
 40
0.0
 40
0.0
 40
0.4935276131
 40
1.0
 40
1.0
 40
1.0
 40
1.0
 10
12.6406181194
 20
12.3868266244
 30
0.0
 10
12.6136970896
 20
12.4054528674
 30
0.0
 10
12.5626288993
 20
12.4484141621
 30
0.0
 10
12.5195809636
 20
12.4992871873
 30
0.0
 10
12.4998678723
 20
12.5264906498
 30
0.0
  0
SPLINE
  5
510
100
AcDbEntity
  8
0
100
AcDbSpline
 62
7
  6
CONTINUOUS
 70
0
 71
3
 72
15
 73
11
 74
0
 42
0.0000001
 43
0.0000001
 44
0.0000000001
 40
0.0
 40
0.0
 40
0.0
 40
0.0
 40
0.2987757409
 40
0.4559671063
 40
0.6059006835
 40
0.7412595399
 40
0.8550973369
 40
0.9424110916
 40
0.9750578918
 40
1.0
 40
1.0
 40
1.0
 40
1.0
 10
12.568956005
 20
19.0494036089
 30
0.0
 10
12.5655088106
 20
19.0494036089
 30
0.0
 10
12.5602472873
 20
19.0496745324
 30
0.0
 10
12.5532904723
 20
19.0503666473
 30
0.0
 10
12.5482319913
 20
19.0510654224
 30
0.0
 10
12.5436964336
 20
19.0518744645
 30
0.0
 10
12.5399147217
 20
19.0527562232
 30
0.0
 10
12.5373311106
 20
19.0535567211
 30
0.0
 10
12.5358000911
 20
19.0542304068
 30
0.0
 10
12.5352229922
 20
19.0545679424
 30
0.0
 10
12.5349950061
 20
19.0547435471
 30
0.0
  0
SPLINE
  5
511
100
AcDbEntity
  8
0
100
AcDbSpline
 62
7
  6
CONTINUOUS
 70
0
 71
3
 72
13
 73
9
 74
0
 42
0.0000001
 43
0.0000001
 44
0.0000000001
 40
0.0
 40
0.0
 40
0.0
 40
0.0
 40
0.1143163785
 40
0.247707234
 40
0.5375701133
 40
0.8062415979
 40
0.9152912311
 40
1.0
 40
1.0
 40
1.0
 40
1.0
 10
12.4269843065
 20
19.0494036089
 30
0.0
 10
12.425567933
 20
19.0494036089
 30
0.0
 10
12.4224990338
 20
19.0495064679
 30
0.0
 10
12.4158543489
 20
19.0499782259
 30
0.0
 10
12.4073378073
 20
19.05099784
 30
0.0
 10
12.3991792947
 20
19.0524016562
 30
0.0
 10
12.3936012839
 20
19.0537132721
 30
0.0
 10
12.3912936355
 20
19.0543874009
 30
0.0
 10
12.3903063729
 20
19.0547435471
 30
0.0
  0
SPLINE
  5
512
100
AcDbEntity
  8
0
100
AcDbSpline
 62
7
  6
CONTINUOUS
 70
0
 71
3
 72
10
 73
6
 74
0
 42
0.0000001
 43
0.0000001
 44
0.0000000001
 40
0.0
 40
0.0
 40
0.0
 40
0.0
 40
0.6733475968
 40
0.874327637
 40
1.0
 40
1.0
 40
1.0
 40
1.0
 10
12.3903063729
 20
19.0547435471
 30
0.0
 10
12.3896443275
 20
19.0549823741
 30
0.0
 10
12.3887804469
 20
19.0553253221
 30
0.0
 10
12.3879227846
 20
19.0559110002
 30
0.0
 10
12.3877199731
 20
19.0562272682
 30
0.0
 10
12.3877189385
 20
19.0563586211
 30
0.0
  0
SPLINE
  5
513
100
AcDbEntity
  8
0
100
AcDbSpline
 62
9
  6
CONTINUOUS
 70
0
 71
3
 72
26
 73
22
 74
0
 42
0.0000001
 43
0.0000001
 44
0.0000000001
 40
0.0
 40
0.0
 40
0.0
 40
0.0
 40
0.1554004966
 40
0.2197793713
 40
0.2787219301
 40
0.4790129459
 40
0.5633139801
 40
0.6390163186
 40
0.7069619968
 40
0.7675590847
 40
0.8210731651
 40
0.8676353981
 40
0.9073219329
 40
0.9401274163
 40
0.9539374546
 40
0.9659939052
 40
0.9762701461
 40
0.984739315
 40
0.9913743169
 40
0.99614783
 40
1.0
 40
1.0
 40
1.0
 40
1.0
 10
6.7894570005
 20
10.12417702
 30
0.0
 10
6.764956324
 20
10.1289495723
 30
0.0
 10
6.7305315387
 20
10.1368526168
 30
0.0
 10
6.6871136292
 20
10.1477643613
 30
0.0
 10
6.6368229036
 20
10.1609133476
 30
0.0
 10
6.5835793975
 20
10.1754053471
 30
0.0
 10
6.5276440537
 20
10.1902532255
 30
0.0
 10
6.4921956355
 20
10.1994206998
 30
0.0
 10
6.4603590834
 20
10.2073427075
 30
0.0
 10
6.4319109507
 20
10.2141159315
 30
0.0
 10
6.4067382783
 20
10.2198113155
 30
0.0
 10
6.3847860028
 20
10.2245088258
 30
0.0
 10
6.3660359039
 20
10.2282798027
 30
0.0
 10
6.3524170991
 20
10.2308421067
 30
0.0
 10
6.3431296916
 20
10.2324895354
 30
0.0
 10
6.3374261552
 20
10.2334640644
 30
0.0
 10
6.3324874262
 20
10.2342730283
 30
0.0
 10
6.3286183923
 20
10.2348876171
 30
0.0
 10
6.3250525292
 20
10.2354193066
 30
0.0
 10
6.3236235852
 20
10.2356413794
 30
0.0
 10
6.3203205019
 20
10.2360845371
 30
0.0
 10
6.3209341306
 20
10.2360050605
 30
0.0
  0
SPLINE
  5
514
100
AcDbEntity
  8
0
100
AcDbSpline
 62
7
  6
CONTINUOUS
 70
0
 71
3
 72
20
 73
16
 74
0
 42
0.0000001
 43
0.0000001
 44
0.0000000001
 40
0.0
 40
0.0
 40
0.0
 40
0.0
 40
0.1094664615
 40
0.2566956503
 40
0.4248588418
 40
0.5962092076
 40
0.6776037088
 40
0.7534825306
 40
0.8219061685
 40
0.8809634083
 40
0.9291621715
 40
0.965431819
 40
0.9888727935
 40
0.9957434713
 40
1.0
 40
1.0
 40
1.0
 40
1.0
 10
12.3180455907
 20
19.0494036089
 30
0.0
 10
12.3164456797
 20
19.0494036089
 30
0.0
 10
12.3126966677
 20
19.049640759
 30
0.0
 10
12.306520197
 20
19.050276791
 30
0.0
 10
12.299470646
 20
19.0512441356
 30
0.0
 10
12.293398547
 20
19.0522348891
 30
0.0
 10
12.2886758328
 20
19.0531106002
 30
0.0
 10
12.285441978
 20
19.0537617376
 30
0.0
 10
12.2825388108
 20
19.0544006176
 30
0.0
 10
12.2800450643
 20
19.0550107438
 30
0.0
 10
12.2780224917
 20
19.0555759188
 30
0.0
 10
12.2765303981
 20
19.0560764799
 30
0.0
 10
12.275629446
 20
19.056470918
 30
0.0
 10
12.2752212526
 20
19.0567658347
 30
0.0
 10
12.2751340586
 20
19.0569228885
 30
0.0
 10
12.2751376436
 20
19.0569849965
 30
0.0
  0
SPLINE
  5
515
100
AcDbEntity
  8
0
100
AcDbSpline
 62
9
  6
CONTINUOUS
 70
0
 71
3
 72
11
 73
7
 74
0
 42
0.0000001
 43
0.0000001
 44
0.0000000001
 40
0.0
 40
0.0
 40
0.0
 40
0.0
 40
0.2331952395
 40
0.4821962941
 40
0.7404282402
 40
1.0
 40
1.0
 40
1.0
 40
1.0
 10
13.291177585
 20
12.0650458368
 30
0.0
 10
13.2857484315
 20
12.0539603412
 30
0.0
 10
13.2761204857
 20
12.0302367646
 30
0.0
 10
13.2656689657
 20
11.992381078
 30
0.0
 10
13.2592766804
 20
11.952222798
 30
0.0
 10
13.2577033046
 20
11.9248060052
 30
0.0
 10
13.2576182533
 20
11.9110665185
 30
0.0
  0
SPLINE
  5
516
100
AcDbEntity
  8
0
100
AcDbSpline
 62
7
  6
CONTINUOUS
 70
0
 71
3
 72
13
 73
9
 74
0
 42
0.0000001
 43
0.0000001
 44
0.0000000001
 40
0.0
 40
0.0
 40
0.0
 40
0.0
 40
0.0965607428
 40
0.1813413187
 40
0.2936414586
 40
0.43292875
 40
0.5980480556
 40
1.0
 40
1.0
 40
1.0
 40
1.0
 10
12.4337227878
 20
19.0506251616
 30
0.0
 10
12.4337244813
 20
19.050398349
 30
0.0
 10
12.4332933757
 20
19.0500738091
 30
0.0
 10
12.4326667224
 20
19.0498771284
 30
0.0
 10
12.4318831732
 20
19.0497012998
 30
0.0
 10
12.4309164046
 20
19.0495722497
 30
0.0
 10
12.429260787
 20
19.0494323171
 30
0.0
 10
12.4279284822
 20
19.0494036089
 30
0.0
 10
12.4269843065
 20
19.0494036089
 30
0.0
  0
LINE
  5
517
100
AcDbEntity
  8
0
100
AcDbLine
 62
9
  6
CONTINUOUS
 10
5.5711457011
 20
9.2774795516
 11
5.5951095894
 21
9.2773412094
  0
SPLINE
  5
518
100
AcDbEntity
  8
0
100
AcDbSpline
 62
9
  6
CONTINUOUS
 70
0
 71
3
 72
26
 73
22
 74
0
 42
0.0000001
 43
0.0000001
 44
0.0000000001
 40
0.0
 40
0.0
 40
0.0
 40
0.0
 40
0.1046314118
 40
0.1784977317
 40
0.2706598155
 40
0.3250863288
 40
0.3864010751
 40
0.455893362
 40
0.5352344878
 40
0.6269583216
 40
0.6783317337
 40
0.7340008153
 40
0.7944216871
 40
0.8264209016
 40
0.8595288092
 40
0.8935998921
 40
0.9284955193
 40
0.9462177118
 40
0.964104337
 40
0.9820686462
 40
1.0
 40
1.0
 40
1.0
 40
1.0
 10
5.5951095894
 20
9.2773412094
 30
0.0
 10
5.6061630878
 20
9.2772927282
 30
0.0
 10
5.6250200726
 20
9.2772293102
 30
0.0
 10
5.6536133336
 20
9.2771445642
 30
0.0
 10
5.6769027805
 20
9.2770650649
 30
0.0
 10
5.6988661437
 20
9.2769635538
 30
0.0
 10
5.718434406
 20
9.2768339994
 30
0.0
 10
5.7406343295
 20
9.2766407263
 30
0.0
 10
5.7660455655
 20
9.2763084787
 30
0.0
 10
5.7895399664
 20
9.2758244145
 30
0.0
 10
5.8105306694
 20
9.2752523919
 30
0.0
 10
5.8282098589
 20
9.2745842895
 30
0.0
 10
5.8438359461
 20
9.2738191052
 30
0.0
 10
5.8570788701
 20
9.2731233171
 30
0.0
 10
5.8675393616
 20
9.2725253158
 30
0.0
 10
5.8782989842
 20
9.2718025167
 30
0.0
 10
5.8874264355
 20
9.2710524051
 30
0.0
 10
5.8948497129
 20
9.2704414773
 30
0.0
 10
5.9004944606
 20
9.2700313548
 30
0.0
 10
5.9061571787
 20
9.2695622032
 30
0.0
 10
5.909906892
 20
9.268925134
 30
0.0
 10
5.911745145
 20
9.2684676404
 30
0.0
  0
LINE
  5
519
100
AcDbEntity
  8
0
100
AcDbLine
 62
9
  6
CONTINUOUS
 10
5.5690207103
 20
9.2618937644
 11
5.6321955215
 21
9.2621052365
  0
SPLINE
  5
51A
100
AcDbEntity
  8
0
100
AcDbSpline
 62
9
  6
CONTINUOUS
 70
0
 71
3
 72
14
 73
10
 74
0
 42
0.0000001
 43
0.0000001
 44
0.0000000001
 40
0.0
 40
0.0
 40
0.0
 40
0.0
 40
0.1342205863
 40
0.319809383
 40
0.4407744283
 40
0.5889993533
 40
0.775053673
 40
0.8841153724
 40
1.0
 40
1.0
 40
1.0
 40
1.0
 10
5.6321955215
 20
9.2621052365
 30
0.0
 10
5.6447071112
 20
9.2621347446
 30
0.0
 10
5.6745186686
 20
9.2622020326
 30
0.0
 10
5.7156060436
 20
9.262353161
 30
0.0
 10
5.7579981227
 20
9.2626720486
 30
0.0
 10
5.8004303878
 20
9.2632757808
 30
0.0
 10
5.8417466138
 20
9.2643442264
 30
0.0
 10
5.8800189327
 20
9.2661224968
 30
0.0
 10
5.9009429912
 20
9.2675438359
 30
0.0
 10
5.911706005
 20
9.2684654972
 30
0.0
  0
SPLINE
  5
51B
100
AcDbEntity
  8
0
100
AcDbSpline
 62
9
  6
CONTINUOUS
 70
0
 71
3
 72
10
 73
6
 74
0
 42
0.0000001
 43
0.0000001
 44
0.0000000001
 40
0.0
 40
0.0
 40
0.0
 40
0.0
 40
0.2335507533
 40
0.4840424251
 40
1.0
 40
1.0
 40
1.0
 40
1.0
 10
12.4906695317
 20
18.7088402179
 30
0.0
 10
12.4927722239
 20
18.698593068
 30
0.0
 10
12.498351345
 20
18.6775756673
 30
0.0
 10
12.51488859
 20
18.635906526
 30
0.0
 10
12.5344017848
 20
18.6067077154
 30
0.0
 10
12.5504983127
 20
18.5901259842
 30
0.0
  0
SPLINE
  5
51C
100
AcDbEntity
  8
0
100
AcDbSpline
 62
9
  6
CONTINUOUS
 70
0
 71
3
 72
25
 73
21
 74
0
 42
0.0000001
 43
0.0000001
 44
0.0000000001
 40
0.0
 40
0.0
 40
0.0
 40
0.0
 40
0.0008509903
 40
0.0040154876
 40
0.0094942628
 40
0.0172602628
 40
0.0272841757
 40
0.0395361272
 40
0.0539860415
 40
0.0706037554
 40
0.11021655
 40
0.1580336956
 40
0.2136328846
 40
0.2765891245
 40
0.3464774686
 40
0.422884393
 40
0.5054667474
 40
0.5939082739
 40
0.7871048924
 40
1.0
 40
1.0
 40
1.0
 40
1.0
 10
12.2438537609
 20
13.8049056051
 30
0.0
 10
12.2438628133
 20
13.8049458068
 30
0.0
 10
12.2440582524
 20
13.8046150486
 30
0.0
 10
12.244178354
 20
13.8043909749
 30
0.0
 10
12.2445976647
 20
13.8035740063
 30
0.0
 10
12.2450692924
 20
13.8026123745
 30
0.0
 10
12.2457147911
 20
13.8012843237
 30
0.0
 10
12.2464812035
 20
13.7996883027
 30
0.0
 10
12.2473866703
 20
13.7977930949
 30
0.0
 10
12.2488570771
 20
13.7947036952
 30
0.0
 10
12.2510177045
 20
13.7901513175
 30
0.0
 10
12.2539860228
 20
13.7838939165
 30
0.0
 10
12.2574411375
 20
13.776615903
 30
0.0
 10
12.2613601836
 20
13.7683751788
 30
0.0
 10
12.2657204605
 20
13.7592285182
 30
0.0
 10
12.2705018159
 20
13.7492297772
 30
0.0
 10
12.2756725904
 20
13.7384213968
 30
0.0
 10
12.2832717515
 20
13.7225054951
 30
0.0
 10
12.2935378345
 20
13.7008703216
 30
0.0
 10
12.3018693663
 20
13.6830577745
 30
0.0
 10
12.3062042482
 20
13.6737042351
 30
0.0
  0
LINE
  5
51D
100
AcDbEntity
  8
0
100
AcDbLine
 62
9
  6
CONTINUOUS
 10
12.3443749053
 20
13.5887535185
 11
12.3473364697
 21
13.5819474503
  0
SPLINE
  5
51E
100
AcDbEntity
  8
0
100
AcDbSpline
 62
9
  6
CONTINUOUS
 70
0
 71
3
 72
36
 73
32
 74
0
 42
0.0000001
 43
0.0000001
 44
0.0000000001
 40
0.0
 40
0.0
 40
0.0
 40
0.0
 40
0.0928642634
 40
0.13780315
 40
0.1810055593
 40
0.2614236998
 40
0.298587788
 40
0.333693301
 40
0.3982317472
 40
0.4561559389
 40
0.5560136891
 40
0.6394074934
 40
0.7099985916
 40
0.7702472225
 40
0.8216893763
 40
0.8654651618
 40
0.9023206621
 40
0.9328158858
 40
0.9458228219
 40
0.9573956025
 40
0.9675444629
 40
0.9762762361
 40
0.9835977705
 40
0.9895219643
 40
0.9940837101
 40
0.9958661257
 40
0.9973228924
 40
0.9984590433
 40
0.9992797276
 40
0.9997905233
 40
1.0
 40
1.0
 40
1.0
 40
1.0
 10
5.9188760017
 20
9.2684193631
 30
0.0
 10
5.92946343
 20
9.2644901207
 30
0.0
 10
5.9451605742
 20
9.2586191786
 30
0.0
 10
5.9659731891
 20
9.2514460616
 30
0.0
 10
5.9855558131
 20
9.2453750763
 30
0.0
 10
6.0045183348
 20
9.2405531321
 30
0.0
 10
6.0226619056
 20
9.236605002
 30
0.0
 10
6.0389728637
 20
9.2333238627
 30
0.0
 10
6.0578390807
 20
9.229959097
 30
0.0
 10
6.084555755
 20
9.2258063069
 30
0.0
 10
6.1136301884
 20
9.2219388016
 30
0.0
 10
6.1442443265
 20
9.217980936
 30
0.0
 10
6.1700878478
 20
9.2146869626
 30
0.0
 10
6.1920820555
 20
9.2119253075
 30
0.0
 10
6.2108367376
 20
9.2095381331
 30
0.0
 10
6.2267627897
 20
9.2074588963
 30
0.0
 10
6.2401581805
 20
9.2056732931
 30
0.0
 10
6.2498422652
 20
9.2043644255
 30
0.0
 10
6.2564781421
 20
9.2034575937
 30
0.0
 10
6.2606620712
 20
9.2028824944
 30
0.0
 10
6.2643308231
 20
9.202377213
 30
0.0
 10
6.267487602
 20
9.2019439437
 30
0.0
 10
6.2701360486
 20
9.2015847356
 30
0.0
 10
6.2722828047
 20
9.2013012649
 30
0.0
 10
6.2737627172
 20
9.2011097331
 30
0.0
 10
6.2747027656
 20
9.2009859511
 30
0.0
 10
6.2752312908
 20
9.2009162291
 30
0.0
 10
6.27563933
 20
9.2008557606
 30
0.0
 10
6.2759429251
 20
9.2008161241
 30
0.0
 10
6.2761142773
 20
9.2007709061
 30
0.0
 10
6.2762143607
 20
9.2007617342
 30
0.0
 10
6.2762293524
 20
9.2007411386
 30
0.0
  0
SPLINE
  5
51F
100
AcDbEntity
  8
0
100
AcDbSpline
 62
9
  6
CONTINUOUS
 70
0
 71
3
 72
34
 73
30
 74
0
 42
0.0000001
 43
0.0000001
 44
0.0000000001
 40
0.0
 40
0.0
 40
0.0
 40
0.0
 40
0.0000415398
 40
0.0001683879
 40
0.0003807763
 40
0.0006789232
 40
0.0015333593
 40
0.002733426
 40
0.0042808518
 40
0.0061773645
 40
0.0084246921
 40
0.0110245623
 40
0.0172888415
 40
0.0249840248
 40
0.0341239348
 40
0.0447223948
 40
0.056802575
 40
0.070425032
 40
0.1025763992
 40
0.1417357825
 40
0.1884625238
 40
0.2434571711
 40
0.3079849081
 40
0.3836474064
 40
0.4728279023
 40
0.5783133829
 40
0.7030912144
 40
0.8462192725
 40
1.0
 40
1.0
 40
1.0
 40
1.0
 10
6.2633142435
 20
9.2943515518
 30
0.0
 10
6.263316697
 20
9.2943556595
 30
0.0
 10
6.2632794908
 20
9.294344893
 30
0.0
 10
6.2632530897
 20
9.294352331
 30
0.0
 10
6.2631698723
 20
9.2943427488
 30
0.0
 10
6.2630189705
 20
9.2943371744
 30
0.0
 10
6.262743926
 20
9.2943187996
 30
0.0
 10
6.2623319696
 20
9.2942954767
 30
0.0
 10
6.2617971566
 20
9.2942631487
 30
0.0
 10
6.2611431093
 20
9.2942241807
 30
0.0
 10
6.2603676409
 20
9.2941776859
 30
0.0
 10
6.2590901399
 20
9.2941011937
 30
0.0
 10
6.2571861876
 20
9.2939872623
 30
0.0
 10
6.2545303006
 20
9.2938288306
 30
0.0
 10
6.2513760241
 20
9.2936413696
 30
0.0
 10
6.2477175174
 20
9.293424872
 30
0.0
 10
6.2435435353
 20
9.2931790362
 30
0.0
 10
6.2368911773
 20
9.2927902205
 30
0.0
 10
6.227124604
 20
9.2922280912
 30
0.0
 10
6.2135502857
 20
9.2914651882
 30
0.0
 10
6.1973477096
 20
9.290577694
 30
0.0
 10
6.1782260835
 20
9.2895573581
 30
0.0
 10
6.1557748494
 20
9.288387505
 30
0.0
 10
6.1293902053
 20
9.2870354134
 30
0.0
 10
6.0982983094
 20
9.2853616763
 30
0.0
 10
6.0615664456
 20
9.2832220677
 30
0.0
 10
6.0186601487
 20
9.2802337359
 30
0.0
 10
5.9703174399
 20
9.2754099283
 30
0.0
 10
5.936436542
 20
9.2707360361
 30
0.0
 10
5.918876041
 20
9.2684190641
 30
0.0
  0
SPLINE
  5
520
100
AcDbEntity
  8
0
100
AcDbSpline
 62
9
  6
CONTINUOUS
 70
0
 71
3
 72
33
 73
29
 74
0
 42
0.0000001
 43
0.0000001
 44
0.0000000001
 40
0.0
 40
0.0
 40
0.0
 40
0.0
 40
0.2211963212
 40
0.3232192026
 40
0.4191296657
 40
0.5086310156
 40
0.5914265378
 40
0.6672195005
 40
0.7357131555
 40
0.796639512
 40
0.8498456093
 40
0.8952072277
 40
0.914907537
 40
0.9326001412
 40
0.9482695111
 40
0.9619001169
 40
0.9734764286
 40
0.9829829157
 40
0.9869551217
 40
0.9904040475
 40
0.9933277517
 40
0.9957242928
 40
0.9975917295
 40
0.9989281202
 40
0.9993965667
 40
0.9997315237
 40
0.9999327487
 40
1.0
 40
1.0
 40
1.0
 40
1.0
 10
13.2576155025
 20
11.9110779838
 30
0.0
 10
13.2741377638
 20
11.9111518624
 30
0.0
 10
13.2982805397
 20
11.9112804823
 30
0.0
 10
13.3295870712
 20
11.9114865138
 30
0.0
 10
13.3510566448
 20
11.9116443999
 30
0.0
 10
13.3710899415
 20
11.9118063504
 30
0.0
 10
13.3896204882
 20
11.9119688587
 30
0.0
 10
13.4065818109
 20
11.9121284149
 30
0.0
 10
13.4219095851
 20
11.9122815477
 30
0.0
 10
13.4355502281
 20
11.9124248676
 30
0.0
 10
13.4474630368
 20
11.9125560374
 30
0.0
 10
13.4562965723
 20
11.9126576505
 30
0.0
 10
13.4624775485
 20
11.9127310793
 30
0.0
 10
13.4664407852
 20
11.9127790997
 30
0.0
 10
13.4699506634
 20
11.9128224378
 30
0.0
 10
13.473003709
 20
11.9128608252
 30
0.0
 10
13.4755964362
 20
11.9128939765
 30
0.0
 10
13.4774677925
 20
11.9129183065
 30
0.0
 10
13.4787320856
 20
11.9129348877
 30
0.0
 10
13.4795047782
 20
11.9129451654
 30
0.0
 10
13.480159609
 20
11.9129536774
 30
0.0
 10
13.4806968145
 20
11.9129613607
 30
0.0
 10
13.4811141657
 20
11.9129655879
 30
0.0
 10
13.4813903878
 20
11.9129720375
 30
0.0
 10
13.4815475919
 20
11.912970342
 30
0.0
 10
13.4816269349
 20
11.91297752
 30
0.0
 10
13.4816643869
 20
11.9129670566
 30
0.0
 10
13.481692344
 20
11.9129786816
 30
0.0
 10
13.4816941164
 20
11.9129739813
 30
0.0
  0
LINE
  5
521
100
AcDbEntity
  8
0
100
AcDbLine
 62
9
  6
CONTINUOUS
 10
13.4816271656
 20
11.9043804107
 11
13.4669411534
 21
11.9049097292
  0
SPLINE
  5
522
100
AcDbEntity
  8
0
100
AcDbSpline
 62
7
  6
CONTINUOUS
 70
0
 71
3
 72
9
 73
5
 74
0
 42
0.0000001
 43
0.0000001
 44
0.0000000001
 40
0.0
 40
0.0
 40
0.0
 40
0.0
 40
0.5724759917
 40
1.0
 40
1.0
 40
1.0
 40
1.0
 10
13.5159212867
 20
19.0502011766
 30
0.0
 10
13.5139142199
 20
19.0499682876
 30
0.0
 10
13.5104025403
 20
19.0496175746
 30
0.0
 10
13.5068753497
 20
19.0494036089
 30
0.0
 10
13.5053664193
 20
19.0494036089
 30
0.0
  0
SPLINE
  5
523
100
AcDbEntity
  8
0
100
AcDbSpline
 62
7
  6
CONTINUOUS
 70
0
 71
3
 72
15
 73
11
 74
0
 42
0.0000001
 43
0.0000001
 44
0.0000000001
 40
0.0
 40
0.0
 40
0.0
 40
0.0
 40
0.0126032129
 40
0.0319094344
 40
0.0954904253
 40
0.1927439031
 40
0.3195016985
 40
0.4702666317
 40
0.6390656771
 40
1.0
 40
1.0
 40
1.0
 40
1.0
 10
13.4356931007
 20
19.056358705
 30
0.0
 10
13.4356922741
 20
19.0562426566
 30
0.0
 10
13.4355348573
 20
19.0559643903
 30
0.0
 10
13.4348324731
 20
19.0554365847
 30
0.0
 10
13.4332916688
 20
19.0547714652
 30
0.0
 10
13.430771443
 20
19.0539757391
 30
0.0
 10
13.4274203119
 20
19.0531337158
 30
0.0
 10
13.4233979134
 20
19.0522916945
 30
0.0
 10
13.4172252593
 20
19.0512076309
 30
0.0
 10
13.4123882496
 20
19.0505554952
 30
0.0
 10
13.40908368
 20
19.0502011766
 30
0.0
  0
SPLINE
  5
524
100
AcDbEntity
  8
0
100
AcDbSpline
 62
7
  6
CONTINUOUS
 70
0
 71
3
 72
9
 73
5
 74
0
 42
0.0000001
 43
0.0000001
 44
0.0000000001
 40
0.0
 40
0.0
 40
0.0
 40
0.0
 40
0.542024224
 40
1.0
 40
1.0
 40
1.0
 40
1.0
 10
13.40908368
 20
19.0502011766
 30
0.0
 10
13.4068048773
 20
19.0499568416
 30
0.0
 10
13.4025917811
 20
19.0495887349
 30
0.0
 10
13.398364182
 20
19.0494036089
 30
0.0
 10
13.3964277035
 20
19.0494036089
 30
0.0
  0
SPLINE
  5
525
100
AcDbEntity
  8
0
100
AcDbSpline
 62
9
  6
CONTINUOUS
 70
0
 71
3
 72
13
 73
9
 74
0
 42
0.0000001
 43
0.0000001
 44
0.0000000001
 40
0.0
 40
0.0
 40
0.0
 40
0.0
 40
0.1262770493
 40
0.2518797954
 40
0.3769904523
 40
0.5017977911
 40
0.7509402529
 40
1.0
 40
1.0
 40
1.0
 40
1.0
 10
12.64021436
 20
13.8601133726
 30
0.0
 10
12.6284474732
 20
13.8511384837
 30
0.0
 10
12.6056656653
 20
13.832322255
 30
0.0
 10
12.5734392839
 20
13.8020611299
 30
0.0
 10
12.5433051044
 20
13.7699463574
 30
0.0
 10
12.5059239447
 20
13.7249257011
 30
0.0
 10
12.4642546811
 20
13.6647735761
 30
0.0
 10
12.4361709254
 20
13.6134690833
 30
0.0
 10
12.4232994267
 20
13.5872720687
 30
0.0
  0
LINE
  5
526
100
AcDbEntity
  8
0
100
AcDbLine
 62
9
  6
CONTINUOUS
 10
13.2297425488
 20
11.1658085359
 11
13.1857582127
 21
11.1768350731
  0
SPLINE
  5
527
100
AcDbEntity
  8
0
100
AcDbSpline
 62
9
  6
CONTINUOUS
 70
0
 71
3
 72
9
 73
5
 74
0
 42
0.0000001
 43
0.0000001
 44
0.0000000001
 40
0.0
 40
0.0
 40
0.0
 40
0.0
 40
0.4942911614
 40
1.0
 40
1.0
 40
1.0
 40
1.0
 10
12.641856297
 20
11.2876561899
 30
0.0
 10
12.6229145192
 20
11.290842284
 30
0.0
 10
12.5845639732
 20
11.2971134383
 30
0.0
 10
12.54614602
 20
11.3029652969
 30
0.0
 10
12.5266922017
 20
11.3057460168
 30
0.0
  0
SPLINE
  5
528
100
AcDbEntity
  8
0
100
AcDbSpline
 62
9
  6
CONTINUOUS
 70
0
 71
3
 72
10
 73
6
 74
0
 42
0.0000001
 43
0.0000001
 44
0.0000000001
 40
0.0
 40
0.0
 40
0.0
 40
0.0
 40
0.4917279783
 40
0.7432172391
 40
1.0
 40
1.0
 40
1.0
 40
1.0
 10
12.6418664931
 20
11.1847789214
 30
0.0
 10
12.597073344
 20
11.1971420804
 30
0.0
 10
12.5291441311
 20
11.2150328016
 30
0.0
 10
12.4372188268
 20
11.2369500493
 30
0.0
 10
12.3902766427
 20
11.2471543674
 30
0.0
 10
12.366481266
 20
11.2519093264
 30
0.0
  0
SPLINE
  5
529
100
AcDbEntity
  8
0
100
AcDbSpline
 62
7
  6
CONTINUOUS
 70
0
 71
3
 72
14
 73
10
 74
0
 42
0.0000001
 43
0.0000001
 44
0.0000000001
 40
0.0
 40
0.0
 40
0.0
 40
0.0
 40
0.0354028088
 40
0.0629056819
 40
0.0979145414
 40
0.1902203891
 40
0.3106528565
 40
0.6236334791
 40
1.0
 40
1.0
 40
1.0
 40
1.0
 10
13.2889552535
 20
19.0555357186
 30
0.0
 10
13.28895604
 20
19.0552801294
 30
0.0
 10
13.2886239266
 20
19.0548734972
 30
0.0
 10
13.2880545113
 20
19.0544834918
 30
0.0
 10
13.2870582771
 20
19.0539555254
 30
0.0
 10
13.2853826485
 20
19.0533298865
 30
0.0
 10
13.2817316845
 20
19.0522779346
 30
0.0
 10
13.2759866728
 20
19.0511548759
 30
0.0
 10
13.2710525344
 20
19.0504886346
 30
0.0
 10
13.2683506067
 20
19.0502011766
 30
0.0
  0
SPLINE
  5
52A
100
AcDbEntity
  8
0
100
AcDbSpline
 62
7
  6
CONTINUOUS
 70
0
 71
3
 72
9
 73
5
 74
0
 42
0.0000001
 43
0.0000001
 44
0.0000000001
 40
0.0
 40
0.0
 40
0.0
 40
0.0
 40
0.5189609657
 40
1.0
 40
1.0
 40
1.0
 40
1.0
 10
13.2683506067
 20
19.0502011766
 30
0.0
 10
13.2659558089
 20
19.0499463942
 30
0.0
 10
13.2613289136
 20
19.0495685369
 30
0.0
 10
13.2566883356
 20
19.0494036089
 30
0.0
 10
13.254456005
 20
19.0494036089
 30
0.0
  0
SPLINE
  5
52B
100
AcDbEntity
  8
0
100
AcDbSpline
 62
7
  6
CONTINUOUS
 70
0
 71
3
 72
17
 73
13
 74
0
 42
0.0000001
 43
0.0000001
 44
0.0000000001
 40
0.0
 40
0.0
 40
0.0
 40
0.0
 40
0.1260512373
 40
0.2513681331
 40
0.3136838033
 40
0.3758553317
 40
0.4999997983
 40
0.6241446005
 40
0.6863163693
 40
0.7486322475
 40
0.8739490854
 40
1.0
 40
1.0
 40
1.0
 40
1.0
 10
12.1301735752
 20
13.5112612247
 30
0.0
 10
12.1249086158
 20
13.4988921235
 30
0.0
 10
12.1149421324
 20
13.4739904655
 30
0.0
 10
12.1048284362
 20
13.442048519
 30
0.0
 10
12.0988386038
 20
13.4160742699
 30
0.0
 10
12.0945046071
 20
13.3898985905
 30
0.0
 10
12.0923485058
 20
13.3567582026
 30
0.0
 10
12.0945061751
 20
13.3236179228
 30
0.0
 10
12.0988407531
 20
13.2974422705
 30
0.0
 10
12.1048303138
 20
13.2714679315
 30
0.0
 10
12.1149428204
 20
13.2395256463
 30
0.0
 10
12.1249086293
 20
13.2146237364
 30
0.0
 10
12.1301735752
 20
13.2022546668
 30
0.0
  0
SPLINE
  5
52C
100
AcDbEntity
  8
0
100
AcDbSpline
 62
7
  6
CONTINUOUS
 70
0
 71
3
 72
17
 73
13
 74
0
 42
0.0000001
 43
0.0000001
 44
0.0000000001
 40
0.0
 40
0.0
 40
0.0
 40
0.0
 40
0.1260509056
 40
0.2513677286
 40
0.3136836045
 40
0.3758553791
 40
0.5000002006
 40
0.6241446878
 40
0.6863162228
 40
0.7486318917
 40
0.8739487729
 40
1.0
 40
1.0
 40
1.0
 40
1.0
 10
12.1301735752
 20
12.9172612247
 30
0.0
 10
12.1249086298
 20
12.9048921564
 30
0.0
 10
12.1149428187
 20
12.8799902513
 30
0.0
 10
12.1048303125
 20
12.8480479698
 30
0.0
 10
12.098840761
 20
12.8220736307
 30
0.0
 10
12.0945062014
 20
12.7958979737
 30
0.0
 10
12.0923485433
 20
12.7627576903
 30
0.0
 10
12.0945046406
 20
12.7296172992
 30
0.0
 10
12.0988386218
 20
12.7034416153
 30
0.0
 10
12.1048284438
 20
12.6774673657
 30
0.0
 10
12.1149421339
 20
12.6455254212
 30
0.0
 10
12.1249086164
 20
12.6206237667
 30
0.0
 10
12.1301735752
 20
12.6082546668
 30
0.0
  0
SPLINE
  5
52D
100
AcDbEntity
  8
0
100
AcDbSpline
 62
7
  6
CONTINUOUS
 70
0
 71
3
 72
13
 73
9
 74
0
 42
0.0000001
 43
0.0000001
 44
0.0000000001
 40
0.0
 40
0.0
 40
0.0
 40
0.0
 40
0.1090093975
 40
0.2382987981
 40
0.5247159927
 40
0.7968062102
 40
0.9099452661
 40
1.0
 40
1.0
 40
1.0
 40
1.0
 10
12.5492806198
 20
18.9903851185
 30
0.0
 10
12.5479237289
 20
18.9903851185
 30
0.0
 10
12.5449577678
 20
18.9904908437
 30
0.0
 10
12.5384431544
 20
18.9909702835
 30
0.0
 10
12.5299403155
 20
18.9920072897
 30
0.0
 10
12.5216941077
 20
18.9934158109
 30
0.0
 10
12.515921874
 20
18.9947155987
 30
0.0
 10
12.5134798645
 20
18.9953832128
 30
0.0
 10
12.5124143313
 20
18.9957313154
 30
0.0
  0
SPLINE
  5
52E
100
AcDbEntity
  8
0
100
AcDbSpline
 62
7
  6
CONTINUOUS
 70
0
 71
3
 72
11
 73
7
 74
0
 42
0.0000001
 43
0.0000001
 44
0.0000000001
 40
0.0
 40
0.0
 40
0.0
 40
0.0
 40
0.3901937432
 40
0.6850743505
 40
0.8843912346
 40
1.0
 40
1.0
 40
1.0
 40
1.0
 10
12.5124143313
 20
18.9957313154
 30
0.0
 10
12.5119536693
 20
18.9958818106
 30
0.0
 10
12.5111516296
 20
18.9961607211
 30
0.0
 10
12.510141729
 20
18.9966176953
 30
0.0
 10
12.5095033206
 20
18.9969960772
 30
0.0
 10
12.5092317227
 20
18.9973422683
 30
0.0
 10
12.5092313693
 20
18.9974858543
 30
0.0
  0
ENDSEC
  0
SECTION
  2
OBJECTS
  0
DICTIONARY
  5
C
100
AcDbDictionary
280
0
281
1
  3
ACAD_GROUP
350
D
  3
ACAD_MLINESTYLE
350
17
  3
ACAD_LAYOUT
350
1A
  3
ACAD_PLOTSETTINGS
350
19
  3
ACAD_PLOTSTYLENAME
350
E
  0
DICTIONARY
  5
D
102
{ACAD_REACTORS
330
C
102
}
100
AcDbDictionary
280
0
281
1
  0
ACDBDICTIONARYWDFLT
  5
E
102
{ACAD_REACTORS
330
C
102
}
100
AcDbDictionary
281
1
  3
Normal
350
F
100
AcDbDictionaryWithDefault
340
F
  0
DICTIONARY
  5
17
102
{ACAD_REACTORS
330
C
102
}
100
AcDbDictionary
280
0
281
1
  3
Standard
350
18
  0
DICTIONARY
  5
19
102
{ACAD_REACTORS
330
C
102
}
100
AcDbDictionary
281
1
  0
DICTIONARY
  5
1A
102
{ACAD_REACTORS
330
C
102
}
100
AcDbDictionary
281
1
  3
Model
350
52F
  3
Layout1
350
530
  0
ACDBPLACEHOLDER
  5
F
102
{ACAD_REACTORS
330
E
102
}
  0
MLINESTYLE
  5
18
102
{ACAD_REACTORS
330
17
102
}
100
AcDbMlineStyle
  2
STANDARD
 70
0
  3

 62
256
 51
90.0
 52
90.0
 71
2
 49
0.5
 62
256
  6
BYLAYER
 49
-0.5
 62
256
  6
BYLAYER
  0
LAYOUT
  5
52F
102
{ACAD_REACTORS
330
1A
102
}
100
AcDbPlotSettings
  1

  2
none_device
  4
ANSI_C_(22.00_x_17.00_Inches)
  6

 40
0.0
 41
0.0
 42
0.0
 43
0.0
 44
558.8
 45
431.8
 46
0.0
 47
0.0
 48
0.0
 49
0.0
140
0.0
141
0.0
142
1.0
143
1.0
 70
1024
 72
0
 73
0
 74
0
  7

 75
0
147
1.0
148
0.0
149
0.0
100
AcDbLayout
  1
Model
 70
0
 71
0
 10
0.0
 20
0.0
 11
22.0
 21
17.0
 12
0.0
 22
0.0
 32
0.0
 14
0.0
 24
0.0
 34
0.0
 15
0.0
 25
0.0
 35
0.0
146
0.0
 13
0.0
 23
0.0
 33
0.0
 16
1.0
 26
0.0
 36
0.0
 17
0.0
 27
1.0
 37
0.0
 76
0
330
202
345
0
346
0
  0
LAYOUT
  5
530
102
{ACAD_REACTORS
330
1A
102
}
100
AcDbPlotSettings
  1

  2
none_device
  4
ANSI_C_(22.00_x_17.00_Inches)
  6

 40
0.0
 41
0.0
 42
0.0
 43
0.0
 44
558.8
 45
431.8
 46
0.0
 47
0.0
 48
0.0
 49
0.0
140
0.0
141
0.0
142
1.0
143
1.0
 70
0
 72
0
 73
0
 74
0
  7

 75
0
147
1.0
148
0.0
149
0.0
100
AcDbLayout
  1
Layout1
 70
0
 71
1
 10
0.0
 20
0.0
 11
22.0
 21
17.0
 12
0.0
 22
0.0
 32
0.0
 14
0.0
 24
0.0
 34
0.0
 15
0.0
 25
0.0
 35
0.0
146
0.0
 13
0.0
 23
0.0
 33
0.0
 16
1.0
 26
0.0
 36
0.0
 17
0.0
 27
1.0
 37
0.0
 76
0
330
203
345
0
346
0
  0
ENDSEC
  0
EOF
