999
DXF file: E:\BT Custom\CADOUTPUT\_TOP.dxf
999
Pro/ENGINEER 2018400 by Parametric Technology Corporation
  0
SECTION
  2
HEADER
  9
$ACADVER
  1
AC1018
  9
$DWGCODEPAGE
  3
ANSI_1252
  9
$EXTMAX
 10
22.0
 20
17.0
 30
0.0
  9
$EXTMIN
 10
0.0
 20
0.0
 30
0.0
  9
$LIMMIN
 10
0.0
 20
0.0
  9
$LIMMAX
 10
22.0
 20
17.0
  9
$VIEWCTR
 10
11.0
 20
8.5
  9
$VIEWSIZE
 40
17.0
  9
$CLAYER
  8
0
  9
$LTSCALE
 40
1.21
  9
$CELTYPE
  6
BYLAYER
  9
$DIMSCALE
 40
1.0
  9
$DIMASZ
 40
0.1
  9
$DIMEXO
 40
0.0625
  9
$DIMDLI
 40
0.836
  9
$DIMEXE
 40
0.125
  9
$DIMCEN
 40
0.198
  9
$DIMLFAC
 40
1.0
  9
$DIMBLK
  1
_FILLED
  9
$DIMALT
 70
1
  9
$DIMALTD
 70
2
  9
$DIMALTTD
 70
2
  9
$DIMALTF
 40
25.4
  9
$DIMTXT
 40
0.08
  9
$DIMTOL
 70
1
  9
$DIMLIM
 70
0
  9
$DIMTFAC
 40
1.0
  9
$DIMTP
 40
0.001
  9
$DIMTM
 40
0.001
  9
$DIMGAP
 40
0.09
  9
$DIMDSEP
 70
46
  9
$AUNITS
 70
0
  9
$PDMODE
 70
3
  9
$PDSIZE
 40
0.06
  9
$HANDSEED
  5
511
  9
$TILEMODE
 70
1
  9
$MEASUREMENT
 70
0
  9
$INSUNITS
 70
1
  0
ENDSEC
  0
SECTION
  2
CLASSES
  0
CLASS
  1
ACDBDICTIONARYWDFLT
  2
AcDbDictionaryWithDefault
  3
AutoCAD 2000
 90
0
 91
1
280
0
281
0
  0
CLASS
  1
ACDBPLACEHOLDER
  2
AcDbPlaceHolder
  3
AutoCAD 2000
 90
0
 91
1
280
0
281
0
  0
CLASS
  1
LAYOUT
  2
AcDbLayout
  3
AutoCAD 2000
 90
0
 91
0
280
0
281
0
  0
ENDSEC
  0
SECTION
  2
TABLES
  0
TABLE
  2
VPORT
  5
8
100
AcDbSymbolTable
 70
2
  0
VPORT
  5
1F4
100
AcDbSymbolTableRecord
100
AcDbViewportTableRecord
  2
*ACTIVE
 70
0
 10
0.0
 20
0.0
 11
1.0
 21
1.0
 12
11.0
 22
8.5
 13
0.0
 23
0.0
 14
1.0
 24
1.0
 15
0.0
 25
0.0
 16
0.0
 26
0.0
 36
1.0
 17
0.0
 27
0.0
 37
0.0
 40
17.0
 41
1.2941176471
 42
50.0
 43
0.0
 44
0.0
 50
0.0
 51
0.0
 71
0
 72
100
 73
1
 74
1
 75
0
 76
0
 77
0
 78
0
  0
ENDTAB
  0
TABLE
  2
LTYPE
  5
5
100
AcDbSymbolTable
 70
6
  0
LTYPE
  5
14
100
AcDbSymbolTableRecord
100
AcDbLinetypeTableRecord
  2
BYBLOCK
 70
0
  3

 72
65
 73
0
 40
0.0
  0
LTYPE
  5
15
100
AcDbSymbolTableRecord
100
AcDbLinetypeTableRecord
  2
BYLAYER
 70
0
  3

 72
65
 73
0
 40
0.0
  0
LTYPE
  5
16
100
AcDbSymbolTableRecord
100
AcDbLinetypeTableRecord
  2
CONTINUOUS
 70
64
  3
Solid line
 72
65
 73
0
 40
0.0
  0
LTYPE
  5
1F5
100
AcDbSymbolTableRecord
100
AcDbLinetypeTableRecord
  2
CENTER
 70
64
  3
____ _ ____ _ ____ _ ____ _ ____ _ ____ _ ____
 72
65
 73
4
 40
0.6
 49
0.375
 74
0
 49
-0.075
 74
0
 49
0.075
 74
0
 49
-0.075
 74
0
  0
LTYPE
  5
1F6
100
AcDbSymbolTableRecord
100
AcDbLinetypeTableRecord
  2
HIDDEN
 70
64
  3
- - - - - - - - - - - - - - - - - - - -
 72
65
 73
2
 40
0.2
 49
0.1
 74
0
 49
-0.1
 74
0
  0
LTYPE
  5
1F7
100
AcDbSymbolTableRecord
100
AcDbLinetypeTableRecord
  2
PHANTOM
 70
64
  3
_____ _ _ _____ _ _ _____ _ _ _____
 72
65
 73
6
 40
0.8
 49
0.45
 74
0
 49
-0.05
 74
0
 49
0.1
 74
0
 49
-0.05
 74
0
 49
0.1
 74
0
 49
-0.05
 74
0
  0
LTYPE
  5
1F8
100
AcDbSymbolTableRecord
100
AcDbLinetypeTableRecord
  2
DOT
 70
64
  3
. . . . . . . . . . . . . . . . . . . .
 72
65
 73
2
 40
0.2
 49
0.1
 74
0
 49
-0.1
 74
0
  0
LTYPE
  5
1F9
100
AcDbSymbolTableRecord
100
AcDbLinetypeTableRecord
  2
DASHED
 70
64
  3
- - - - - - - - - - - - - - - - - - - -
 72
65
 73
2
 40
0.2
 49
0.1
 74
0
 49
-0.1
 74
0
  0
ENDTAB
  0
TABLE
  2
LAYER
  5
2
100
AcDbSymbolTable
 70
36
  0
LAYER
  5
10
100
AcDbSymbolTableRecord
100
AcDbLayerTableRecord
  2
0
 70
0
 62
7
  6
CONTINUOUS
370
-3
390
F
  0
LAYER
  5
1FA
100
AcDbSymbolTableRecord
100
AcDbLayerTableRecord
  2
DEFAULT_1
 70
0
 62
7
  6
CENTER
370
-3
390
F
  0
LAYER
  5
1FB
100
AcDbSymbolTableRecord
100
AcDbLayerTableRecord
  2
DEFAULT_2
 70
0
 62
8
  6
HIDDEN
370
-3
390
F
  0
LAYER
  5
1FC
100
AcDbSymbolTableRecord
100
AcDbLayerTableRecord
  2
DEFAULT_3
 70
0
 62
7
  6
PHANTOM
370
-3
390
F
  0
LAYER
  5
1FD
100
AcDbSymbolTableRecord
100
AcDbLayerTableRecord
  2
ALL_FEATURES
 70
0
 62
7
  6
CONTINUOUS
370
-3
390
F
  0
LAYER
  5
1FE
100
AcDbSymbolTableRecord
100
AcDbLayerTableRecord
  2
AXES_FEATURES
 70
0
 62
7
  6
CONTINUOUS
370
-3
390
F
  0
LAYER
  5
1FF
100
AcDbSymbolTableRecord
100
AcDbLayerTableRecord
  2
DIMENSIONS
 70
0
 62
7
  6
CONTINUOUS
370
-3
390
F
  0
ENDTAB
  0
TABLE
  2
STYLE
  5
3
100
AcDbSymbolTable
 70
1
  0
STYLE
  5
11
100
AcDbSymbolTableRecord
100
AcDbTextStyleTableRecord
  2
STANDARD
 70
0
 40
0.0
 41
0.8
 50
0.0
 71
0
 42
0.2
  3
txt
  4

  0
STYLE
  5
200
100
AcDbSymbolTableRecord
100
AcDbTextStyleTableRecord
  2
TEXTSTYLE_1
 70
0
 40
0.0
 41
0.8
 50
0.0
 71
0
 42
0.2
  3
gdt
  4

  0
ENDTAB
  0
TABLE
  2
VIEW
  5
6
100
AcDbSymbolTable
 70
0
  0
ENDTAB
  0
TABLE
  2
UCS
  5
7
100
AcDbSymbolTable
 70
0
  0
ENDTAB
  0
TABLE
  2
APPID
  5
9
100
AcDbSymbolTable
 70
1
  0
APPID
  5
201
100
AcDbSymbolTableRecord
100
AcDbRegAppTableRecord
  2
ACAD
 70
0
  0
ENDTAB
  0
TABLE
  2
BLOCK_RECORD
  5
1
100
AcDbSymbolTable
 70
0
  0
BLOCK_RECORD
  5
202
100
AcDbSymbolTableRecord
100
AcDbBlockTableRecord
  2
*Model_Space
  0
BLOCK_RECORD
  5
203
100
AcDbSymbolTableRecord
100
AcDbBlockTableRecord
  2
*Paper_Space
  0
BLOCK_RECORD
  5
204
100
AcDbSymbolTableRecord
100
AcDbBlockTableRecord
  2
_FILLED
  0
ENDTAB
  0
TABLE
  2
DIMSTYLE
  5
A
100
AcDbSymbolTable
 70
1
100
AcDbDimStyleTable
 71
0
  0
DIMSTYLE
105
205
100
AcDbSymbolTableRecord
100
AcDbDimStyleTableRecord
  2
STANDARD
 70
0
  3

  4

 40
1.0
 41
0.1
 42
0.0625
 43
0.38
 44
0.125
 45
0.0
 46
0.0
 47
0.001
 48
0.001
140
0.08
141
0.09
142
0.0
143
25.4
144
1.0
145
0.0
146
1.0
147
0.09
 71
1.0
 72
0.0
 73
1
 74
1
 75
0
 76
0
 77
0
 78
4
 79
1
170
1
171
2
172
0
173
0
174
0
175
0
176
0
177
0
178
0
270
2
179
3
271
3
272
3
273
2
274
2
275
0
280
0
281
0
282
0
283
1
284
4
285
0
286
0
287
3
288
0
340
11
278
46
341
204
342
204
343
204
344
204
  0
ENDTAB
  0
ENDSEC
  0
SECTION
  2
BLOCKS
  0
BLOCK
  5
20
100
AcDbEntity
  8
0
100
AcDbBlockBegin
  2
*Model_Space
 70
0
 10
0.0
 20
0.0
 30
0.0
  3
*Model_Space
  1

  0
ENDBLK
  5
21
100
AcDbEntity
  8
0
100
AcDbBlockEnd
  0
BLOCK
  5
1C
100
AcDbEntity
  8
0
100
AcDbBlockBegin
  2
*Paper_Space
 70
0
 10
0.0
 20
0.0
 30
0.0
  3
*Paper_Space
  1

  0
ENDBLK
  5
1D
100
AcDbEntity
  8
0
100
AcDbBlockEnd
  0
BLOCK
  5
206
100
AcDbEntity
  8
0
100
AcDbBlockBegin
  2
_FILLED
 70
64
 10
0.0
 20
0.0
  3
_FILLED
  1

  0
SOLID
  5
207
100
AcDbEntity
  8
0
  6
BYBLOCK
 62
0
100
AcDbTrace
 10
0.0
 20
0.0
 11
-1.0
 21
0.2
 12
-1.0
 22
-0.2
 13
-1.0
 23
-0.2
  0
ENDBLK
  5
208
100
AcDbEntity
  8
0
  6
BYBLOCK
 62
0
100
AcDbBlockEnd
  0
ENDSEC
  0
SECTION
  2
ENTITIES
  0
LINE
  5
209
100
AcDbEntity
  8
0
100
AcDbLine
 62
7
  6
CONTINUOUS
 10
5.7703918433
 20
11.5737488615
 11
5.7943918433
 21
11.6153180809
  0
LINE
  5
20A
100
AcDbEntity
  8
0
100
AcDbLine
 62
9
  6
CONTINUOUS
 10
5.3396253633
 20
7.9706006411
 11
5.3396253633
 21
7.5200670167
  0
LINE
  5
20B
100
AcDbEntity
  8
0
100
AcDbLine
 62
9
  6
CONTINUOUS
 10
5.4217146203
 20
7.5775465333
 11
5.4217146203
 21
7.9131211245
  0
LINE
  5
20C
100
AcDbEntity
  8
0
100
AcDbLine
 62
7
  6
CONTINUOUS
 10
5.4468918433
 20
7.9343532163
 11
5.4468918433
 21
7.5563144416
  0
LINE
  5
20D
100
AcDbEntity
  8
0
100
AcDbLine
 62
9
  6
CONTINUOUS
 10
5.4717550019
 20
7.5544165357
 11
5.4717550019
 21
7.9362511221
  0
LINE
  5
20E
100
AcDbEntity
  8
0
100
AcDbLine
 62
7
  6
CONTINUOUS
 10
5.6233918433
 20
11.6153180809
 11
5.6233918433
 21
11.6773180809
  0
LINE
  5
20F
100
AcDbEntity
  8
0
100
AcDbLine
 62
7
  6
CONTINUOUS
 10
5.7703918433
 20
11.3956988536
 11
5.7703918433
 21
11.5737488615
  0
LINE
  5
210
100
AcDbEntity
  8
0
100
AcDbLine
 62
7
  6
CONTINUOUS
 10
6.9343918433
 20
11.0353180809
 11
6.9583918433
 21
11.0768873003
  0
LINE
  5
211
100
AcDbEntity
  8
0
100
AcDbLine
 62
9
  6
CONTINUOUS
 10
5.8332258334
 20
7.5915344601
 11
5.8332258334
 21
7.8993613835
  0
LINE
  5
212
100
AcDbEntity
  8
0
100
AcDbLine
 62
7
  6
CONTINUOUS
 10
5.8368918433
 20
7.3580497318
 11
5.8368918433
 21
7.4293338289
  0
LINE
  5
213
100
AcDbEntity
  8
0
100
AcDbLine
 62
9
  6
CONTINUOUS
 10
5.8553858671
 20
7.8384912295
 11
5.8553858671
 21
7.6524909568
  0
LINE
  5
214
100
AcDbEntity
  8
0
100
AcDbLine
 62
7
  6
CONTINUOUS
 10
5.8669481168
 20
11.4984046514
 11
5.8669481168
 21
11.3716836791
  0
LINE
  5
215
100
AcDbEntity
  8
0
100
AcDbLine
 62
7
  6
CONTINUOUS
 10
6.0208918433
 20
8.0803338289
 11
6.0208918433
 21
8.4393338289
  0
LINE
  5
216
100
AcDbEntity
  8
0
100
AcDbLine
 62
7
  6
CONTINUOUS
 10
6.1643918433
 20
8.4593338289
 11
6.1643918433
 21
8.4393338289
  0
LINE
  5
217
100
AcDbEntity
  8
0
100
AcDbLine
 62
7
  6
CONTINUOUS
 10
6.2678355698
 20
11.1522315104
 11
6.2678355698
 21
11.4984046514
  0
LINE
  5
218
100
AcDbEntity
  8
0
100
AcDbLine
 62
7
  6
CONTINUOUS
 10
5.9472565912
 20
8.5033054171
 11
5.8400090465
 21
9.3863338289
  0
LINE
  5
219
100
AcDbEntity
  8
0
100
AcDbLine
 62
7
  6
CONTINUOUS
 10
6.4609481168
 20
11.4984046514
 11
6.4609481168
 21
11.1522315104
  0
LINE
  5
21A
100
AcDbEntity
  8
0
100
AcDbLine
 62
7
  6
CONTINUOUS
 10
6.5643918433
 20
8.4593338289
 11
6.5643918433
 21
8.4393338289
  0
LINE
  5
21B
100
AcDbEntity
  8
0
100
AcDbLine
 62
7
  6
CONTINUOUS
 10
6.7078918433
 20
8.0803338289
 11
6.7078918433
 21
8.4393338289
  0
LINE
  5
21C
100
AcDbEntity
  8
0
100
AcDbLine
 62
7
  6
CONTINUOUS
 10
6.7743918433
 20
11.030357451
 11
6.7743918433
 21
11.0353180809
  0
LINE
  5
21D
100
AcDbEntity
  8
0
100
AcDbLine
 62
7
  6
CONTINUOUS
 10
6.7815270954
 20
8.5033054171
 11
6.8887746401
 21
9.3863338289
  0
LINE
  5
21E
100
AcDbEntity
  8
0
100
AcDbLine
 62
7
  6
CONTINUOUS
 10
7.1689865039
 20
9.9642786637
 11
7.1340697594
 21
9.9198367332
  0
LINE
  5
21F
100
AcDbEntity
  8
0
100
AcDbLine
 62
9
  6
CONTINUOUS
 10
7.2353005868
 20
9.9964325562
 11
7.2003838423
 21
9.9519906257
  0
LINE
  5
220
100
AcDbEntity
  8
0
100
AcDbLine
 62
9
  6
CONTINUOUS
 10
7.3555306453
 20
9.8673236822
 11
7.3904473897
 21
9.9117656127
  0
LINE
  5
221
100
AcDbEntity
  8
0
100
AcDbLine
 62
9
  6
CONTINUOUS
 10
7.3905707721
 20
9.8918439789
 11
7.3556540276
 21
9.8474020484
  0
LINE
  5
222
100
AcDbEntity
  8
0
100
AcDbLine
 62
7
  6
CONTINUOUS
 10
7.3726162859
 20
9.8393309279
 11
7.3376995414
 21
9.7948889974
  0
LINE
  5
223
100
AcDbEntity
  8
0
100
AcDbLine
 62
9
  6
CONTINUOUS
 10
7.2702133259
 20
9.9519906257
 11
7.2922735418
 21
9.9799078124
  0
LINE
  5
224
100
AcDbEntity
  8
0
100
AcDbLine
 62
7
  6
CONTINUOUS
 10
5.851157691
 20
7.3384144769
 11
5.8368918433
 21
7.3580497318
  0
LINE
  5
225
100
AcDbEntity
  8
0
100
AcDbLine
 62
7
  6
CONTINUOUS
 10
7.1159098476
 20
9.8667972544
 11
7.11603323
 21
9.8468756206
  0
LINE
  5
226
100
AcDbEntity
  8
0
100
AcDbLine
 62
9
  6
CONTINUOUS
 10
7.19500215
 20
9.8598064568
 11
7.1951255324
 21
9.839884823
  0
LINE
  5
227
100
AcDbEntity
  8
0
100
AcDbLine
 62
9
  6
CONTINUOUS
 10
7.2649550159
 20
9.839884823
 11
7.2648316336
 21
9.8598064568
  0
LINE
  5
228
100
AcDbEntity
  8
0
100
AcDbLine
 62
9
  6
CONTINUOUS
 10
7.3555306453
 20
9.8673236822
 11
7.3556540276
 21
9.8474020484
  0
LINE
  5
229
100
AcDbEntity
  8
0
100
AcDbLine
 62
7
  6
CONTINUOUS
 10
6.8618355698
 20
11.1522315104
 11
6.8618355698
 21
11.4984046514
  0
LINE
  5
22A
100
AcDbEntity
  8
0
100
AcDbLine
 62
9
  6
CONTINUOUS
 10
6.8733978194
 20
7.6522068026
 11
6.8733978194
 21
7.8382321577
  0
LINE
  5
22B
100
AcDbEntity
  8
0
100
AcDbLine
 62
7
  6
CONTINUOUS
 10
6.8918918433
 20
7.3580497318
 11
6.8918918433
 21
7.4293338289
  0
LINE
  5
22C
100
AcDbEntity
  8
0
100
AcDbLine
 62
9
  6
CONTINUOUS
 10
6.8955578531
 20
7.8991664174
 11
6.8955578531
 21
7.5913425337
  0
LINE
  5
22D
100
AcDbEntity
  8
0
100
AcDbLine
 62
7
  6
CONTINUOUS
 10
6.9583918433
 20
11.0768873003
 11
6.9583918433
 21
11.5737488615
  0
LINE
  5
22E
100
AcDbEntity
  8
0
100
AcDbLine
 62
9
  6
CONTINUOUS
 10
7.051318792
 20
10.0598456399
 11
7.051318792
 21
10.7398456399
  0
LINE
  5
22F
100
AcDbEntity
  8
0
100
AcDbLine
 62
7
  6
CONTINUOUS
 10
7.1053918433
 20
11.6153180809
 11
7.1053918433
 21
11.6773180809
  0
LINE
  5
230
100
AcDbEntity
  8
0
100
AcDbLine
 62
9
  6
CONTINUOUS
 10
7.2570286847
 20
7.5544165357
 11
7.2570286847
 21
7.9362511221
  0
LINE
  5
231
100
AcDbEntity
  8
0
100
AcDbLine
 62
7
  6
CONTINUOUS
 10
7.2818918433
 20
7.5563144416
 11
7.2818918433
 21
7.9343532163
  0
LINE
  5
232
100
AcDbEntity
  8
0
100
AcDbLine
 62
9
  6
CONTINUOUS
 10
7.292380895
 20
9.9798815337
 11
7.292380895
 21
10.8198097478
  0
LINE
  5
233
100
AcDbEntity
  8
0
100
AcDbLine
 62
9
  6
CONTINUOUS
 10
7.3070690663
 20
7.9131211245
 11
7.3070690663
 21
7.5775465333
  0
LINE
  5
234
100
AcDbEntity
  8
0
100
AcDbLine
 62
9
  6
CONTINUOUS
 10
7.3268183383
 20
10.829048661
 11
7.3268183383
 21
9.9706426188
  0
LINE
  5
235
100
AcDbEntity
  8
0
100
AcDbLine
 62
7
  6
CONTINUOUS
 10
7.11603323
 20
10.9528156592
 11
7.1159098476
 21
10.9328940255
  0
LINE
  5
236
100
AcDbEntity
  8
0
100
AcDbLine
 62
9
  6
CONTINUOUS
 10
7.1951255324
 20
10.9598064568
 11
7.19500215
 21
10.939884823
  0
LINE
  5
237
100
AcDbEntity
  8
0
100
AcDbLine
 62
9
  6
CONTINUOUS
 10
7.2648316336
 20
10.939884823
 11
7.2649550159
 21
10.9598064568
  0
LINE
  5
238
100
AcDbEntity
  8
0
100
AcDbLine
 62
9
  6
CONTINUOUS
 10
7.3556540276
 20
10.9522892314
 11
7.3555306453
 21
10.9323675977
  0
LINE
  5
239
100
AcDbEntity
  8
0
100
AcDbLine
 62
7
  6
CONTINUOUS
 10
8.9355068897
 20
10.9885273851
 11
8.935597038
 21
10.9885931036
  0
LWPOLYLINE
  5
23A
100
AcDbEntity
  8
0
100
AcDbPolyline
 62
7
  6
CONTINUOUS
 90
4
 70
0
 10
8.9360964828
 20
10.9889578913
 10
8.9266888446
 20
10.9831517366
 10
8.8895662844
 20
10.9686947815
 10
8.8622404887
 20
10.9634158987
  0
LINE
  5
23B
100
AcDbEntity
  8
0
100
AcDbLine
 62
9
  6
CONTINUOUS
 10
10.4743918433
 20
3.3998456399
 11
10.3293918536
 21
3.3998456399
  0
LINE
  5
23C
100
AcDbEntity
  8
0
100
AcDbLine
 62
9
  6
CONTINUOUS
 10
8.2543918433
 20
3.3998456399
 11
8.3993918343
 21
3.3998456399
  0
LINE
  5
23D
100
AcDbEntity
  8
0
100
AcDbLine
 62
7
  6
CONTINUOUS
 10
7.3768183383
 20
9.9498456399
 11
7.3768183383
 21
10.8498456399
  0
LINE
  5
23E
100
AcDbEntity
  8
0
100
AcDbLine
 62
9
  6
CONTINUOUS
 10
7.3891583233
 20
7.5200670167
 11
7.3891583233
 21
7.9706006411
  0
LINE
  5
23F
100
AcDbEntity
  8
0
100
AcDbLine
 62
7
  6
CONTINUOUS
 10
6.8776259955
 20
7.3384144769
 11
6.8918918433
 21
7.3580497318
  0
LINE
  5
240
100
AcDbEntity
  8
0
100
AcDbLine
 62
7
  6
CONTINUOUS
 10
5.4217146203
 20
7.5775465333
 11
5.3396253633
 21
7.5200670167
  0
LINE
  5
241
100
AcDbEntity
  8
0
100
AcDbLine
 62
9
  6
CONTINUOUS
 10
8.0072788635
 20
10.9398456399
 11
8.0072788635
 21
9.8598456399
  0
LINE
  5
242
100
AcDbEntity
  8
0
100
AcDbLine
 62
7
  6
CONTINUOUS
 10
5.8637386308
 20
7.4448338289
 11
5.8368918433
 21
7.4603338289
  0
LINE
  5
243
100
AcDbEntity
  8
0
100
AcDbLine
 62
7
  6
CONTINUOUS
 10
5.4217146203
 20
7.9131211245
 11
5.3396253633
 21
7.9706006411
  0
LINE
  5
244
100
AcDbEntity
  8
0
100
AcDbLine
 62
7
  6
CONTINUOUS
 10
8.8143918433
 20
9.6208485307
 11
8.8143918433
 21
9.18488501
  0
LINE
  5
245
100
AcDbEntity
  8
0
100
AcDbLine
 62
7
  6
CONTINUOUS
 10
8.8143918433
 20
8.3763023328
 11
8.8143918433
 21
9.1463023328
  0
LINE
  5
246
100
AcDbEntity
  8
0
100
AcDbLine
 62
7
  6
CONTINUOUS
 10
8.8821418433
 20
9.18488501
 11
8.8821418433
 21
9.1463023328
  0
LINE
  5
247
100
AcDbEntity
  8
0
100
AcDbLine
 62
9
  6
CONTINUOUS
 10
8.7224533467
 20
9.1680805024
 11
8.7219761898
 21
9.1165302621
  0
LINE
  5
248
100
AcDbEntity
  8
0
100
AcDbLine
 62
9
  6
CONTINUOUS
 10
8.4491926353
 20
4.2888265506
 11
8.448922078
 21
4.2775966355
  0
LINE
  5
249
100
AcDbEntity
  8
0
100
AcDbLine
 62
9
  6
CONTINUOUS
 10
8.4701966769
 20
4.6612143331
 11
8.4699160918
 21
4.6496424486
  0
LINE
  5
24A
100
AcDbEntity
  8
0
100
AcDbLine
 62
9
  6
CONTINUOUS
 10
8.4257061759
 20
3.8718205901
 11
8.4254490931
 21
3.8616333556
  0
LINE
  5
24B
100
AcDbEntity
  8
0
100
AcDbLine
 62
9
  6
CONTINUOUS
 10
8.3993924768
 20
3.3998742441
 11
8.7590768163
 21
9.7740097191
  0
LINE
  5
24C
100
AcDbEntity
  8
0
100
AcDbLine
 62
7
  6
CONTINUOUS
 10
8.7574137764
 20
9.7759305091
 11
8.399591866
 21
3.4070205395
  0
LINE
  5
24D
100
AcDbEntity
  8
0
100
AcDbLine
 62
7
  6
CONTINUOUS
 10
7.3070690663
 20
7.9131211245
 11
7.3891583233
 21
7.9706006411
  0
LINE
  5
24E
100
AcDbEntity
  8
0
100
AcDbLine
 62
7
  6
CONTINUOUS
 10
5.8637386308
 20
7.4448338289
 11
5.8368918433
 21
7.4293338289
  0
LINE
  5
24F
100
AcDbEntity
  8
0
100
AcDbLine
 62
7
  6
CONTINUOUS
 10
5.9938918433
 20
8.0803338289
 11
5.8368918433
 21
8.0293338289
  0
LINE
  5
250
100
AcDbEntity
  8
0
100
AcDbLine
 62
7
  6
CONTINUOUS
 10
6.8650450558
 20
7.4448338289
 11
6.8918918433
 21
7.4293338289
  0
LINE
  5
251
100
AcDbEntity
  8
0
100
AcDbLine
 62
7
  6
CONTINUOUS
 10
7.3070690663
 20
7.5775465333
 11
7.3891583233
 21
7.5200670167
  0
LINE
  5
252
100
AcDbEntity
  8
0
100
AcDbLine
 62
7
  6
CONTINUOUS
 10
9.0493918433
 20
8.2466172935
 11
9.0493918433
 21
8.2163023328
  0
LINE
  5
253
100
AcDbEntity
  8
0
100
AcDbLine
 62
9
  6
CONTINUOUS
 10
9.3643920963
 20
9.4880851739
 11
9.3643928347
 21
9.7247644836
  0
LINE
  5
254
100
AcDbEntity
  8
0
100
AcDbLine
 62
9
  6
CONTINUOUS
 10
9.3643918433
 20
8.2163023328
 11
9.3643918433
 21
2.9123456399
  0
LINE
  5
255
100
AcDbEntity
  8
0
100
AcDbLine
 62
7
  6
CONTINUOUS
 10
11.3561674006
 20
10.960360352
 11
11.3910841451
 21
11.0048022824
  0
LINE
  5
256
100
AcDbEntity
  8
0
100
AcDbLine
 62
9
  6
CONTINUOUS
 10
11.3731296589
 20
10.9522892314
 11
11.3382129144
 21
10.907847301
  0
LINE
  5
257
100
AcDbEntity
  8
0
100
AcDbLine
 62
9
  6
CONTINUOUS
 10
11.3383362968
 20
10.8879256672
 11
11.3732530413
 21
10.9323675977
  0
LINE
  5
258
100
AcDbEntity
  8
0
100
AcDbLine
 62
9
  6
CONTINUOUS
 10
11.4585703607
 20
10.8477006542
 11
11.4391158803
 21
10.8229390484
  0
LINE
  5
259
100
AcDbEntity
  8
0
100
AcDbLine
 62
9
  6
CONTINUOUS
 10
11.5092192764
 20
10.8232876834
 11
11.5283998442
 21
10.8477006542
  0
LINE
  5
25A
100
AcDbEntity
  8
0
100
AcDbLine
 62
7
  6
CONTINUOUS
 10
11.5597971826
 20
10.8354126162
 11
11.5947139271
 21
10.8798545467
  0
LINE
  5
25B
100
AcDbEntity
  8
0
100
AcDbLine
 62
7
  6
CONTINUOUS
 10
6.8650450558
 20
7.4448338289
 11
6.8918918433
 21
7.4603338289
  0
LINE
  5
25C
100
AcDbEntity
  8
0
100
AcDbLine
 62
7
  6
CONTINUOUS
 10
5.9098818872
 20
7.3193338289
 11
5.851157691
 21
7.3384144769
  0
LINE
  5
25D
100
AcDbEntity
  8
0
100
AcDbLine
 62
9
  6
CONTINUOUS
 10
10.0063303398
 20
9.1680805024
 11
10.0068074967
 21
9.1165302621
  0
LINE
  5
25E
100
AcDbEntity
  8
0
100
AcDbLine
 62
7
  6
CONTINUOUS
 10
9.6793918433
 20
8.2466172935
 11
9.6793918433
 21
8.2163023328
  0
LINE
  5
25F
100
AcDbEntity
  8
0
100
AcDbLine
 62
7
  6
CONTINUOUS
 10
9.8466418433
 20
9.18488501
 11
9.8466418433
 21
9.1463023328
  0
LINE
  5
260
100
AcDbEntity
  8
0
100
AcDbLine
 62
7
  6
CONTINUOUS
 10
9.9143918433
 20
8.3763023328
 11
9.9143918433
 21
9.1463023328
  0
LINE
  5
261
100
AcDbEntity
  8
0
100
AcDbLine
 62
7
  6
CONTINUOUS
 10
9.9143918433
 20
9.18488501
 11
9.9143918433
 21
9.6208485362
  0
LINE
  5
262
100
AcDbEntity
  8
0
100
AcDbLine
 62
7
  6
CONTINUOUS
 10
11.7703918433
 20
11.5737488615
 11
11.7943918433
 21
11.6153180809
  0
LINE
  5
263
100
AcDbEntity
  8
0
100
AcDbLine
 62
7
  6
CONTINUOUS
 10
6.8189017994
 20
7.3193338289
 11
6.8776259955
 21
7.3384144769
  0
LINE
  5
264
100
AcDbEntity
  8
0
100
AcDbLine
 62
7
  6
CONTINUOUS
 10
6.9583918433
 20
11.5737488615
 11
6.9343918433
 21
11.6153180809
  0
LINE
  5
265
100
AcDbEntity
  8
0
100
AcDbLine
 62
9
  6
CONTINUOUS
 10
10.3293912179
 20
3.3998742106
 11
9.9697070722
 21
9.7740061406
  0
LINE
  5
266
100
AcDbEntity
  8
0
100
AcDbLine
 62
7
  6
CONTINUOUS
 10
10.3291920967
 20
3.4070156366
 11
10.0807582959
 21
7.8243712263
  0
LINE
  5
267
100
AcDbEntity
  8
0
100
AcDbLine
 62
7
  6
CONTINUOUS
 10
10.0807582959
 20
7.8243712263
 11
10.009178449
 21
9.1166615889
  0
LINE
  5
268
100
AcDbEntity
  8
0
100
AcDbLine
 62
7
  6
CONTINUOUS
 10
10.009178449
 20
9.1166615889
 11
9.971370122
 21
9.7759269588
  0
LINE
  5
269
100
AcDbEntity
  8
0
100
AcDbLine
 62
7
  6
CONTINUOUS
 10
10.006327853
 20
9.1681257638
 11
10.0063303398
 21
9.1680805024
  0
LINE
  5
26A
100
AcDbEntity
  8
0
100
AcDbLine
 62
9
  6
CONTINUOUS
 10
10.3030780099
 20
3.8718116827
 11
10.3033345282
 21
3.8616208436
  0
LINE
  5
26B
100
AcDbEntity
  8
0
100
AcDbLine
 62
9
  6
CONTINUOUS
 10
10.2585870096
 20
4.6612143331
 11
10.2588675948
 21
4.6496424486
  0
LINE
  5
26C
100
AcDbEntity
  8
0
100
AcDbLine
 62
9
  6
CONTINUOUS
 10
10.2795910512
 20
4.2888265506
 11
10.2798616085
 21
4.2775966355
  0
LINE
  5
26D
100
AcDbEntity
  8
0
100
AcDbLine
 62
9
  6
CONTINUOUS
 10
10.1923578131
 20
9.8598456399
 11
10.1923578131
 21
10.9398456399
  0
LINE
  5
26E
100
AcDbEntity
  8
0
100
AcDbLine
 62
7
  6
CONTINUOUS
 10
12.6008318302
 20
7.2624655481
 11
12.6852249498
 21
7.2778869686
  0
LINE
  5
26F
100
AcDbEntity
  8
0
100
AcDbLine
 62
7
  6
CONTINUOUS
 10
6.7348918433
 20
8.0803338289
 11
6.8918918433
 21
8.0293338289
  0
LINE
  5
270
100
AcDbEntity
  8
0
100
AcDbLine
 62
9
  6
CONTINUOUS
 10
7.2922735423
 20
10.8197834671
 11
7.2702133259
 21
10.8477006542
  0
LINE
  5
271
100
AcDbEntity
  8
0
100
AcDbLine
 62
7
  6
CONTINUOUS
 10
7.1340697594
 20
10.8798545467
 11
7.1689865039
 21
10.8354126162
  0
LINE
  5
272
100
AcDbEntity
  8
0
100
AcDbLine
 62
9
  6
CONTINUOUS
 10
7.2003838423
 20
10.8477006542
 11
7.2353005868
 21
10.8032587237
  0
LINE
  5
273
100
AcDbEntity
  8
0
100
AcDbLine
 62
9
  6
CONTINUOUS
 10
7.3555306453
 20
10.9323675977
 11
7.3904473897
 21
10.8879256672
  0
LINE
  5
274
100
AcDbEntity
  8
0
100
AcDbLine
 62
9
  6
CONTINUOUS
 10
7.3905707721
 20
10.907847301
 11
7.3556540276
 21
10.9522892314
  0
LINE
  5
275
100
AcDbEntity
  8
0
100
AcDbLine
 62
7
  6
CONTINUOUS
 10
7.3376995414
 20
11.0048022824
 11
7.3726162859
 21
10.960360352
  0
LINE
  5
276
100
AcDbEntity
  8
0
100
AcDbLine
 62
7
  6
CONTINUOUS
 10
10.8448183383
 20
10.8098456399
 11
10.8448183383
 21
9.9898456399
  0
LINE
  5
277
100
AcDbEntity
  8
0
100
AcDbLine
 62
7
  6
CONTINUOUS
 10
10.9448183383
 20
9.9898456399
 11
10.9448183383
 21
10.8098456399
  0
LINE
  5
278
100
AcDbEntity
  8
0
100
AcDbLine
 62
7
  6
CONTINUOUS
 10
12.9343918433
 20
11.0353180809
 11
12.9583918433
 21
11.0768873003
  0
LINE
  5
279
100
AcDbEntity
  8
0
100
AcDbLine
 62
7
  6
CONTINUOUS
 10
11.9938918433
 20
8.0803338289
 11
11.8368918433
 21
8.0293338289
  0
LINE
  5
27A
100
AcDbEntity
  8
0
100
AcDbLine
 62
7
  6
CONTINUOUS
 10
12.5643918433
 20
7.2582939964
 11
12.6006793513
 21
7.2634538549
  0
LINE
  5
27B
100
AcDbEntity
  8
0
100
AcDbLine
 62
7
  6
CONTINUOUS
 10
12.3958918435
 20
7.2456540108
 11
12.4318918433
 21
7.2468045979
  0
LINE
  5
27C
100
AcDbEntity
  8
0
100
AcDbLine
 62
9
  6
CONTINUOUS
 10
5.9692472037
 20
7.2955244159
 11
6.7595364829
 21
7.2955244159
  0
LINE
  5
27D
100
AcDbEntity
  8
0
100
AcDbLine
 62
7
  6
CONTINUOUS
 10
5.9099426217
 20
7.3193338289
 11
6.8188410649
 21
7.3193338289
  0
LINE
  5
27E
100
AcDbEntity
  8
0
100
AcDbLine
 62
7
  6
CONTINUOUS
 10
11.9099426217
 20
7.3193338289
 11
12.8188410649
 21
7.3193338289
  0
LINE
  5
27F
100
AcDbEntity
  8
0
100
AcDbLine
 62
7
  6
CONTINUOUS
 10
5.851157691
 20
7.3384144769
 11
6.8776259955
 21
7.3384144769
  0
LINE
  5
280
100
AcDbEntity
  8
0
100
AcDbLine
 62
7
  6
CONTINUOUS
 10
11.851157691
 20
7.3384144769
 11
12.8776259955
 21
7.3384144769
  0
LINE
  5
281
100
AcDbEntity
  8
0
100
AcDbLine
 62
7
  6
CONTINUOUS
 10
5.8368918433
 20
7.3580497318
 11
6.8918918433
 21
7.3580497318
  0
LINE
  5
282
100
AcDbEntity
  8
0
100
AcDbLine
 62
7
  6
CONTINUOUS
 10
11.8368918433
 20
7.3580497318
 11
12.8918918433
 21
7.3580497318
  0
LINE
  5
283
100
AcDbEntity
  8
0
100
AcDbLine
 62
7
  6
CONTINUOUS
 10
12.8918918433
 20
7.4293338289
 11
11.8368918433
 21
7.4293338289
  0
LINE
  5
284
100
AcDbEntity
  8
0
100
AcDbLine
 62
7
  6
CONTINUOUS
 10
6.8918918433
 20
7.4293338289
 11
5.8368918433
 21
7.4293338289
  0
LINE
  5
285
100
AcDbEntity
  8
0
100
AcDbLine
 62
7
  6
CONTINUOUS
 10
5.8637386308
 20
7.4448338289
 11
6.8650450558
 21
7.4448338289
  0
LINE
  5
286
100
AcDbEntity
  8
0
100
AcDbLine
 62
7
  6
CONTINUOUS
 10
11.8637386308
 20
7.4448338289
 11
12.8650450558
 21
7.4448338289
  0
LINE
  5
287
100
AcDbEntity
  8
0
100
AcDbLine
 62
7
  6
CONTINUOUS
 10
12.8918918433
 20
7.4603338289
 11
11.8368918433
 21
7.4603338289
  0
LINE
  5
288
100
AcDbEntity
  8
0
100
AcDbLine
 62
7
  6
CONTINUOUS
 10
6.8918918433
 20
7.4603338289
 11
5.8368918433
 21
7.4603338289
  0
LINE
  5
289
100
AcDbEntity
  8
0
100
AcDbLine
 62
7
  6
CONTINUOUS
 10
5.8068918433
 20
7.5403338289
 11
6.1852712254
 21
7.5403338289
  0
LINE
  5
28A
100
AcDbEntity
  8
0
100
AcDbLine
 62
7
  6
CONTINUOUS
 10
6.5435124611
 20
7.5403338289
 11
6.9218918433
 21
7.5403338289
  0
LINE
  5
28B
100
AcDbEntity
  8
0
100
AcDbLine
 62
7
  6
CONTINUOUS
 10
11.8068918433
 20
7.5403338289
 11
12.1852712254
 21
7.5403338289
  0
LINE
  5
28C
100
AcDbEntity
  8
0
100
AcDbLine
 62
7
  6
CONTINUOUS
 10
12.5435124611
 20
7.5403338289
 11
12.9218918433
 21
7.5403338289
  0
LINE
  5
28D
100
AcDbEntity
  8
0
100
AcDbLine
 62
9
  6
CONTINUOUS
 10
11.9994520426
 20
7.2955387317
 11
12.7595364998
 21
7.2955245357
  0
LINE
  5
28E
100
AcDbEntity
  8
0
100
AcDbLine
 62
7
  6
CONTINUOUS
 10
12.3643918433
 20
7.2443338289
 11
12.3613899074
 21
7.2443367346
  0
LINE
  5
28F
100
AcDbEntity
  8
0
100
AcDbLine
 62
7
  6
CONTINUOUS
 10
12.3613918433
 20
7.2453367328
 11
12.3256918433
 21
7.245817133
  0
LINE
  5
290
100
AcDbEntity
  8
0
100
AcDbLine
 62
9
  6
CONTINUOUS
 10
11.9683427983
 20
7.2961012387
 11
11.9994520426
 21
7.2955387317
  0
LINE
  5
291
100
AcDbEntity
  8
0
100
AcDbLine
 62
7
  6
CONTINUOUS
 10
12.3256668702
 20
7.2448174448
 11
12.2406120198
 21
7.2492819897
  0
LINE
  5
292
100
AcDbEntity
  8
0
100
AcDbLine
 62
7
  6
CONTINUOUS
 10
12.2406918433
 20
7.2502787987
 11
12.2043918422
 21
7.2536157828
  0
LINE
  5
293
100
AcDbEntity
  8
0
100
AcDbLine
 62
9
  6
CONTINUOUS
 10
11.3732530413
 20
10.9323675977
 11
11.3731296589
 21
10.9522892314
  0
LINE
  5
294
100
AcDbEntity
  8
0
100
AcDbLine
 62
9
  6
CONTINUOUS
 10
11.4638286706
 20
10.9598064568
 11
11.463952053
 21
10.939884823
  0
LINE
  5
295
100
AcDbEntity
  8
0
100
AcDbLine
 62
9
  6
CONTINUOUS
 10
11.5337815365
 20
10.939884823
 11
11.5336581541
 21
10.9598064568
  0
LINE
  5
296
100
AcDbEntity
  8
0
100
AcDbLine
 62
7
  6
CONTINUOUS
 10
11.6128738389
 20
10.9328940255
 11
11.6127504565
 21
10.9528156592
  0
LINE
  5
297
100
AcDbEntity
  8
0
100
AcDbLine
 62
9
  6
CONTINUOUS
 10
11.3396253633
 20
7.9706006411
 11
11.3396253633
 21
7.5200670167
  0
LINE
  5
298
100
AcDbEntity
  8
0
100
AcDbLine
 62
7
  6
CONTINUOUS
 10
11.4138183383
 20
10.8257500738
 11
11.4138183383
 21
9.973941206
  0
LINE
  5
299
100
AcDbEntity
  8
0
100
AcDbLine
 62
9
  6
CONTINUOUS
 10
11.4217146203
 20
7.5775465333
 11
11.4217146203
 21
7.9131211245
  0
LINE
  5
29A
100
AcDbEntity
  8
0
100
AcDbLine
 62
7
  6
CONTINUOUS
 10
11.4468918433
 20
7.9343532163
 11
11.4468918433
 21
7.5563144416
  0
LINE
  5
29B
100
AcDbEntity
  8
0
100
AcDbLine
 62
9
  6
CONTINUOUS
 10
11.4717550019
 20
7.5544165357
 11
11.4717550019
 21
7.9362511221
  0
LINE
  5
29C
100
AcDbEntity
  8
0
100
AcDbLine
 62
7
  6
CONTINUOUS
 10
11.5138183383
 20
9.9762799097
 11
11.5138183383
 21
10.8234113702
  0
LINE
  5
29D
100
AcDbEntity
  8
0
100
AcDbLine
 62
7
  6
CONTINUOUS
 10
11.5738183383
 20
10.0323959347
 11
11.5738183383
 21
10.8063245194
  0
LINE
  5
29E
100
AcDbEntity
  8
0
100
AcDbLine
 62
7
  6
CONTINUOUS
 10
11.5958183383
 20
10.8497855081
 11
11.5958183383
 21
9.9499057718
  0
LINE
  5
29F
100
AcDbEntity
  8
0
100
AcDbLine
 62
7
  6
CONTINUOUS
 10
11.6233918433
 20
11.6153180809
 11
11.6233918433
 21
11.6773180809
  0
LINE
  5
2A0
100
AcDbEntity
  8
0
100
AcDbLine
 62
9
  6
CONTINUOUS
 10
11.3731296589
 20
9.8474020484
 11
11.3732530413
 21
9.8673236822
  0
LINE
  5
2A1
100
AcDbEntity
  8
0
100
AcDbLine
 62
9
  6
CONTINUOUS
 10
11.463952053
 20
9.8598064568
 11
11.4638286706
 21
9.839884823
  0
LINE
  5
2A2
100
AcDbEntity
  8
0
100
AcDbLine
 62
9
  6
CONTINUOUS
 10
11.5336581541
 20
9.839884823
 11
11.5337815365
 21
9.8598064568
  0
LINE
  5
2A3
100
AcDbEntity
  8
0
100
AcDbLine
 62
7
  6
CONTINUOUS
 10
11.6127504565
 20
9.8468756206
 11
11.6128738389
 21
9.8667972544
  0
LINE
  5
2A4
100
AcDbEntity
  8
0
100
AcDbLine
 62
7
  6
CONTINUOUS
 10
11.4217146203
 20
7.5775465333
 11
11.3396253633
 21
7.5200670167
  0
LINE
  5
2A5
100
AcDbEntity
  8
0
100
AcDbLine
 62
7
  6
CONTINUOUS
 10
11.8637386308
 20
7.4448338289
 11
11.8368918433
 21
7.4293338289
  0
LINE
  5
2A6
100
AcDbEntity
  8
0
100
AcDbLine
 62
7
  6
CONTINUOUS
 10
6.5208918434
 20
7.253256472
 11
6.5568918432
 21
7.257336459
  0
LINE
  5
2A7
100
AcDbEntity
  8
0
100
AcDbLine
 62
7
  6
CONTINUOUS
 10
12.9218918433
 20
7.9503338289
 11
12.5435124611
 21
7.9503338289
  0
LINE
  5
2A8
100
AcDbEntity
  8
0
100
AcDbLine
 62
7
  6
CONTINUOUS
 10
12.1852712254
 20
7.9503338289
 11
11.8068918433
 21
7.9503338289
  0
LINE
  5
2A9
100
AcDbEntity
  8
0
100
AcDbLine
 62
7
  6
CONTINUOUS
 10
6.9218918433
 20
7.9503338289
 11
6.5435124611
 21
7.9503338289
  0
LINE
  5
2AA
100
AcDbEntity
  8
0
100
AcDbLine
 62
7
  6
CONTINUOUS
 10
6.1852712254
 20
7.9503338289
 11
5.8068918433
 21
7.9503338289
  0
LINE
  5
2AB
100
AcDbEntity
  8
0
100
AcDbLine
 62
7
  6
CONTINUOUS
 10
5.8368918433
 20
8.0293338289
 11
6.8918918433
 21
8.0293338289
  0
LINE
  5
2AC
100
AcDbEntity
  8
0
100
AcDbLine
 62
7
  6
CONTINUOUS
 10
11.8368918433
 20
8.0293338289
 11
12.8918918433
 21
8.0293338289
  0
LINE
  5
2AD
100
AcDbEntity
  8
0
100
AcDbLine
 62
7
  6
CONTINUOUS
 10
12.7348874154
 20
8.0803338289
 11
11.9938962711
 21
8.0803338289
  0
LINE
  5
2AE
100
AcDbEntity
  8
0
100
AcDbLine
 62
7
  6
CONTINUOUS
 10
6.7348874154
 20
8.0803338289
 11
5.9938962711
 21
8.0803338289
  0
LINE
  5
2AF
100
AcDbEntity
  8
0
100
AcDbLine
 62
7
  6
CONTINUOUS
 10
11.9098818872
 20
7.3193338289
 11
11.851157691
 21
7.3384144769
  0
LINE
  5
2B0
100
AcDbEntity
  8
0
100
AcDbLine
 62
7
  6
CONTINUOUS
 10
11.8637386308
 20
7.4448338289
 11
11.8368918433
 21
7.4603338289
  0
LINE
  5
2B1
100
AcDbEntity
  8
0
100
AcDbLine
 62
9
  6
CONTINUOUS
 10
11.9692471867
 20
7.2955245357
 11
11.9683427983
 21
7.2961012387
  0
LINE
  5
2B2
100
AcDbEntity
  8
0
100
AcDbLine
 62
7
  6
CONTINUOUS
 10
11.4217146203
 20
7.9131211245
 11
11.3396253633
 21
7.9706006411
  0
LINE
  5
2B3
100
AcDbEntity
  8
0
100
AcDbLine
 62
7
  6
CONTINUOUS
 10
11.851157691
 20
7.3384144769
 11
11.8368918433
 21
7.3580497318
  0
LINE
  5
2B4
100
AcDbEntity
  8
0
100
AcDbLine
 62
7
  6
CONTINUOUS
 10
11.7703918433
 20
11.0768873003
 11
11.7703918433
 21
11.5737488615
  0
LINE
  5
2B5
100
AcDbEntity
  8
0
100
AcDbLine
 62
9
  6
CONTINUOUS
 10
11.8332258334
 20
7.5915344601
 11
11.8332258334
 21
7.8993613835
  0
LINE
  5
2B6
100
AcDbEntity
  8
0
100
AcDbLine
 62
7
  6
CONTINUOUS
 10
11.8368918433
 20
7.3580497318
 11
11.8368918433
 21
7.4293338289
  0
LINE
  5
2B7
100
AcDbEntity
  8
0
100
AcDbLine
 62
9
  6
CONTINUOUS
 10
11.8553858671
 20
7.8384912295
 11
11.8553858671
 21
7.6524909568
  0
LINE
  5
2B8
100
AcDbEntity
  8
0
100
AcDbLine
 62
7
  6
CONTINUOUS
 10
11.8669481168
 20
11.4984046514
 11
11.8669481168
 21
11.1522315104
  0
LINE
  5
2B9
100
AcDbEntity
  8
0
100
AcDbLine
 62
7
  6
CONTINUOUS
 10
11.9543918433
 20
11.030357451
 11
11.9543918433
 21
11.0353180809
  0
LINE
  5
2BA
100
AcDbEntity
  8
0
100
AcDbLine
 62
7
  6
CONTINUOUS
 10
12.0208918433
 20
8.0803338289
 11
12.0208918433
 21
8.4393338289
  0
LINE
  5
2BB
100
AcDbEntity
  8
0
100
AcDbLine
 62
7
  6
CONTINUOUS
 10
12.1643918433
 20
8.4593338289
 11
12.1643918433
 21
8.4393338289
  0
LINE
  5
2BC
100
AcDbEntity
  8
0
100
AcDbLine
 62
7
  6
CONTINUOUS
 10
13.3070690663
 20
7.9131211245
 11
13.3891583233
 21
7.9706006411
  0
LINE
  5
2BD
100
AcDbEntity
  8
0
100
AcDbLine
 62
7
  6
CONTINUOUS
 10
12.8650450558
 20
7.4448338289
 11
12.8918918433
 21
7.4603338289
  0
LINE
  5
2BE
100
AcDbEntity
  8
0
100
AcDbLine
 62
7
  6
CONTINUOUS
 10
12.8189017994
 20
7.3193338289
 11
12.8776259955
 21
7.3384144769
  0
LINE
  5
2BF
100
AcDbEntity
  8
0
100
AcDbLine
 62
7
  6
CONTINUOUS
 10
9.0493956078
 20
8.2163023328
 11
9.6793880787
 21
8.2163023328
  0
LINE
  5
2C0
100
AcDbEntity
  8
0
100
AcDbLine
 62
9
  6
CONTINUOUS
 10
9.6793918433
 20
8.2466172935
 11
9.0493918433
 21
8.2466172935
  0
LINE
  5
2C1
100
AcDbEntity
  8
0
100
AcDbLine
 62
7
  6
CONTINUOUS
 10
8.9993962127
 20
8.2663023328
 11
9.7293874738
 21
8.2663023328
  0
LINE
  5
2C2
100
AcDbEntity
  8
0
100
AcDbLine
 62
7
  6
CONTINUOUS
 10
8.8444723065
 20
8.3463023328
 11
9.8843113801
 21
8.3463023328
  0
LINE
  5
2C3
100
AcDbEntity
  8
0
100
AcDbLine
 62
9
  6
CONTINUOUS
 10
8.8143918433
 20
8.3763023328
 11
9.9143918433
 21
8.3763023328
  0
LINE
  5
2C4
100
AcDbEntity
  8
0
100
AcDbLine
 62
7
  6
CONTINUOUS
 10
12.7078852618
 20
8.4393338289
 11
12.0208959484
 21
8.4393338289
  0
LINE
  5
2C5
100
AcDbEntity
  8
0
100
AcDbLine
 62
7
  6
CONTINUOUS
 10
6.7078852618
 20
8.4393338289
 11
6.0208959484
 21
8.4393338289
  0
LINE
  5
2C6
100
AcDbEntity
  8
0
100
AcDbLine
 62
7
  6
CONTINUOUS
 10
5.9968962353
 20
8.4593338289
 11
6.7318918433
 21
8.4593338289
  0
LINE
  5
2C7
100
AcDbEntity
  8
0
100
AcDbLine
 62
7
  6
CONTINUOUS
 10
11.9968962353
 20
8.4593338289
 11
12.7318918433
 21
8.4593338289
  0
LINE
  5
2C8
100
AcDbEntity
  8
0
100
AcDbLine
 62
9
  6
CONTINUOUS
 10
5.9472565912
 20
8.5033054171
 11
6.7815270954
 21
8.5033054171
  0
LINE
  5
2C9
100
AcDbEntity
  8
0
100
AcDbLine
 62
9
  6
CONTINUOUS
 10
11.9472565912
 20
8.5033054171
 11
12.7815270954
 21
8.5033054171
  0
LINE
  5
2CA
100
AcDbEntity
  8
0
100
AcDbLine
 62
7
  6
CONTINUOUS
 10
12.7348918433
 20
8.0803338289
 11
12.8918918433
 21
8.0293338289
  0
LINE
  5
2CB
100
AcDbEntity
  8
0
100
AcDbLine
 62
7
  6
CONTINUOUS
 10
12.8650450558
 20
7.4448338289
 11
12.8918918433
 21
7.4293338289
  0
LINE
  5
2CC
100
AcDbEntity
  8
0
100
AcDbLine
 62
7
  6
CONTINUOUS
 10
11.9472565912
 20
8.5033054171
 11
11.8400090465
 21
9.3863338289
  0
LINE
  5
2CD
100
AcDbEntity
  8
0
100
AcDbLine
 62
7
  6
CONTINUOUS
 10
12.2158183383
 20
9.9708843556
 11
12.2158183383
 21
10.8288069242
  0
LINE
  5
2CE
100
AcDbEntity
  8
0
100
AcDbLine
 62
7
  6
CONTINUOUS
 10
12.2278183383
 20
10.0210956399
 11
12.2278183383
 21
10.7785956399
  0
LINE
  5
2CF
100
AcDbEntity
  8
0
100
AcDbLine
 62
7
  6
CONTINUOUS
 10
12.2603183383
 20
10.8164505629
 11
12.2603183383
 21
9.983240717
  0
LINE
  5
2D0
100
AcDbEntity
  8
0
100
AcDbLine
 62
7
  6
CONTINUOUS
 10
12.2653183383
 20
9.9832407164
 11
12.2653183383
 21
10.8164505635
  0
LINE
  5
2D1
100
AcDbEntity
  8
0
100
AcDbLine
 62
7
  6
CONTINUOUS
 10
12.2678355698
 20
11.1522315104
 11
12.2678355698
 21
11.4984046514
  0
LINE
  5
2D2
100
AcDbEntity
  8
0
100
AcDbLine
 62
7
  6
CONTINUOUS
 10
12.2978183383
 20
10.8260323373
 11
12.2978183383
 21
9.9736589425
  0
LINE
  5
2D3
100
AcDbEntity
  8
0
100
AcDbLine
 62
7
  6
CONTINUOUS
 10
12.4609481168
 20
11.4984046514
 11
12.4609481168
 21
11.1522315104
  0
LINE
  5
2D4
100
AcDbEntity
  8
0
100
AcDbLine
 62
7
  6
CONTINUOUS
 10
12.5278183383
 20
10.2141470404
 11
12.5278183383
 21
10.5855442394
  0
LINE
  5
2D5
100
AcDbEntity
  8
0
100
AcDbLine
 62
7
  6
CONTINUOUS
 10
12.5643918433
 20
8.4593338289
 11
12.5643918433
 21
8.4393338289
  0
LINE
  5
2D6
100
AcDbEntity
  8
0
100
AcDbLine
 62
7
  6
CONTINUOUS
 10
12.7078918433
 20
8.0803338289
 11
12.7078918433
 21
8.4393338289
  0
LINE
  5
2D7
100
AcDbEntity
  8
0
100
AcDbLine
 62
7
  6
CONTINUOUS
 10
12.7815270954
 20
8.5033054171
 11
12.8887746401
 21
9.3863338289
  0
LINE
  5
2D8
100
AcDbEntity
  8
0
100
AcDbLine
 62
7
  6
CONTINUOUS
 10
12.8776259955
 20
7.3384144769
 11
12.8918918433
 21
7.3580497318
  0
LINE
  5
2D9
100
AcDbEntity
  8
0
100
AcDbLine
 62
7
  6
CONTINUOUS
 10
9.9143183488
 20
9.1463023328
 11
8.8144653378
 21
9.1463023328
  0
LINE
  5
2DA
100
AcDbEntity
  8
0
100
AcDbLine
 62
7
  6
CONTINUOUS
 10
13.3070690663
 20
7.5775465333
 11
13.3891583233
 21
7.5200670167
  0
LINE
  5
2DB
100
AcDbEntity
  8
0
100
AcDbLine
 62
9
  6
CONTINUOUS
 10
12.75849477
 20
9.9891917121
 11
12.75849477
 21
10.2324768487
  0
LINE
  5
2DC
100
AcDbEntity
  8
0
100
AcDbLine
 62
9
  6
CONTINUOUS
 10
12.75849477
 20
10.5672119457
 11
12.75849477
 21
10.8104995678
  0
LINE
  5
2DD
100
AcDbEntity
  8
0
100
AcDbLine
 62
7
  6
CONTINUOUS
 10
12.7743918433
 20
11.030357451
 11
12.7743918433
 21
11.0353180809
  0
LINE
  5
2DE
100
AcDbEntity
  8
0
100
AcDbLine
 62
7
  6
CONTINUOUS
 10
12.7778183383
 20
10.7905110101
 11
12.7778183383
 21
10.0091802698
  0
LINE
  5
2DF
100
AcDbEntity
  8
0
100
AcDbLine
 62
7
  6
CONTINUOUS
 10
12.8618355698
 20
11.1522315104
 11
12.8618355698
 21
11.4984046514
  0
LINE
  5
2E0
100
AcDbEntity
  8
0
100
AcDbLine
 62
9
  6
CONTINUOUS
 10
12.8733978194
 20
7.6522068026
 11
12.8733978194
 21
7.8382321577
  0
LINE
  5
2E1
100
AcDbEntity
  8
0
100
AcDbLine
 62
7
  6
CONTINUOUS
 10
12.8918918433
 20
7.3580497318
 11
12.8918918433
 21
7.4293338289
  0
LINE
  5
2E2
100
AcDbEntity
  8
0
100
AcDbLine
 62
9
  6
CONTINUOUS
 10
12.8955578531
 20
7.8991664174
 11
12.8955578531
 21
7.5913425337
  0
LINE
  5
2E3
100
AcDbEntity
  8
0
100
AcDbLine
 62
7
  6
CONTINUOUS
 10
12.9583918433
 20
11.0768873003
 11
12.9583918433
 21
11.5737488615
  0
LINE
  5
2E4
100
AcDbEntity
  8
0
100
AcDbLine
 62
7
  6
CONTINUOUS
 10
13.1053918433
 20
11.6153180809
 11
13.1053918433
 21
11.6773180809
  0
LINE
  5
2E5
100
AcDbEntity
  8
0
100
AcDbLine
 62
9
  6
CONTINUOUS
 10
13.2570286847
 20
7.5544165357
 11
13.2570286847
 21
7.9362511221
  0
LINE
  5
2E6
100
AcDbEntity
  8
0
100
AcDbLine
 62
7
  6
CONTINUOUS
 10
8.8144653378
 20
9.18488501
 11
9.9143183488
 21
9.18488501
  0
LINE
  5
2E7
100
AcDbEntity
  8
0
100
AcDbLine
 62
9
  6
CONTINUOUS
 10
12.8887746401
 20
9.3863338289
 11
11.8400090465
 21
9.3863338289
  0
LINE
  5
2E8
100
AcDbEntity
  8
0
100
AcDbLine
 62
9
  6
CONTINUOUS
 10
6.8887746401
 20
9.3863338289
 11
5.8400090465
 21
9.3863338289
  0
LINE
  5
2E9
100
AcDbEntity
  8
0
100
AcDbLine
 62
9
  6
CONTINUOUS
 10
12.9846049929
 20
9.6183132102
 11
12.9680134428
 21
9.6183132102
  0
LINE
  5
2EA
100
AcDbEntity
  8
0
100
AcDbLine
 62
9
  6
CONTINUOUS
 10
12.7896084234
 20
9.6183132102
 11
12.5427968626
 21
9.6183132102
  0
LINE
  5
2EB
100
AcDbEntity
  8
0
100
AcDbLine
 62
9
  6
CONTINUOUS
 10
6.9846049929
 20
9.6183132102
 11
6.9680134428
 21
9.6183132102
  0
LINE
  5
2EC
100
AcDbEntity
  8
0
100
AcDbLine
 62
9
  6
CONTINUOUS
 10
6.7896084234
 20
9.6183132102
 11
6.5427968626
 21
9.6183132102
  0
LINE
  5
2ED
100
AcDbEntity
  8
0
100
AcDbLine
 62
9
  6
CONTINUOUS
 10
11.7441786937
 20
9.6183132102
 11
11.7607702437
 21
9.6183132102
  0
LINE
  5
2EE
100
AcDbEntity
  8
0
100
AcDbLine
 62
9
  6
CONTINUOUS
 10
11.9391752631
 20
9.6183132102
 11
12.1859868239
 21
9.6183132102
  0
LINE
  5
2EF
100
AcDbEntity
  8
0
100
AcDbLine
 62
7
  6
CONTINUOUS
 10
9.7929817464
 20
10.9887464168
 11
9.7926864995
 21
10.9889584026
  0
LINE
  5
2F0
100
AcDbEntity
  8
0
100
AcDbLine
 62
7
  6
CONTINUOUS
 10
9.7931791878
 20
10.9885985373
 11
9.7932784322
 21
10.9885261827
  0
LINE
  5
2F1
100
AcDbEntity
  8
0
100
AcDbLine
 62
7
  6
CONTINUOUS
 10
11.3910841451
 20
9.7948889974
 11
11.3561674006
 21
9.8393309279
  0
LINE
  5
2F2
100
AcDbEntity
  8
0
100
AcDbLine
 62
9
  6
CONTINUOUS
 10
11.3731296589
 20
9.8474020484
 11
11.3382129144
 21
9.8918439789
  0
LINE
  5
2F3
100
AcDbEntity
  8
0
100
AcDbLine
 62
9
  6
CONTINUOUS
 10
11.3383362968
 20
9.9117656127
 11
11.3732530413
 21
9.8673236822
  0
LINE
  5
2F4
100
AcDbEntity
  8
0
100
AcDbLine
 62
9
  6
CONTINUOUS
 10
11.4391158803
 20
9.9767522315
 11
11.4585703607
 21
9.9519906257
  0
LINE
  5
2F5
100
AcDbEntity
  8
0
100
AcDbLine
 62
9
  6
CONTINUOUS
 10
11.5283998442
 20
9.9519906257
 11
11.5092192764
 21
9.9764035965
  0
LINE
  5
2F6
100
AcDbEntity
  8
0
100
AcDbLine
 62
7
  6
CONTINUOUS
 10
11.5947139271
 20
9.9198367332
 11
11.5597971826
 21
9.9642786637
  0
LINE
  5
2F7
100
AcDbEntity
  8
0
100
AcDbLine
 62
7
  6
CONTINUOUS
 10
11.5817584504
 20
10.032446726
 11
11.5958183383
 21
10.0081751106
  0
LINE
  5
2F8
100
AcDbEntity
  8
0
100
AcDbLine
 62
7
  6
CONTINUOUS
 10
13.2818918433
 20
7.5563144416
 11
13.2818918433
 21
7.9343532163
  0
LINE
  5
2F9
100
AcDbEntity
  8
0
100
AcDbLine
 62
9
  6
CONTINUOUS
 10
13.3070690663
 20
7.9131211245
 11
13.3070690663
 21
7.5775465333
  0
LINE
  5
2FA
100
AcDbEntity
  8
0
100
AcDbLine
 62
9
  6
CONTINUOUS
 10
13.3891583233
 20
7.5200670167
 11
13.3891583233
 21
7.9706006411
  0
LINE
  5
2FB
100
AcDbEntity
  8
0
100
AcDbLine
 62
7
  6
CONTINUOUS
 10
10.648649956
 20
9.931962094
 11
10.7948397539
 21
9.9498456399
  0
LINE
  5
2FC
100
AcDbEntity
  8
0
100
AcDbLine
 62
7
  6
CONTINUOUS
 10
10.8512329622
 20
9.9567442782
 11
11.3025899106
 21
10.0119592305
  0
LINE
  5
2FD
100
AcDbEntity
  8
0
100
AcDbLine
 62
7
  6
CONTINUOUS
 10
11.557834163
 20
10.0431835182
 11
11.5737556045
 21
10.0451312042
  0
LINE
  5
2FE
100
AcDbEntity
  8
0
100
AcDbLine
 62
7
  6
CONTINUOUS
 10
12.75849477
 20
9.9891917121
 11
12.2978183383
 21
9.9736019851
  0
LINE
  5
2FF
100
AcDbEntity
  8
0
100
AcDbLine
 62
7
  6
CONTINUOUS
 10
12.2158183383
 20
9.9708270274
 11
11.5958183383
 21
9.9498456399
  0
LINE
  5
300
100
AcDbEntity
  8
0
100
AcDbLine
 62
9
  6
CONTINUOUS
 10
6.1527713697
 20
10.0598458441
 11
6.1522901146
 21
10.0598441798
  0
LINE
  5
301
100
AcDbEntity
  8
0
100
AcDbLine
 62
7
  6
CONTINUOUS
 10
7.2010315999
 20
9.7624020484
 11
7.2708610834
 21
9.7624020484
  0
LINE
  5
302
100
AcDbEntity
  8
0
100
AcDbLine
 62
7
  6
CONTINUOUS
 10
11.4579226032
 20
9.7624020484
 11
11.5277520867
 21
9.7624020484
  0
LINE
  5
303
100
AcDbEntity
  8
0
100
AcDbLine
 62
7
  6
CONTINUOUS
 10
12.9108188164
 20
9.7693338289
 11
11.8179648701
 21
9.7693338289
  0
LINE
  5
304
100
AcDbEntity
  8
0
100
AcDbLine
 62
7
  6
CONTINUOUS
 10
6.9108188164
 20
9.7693338289
 11
6.3208752763
 21
9.7693338289
  0
LINE
  5
305
100
AcDbEntity
  8
0
100
AcDbLine
 62
9
  6
CONTINUOUS
 10
12.8830598782
 20
9.8128296395
 11
11.8735777316
 21
9.8128296372
  0
LINE
  5
306
100
AcDbEntity
  8
0
100
AcDbLine
 62
9
  6
CONTINUOUS
 10
7.1951255324
 20
9.839884823
 11
7.2649550159
 21
9.839884823
  0
LINE
  5
307
100
AcDbEntity
  8
0
100
AcDbLine
 62
9
  6
CONTINUOUS
 10
11.4638286706
 20
9.839884823
 11
11.5336581541
 21
9.839884823
  0
LINE
  5
308
100
AcDbEntity
  8
0
100
AcDbLine
 62
9
  6
CONTINUOUS
 10
11.5337815365
 20
9.8598064568
 11
11.463952053
 21
9.8598064568
  0
LINE
  5
309
100
AcDbEntity
  8
0
100
AcDbLine
 62
9
  6
CONTINUOUS
 10
7.2648316336
 20
9.8598064568
 11
7.19500215
 21
9.8598064568
  0
LINE
  5
30A
100
AcDbEntity
  8
0
100
AcDbLine
 62
7
  6
CONTINUOUS
 10
8.0072788635
 20
9.8598456399
 11
10.1923578131
 21
9.8598456399
  0
LINE
  5
30B
100
AcDbEntity
  8
0
100
AcDbLine
 62
7
  6
CONTINUOUS
 10
10.8401573411
 20
9.9498456399
 11
10.6940817213
 21
9.9498456399
  0
LINE
  5
30C
100
AcDbEntity
  8
0
100
AcDbLine
 62
7
  6
CONTINUOUS
 10
7.3731903761
 20
9.9498456399
 11
7.3768183383
 21
9.9498456399
  0
LINE
  5
30D
100
AcDbEntity
  8
0
100
AcDbLine
 62
9
  6
CONTINUOUS
 10
7.2003838423
 20
9.9519906257
 11
7.2702133259
 21
9.9519906257
  0
LINE
  5
30E
100
AcDbEntity
  8
0
100
AcDbLine
 62
9
  6
CONTINUOUS
 10
11.4585703607
 20
9.9519906257
 11
11.5283998442
 21
9.9519906257
  0
LINE
  5
30F
100
AcDbEntity
  8
0
100
AcDbLine
 62
7
  6
CONTINUOUS
 10
12.2653183383
 20
9.9831850398
 11
12.2603183383
 21
9.9831850398
  0
LINE
  5
310
100
AcDbEntity
  8
0
100
AcDbLine
 62
7
  6
CONTINUOUS
 10
10.8448183383
 20
9.9898456399
 11
10.9448183383
 21
9.9898456399
  0
LINE
  5
311
100
AcDbEntity
  8
0
100
AcDbLine
 62
9
  6
CONTINUOUS
 10
7.2503124688
 20
9.9964325562
 11
7.2353005868
 21
9.9964325562
  0
LINE
  5
312
100
AcDbEntity
  8
0
100
AcDbLine
 62
7
  6
CONTINUOUS
 10
12.2158183383
 20
10.0223456399
 11
12.2278406668
 21
10.0223456399
  0
LINE
  5
313
100
AcDbEntity
  8
0
100
AcDbLine
 62
7
  6
CONTINUOUS
 10
11.5822601502
 20
10.0320056407
 11
11.5738183383
 21
10.0320056407
  0
LINE
  5
314
100
AcDbEntity
  8
0
100
AcDbLine
 62
7
  6
CONTINUOUS
 10
6.1527713805
 20
10.0598456399
 11
7.051318792
 21
10.0598456399
  0
LINE
  5
315
100
AcDbEntity
  8
0
100
AcDbLine
 62
7
  6
CONTINUOUS
 10
11.5138183383
 20
10.0698456399
 11
11.5738183383
 21
10.0698456399
  0
LINE
  5
316
100
AcDbEntity
  8
0
100
AcDbLine
 62
7
  6
CONTINUOUS
 10
12.7778183383
 20
10.1298456399
 11
17.3678183383
 21
10.1298456399
  0
LINE
  5
317
100
AcDbEntity
  8
0
100
AcDbLine
 62
9
  6
CONTINUOUS
 10
6.8551889904
 20
9.8127430858
 11
6.3483996168
 21
9.8128284374
  0
LINE
  5
318
100
AcDbEntity
  8
0
100
AcDbLine
 62
7
  6
CONTINUOUS
 10
11.5092192764
 20
9.9764035965
 11
11.4391158803
 21
9.9767522315
  0
LINE
  5
319
100
AcDbEntity
  8
0
100
AcDbLine
 62
7
  6
CONTINUOUS
 10
11.8540585283
 20
9.791653756
 11
11.8540546227
 21
9.7916574699
  0
LINE
  5
31A
100
AcDbEntity
  8
0
100
AcDbLine
 62
7
  6
CONTINUOUS
 10
11.5777200599
 20
10.8059884639
 11
11.5773833383
 21
10.8063456399
  0
LINE
  5
31B
100
AcDbEntity
  8
0
100
AcDbLine
 62
7
  6
CONTINUOUS
 10
11.7943918433
 20
11.0353180809
 11
11.7703918433
 21
11.0768873003
  0
LINE
  5
31C
100
AcDbEntity
  8
0
100
AcDbLine
 62
9
  6
CONTINUOUS
 10
14.0778183383
 20
10.1298456399
 11
14.0778183383
 21
10.6698456399
  0
LINE
  5
31D
100
AcDbEntity
  8
0
100
AcDbLine
 62
7
  6
CONTINUOUS
 10
12.7778183383
 20
10.6698456399
 11
17.3678183383
 21
10.6698456399
  0
LINE
  5
31E
100
AcDbEntity
  8
0
100
AcDbLine
 62
7
  6
CONTINUOUS
 10
11.5138183383
 20
10.7298456399
 11
11.5738183383
 21
10.7298456399
  0
LINE
  5
31F
100
AcDbEntity
  8
0
100
AcDbLine
 62
7
  6
CONTINUOUS
 10
6.1527713805
 20
10.7398456399
 11
7.051318792
 21
10.7398456399
  0
LINE
  5
320
100
AcDbEntity
  8
0
100
AcDbLine
 62
9
  6
CONTINUOUS
 10
6.1527713714
 20
10.7398454865
 11
6.1523041817
 21
10.7398470551
  0
LWPOLYLINE
  5
321
100
AcDbEntity
  8
0
100
AcDbPolyline
 62
7
  6
CONTINUOUS
 90
4
 70
0
 10
9.8665417183
 20
10.9634161013
 10
9.8392924252
 20
10.9686748706
 10
9.8021528555
 20
10.9831201034
 10
9.7929817464
 20
10.9887464168
  0
LINE
  5
322
100
AcDbEntity
  8
0
100
AcDbLine
 62
7
  6
CONTINUOUS
 10
8.8622405309
 20
10.9634156894
 11
8.6695689545
 21
10.9398456399
  0
LINE
  5
323
100
AcDbEntity
  8
0
100
AcDbLine
 62
7
  6
CONTINUOUS
 10
11.4391158803
 20
10.8229390484
 11
11.5092192764
 21
10.8232876834
  0
LINE
  5
324
100
AcDbEntity
  8
0
100
AcDbLine
 62
7
  6
CONTINUOUS
 10
12.2158183383
 20
10.7773456399
 11
12.2278406668
 21
10.7773456399
  0
LINE
  5
325
100
AcDbEntity
  8
0
100
AcDbLine
 62
9
  6
CONTINUOUS
 10
7.2353005868
 20
10.8032587237
 11
7.2503124688
 21
10.8032587237
  0
LINE
  5
326
100
AcDbEntity
  8
0
100
AcDbLine
 62
7
  6
CONTINUOUS
 10
11.5738183383
 20
10.8063456399
 11
11.5768130635
 21
10.8063456399
  0
LINE
  5
327
100
AcDbEntity
  8
0
100
AcDbLine
 62
7
  6
CONTINUOUS
 10
10.8448183383
 20
10.8098456399
 11
10.9448183383
 21
10.8098456399
  0
LINE
  5
328
100
AcDbEntity
  8
0
100
AcDbLine
 62
7
  6
CONTINUOUS
 10
12.2653183383
 20
10.81650624
 11
12.2603183383
 21
10.81650624
  0
LINE
  5
329
100
AcDbEntity
  8
0
100
AcDbLine
 62
9
  6
CONTINUOUS
 10
11.5283998442
 20
10.8477006542
 11
11.4585703607
 21
10.8477006542
  0
LINE
  5
32A
100
AcDbEntity
  8
0
100
AcDbLine
 62
9
  6
CONTINUOUS
 10
7.2702133259
 20
10.8477006542
 11
7.2003838423
 21
10.8477006542
  0
LINE
  5
32B
100
AcDbEntity
  8
0
100
AcDbLine
 62
7
  6
CONTINUOUS
 10
7.3731903761
 20
10.8498456399
 11
7.3768183383
 21
10.8498456399
  0
LINE
  5
32C
100
AcDbEntity
  8
0
100
AcDbLine
 62
7
  6
CONTINUOUS
 10
10.6940817213
 20
10.8498456399
 11
10.8401573411
 21
10.8498456399
  0
LINE
  5
32D
100
AcDbEntity
  8
0
100
AcDbLine
 62
7
  6
CONTINUOUS
 10
8.0072788635
 20
10.9398456399
 11
10.1923578131
 21
10.9398456399
  0
LINE
  5
32E
100
AcDbEntity
  8
0
100
AcDbLine
 62
9
  6
CONTINUOUS
 10
7.19500215
 20
10.939884823
 11
7.2648316336
 21
10.939884823
  0
LINE
  5
32F
100
AcDbEntity
  8
0
100
AcDbLine
 62
9
  6
CONTINUOUS
 10
11.463952053
 20
10.939884823
 11
11.5337815365
 21
10.939884823
  0
LINE
  5
330
100
AcDbEntity
  8
0
100
AcDbLine
 62
9
  6
CONTINUOUS
 10
11.5336581541
 20
10.9598064568
 11
11.4638286706
 21
10.9598064568
  0
LINE
  5
331
100
AcDbEntity
  8
0
100
AcDbLine
 62
9
  6
CONTINUOUS
 10
7.2649550159
 20
10.9598064568
 11
7.1951255324
 21
10.9598064568
  0
LINE
  5
332
100
AcDbEntity
  8
0
100
AcDbLine
 62
9
  6
CONTINUOUS
 10
6.3461410738
 20
10.9868622247
 11
6.8552008135
 21
10.9868616426
  0
LINE
  5
333
100
AcDbEntity
  8
0
100
AcDbLine
 62
7
  6
CONTINUOUS
 10
12.8324322284
 20
11.030357451
 11
11.8963513223
 21
11.030357451
  0
LINE
  5
334
100
AcDbEntity
  8
0
100
AcDbLine
 62
7
  6
CONTINUOUS
 10
6.8324584051
 20
11.030357451
 11
6.316180028
 21
11.030357451
  0
LINE
  5
335
100
AcDbEntity
  8
0
100
AcDbLine
 62
7
  6
CONTINUOUS
 10
6.3127629711
 20
11.0353180809
 11
6.9343918433
 21
11.0353180809
  0
LINE
  5
336
100
AcDbEntity
  8
0
100
AcDbLine
 62
7
  6
CONTINUOUS
 10
11.7943918433
 20
11.0353180809
 11
12.9343918433
 21
11.0353180809
  0
LINE
  5
337
100
AcDbEntity
  8
0
100
AcDbLine
 62
7
  6
CONTINUOUS
 10
11.5277520867
 20
11.0372892314
 11
11.4579226032
 21
11.0372892314
  0
LINE
  5
338
100
AcDbEntity
  8
0
100
AcDbLine
 62
7
  6
CONTINUOUS
 10
7.2708610834
 20
11.0372892314
 11
7.2010315999
 21
11.0372892314
  0
LINE
  5
339
100
AcDbEntity
  8
0
100
AcDbLine
 62
7
  6
CONTINUOUS
 10
6.2678355698
 20
11.1522315104
 11
6.4609481168
 21
11.1522315104
  0
LINE
  5
33A
100
AcDbEntity
  8
0
100
AcDbLine
 62
7
  6
CONTINUOUS
 10
6.8618355698
 20
11.1522315104
 11
6.9583918433
 21
11.1522315104
  0
LINE
  5
33B
100
AcDbEntity
  8
0
100
AcDbLine
 62
7
  6
CONTINUOUS
 10
11.7703918433
 20
11.1522315104
 11
11.8669481168
 21
11.1522315104
  0
LINE
  5
33C
100
AcDbEntity
  8
0
100
AcDbLine
 62
7
  6
CONTINUOUS
 10
12.2678355698
 20
11.1522315104
 11
12.4609481168
 21
11.1522315104
  0
LINE
  5
33D
100
AcDbEntity
  8
0
100
AcDbLine
 62
7
  6
CONTINUOUS
 10
12.8618355698
 20
11.1522315104
 11
12.9583918433
 21
11.1522315104
  0
LINE
  5
33E
100
AcDbEntity
  8
0
100
AcDbLine
 62
9
  6
CONTINUOUS
 10
11.8735948295
 20
10.9869481301
 11
12.8830595521
 21
10.9868616412
  0
LINE
  5
33F
100
AcDbEntity
  8
0
100
AcDbLine
 62
7
  6
CONTINUOUS
 10
12.75849477
 20
10.8104995678
 11
12.2978183383
 21
10.8260892948
  0
LINE
  5
340
100
AcDbEntity
  8
0
100
AcDbLine
 62
7
  6
CONTINUOUS
 10
12.2158183383
 20
10.8288642525
 11
11.5958183383
 21
10.8498456399
  0
LINE
  5
341
100
AcDbEntity
  8
0
100
AcDbLine
 62
7
  6
CONTINUOUS
 10
9.8669585763
 20
10.9633649762
 11
10.0592147312
 21
10.9398456399
  0
LINE
  5
342
100
AcDbEntity
  8
0
100
AcDbLine
 62
7
  6
CONTINUOUS
 10
10.6486172314
 20
10.8677420674
 11
10.7949095542
 21
10.8498456399
  0
LINE
  5
343
100
AcDbEntity
  8
0
100
AcDbLine
 62
7
  6
CONTINUOUS
 10
10.8512340956
 20
10.842955271
 11
11.3026078639
 21
10.7877372134
  0
LINE
  5
344
100
AcDbEntity
  8
0
100
AcDbLine
 62
7
  6
CONTINUOUS
 10
11.557844484
 20
10.7565132669
 11
11.5737564158
 21
10.7545667072
  0
LINE
  5
345
100
AcDbEntity
  8
0
100
AcDbLine
 62
7
  6
CONTINUOUS
 10
12.9583918433
 20
11.5737488615
 11
12.9343918433
 21
11.6153180809
  0
LINE
  5
346
100
AcDbEntity
  8
0
100
AcDbLine
 62
7
  6
CONTINUOUS
 10
12.9583918433
 20
11.4984046514
 11
12.8618355698
 21
11.4984046514
  0
LINE
  5
347
100
AcDbEntity
  8
0
100
AcDbLine
 62
7
  6
CONTINUOUS
 10
12.4609481168
 20
11.4984046514
 11
12.2678355698
 21
11.4984046514
  0
LINE
  5
348
100
AcDbEntity
  8
0
100
AcDbLine
 62
7
  6
CONTINUOUS
 10
11.8669481168
 20
11.4984046514
 11
11.7703918433
 21
11.4984046514
  0
LINE
  5
349
100
AcDbEntity
  8
0
100
AcDbLine
 62
7
  6
CONTINUOUS
 10
6.9583918433
 20
11.4984046514
 11
6.8618355698
 21
11.4984046514
  0
LINE
  5
34A
100
AcDbEntity
  8
0
100
AcDbLine
 62
7
  6
CONTINUOUS
 10
6.4609481168
 20
11.4984046514
 11
6.2678355698
 21
11.4984046514
  0
LINE
  5
34B
100
AcDbEntity
  8
0
100
AcDbLine
 62
7
  6
CONTINUOUS
 10
5.8669481168
 20
11.4984046514
 11
5.7703918433
 21
11.4984046514
  0
LINE
  5
34C
100
AcDbEntity
  8
0
100
AcDbLine
 62
7
  6
CONTINUOUS
 10
5.6233960897
 20
11.6153180809
 11
7.1053875968
 21
11.6153180809
  0
LINE
  5
34D
100
AcDbEntity
  8
0
100
AcDbLine
 62
7
  6
CONTINUOUS
 10
11.6233960897
 20
11.6153180809
 11
13.1053875968
 21
11.6153180809
  0
LINE
  5
34E
100
AcDbEntity
  8
0
100
AcDbLine
 62
7
  6
CONTINUOUS
 10
5.5524524808
 20
11.6773180809
 11
7.1763312057
 21
11.6773180809
  0
LINE
  5
34F
100
AcDbEntity
  8
0
100
AcDbLine
 62
7
  6
CONTINUOUS
 10
11.5524524808
 20
11.6773180809
 11
13.1763312057
 21
11.6773180809
  0
LINE
  5
350
100
AcDbEntity
  8
0
100
AcDbLine
 62
7
  6
CONTINUOUS
 10
5.3643918433
 20
11.8644883708
 11
7.3643918433
 21
11.8644883708
  0
LINE
  5
351
100
AcDbEntity
  8
0
100
AcDbLine
 62
7
  6
CONTINUOUS
 10
11.3643918433
 20
11.8644883708
 11
13.3643918433
 21
11.8644883708
  0
LINE
  5
352
100
AcDbEntity
  8
0
100
AcDbLine
 62
7
  6
CONTINUOUS
 10
13.5443882626
 20
12.0523180809
 11
11.1843954239
 21
12.0523180809
  0
LINE
  5
353
100
AcDbEntity
  8
0
100
AcDbLine
 62
7
  6
CONTINUOUS
 10
7.5443882626
 20
12.0523180809
 11
5.1843954239
 21
12.0523180809
  0
ARC
  5
354
100
AcDbEntity
  8
0
100
AcDbCircle
 62
7
  6
CONTINUOUS
 10
5.6341125522
 20
7.9776260631
 40
1.3600000002
100
AcDbArc
 50
337.6438963447
 51
341.2440132161
  0
ARC
  5
355
100
AcDbEntity
  8
0
100
AcDbCircle
 62
7
  6
CONTINUOUS
 10
5.6360930626
 20
7.5072520135
 40
1.3599999998
100
AcDbArc
 50
19.0137741999
 51
22.5744557111
  0
ARC
  5
356
100
AcDbEntity
  8
0
100
AcDbCircle
 62
7
  6
CONTINUOUS
 10
5.335627292
 20
7.668943733
 40
0.5488227393
100
AcDbArc
 50
26.4421483409
 51
27.9029878509
  0
ARC
  5
357
100
AcDbEntity
  8
0
100
AcDbCircle
 62
7
  6
CONTINUOUS
 10
5.3428234105
 20
7.6725351902
 40
0.5407801927
100
AcDbArc
 50
25.9875960319
 51
26.4409461541
  0
ARC
  5
358
100
AcDbEntity
  8
0
100
AcDbCircle
 62
7
  6
CONTINUOUS
 10
5.1818918433
 20
7.7453338289
 40
0.275
100
AcDbArc
 50
55.0
 51
305.0
  0
CIRCLE
  5
359
100
AcDbEntity
  8
0
100
AcDbCircle
 62
7
  6
CONTINUOUS
 10
6.3643918433
 20
7.7453338289
 40
0.275
  0
ARC
  5
35A
100
AcDbEntity
  8
0
100
AcDbCircle
 62
7
  6
CONTINUOUS
 10
5.6545158843
 20
8.1068338289
 40
0.25
100
AcDbArc
 50
223.0260516848
 51
312.300638312
  0
ARC
  5
35B
100
AcDbEntity
  8
0
100
AcDbCircle
 62
7
  6
CONTINUOUS
 10
5.6545158843
 20
7.3838338289
 40
0.25
100
AcDbArc
 50
47.6862296962
 51
136.9739483152
  0
ARC
  5
35C
100
AcDbEntity
  8
0
100
AcDbCircle
 62
7
  6
CONTINUOUS
 10
5.9968918433
 20
8.5093338289
 40
0.05
100
AcDbArc
 50
186.9248982442
 51
270.0
  0
ARC
  5
35D
100
AcDbEntity
  8
0
100
AcDbCircle
 62
7
  6
CONTINUOUS
 10
5.9768918433
 20
7.3245340606
 40
0.03
100
AcDbArc
 50
190.2553348464
 51
255.2370022578
  0
ARC
  5
35E
100
AcDbEntity
  8
0
100
AcDbCircle
 62
7
  6
CONTINUOUS
 10
5.4308918433
 20
7.9262275572
 40
0.016
100
AcDbArc
 50
235.0
 51
360.0
  0
ARC
  5
35F
100
AcDbEntity
  8
0
100
AcDbCircle
 62
7
  6
CONTINUOUS
 10
5.4308918433
 20
7.5644401006
 40
0.016
100
AcDbArc
 50
0.0
 51
125.0
  0
ARC
  5
360
100
AcDbEntity
  8
0
100
AcDbCircle
 62
7
  6
CONTINUOUS
 10
5.4600583054
 20
7.5653338289
 40
0.016
100
AcDbArc
 50
214.6234511018
 51
316.9739483152
  0
ARC
  5
361
100
AcDbEntity
  8
0
100
AcDbCircle
 62
7
  6
CONTINUOUS
 10
5.4600583054
 20
7.9253338289
 40
0.016
100
AcDbArc
 50
43.0260516848
 51
145.3765488982
  0
ARC
  5
362
100
AcDbEntity
  8
0
100
AcDbCircle
 62
7
  6
CONTINUOUS
 10
6.3643918433
 20
8.7950072209
 40
1.550673392
100
AcDbArc
 50
277.1356980328
 51
284.7629977426
  0
ARC
  5
363
100
AcDbEntity
  8
0
100
AcDbCircle
 62
7
  6
CONTINUOUS
 10
6.3643918433
 20
8.7950072209
 40
1.550673392
100
AcDbArc
 50
272.848079103
 51
275.7961255823
  0
ARC
  5
364
100
AcDbEntity
  8
0
100
AcDbCircle
 62
7
  6
CONTINUOUS
 10
6.3643918433
 20
8.7950072209
 40
1.550673392
100
AcDbArc
 50
265.6144410285
 51
267.0408598669
  0
ARC
  5
365
100
AcDbEntity
  8
0
100
AcDbCircle
 62
7
  6
CONTINUOUS
 10
6.3643918433
 20
8.7950072209
 40
1.550673392
100
AcDbArc
 50
255.2370022574
 51
260.7724181776
  0
ARC
  5
366
100
AcDbEntity
  8
0
100
AcDbCircle
 62
7
  6
CONTINUOUS
 10
6.3643918433
 20
8.7950072209
 40
1.550673392
100
AcDbArc
 50
268.3840739981
 51
271.5271578604
  0
ARC
  5
367
100
AcDbEntity
  8
0
100
AcDbCircle
 62
7
  6
CONTINUOUS
 10
6.3643918433
 20
8.7950072209
 40
1.549673392
100
AcDbArc
 50
267.0408598669
 51
268.3840739981
  0
ARC
  5
368
100
AcDbEntity
  8
0
100
AcDbCircle
 62
7
  6
CONTINUOUS
 10
6.3643918433
 20
8.7950072209
 40
1.549673392
100
AcDbArc
 50
271.5271578603
 51
272.848079103
  0
ARC
  5
369
100
AcDbEntity
  8
0
100
AcDbCircle
 62
7
  6
CONTINUOUS
 10
6.3636089262
 20
8.8082036821
 40
0.9481661764
100
AcDbArc
 50
89.9526898873
 51
93.1402845708
  0
ARC
  5
36A
100
AcDbEntity
  8
0
100
AcDbCircle
 62
7
  6
CONTINUOUS
 10
5.3744303818
 20
9.329787326
 40
0.469
100
AcDbArc
 50
6.9248982442
 51
11.4110044489
  0
ARC
  5
36B
100
AcDbEntity
  8
0
100
AcDbCircle
 62
7
  6
CONTINUOUS
 10
7.0946711343
 20
7.9776260631
 40
1.3600000002
100
AcDbArc
 50
198.7559867839
 51
202.3561036553
  0
ARC
  5
36C
100
AcDbEntity
  8
0
100
AcDbCircle
 62
7
  6
CONTINUOUS
 10
7.092690624
 20
7.5072520135
 40
1.3599999998
100
AcDbArc
 50
157.4255442889
 51
160.9862258001
  0
ARC
  5
36D
100
AcDbEntity
  8
0
100
AcDbCircle
 62
7
  6
CONTINUOUS
 10
7.3943835338
 20
7.8223704339
 40
0.550209044
100
AcDbArc
 50
206.4364977424
 51
207.9024415038
  0
ARC
  5
36E
100
AcDbEntity
  8
0
100
AcDbCircle
 62
7
  6
CONTINUOUS
 10
7.3876932445
 20
7.8190313018
 40
0.5427317689
100
AcDbArc
 50
206.0218573235
 51
206.4352943675
  0
ARC
  5
36F
100
AcDbEntity
  8
0
100
AcDbCircle
 62
7
  6
CONTINUOUS
 10
7.5468918433
 20
7.7453338289
 40
0.275
100
AcDbArc
 50
235.0
 51
125.0
  0
ARC
  5
370
100
AcDbEntity
  8
0
100
AcDbCircle
 62
7
  6
CONTINUOUS
 10
7.0742678022
 20
8.1068338289
 40
0.25
100
AcDbArc
 50
227.6866293585
 51
316.9739483152
  0
ARC
  5
371
100
AcDbEntity
  8
0
100
AcDbCircle
 62
7
  6
CONTINUOUS
 10
7.0742678022
 20
7.3838338289
 40
0.25
100
AcDbArc
 50
43.0260516848
 51
132.3008225064
  0
ARC
  5
372
100
AcDbEntity
  8
0
100
AcDbCircle
 62
7
  6
CONTINUOUS
 10
6.7318918433
 20
8.5093338289
 40
0.05
100
AcDbArc
 50
270.0
 51
353.0751017558
  0
ARC
  5
373
100
AcDbEntity
  8
0
100
AcDbCircle
 62
7
  6
CONTINUOUS
 10
6.7518918433
 20
7.3245340606
 40
0.03
100
AcDbArc
 50
284.7629977422
 51
349.7446651536
  0
ARC
  5
374
100
AcDbEntity
  8
0
100
AcDbCircle
 62
7
  6
CONTINUOUS
 10
7.2978918433
 20
7.9262275572
 40
0.016
100
AcDbArc
 50
180.0
 51
305.0
  0
ARC
  5
375
100
AcDbEntity
  8
0
100
AcDbCircle
 62
7
  6
CONTINUOUS
 10
7.2978918433
 20
7.5644401006
 40
0.016
100
AcDbArc
 50
55.0
 51
180.0
  0
ARC
  5
376
100
AcDbEntity
  8
0
100
AcDbCircle
 62
7
  6
CONTINUOUS
 10
7.2687253812
 20
7.5653338289
 40
0.016
100
AcDbArc
 50
223.0260516848
 51
325.3765488982
  0
ARC
  5
377
100
AcDbEntity
  8
0
100
AcDbCircle
 62
7
  6
CONTINUOUS
 10
7.2687253812
 20
7.9253338289
 40
0.016
100
AcDbArc
 50
34.6234511018
 51
136.9739483152
  0
ARC
  5
378
100
AcDbEntity
  8
0
100
AcDbCircle
 62
7
  6
CONTINUOUS
 10
8.0072788635
 20
9.4398456399
 40
1.5
100
AcDbArc
 50
90.0
 51
114.853972259
  0
ARC
  5
379
100
AcDbEntity
  8
0
100
AcDbCircle
 62
9
  6
CONTINUOUS
 10
7.1939747279
 20
10.1023251242
 40
0.837560329
100
AcDbArc
 50
89.9297161493
 51
92.1192044212
  0
ARC
  5
37A
100
AcDbEntity
  8
0
100
AcDbCircle
 62
7
  6
CONTINUOUS
 10
7.3543533048
 20
9.329787326
 40
0.469
100
AcDbArc
 50
142.0339977482
 51
173.0751017558
  0
ARC
  5
37B
100
AcDbEntity
  8
0
100
AcDbCircle
 62
7
  6
CONTINUOUS
 10
7.051318792
 20
9.7098456399
 40
0.35
100
AcDbArc
 50
53.2130265183
 51
90.0
  0
ARC
  5
37C
100
AcDbEntity
  8
0
100
AcDbCircle
 62
9
  6
CONTINUOUS
 10
7.0632102961
 20
10.0035921112
 40
0.3419843157
100
AcDbArc
 50
349.474115126
 51
350.1504359295
  0
ARC
  5
37D
100
AcDbEntity
  8
0
100
AcDbCircle
 62
7
  6
CONTINUOUS
 10
7.1248072007
 20
9.79550134
 40
0.2514531525
100
AcDbArc
 50
84.8923656229
 51
102.5300047106
  0
ARC
  5
37E
100
AcDbEntity
  8
0
100
AcDbCircle
 62
7
  6
CONTINUOUS
 10
7.1246652144
 20
9.7969841408
 40
0.2499753753
100
AcDbArc
 50
102.5719701498
 51
181.1698379667
  0
ARC
  5
37F
100
AcDbEntity
  8
0
100
AcDbCircle
 62
7
  6
CONTINUOUS
 10
6.9108918433
 20
9.6758338289
 40
0.0935
100
AcDbArc
 50
322.0339977482
 51
90.0
  0
ARC
  5
380
100
AcDbEntity
  8
0
100
AcDbCircle
 62
9
  6
CONTINUOUS
 10
7.200489412
 20
9.8667041855
 40
0.0852865055
100
AcDbArc
 50
90.0709220938
 51
109.3227816602
  0
ARC
  5
381
100
AcDbEntity
  8
0
100
AcDbCircle
 62
9
  6
CONTINUOUS
 10
7.2353969026
 20
9.9112395307
 40
0.08519308
100
AcDbArc
 50
90.0647762352
 51
112.4296065328
  0
ARC
  5
382
100
AcDbEntity
  8
0
100
AcDbCircle
 62
7
  6
CONTINUOUS
 10
7.2708566651
 20
9.8474111385
 40
0.0850085481
100
AcDbArc
 50
270.002977895
 51
321.8413221723
  0
ARC
  5
383
100
AcDbEntity
  8
0
100
AcDbCircle
 62
7
  6
CONTINUOUS
 10
7.2010316001
 20
9.8474020487
 40
0.0850000002
100
AcDbArc
 50
180.3548505519
 51
269.9999998384
  0
ARC
  5
384
100
AcDbEntity
  8
0
100
AcDbCircle
 62
7
  6
CONTINUOUS
 10
7.2009078603
 20
9.867323862
 40
0.084999608
100
AcDbArc
 50
141.8442466698
 51
180.3521799122
  0
ARC
  5
385
100
AcDbEntity
  8
0
100
AcDbCircle
 62
9
  6
CONTINUOUS
 10
7.305515664
 20
9.9112084069
 40
0.0849335535
100
AcDbArc
 50
0.3758911297
 51
29.5439210979
  0
ARC
  5
386
100
AcDbEntity
  8
0
100
AcDbCircle
 62
9
  6
CONTINUOUS
 10
7.306432027
 20
9.8912863744
 40
0.0841401677
100
AcDbArc
 50
321.8676563704
 51
0.3797051657
  0
ARC
  5
387
100
AcDbEntity
  8
0
100
AcDbCircle
 62
9
  6
CONTINUOUS
 10
7.2715152826
 20
9.8468444439
 40
0.0841401676
100
AcDbArc
 50
321.8676563475
 51
0.3797051859
  0
ARC
  5
388
100
AcDbEntity
  8
0
100
AcDbCircle
 62
9
  6
CONTINUOUS
 10
7.2350933227
 20
9.9123154986
 40
0.0840827801
100
AcDbArc
 50
112.5181366094
 51
141.8309352414
  0
ARC
  5
389
100
AcDbEntity
  8
0
100
AcDbCircle
 62
9
  6
CONTINUOUS
 10
7.2001557672
 20
9.867892645
 40
0.0840546296
100
AcDbArc
 50
109.3762219939
 51
141.8323920834
  0
ARC
  5
38A
100
AcDbEntity
  8
0
100
AcDbCircle
 62
7
  6
CONTINUOUS
 10
6.8324590725
 20
9.8205149313
 40
0.0511811024
100
AcDbArc
 50
270.0
 51
325.6957080068
  0
ARC
  5
38B
100
AcDbEntity
  8
0
100
AcDbCircle
 62
7
  6
CONTINUOUS
 10
9.9198912216
 20
-23.6949240289
 40
34.3795233382
100
AcDbArc
 50
85.2638804157
 51
85.6495355724
  0
ARC
  5
38C
100
AcDbEntity
  8
0
100
AcDbCircle
 62
7
  6
CONTINUOUS
 10
10.1923578131
 20
9.4398456399
 40
1.5
100
AcDbArc
 50
64.2163806705
 51
90.0
  0
ARC
  5
38D
100
AcDbEntity
  8
0
100
AcDbCircle
 62
9
  6
CONTINUOUS
 10
9.4451000423
 20
9.8867940365
 40
0.6830329182
100
AcDbArc
 50
191.2906781785
 51
202.3311072821
  0
ARC
  5
38E
100
AcDbEntity
  8
0
100
AcDbCircle
 62
9
  6
CONTINUOUS
 10
9.2836837614
 20
9.886794014
 40
0.6830328012
100
AcDbArc
 50
337.6688907302
 51
348.7083931821
  0
ARC
  5
38F
100
AcDbEntity
  8
0
100
AcDbCircle
 62
9
  6
CONTINUOUS
 10
9.3057673369
 20
9.87835511
 40
0.6593992419
100
AcDbArc
 50
337.0861904076
 51
337.6180747565
  0
ARC
  5
390
100
AcDbEntity
  8
0
100
AcDbCircle
 62
9
  6
CONTINUOUS
 10
9.4230160768
 20
9.8783549967
 40
0.6593989465
100
AcDbArc
 50
202.3819251647
 51
202.9139254559
  0
ARC
  5
391
100
AcDbEntity
  8
0
100
AcDbCircle
 62
9
  6
CONTINUOUS
 10
9.5046996614
 20
10.3625547773
 40
0.5997225817
100
AcDbArc
 50
302.1967354566
 51
302.9710284532
  0
ARC
  5
392
100
AcDbEntity
  8
0
100
AcDbCircle
 62
7
  6
CONTINUOUS
 10
11.1484322657
 20
9.6077064395
 40
0.433
100
AcDbArc
 50
57.9057842818
 51
118.0498776996
  0
ARC
  5
393
100
AcDbEntity
  8
0
100
AcDbCircle
 62
7
  6
CONTINUOUS
 10
10.6808183383
 20
10.3438456399
 40
0.425
100
AcDbArc
 50
292.0191155054
 51
301.9657187508
  0
ARC
  5
394
100
AcDbEntity
  8
0
100
AcDbCircle
 62
9
  6
CONTINUOUS
 10
10.1061754164
 20
9.656947512
 40
0.2918517232
100
AcDbArc
 50
135.396309759
 51
143.5335317257
  0
ARC
  5
395
100
AcDbEntity
  8
0
100
AcDbCircle
 62
7
  6
CONTINUOUS
 10
11.1818918433
 20
7.7453338289
 40
0.275
100
AcDbArc
 50
55.0
 51
305.0
  0
ARC
  5
396
100
AcDbEntity
  8
0
100
AcDbCircle
 62
7
  6
CONTINUOUS
 10
10.1644927522
 20
9.6207612077
 40
0.2501046536
100
AcDbArc
 50
104.8499963665
 51
179.9799854142
  0
ARC
  5
397
100
AcDbEntity
  8
0
100
AcDbCircle
 62
7
  6
CONTINUOUS
 10
8.5642988535
 20
9.6207635247
 40
0.2500996743
100
AcDbArc
 50
0.0194841637
 51
75.1521620842
  0
ARC
  5
398
100
AcDbEntity
  8
0
100
AcDbCircle
 62
7
  6
CONTINUOUS
 10
8.5269555159
 20
3.3998810969
 40
0.127563688
100
AcDbArc
 50
176.7637315691
 51
180.0159256609
  0
ARC
  5
399
100
AcDbEntity
  8
0
100
AcDbCircle
 62
7
  6
CONTINUOUS
 10
10.2021744548
 20
3.3999005796
 40
0.1272167659
100
AcDbArc
 50
359.98812395
 51
3.2054717905
  0
ARC
  5
39A
100
AcDbEntity
  8
0
100
AcDbCircle
 62
9
  6
CONTINUOUS
 10
8.5244309505
 20
3.3998420466
 40
0.1250391162
100
AcDbArc
 50
179.9983534518
 51
190.9580434634
  0
ARC
  5
39B
100
AcDbEntity
  8
0
100
AcDbCircle
 62
7
  6
CONTINUOUS
 10
8.9193918433
 20
8.2663023328
 40
0.08
100
AcDbArc
 50
0.0
 51
90.0
  0
ARC
  5
39C
100
AcDbEntity
  8
0
100
AcDbCircle
 62
7
  6
CONTINUOUS
 10
9.8093918433
 20
8.2663023328
 40
0.08
100
AcDbArc
 50
90.0
 51
180.0
  0
ARC
  5
39D
100
AcDbEntity
  8
0
100
AcDbCircle
 62
7
  6
CONTINUOUS
 10
8.8443918433
 20
8.3763023328
 40
0.03
100
AcDbArc
 50
180.0
 51
270.0
  0
ARC
  5
39E
100
AcDbEntity
  8
0
100
AcDbCircle
 62
7
  6
CONTINUOUS
 10
9.8843918433
 20
8.3763023328
 40
0.03
100
AcDbArc
 50
270.0
 51
360.0
  0
ARC
  5
39F
100
AcDbEntity
  8
0
100
AcDbCircle
 62
7
  6
CONTINUOUS
 10
9.6990768826
 20
8.2466172935
 40
0.0196850394
100
AcDbArc
 50
90.0
 51
180.0
  0
ARC
  5
3A0
100
AcDbEntity
  8
0
100
AcDbCircle
 62
7
  6
CONTINUOUS
 10
9.0297068039
 20
8.2466172935
 40
0.0196850394
100
AcDbArc
 50
0.0
 51
90.0
  0
ARC
  5
3A1
100
AcDbEntity
  8
0
100
AcDbCircle
 62
7
  6
CONTINUOUS
 10
5.4968183383
 20
10.3998456399
 40
1.04
100
AcDbArc
 50
19.2273138642
 51
340.7922279637
  0
ARC
  5
3A2
100
AcDbEntity
  8
0
100
AcDbCircle
 62
9
  6
CONTINUOUS
 10
5.4968183383
 20
10.3998456399
 40
1.0277893215
100
AcDbArc
 50
19.4427643499
 51
340.5556411479
  0
ARC
  5
3A3
100
AcDbEntity
  8
0
100
AcDbCircle
 62
9
  6
CONTINUOUS
 10
5.4968183383
 20
10.3998456399
 40
0.840293406
100
AcDbArc
 50
23.9306738939
 51
336.0657848045
  0
ARC
  5
3A4
100
AcDbEntity
  8
0
100
AcDbCircle
 62
9
  6
CONTINUOUS
 10
5.4968183383
 20
10.3998456399
 40
0.7923149729
100
AcDbArc
 50
25.6561467581
 51
334.4730139869
  0
CIRCLE
  5
3A5
100
AcDbEntity
  8
0
100
AcDbCircle
 62
9
  6
CONTINUOUS
 10
5.4968183383
 20
10.3998456399
 40
0.0291338583
  0
ARC
  5
3A6
100
AcDbEntity
  8
0
100
AcDbCircle
 62
7
  6
CONTINUOUS
 10
5.3723918433
 20
12.0523180809
 40
0.188
100
AcDbArc
 50
180.0
 51
267.561145309
  0
ARC
  5
3A7
100
AcDbEntity
  8
0
100
AcDbCircle
 62
7
  6
CONTINUOUS
 10
5.5523900124
 20
11.8653180809
 40
0.188
100
AcDbArc
 50
180.2528672439
 51
270.0
  0
ARC
  5
3A8
100
AcDbEntity
  8
0
100
AcDbCircle
 62
7
  6
CONTINUOUS
 10
7.149337228
 20
10.5261919808
 40
4.4398133557
100
AcDbArc
 50
1.9743558853
 51
2.4102927235
  0
ARC
  5
3A9
100
AcDbEntity
  8
0
100
AcDbCircle
 62
7
  6
CONTINUOUS
 10
7.051318792
 20
11.0898456399
 40
0.35
100
AcDbArc
 50
270.0
 51
306.7869734806
  0
ARC
  5
3AA
100
AcDbEntity
  8
0
100
AcDbCircle
 62
7
  6
CONTINUOUS
 10
7.1248038933
 20
11.0041569251
 40
0.2514202
100
AcDbArc
 50
257.5593608936
 51
275.1051623628
  0
ARC
  5
3AB
100
AcDbEntity
  8
0
100
AcDbCircle
 62
7
  6
CONTINUOUS
 10
7.1243897649
 20
11.002936831
 40
0.2497041059
100
AcDbArc
 50
178.8392047991
 51
257.5188008648
  0
ARC
  5
3AC
100
AcDbEntity
  8
0
100
AcDbCircle
 62
9
  6
CONTINUOUS
 10
7.2353969026
 20
10.8884517492
 40
0.08519308
100
AcDbArc
 50
247.5703934671
 51
269.9352237648
  0
ARC
  5
3AD
100
AcDbEntity
  8
0
100
AcDbCircle
 62
7
  6
CONTINUOUS
 10
7.270856662
 20
10.9522801349
 40
0.0850085555
100
AcDbArc
 50
38.1586799182
 51
89.9970200132
  0
ARC
  5
3AE
100
AcDbEntity
  8
0
100
AcDbCircle
 62
7
  6
CONTINUOUS
 10
7.2009082304
 20
10.9323676038
 40
0.0850000139
100
AcDbArc
 50
179.662054736
 51
218.1556977803
  0
ARC
  5
3AF
100
AcDbEntity
  8
0
100
AcDbCircle
 62
7
  6
CONTINUOUS
 10
7.2010316002
 20
10.9522892311
 40
0.0850000003
100
AcDbArc
 50
90.0000002052
 51
179.6451494044
  0
ARC
  5
3B0
100
AcDbEntity
  8
0
100
AcDbCircle
 62
9
  6
CONTINUOUS
 10
7.3055121152
 20
10.8884793025
 40
0.0849370789
100
AcDbArc
 50
327.1152012403
 51
359.6265330703
  0
ARC
  5
3B1
100
AcDbEntity
  8
0
100
AcDbCircle
 62
9
  6
CONTINUOUS
 10
7.3064320271
 20
10.9084049055
 40
0.0841401677
100
AcDbArc
 50
359.6202948147
 51
38.1323436496
  0
ARC
  5
3B2
100
AcDbEntity
  8
0
100
AcDbCircle
 62
9
  6
CONTINUOUS
 10
7.2350933227
 20
10.8873757812
 40
0.0840827801
100
AcDbArc
 50
218.1690647585
 51
247.4818633905
  0
ARC
  5
3B3
100
AcDbEntity
  8
0
100
AcDbCircle
 62
9
  6
CONTINUOUS
 10
7.2000225367
 20
10.931642508
 40
0.0838534118
100
AcDbArc
 50
218.1399920939
 51
270.0512370531
  0
ARC
  5
3B4
100
AcDbEntity
  8
0
100
AcDbCircle
 62
9
  6
CONTINUOUS
 10
7.2724832025
 20
10.9527975244
 40
0.0831723784
100
AcDbArc
 50
359.6498450236
 51
38.1419811792
  0
ARC
  5
3B5
100
AcDbEntity
  8
0
100
AcDbCircle
 62
7
  6
CONTINUOUS
 10
6.8324590725
 20
10.9791763486
 40
0.0511811024
100
AcDbArc
 50
34.304291993
 51
90.0
  0
ARC
  5
3B6
100
AcDbEntity
  8
0
100
AcDbCircle
 62
7
  6
CONTINUOUS
 10
8.0072788635
 20
11.3598456399
 40
1.5
100
AcDbArc
 50
245.146027741
 51
270.0
  0
ARC
  5
3B7
100
AcDbEntity
  8
0
100
AcDbCircle
 62
7
  6
CONTINUOUS
 10
7.3563918433
 20
12.0523180809
 40
0.188
100
AcDbArc
 50
272.438854691
 51
360.0
  0
ARC
  5
3B8
100
AcDbEntity
  8
0
100
AcDbCircle
 62
7
  6
CONTINUOUS
 10
7.1763936742
 20
11.8653180809
 40
0.188
100
AcDbArc
 50
270.0
 51
359.7471327561
  0
ARC
  5
3B9
100
AcDbEntity
  8
0
100
AcDbCircle
 62
7
  6
CONTINUOUS
 10
9.0180831667
 20
10.3998456399
 40
3.9093008025
100
AcDbArc
 50
351.3638693749
 51
356.0277811809
  0
ARC
  5
3BA
100
AcDbEntity
  8
0
100
AcDbCircle
 62
7
  6
CONTINUOUS
 10
9.0180831667
 20
10.3998456399
 40
3.9093008025
100
AcDbArc
 50
3.9722162833
 51
8.636130625
  0
ARC
  5
3BB
100
AcDbEntity
  8
0
100
AcDbCircle
 62
7
  6
CONTINUOUS
 10
10.1923578131
 20
11.3598456399
 40
1.5
100
AcDbArc
 50
270.0
 51
295.7836193295
  0
ARC
  5
3BC
100
AcDbEntity
  8
0
100
AcDbCircle
 62
7
  6
CONTINUOUS
 10
9.3643918433
 20
10.3998456399
 40
0.7283464567
100
AcDbArc
 50
53.9342372796
 51
126.066488784
  0
ARC
  5
3BD
100
AcDbEntity
  8
0
100
AcDbCircle
 62
7
  6
CONTINUOUS
 10
9.3643948397
 20
10.3998577485
 40
0.6799839324
100
AcDbArc
 50
52.7526878395
 51
126.7175947732
  0
ARC
  5
3BE
100
AcDbEntity
  8
0
100
AcDbCircle
 62
7
  6
CONTINUOUS
 10
9.364396536
 20
10.3998309971
 40
0.679982307
100
AcDbArc
 50
233.2760297463
 51
307.2709830087
  0
ARC
  5
3BF
100
AcDbEntity
  8
0
100
AcDbCircle
 62
7
  6
CONTINUOUS
 10
11.1484322657
 20
11.1919848404
 40
0.433
100
AcDbArc
 50
241.9501223004
 51
302.0942157182
  0
ARC
  5
3C0
100
AcDbEntity
  8
0
100
AcDbCircle
 62
7
  6
CONTINUOUS
 10
10.6808183383
 20
10.4558456399
 40
0.425
100
AcDbArc
 50
58.0342812492
 51
67.9808844946
  0
ARC
  5
3C1
100
AcDbEntity
  8
0
100
AcDbCircle
 62
9
  6
CONTINUOUS
 10
9.5449079426
 20
10.711767415
 40
0.3734749193
100
AcDbArc
 50
38.0280362736
 51
38.9581962436
  0
ARC
  5
3C2
100
AcDbEntity
  8
0
100
AcDbCircle
 62
7
  6
CONTINUOUS
 10
9.9199599173
 20
44.49373464
 40
34.3786429618
100
AcDbArc
 50
274.3504612302
 51
274.7361020386
  0
ARC
  5
3C3
100
AcDbEntity
  8
0
100
AcDbCircle
 62
7
  6
CONTINUOUS
 10
11.6341125522
 20
7.9776260631
 40
1.3600000002
100
AcDbArc
 50
337.6438963447
 51
341.2440132161
  0
ARC
  5
3C4
100
AcDbEntity
  8
0
100
AcDbCircle
 62
7
  6
CONTINUOUS
 10
11.6360930626
 20
7.5072520135
 40
1.3599999998
100
AcDbArc
 50
19.0137741999
 51
22.5744557111
  0
ARC
  5
3C5
100
AcDbEntity
  8
0
100
AcDbCircle
 62
7
  6
CONTINUOUS
 10
11.335627292
 20
7.668943733
 40
0.5488227392
100
AcDbArc
 50
26.4421483409
 51
27.9029878509
  0
ARC
  5
3C6
100
AcDbEntity
  8
0
100
AcDbCircle
 62
7
  6
CONTINUOUS
 10
11.3428234102
 20
7.67253519
 40
0.540780193
100
AcDbArc
 50
25.987596032
 51
26.440946154
  0
CIRCLE
  5
3C7
100
AcDbEntity
  8
0
100
AcDbCircle
 62
7
  6
CONTINUOUS
 10
12.3643918433
 20
7.7453338289
 40
0.275
  0
ARC
  5
3C8
100
AcDbEntity
  8
0
100
AcDbCircle
 62
7
  6
CONTINUOUS
 10
11.6545158843
 20
8.1068338289
 40
0.25
100
AcDbArc
 50
223.0260516848
 51
312.300638312
  0
ARC
  5
3C9
100
AcDbEntity
  8
0
100
AcDbCircle
 62
7
  6
CONTINUOUS
 10
11.6545158843
 20
7.3838338289
 40
0.25
100
AcDbArc
 50
47.6862296968
 51
136.9739483152
  0
ARC
  5
3CA
100
AcDbEntity
  8
0
100
AcDbCircle
 62
7
  6
CONTINUOUS
 10
11.9968918433
 20
8.5093338289
 40
0.05
100
AcDbArc
 50
186.9248982442
 51
270.0
  0
ARC
  5
3CB
100
AcDbEntity
  8
0
100
AcDbCircle
 62
7
  6
CONTINUOUS
 10
11.9768918433
 20
7.3245341759
 40
0.03
100
AcDbArc
 50
190.2555656196
 51
255.2369687322
  0
ARC
  5
3CC
100
AcDbEntity
  8
0
100
AcDbCircle
 62
7
  6
CONTINUOUS
 10
11.4308918433
 20
7.9262275572
 40
0.016
100
AcDbArc
 50
235.0
 51
360.0
  0
ARC
  5
3CD
100
AcDbEntity
  8
0
100
AcDbCircle
 62
7
  6
CONTINUOUS
 10
11.4308918433
 20
7.5644401006
 40
0.016
100
AcDbArc
 50
0.0
 51
125.0
  0
ARC
  5
3CE
100
AcDbEntity
  8
0
100
AcDbCircle
 62
7
  6
CONTINUOUS
 10
11.4600583054
 20
7.5653338289
 40
0.016
100
AcDbArc
 50
214.6234511018
 51
316.9739483152
  0
ARC
  5
3CF
100
AcDbEntity
  8
0
100
AcDbCircle
 62
7
  6
CONTINUOUS
 10
11.4600583054
 20
7.9253338289
 40
0.016
100
AcDbArc
 50
43.0260516848
 51
145.3765488982
  0
ARC
  5
3D0
100
AcDbEntity
  8
0
100
AcDbCircle
 62
7
  6
CONTINUOUS
 10
12.3643918433
 20
8.7950038444
 40
1.5506700155
100
AcDbArc
 50
270.0
 51
271.1647262524
  0
ARC
  5
3D1
100
AcDbEntity
  8
0
100
AcDbCircle
 62
7
  6
CONTINUOUS
 10
12.3643918433
 20
8.7950038444
 40
1.5506700155
100
AcDbArc
 50
272.4964599301
 51
277.4152613281
  0
ARC
  5
3D2
100
AcDbEntity
  8
0
100
AcDbCircle
 62
7
  6
CONTINUOUS
 10
12.3643918433
 20
8.7950038444
 40
1.5506700155
100
AcDbArc
 50
283.3948973201
 51
284.7630312681
  0
ARC
  5
3D3
100
AcDbEntity
  8
0
100
AcDbCircle
 62
7
  6
CONTINUOUS
 10
12.3643918433
 20
8.7950038444
 40
1.5506700155
100
AcDbArc
 50
255.2369687319
 51
256.9468670826
  0
ARC
  5
3D4
100
AcDbEntity
  8
0
100
AcDbCircle
 62
7
  6
CONTINUOUS
 10
12.3643918433
 20
8.7950038444
 40
1.5506700155
100
AcDbArc
 50
258.536096909
 51
264.0737759685
  0
ARC
  5
3D5
100
AcDbEntity
  8
0
100
AcDbCircle
 62
7
  6
CONTINUOUS
 10
11.3744303818
 20
9.329787326
 40
0.469
100
AcDbArc
 50
6.9248982442
 51
37.9660022518
  0
ARC
  5
3D6
100
AcDbEntity
  8
0
100
AcDbCircle
 62
7
  6
CONTINUOUS
 10
11.6032023736
 20
9.7967920697
 40
0.2508960713
100
AcDbArc
 50
358.8300330019
 51
2.9284925764
  0
ARC
  5
3D7
100
AcDbEntity
  8
0
100
AcDbCircle
 62
7
  6
CONTINUOUS
 10
11.604218842
 20
9.7970236723
 40
0.2498703277
100
AcDbArc
 50
2.8873626583
 51
39.9443168512
  0
ARC
  5
3D8
100
AcDbEntity
  8
0
100
AcDbCircle
 62
7
  6
CONTINUOUS
 10
11.5087090818
 20
9.8718673401
 40
0.1045375013
100
AcDbArc
 50
87.1985603071
 51
89.7203672169
  0
ARC
  5
3D9
100
AcDbEntity
  8
0
100
AcDbCircle
 62
7
  6
CONTINUOUS
 10
11.8178918433
 20
9.6758338289
 40
0.0935
100
AcDbArc
 50
90.0
 51
217.9660022518
  0
ARC
  5
3DA
100
AcDbEntity
  8
0
100
AcDbCircle
 62
9
  6
CONTINUOUS
 10
11.4233802691
 20
9.9111856096
 40
0.0850459501
100
AcDbArc
 50
127.8752920406
 51
179.609246715
  0
ARC
  5
3DB
100
AcDbEntity
  8
0
100
AcDbCircle
 62
7
  6
CONTINUOUS
 10
11.4579270245
 20
9.8474111449
 40
0.0850085555
100
AcDbArc
 50
218.1586799198
 51
269.997020013
  0
ARC
  5
3DC
100
AcDbEntity
  8
0
100
AcDbCircle
 62
7
  6
CONTINUOUS
 10
11.5278752504
 20
9.8673236073
 40
0.0850002182
100
AcDbArc
 50
359.645200987
 51
38.1556485506
  0
ARC
  5
3DD
100
AcDbEntity
  8
0
100
AcDbCircle
 62
7
  6
CONTINUOUS
 10
11.5278679926
 20
9.8472821594
 40
0.0848331834
100
AcDbArc
 50
270.0156463918
 51
359.6329572986
  0
ARC
  5
3DE
100
AcDbEntity
  8
0
100
AcDbCircle
 62
9
  6
CONTINUOUS
 10
11.4223516595
 20
9.8912863744
 40
0.08414017
100
AcDbArc
 50
179.6202948082
 51
218.132343629
  0
ARC
  5
3DF
100
AcDbEntity
  8
0
100
AcDbCircle
 62
9
  6
CONTINUOUS
 10
11.457268404
 20
9.8468444439
 40
0.0841401676
100
AcDbArc
 50
179.6202948162
 51
218.1323436531
  0
ARC
  5
3E0
100
AcDbEntity
  8
0
100
AcDbCircle
 62
9
  6
CONTINUOUS
 10
11.5287611499
 20
9.8680487719
 40
0.0838534118
100
AcDbArc
 50
38.1399921064
 51
90.0512370531
  0
ARC
  5
3E1
100
AcDbEntity
  8
0
100
AcDbCircle
 62
9
  6
CONTINUOUS
 10
11.4938659428
 20
9.9133511959
 40
0.0830394027
100
AcDbArc
 50
70.6644203664
 51
76.0971551446
  0
ARC
  5
3E2
100
AcDbEntity
  8
0
100
AcDbCircle
 62
7
  6
CONTINUOUS
 10
11.896324614
 20
9.8205149313
 40
0.0511811024
100
AcDbArc
 50
214.3042919927
 51
270.0
  0
ARC
  5
3E3
100
AcDbEntity
  8
0
100
AcDbCircle
 62
7
  6
CONTINUOUS
 10
12.2628183383
 20
10.0210956399
 40
0.035
100
AcDbArc
 50
177.9532869023
 51
265.9039562418
  0
ARC
  5
3E4
100
AcDbEntity
  8
0
100
AcDbCircle
 62
7
  6
CONTINUOUS
 10
12.2628183383
 20
10.0210956399
 40
0.035
100
AcDbArc
 50
274.0960437582
 51
360.0
  0
ARC
  5
3E5
100
AcDbEntity
  8
0
100
AcDbCircle
 62
7
  6
CONTINUOUS
 10
13.0946711343
 20
7.9776260631
 40
1.3600000002
100
AcDbArc
 50
198.7559867839
 51
202.3561036553
  0
ARC
  5
3E6
100
AcDbEntity
  8
0
100
AcDbCircle
 62
7
  6
CONTINUOUS
 10
13.092690624
 20
7.5072520135
 40
1.3599999998
100
AcDbArc
 50
157.4255442889
 51
160.9862258001
  0
ARC
  5
3E7
100
AcDbEntity
  8
0
100
AcDbCircle
 62
7
  6
CONTINUOUS
 10
13.3943835338
 20
7.822370434
 40
0.550209044
100
AcDbArc
 50
206.4364977424
 51
207.9024415038
  0
ARC
  5
3E8
100
AcDbEntity
  8
0
100
AcDbCircle
 62
7
  6
CONTINUOUS
 10
13.3876932447
 20
7.8190313019
 40
0.5427317691
100
AcDbArc
 50
206.0218573236
 51
206.4352943675
  0
ARC
  5
3E9
100
AcDbEntity
  8
0
100
AcDbCircle
 62
7
  6
CONTINUOUS
 10
13.5468918433
 20
7.7453338289
 40
0.275
100
AcDbArc
 50
235.0
 51
125.0
  0
ARC
  5
3EA
100
AcDbEntity
  8
0
100
AcDbCircle
 62
7
  6
CONTINUOUS
 10
13.0742678022
 20
8.1068338289
 40
0.25
100
AcDbArc
 50
227.6866293585
 51
316.9739483152
  0
ARC
  5
3EB
100
AcDbEntity
  8
0
100
AcDbCircle
 62
7
  6
CONTINUOUS
 10
13.0742678022
 20
7.3838338289
 40
0.25
100
AcDbArc
 50
43.0260516848
 51
132.3008225064
  0
ARC
  5
3EC
100
AcDbEntity
  8
0
100
AcDbCircle
 62
7
  6
CONTINUOUS
 10
12.7318918433
 20
8.5093338289
 40
0.05
100
AcDbArc
 50
270.0
 51
353.0751017558
  0
ARC
  5
3ED
100
AcDbEntity
  8
0
100
AcDbCircle
 62
7
  6
CONTINUOUS
 10
12.7518918433
 20
7.3245341759
 40
0.03
100
AcDbArc
 50
284.7630312678
 51
349.7444343804
  0
ARC
  5
3EE
100
AcDbEntity
  8
0
100
AcDbCircle
 62
7
  6
CONTINUOUS
 10
13.2978918433
 20
7.9262275572
 40
0.016
100
AcDbArc
 50
180.0
 51
305.0
  0
ARC
  5
3EF
100
AcDbEntity
  8
0
100
AcDbCircle
 62
7
  6
CONTINUOUS
 10
13.2978918433
 20
7.5644401006
 40
0.016
100
AcDbArc
 50
55.0
 51
180.0
  0
ARC
  5
3F0
100
AcDbEntity
  8
0
100
AcDbCircle
 62
7
  6
CONTINUOUS
 10
13.2687253812
 20
7.5653338289
 40
0.016
100
AcDbArc
 50
223.0260516848
 51
325.3765488982
  0
ARC
  5
3F1
100
AcDbEntity
  8
0
100
AcDbCircle
 62
7
  6
CONTINUOUS
 10
13.2687253812
 20
7.9253338289
 40
0.016
100
AcDbArc
 50
34.6234511018
 51
136.9739483152
  0
ARC
  5
3F2
100
AcDbEntity
  8
0
100
AcDbCircle
 62
7
  6
CONTINUOUS
 10
13.8864975773
 20
10.2221761636
 40
2.3355787453
100
AcDbArc
 50
183.7557792291
 51
184.5318521582
  0
ARC
  5
3F3
100
AcDbEntity
  8
0
100
AcDbCircle
 62
7
  6
CONTINUOUS
 10
13.3120415296
 20
10.1678511385
 40
2.0003420572
100
AcDbArc
 50
184.694549823
 51
185.0094091039
  0
ARC
  5
3F4
100
AcDbEntity
  8
0
100
AcDbCircle
 62
7
  6
CONTINUOUS
 10
13.4075913763
 20
10.1852304638
 40
1.8552508881
100
AcDbArc
 50
184.5630367827
 51
184.8190881743
  0
ARC
  5
3F5
100
AcDbEntity
  8
0
100
AcDbCircle
 62
7
  6
CONTINUOUS
 10
13.0532151976
 20
10.1550198506
 40
1.4995895038
100
AcDbArc
 50
184.8063750852
 51
185.8131590317
  0
ARC
  5
3F6
100
AcDbEntity
  8
0
100
AcDbCircle
 62
7
  6
CONTINUOUS
 10
13.3543533048
 20
9.329787326
 40
0.469
100
AcDbArc
 50
142.0339977482
 51
173.0751017558
  0
ARC
  5
3F7
100
AcDbEntity
  8
0
100
AcDbCircle
 62
7
  6
CONTINUOUS
 10
12.9108918433
 20
9.6758338289
 40
0.0935
100
AcDbArc
 50
322.0339977482
 51
90.0
  0
ARC
  5
3F8
100
AcDbEntity
  8
0
100
AcDbCircle
 62
7
  6
CONTINUOUS
 10
12.8324590725
 20
9.8205149313
 40
0.0511811024
100
AcDbArc
 50
270.0
 51
351.3638693749
  0
ARC
  5
3F9
100
AcDbEntity
  8
0
100
AcDbCircle
 62
7
  6
CONTINUOUS
 10
12.7578183383
 20
10.0091802698
 40
0.02
100
AcDbArc
 50
271.9382038126
 51
360.0
  0
ARC
  5
3FA
100
AcDbEntity
  8
0
100
AcDbCircle
 62
7
  6
CONTINUOUS
 10
13.7490692781
 20
10.587450371
 40
2.1977950465
100
AcDbArc
 50
175.4059255255
 51
176.2699022885
  0
ARC
  5
3FB
100
AcDbEntity
  8
0
100
AcDbCircle
 62
7
  6
CONTINUOUS
 10
12.9987649145
 20
10.6493908765
 40
1.4449410453
100
AcDbArc
 50
174.1170274992
 51
175.471163906
  0
ARC
  5
3FC
100
AcDbEntity
  8
0
100
AcDbCircle
 62
7
  6
CONTINUOUS
 10
12.931206868
 20
10.7723567144
 40
1.3574416271
100
AcDbArc
 50
182.511079459
 51
182.6294675356
  0
ARC
  5
3FD
100
AcDbEntity
  8
0
100
AcDbCircle
 62
9
  6
CONTINUOUS
 10
11.5348089586
 20
10.6973661556
 40
0.837560329
100
AcDbArc
 50
269.9297161493
 51
272.1192044212
  0
ARC
  5
3FE
100
AcDbEntity
  8
0
100
AcDbCircle
 62
7
  6
CONTINUOUS
 10
17.3678183383
 20
10.3998456399
 40
0.27
100
AcDbArc
 50
270.0
 51
90.0
  0
ARC
  5
3FF
100
AcDbEntity
  8
0
100
AcDbCircle
 62
7
  6
CONTINUOUS
 10
11.6032071952
 20
11.0028991779
 40
0.2508912515
100
AcDbArc
 50
357.0916776837
 51
1.1698379518
  0
ARC
  5
400
100
AcDbEntity
  8
0
100
AcDbCircle
 62
7
  6
CONTINUOUS
 10
11.6042182971
 20
11.0026678741
 40
0.2498709264
100
AcDbArc
 50
320.0557283165
 51
357.1328843961
  0
ARC
  5
401
100
AcDbEntity
  8
0
100
AcDbCircle
 62
7
  6
CONTINUOUS
 10
13.3563918433
 20
12.0523180809
 40
0.188
100
AcDbArc
 50
272.438854691
 51
360.0
  0
ARC
  5
402
100
AcDbEntity
  8
0
100
AcDbCircle
 62
7
  6
CONTINUOUS
 10
11.3723918433
 20
12.0523180809
 40
0.188
100
AcDbArc
 50
180.0
 51
267.561145309
  0
ARC
  5
403
100
AcDbEntity
  8
0
100
AcDbCircle
 62
7
  6
CONTINUOUS
 10
11.5523900124
 20
11.8653180809
 40
0.188
100
AcDbArc
 50
180.2528672439
 51
270.0
  0
ARC
  5
404
100
AcDbEntity
  8
0
100
AcDbCircle
 62
7
  6
CONTINUOUS
 10
13.1763936742
 20
11.8653180809
 40
0.188
100
AcDbArc
 50
270.0
 51
359.7471327561
  0
ARC
  5
405
100
AcDbEntity
  8
0
100
AcDbCircle
 62
7
  6
CONTINUOUS
 10
11.5087090818
 20
10.9278239397
 40
0.1045375013
100
AcDbArc
 50
270.2796327832
 51
272.8014396928
  0
ARC
  5
406
100
AcDbEntity
  8
0
100
AcDbCircle
 62
7
  6
CONTINUOUS
 10
11.4579270214
 20
10.9522801413
 40
0.0850085481
100
AcDbArc
 50
90.0029778977
 51
141.8413221754
  0
ARC
  5
407
100
AcDbEntity
  8
0
100
AcDbCircle
 62
7
  6
CONTINUOUS
 10
11.527884301
 20
10.9323645737
 40
0.084991187
100
AcDbArc
 50
321.8422246915
 51
0.3569257697
  0
ARC
  5
408
100
AcDbEntity
  8
0
100
AcDbCircle
 62
7
  6
CONTINUOUS
 10
11.5278683715
 20
10.9524097925
 40
0.0848324408
100
AcDbArc
 50
0.3671058399
 51
89.9844996906
  0
ARC
  5
409
100
AcDbEntity
  8
0
100
AcDbCircle
 62
9
  6
CONTINUOUS
 10
11.457268404
 20
10.9528468359
 40
0.0841401677
100
AcDbArc
 50
141.8676563709
 51
180.3797051717
  0
ARC
  5
40A
100
AcDbEntity
  8
0
100
AcDbCircle
 62
9
  6
CONTINUOUS
 10
11.4223516493
 20
10.9084049065
 40
0.0841401635
100
AcDbArc
 50
141.8676526042
 51
180.3797059207
  0
ARC
  5
40B
100
AcDbEntity
  8
0
100
AcDbCircle
 62
9
  6
CONTINUOUS
 10
11.5287205064
 20
10.9316957814
 40
0.0839182806
100
AcDbArc
 50
269.9571972473
 51
321.8485382758
  0
ARC
  5
40C
100
AcDbEntity
  8
0
100
AcDbCircle
 62
9
  6
CONTINUOUS
 10
11.4938603147
 20
10.8872174152
 40
0.0838598905
100
AcDbArc
 50
316.0385949217
 51
321.8442455739
  0
ARC
  5
40D
100
AcDbEntity
  8
0
100
AcDbCircle
 62
9
  6
CONTINUOUS
 10
11.4938659428
 20
10.8863400839
 40
0.0830394027
100
AcDbArc
 50
283.9028448552
 51
289.3355796333
  0
ARC
  5
40E
100
AcDbEntity
  8
0
100
AcDbCircle
 62
7
  6
CONTINUOUS
 10
12.8324590725
 20
10.9791763486
 40
0.0511811024
100
AcDbArc
 50
8.636130625
 51
90.0
  0
ARC
  5
40F
100
AcDbEntity
  8
0
100
AcDbCircle
 62
7
  6
CONTINUOUS
 10
11.896324614
 20
10.9791763486
 40
0.0511811024
100
AcDbArc
 50
90.0
 51
145.6957080079
  0
ARC
  5
410
100
AcDbEntity
  8
0
100
AcDbCircle
 62
7
  6
CONTINUOUS
 10
12.2628183383
 20
10.7785956399
 40
0.035
100
AcDbArc
 50
94.0960437582
 51
182.0467130977
  0
ARC
  5
411
100
AcDbEntity
  8
0
100
AcDbCircle
 62
7
  6
CONTINUOUS
 10
12.2628183383
 20
10.7785956399
 40
0.035
100
AcDbArc
 50
0.0
 51
85.9039562418
  0
ARC
  5
412
100
AcDbEntity
  8
0
100
AcDbCircle
 62
7
  6
CONTINUOUS
 10
12.7578183383
 20
10.7905110101
 40
0.02
100
AcDbArc
 50
0.0
 51
88.0617961874
  0
SPLINE
  5
413
100
AcDbEntity
  8
0
100
AcDbSpline
 62
7
  6
CONTINUOUS
 70
0
 71
3
 72
23
 73
19
 74
0
 42
0.0000001
 43
0.0000001
 44
0.0000000001
 40
0.0
 40
0.0
 40
0.0
 40
0.0
 40
0.125
 40
0.25
 40
0.375
 40
0.5
 40
0.625
 40
0.6875
 40
0.75
 40
0.8125
 40
0.84375
 40
0.875
 40
0.90625
 40
0.9375
 40
0.953125
 40
0.96875
 40
0.984375
 40
1.0
 40
1.0
 40
1.0
 40
1.0
 10
9.3643918433
 20
2.9123456399
 30
0.0
 10
9.3071065726
 20
2.9123456399
 30
0.0
 10
9.1955587614
 20
2.9156748743
 30
0.0
 10
9.0369797622
 20
2.9299571046
 30
0.0
 10
8.8859034857
 20
2.9528862353
 30
0.0
 10
8.7415462438
 20
2.9853148548
 30
0.0
 10
8.6269822144
 20
3.0216246722
 30
0.0
 10
8.5382060221
 20
3.0585708253
 30
0.0
 10
8.4731290658
 20
3.0916830379
 30
0.0
 10
8.420224885
 20
3.1250910679
 30
0.0
 10
8.3780634246
 20
3.1583335847
 30
0.0
 10
8.3476641725
 20
3.1865560752
 30
0.0
 10
8.3169408045
 20
3.2214021128
 30
0.0
 10
8.2930063543
 20
3.2573396609
 30
0.0
 10
8.2760550827
 20
3.2924652429
 30
0.0
 10
8.2652752212
 20
3.3217410604
 30
0.0
 10
8.2567311705
 20
3.3574833911
 30
0.0
 10
8.2543918433
 20
3.3855370878
 30
0.0
 10
8.2543918433
 20
3.3998456399
 30
0.0
  0
SPLINE
  5
414
100
AcDbEntity
  8
0
100
AcDbSpline
 62
7
  6
CONTINUOUS
 70
0
 71
3
 72
15
 73
11
 74
0
 42
0.0000001
 43
0.0000001
 44
0.0000000001
 40
0.0
 40
0.0
 40
0.0
 40
0.0
 40
0.0814485932
 40
0.1628971863
 40
0.2443457795
 40
0.3257943726
 40
0.4886915589
 40
0.6515887453
 40
0.9773831179
 40
1.0
 40
1.0
 40
1.0
 40
1.0
 10
8.2543918433
 20
3.3998456399
 30
0.0
 10
8.2543918433
 20
3.4141541921
 30
0.0
 10
8.2567473624
 20
3.4422708214
 30
0.0
 10
8.2652338352
 20
3.4777718497
 30
0.0
 10
8.276112887
 20
3.5073823981
 30
0.0
 10
8.2929142706
 20
3.5421710309
 30
0.0
 10
8.3170906986
 20
3.5784499985
 30
0.0
 10
8.3575527798
 20
3.6243682579
 30
0.0
 10
8.3901142943
 20
3.6515295591
 30
0.0
 10
8.4125919663
 20
3.6678509165
 30
0.0
 10
8.4140522962
 20
3.6689014179
 30
0.0
  0
SPLINE
  5
415
100
AcDbEntity
  8
0
100
AcDbSpline
 62
7
  6
CONTINUOUS
 70
0
 71
3
 72
15
 73
11
 74
0
 42
0.0000001
 43
0.0000001
 44
0.0000000001
 40
0.0
 40
0.0
 40
0.0
 40
0.0
 40
0.0230019172
 40
0.3486679448
 40
0.5115009586
 40
0.6743339724
 40
0.7557504793
 40
0.8371669862
 40
0.9185834931
 40
1.0
 40
1.0
 40
1.0
 40
1.0
 10
10.3146524015
 20
3.6689571753
 30
0.0
 10
10.3161365866
 20
3.667890139
 30
0.0
 10
10.3386122551
 20
3.6515771757
 30
0.0
 10
10.3710856166
 20
3.6244872727
 30
0.0
 10
10.4117995373
 20
3.578359467
 30
0.0
 10
10.4357942065
 20
3.5422382678
 30
0.0
 10
10.4527170727
 20
3.5073378611
 30
0.0
 10
10.463523795
 20
3.4777918741
 30
0.0
 10
10.4720552045
 20
3.4422558793
 30
0.0
 10
10.4743918433
 20
3.4141541921
 30
0.0
 10
10.4743918433
 20
3.3998456399
 30
0.0
  0
SPLINE
  5
416
100
AcDbEntity
  8
0
100
AcDbSpline
 62
7
  6
CONTINUOUS
 70
0
 71
3
 72
21
 73
17
 74
0
 42
0.0000001
 43
0.0000001
 44
0.0000000001
 40
0.0
 40
0.0
 40
0.0
 40
0.0
 40
0.015625
 40
0.03125
 40
0.0625
 40
0.09375
 40
0.125
 40
0.1875
 40
0.25
 40
0.3125
 40
0.375
 40
0.5
 40
0.625
 40
0.75
 40
0.875
 40
1.0
 40
1.0
 40
1.0
 40
1.0
 10
10.4743918433
 20
3.3998456399
 30
0.0
 10
10.4743918433
 20
3.3855370878
 30
0.0
 10
10.4720410903
 20
3.3573786799
 30
0.0
 10
10.4607031978
 20
3.3101859635
 30
0.0
 10
10.4406344116
 20
3.2648990352
 30
0.0
 10
10.4117585025
 20
3.2212309159
 30
0.0
 10
10.3711093311
 20
3.1752622799
 30
0.0
 10
10.3193889391
 20
3.1320645628
 30
0.0
 10
10.2555943403
 20
3.0916171518
 30
0.0
 10
10.190569485
 20
3.0585424805
 30
0.0
 10
10.1018059975
 20
3.0216410233
 30
0.0
 10
9.9872376117
 20
2.9853094184
 30
0.0
 10
9.8428741286
 20
2.9528872722
 30
0.0
 10
9.6918280443
 20
2.9299583933
 30
0.0
 10
9.5331345176
 20
2.9156686827
 30
0.0
 10
9.4216771139
 20
2.9123456399
 30
0.0
 10
9.3643918433
 20
2.9123456399
 30
0.0
  0
SPLINE
  5
417
100
AcDbEntity
  8
0
100
AcDbSpline
 62
7
  6
CONTINUOUS
 70
0
 71
3
 72
9
 73
5
 74
0
 42
0.0000001
 43
0.0000001
 44
0.0000000001
 40
0.0
 40
0.0
 40
0.0
 40
0.0
 40
0.4241666923
 40
1.0
 40
1.0
 40
1.0
 40
1.0
 10
7.1605149733
 20
10.8467827711
 30
0.0
 10
7.1612153889
 20
10.8433709052
 30
0.0
 10
7.1626483202
 20
10.8352826939
 30
0.0
 10
7.1638124658
 20
10.827153244
 30
0.0
 10
7.1644348164
 20
10.8224659615
 30
0.0
  0
SPLINE
  5
418
100
AcDbEntity
  8
0
100
AcDbSpline
 62
7
  6
CONTINUOUS
 70
0
 71
3
 72
9
 73
5
 74
0
 42
0.0000001
 43
0.0000001
 44
0.0000000001
 40
0.0
 40
0.0
 40
0.0
 40
0.0
 40
0.4496855754
 40
1.0
 40
1.0
 40
1.0
 40
1.0
 10
7.1644348164
 20
10.8224659615
 30
0.0
 10
7.1656181236
 20
10.8135537904
 30
0.0
 10
7.1678581576
 20
10.7936834164
 30
0.0
 10
7.1696235744
 20
10.7737677011
 30
0.0
 10
7.1705032893
 20
10.762800711
 30
0.0
  0
SPLINE
  5
419
100
AcDbEntity
  8
0
100
AcDbSpline
 62
7
  6
CONTINUOUS
 70
0
 71
3
 72
11
 73
7
 74
0
 42
0.0000001
 43
0.0000001
 44
0.0000000001
 40
0.0
 40
0.0
 40
0.0
 40
0.0
 40
0.3304660854
 40
0.6123922479
 40
0.8391088609
 40
1.0
 40
1.0
 40
1.0
 40
1.0
 10
7.1705032719
 20
10.0368903273
 30
0.0
 10
7.1697580699
 20
10.0276005451
 30
0.0
 10
7.1682550361
 20
10.0103948338
 30
0.0
 10
7.1657381942
 20
9.9868627636
 30
0.0
 10
7.1632560979
 20
9.9681430011
 30
0.0
 10
7.1614284685
 20
9.9573604398
 30
0.0
 10
7.1605165243
 20
9.9529156645
 30
0.0
  0
SPLINE
  5
41A
100
AcDbEntity
  8
0
100
AcDbSpline
 62
7
  6
CONTINUOUS
 70
0
 71
3
 72
9
 73
5
 74
0
 42
0.0000001
 43
0.0000001
 44
0.0000000001
 40
0.0
 40
0.0
 40
0.0
 40
0.0
 40
0.5363075334
 40
1.0
 40
1.0
 40
1.0
 40
1.0
 10
7.3726162859
 20
10.960360352
 30
0.0
 10
7.3753411911
 20
10.9568921005
 30
0.0
 10
7.3799786761
 20
10.950063165
 30
0.0
 10
7.3837455966
 20
10.9427365068
 30
0.0
 10
7.3853388231
 20
10.9392718123
 30
0.0
  0
SPLINE
  5
41B
100
AcDbEntity
  8
0
100
AcDbSpline
 62
7
  6
CONTINUOUS
 70
0
 71
3
 72
10
 73
6
 74
0
 42
0.0000001
 43
0.0000001
 44
0.0000000001
 40
0.0
 40
0.0
 40
0.0
 40
0.0
 40
0.2775593628
 40
0.5228429684
 40
1.0
 40
1.0
 40
1.0
 40
1.0
 10
7.3853388231
 20
10.9392718123
 30
0.0
 10
7.3869050613
 20
10.9358658078
 30
0.0
 10
7.3895789895
 20
10.92931606
 30
0.0
 10
7.3935816965
 20
10.9164084565
 30
0.0
 10
7.3958649529
 20
10.9069107691
 30
0.0
 10
7.3971801328
 20
10.9006016576
 30
0.0
  0
SPLINE
  5
41C
100
AcDbEntity
  8
0
100
AcDbSpline
 62
7
  6
CONTINUOUS
 70
0
 71
3
 72
9
 73
5
 74
0
 42
0.0000001
 43
0.0000001
 44
0.0000000001
 40
0.0
 40
0.0
 40
0.0
 40
0.0
 40
0.239417757
 40
1.0
 40
1.0
 40
1.0
 40
1.0
 10
7.3971801328
 20
10.9006016576
 30
0.0
 10
7.3975691989
 20
10.8987352499
 30
0.0
 10
7.3991276566
 20
10.8909257241
 30
0.0
 10
7.4004433176
 20
10.8830692637
 30
0.0
 10
7.4013606972
 20
10.8770824844
 30
0.0
  0
SPLINE
  5
41D
100
AcDbEntity
  8
0
100
AcDbSpline
 62
7
  6
CONTINUOUS
 70
0
 71
3
 72
9
 73
5
 74
0
 42
0.0000001
 43
0.0000001
 44
0.0000000001
 40
0.0
 40
0.0
 40
0.0
 40
0.0
 40
0.2358224495
 40
1.0
 40
1.0
 40
1.0
 40
1.0
 10
7.4013606972
 20
10.8770824844
 30
0.0
 10
7.4017203885
 20
10.8747351551
 30
0.0
 10
7.4031905199
 20
10.8647729097
 30
0.0
 10
7.4044583616
 20
10.854781464
 30
0.0
 10
7.4053484743
 20
10.8471378628
 30
0.0
  0
SPLINE
  5
41E
100
AcDbEntity
  8
0
100
AcDbSpline
 62
7
  6
CONTINUOUS
 70
0
 71
3
 72
9
 73
5
 74
0
 42
0.0000001
 43
0.0000001
 44
0.0000000001
 40
0.0
 40
0.0
 40
0.0
 40
0.0
 40
0.2368929458
 40
1.0
 40
1.0
 40
1.0
 40
1.0
 10
7.4053484743
 20
10.8471378628
 30
0.0
 10
7.4056712748
 20
10.8443659012
 30
0.0
 10
7.4069892141
 20
10.832659374
 30
0.0
 10
7.4081424231
 20
10.8209346297
 30
0.0
 10
7.4089551821
 20
10.8119817395
 30
0.0
  0
SPLINE
  5
41F
100
AcDbEntity
  8
0
100
AcDbSpline
 62
7
  6
CONTINUOUS
 70
0
 71
3
 72
9
 73
5
 74
0
 42
0.0000001
 43
0.0000001
 44
0.0000000001
 40
0.0
 40
0.0
 40
0.0
 40
0.0
 40
0.2625671162
 40
1.0
 40
1.0
 40
1.0
 40
1.0
 10
7.4089452836
 20
9.9875999294
 30
0.0
 10
7.4086755713
 20
9.9846309594
 30
0.0
 10
7.4076194542
 20
9.9733261725
 30
0.0
 10
7.4064427463
 20
9.9620323512
 30
0.0
 10
7.40548303
 20
9.9537146984
 30
0.0
  0
SPLINE
  5
420
100
AcDbEntity
  8
0
100
AcDbSpline
 62
7
  6
CONTINUOUS
 70
0
 71
3
 72
9
 73
5
 74
0
 42
0.0000001
 43
0.0000001
 44
0.0000000001
 40
0.0
 40
0.0
 40
0.0
 40
0.0
 40
0.2646100381
 40
1.0
 40
1.0
 40
1.0
 40
1.0
 10
7.40548303
 20
9.9537146984
 30
0.0
 10
7.4051723003
 20
9.9510216711
 30
0.0
 10
7.4039608196
 20
9.9408487468
 30
0.0
 10
7.4025916234
 20
9.9306938924
 30
0.0
 10
7.4014581581
 20
9.9232456717
 30
0.0
  0
SPLINE
  5
421
100
AcDbEntity
  8
0
100
AcDbSpline
 62
7
  6
CONTINUOUS
 70
0
 71
3
 72
9
 73
5
 74
0
 42
0.0000001
 43
0.0000001
 44
0.0000000001
 40
0.0
 40
0.0
 40
0.0
 40
0.0
 40
0.2618495167
 40
1.0
 40
1.0
 40
1.0
 40
1.0
 10
7.4014581581
 20
9.9232456717
 30
0.0
 10
7.4011401791
 20
9.9211561694
 30
0.0
 10
7.3998871516
 20
9.9131825193
 30
0.0
 10
7.3984551565
 20
9.9052354688
 30
0.0
 10
7.3972447873
 20
9.8994016101
 30
0.0
  0
SPLINE
  5
422
100
AcDbEntity
  8
0
100
AcDbSpline
 62
7
  6
CONTINUOUS
 70
0
 71
3
 72
10
 73
6
 74
0
 42
0.0000001
 43
0.0000001
 44
0.0000000001
 40
0.0
 40
0.0
 40
0.0
 40
0.0
 40
0.4774937056
 40
0.7226387977
 40
1.0
 40
1.0
 40
1.0
 40
1.0
 10
7.3972447873
 20
9.8994016101
 30
0.0
 10
7.3959262
 20
9.8930461505
 30
0.0
 10
7.3936372249
 20
9.8834823942
 30
0.0
 10
7.3896211305
 20
9.8704878106
 30
0.0
 10
7.3869361156
 20
9.8638982532
 30
0.0
 10
7.3853627438
 20
9.8604719276
 30
0.0
  0
SPLINE
  5
423
100
AcDbEntity
  8
0
100
AcDbSpline
 62
7
  6
CONTINUOUS
 70
0
 71
3
 72
9
 73
5
 74
0
 42
0.0000001
 43
0.0000001
 44
0.0000000001
 40
0.0
 40
0.0
 40
0.0
 40
0.0
 40
0.4634791078
 40
1.0
 40
1.0
 40
1.0
 40
1.0
 10
7.3853627438
 20
9.8604719276
 30
0.0
 10
7.3837683812
 20
9.8569998905
 30
0.0
 10
7.3799965135
 20
9.8496540644
 30
0.0
 10
7.3753486408
 20
9.8428086613
 30
0.0
 10
7.3726162859
 20
9.8393309279
 30
0.0
  0
SPLINE
  5
424
100
AcDbEntity
  8
0
100
AcDbSpline
 62
7
  6
CONTINUOUS
 70
0
 71
3
 72
9
 73
5
 74
0
 42
0.0000001
 43
0.0000001
 44
0.0000000001
 40
0.0
 40
0.0
 40
0.0
 40
0.0
 40
0.5363075334
 40
1.0
 40
1.0
 40
1.0
 40
1.0
 10
11.3561674006
 20
10.960360352
 30
0.0
 10
11.3534424954
 20
10.9568921005
 30
0.0
 10
11.3488050105
 20
10.950063165
 30
0.0
 10
11.34503809
 20
10.9427365068
 30
0.0
 10
11.3434448634
 20
10.9392718123
 30
0.0
  0
SPLINE
  5
425
100
AcDbEntity
  8
0
100
AcDbSpline
 62
7
  6
CONTINUOUS
 70
0
 71
3
 72
10
 73
6
 74
0
 42
0.0000001
 43
0.0000001
 44
0.0000000001
 40
0.0
 40
0.0
 40
0.0
 40
0.0
 40
0.2775593628
 40
0.5228429684
 40
1.0
 40
1.0
 40
1.0
 40
1.0
 10
11.3434448634
 20
10.9392718123
 30
0.0
 10
11.3418786252
 20
10.9358658078
 30
0.0
 10
11.3392046971
 20
10.92931606
 30
0.0
 10
11.33520199
 20
10.9164084565
 30
0.0
 10
11.3329187336
 20
10.9069107691
 30
0.0
 10
11.3316035538
 20
10.9006016576
 30
0.0
  0
SPLINE
  5
426
100
AcDbEntity
  8
0
100
AcDbSpline
 62
7
  6
CONTINUOUS
 70
0
 71
3
 72
9
 73
5
 74
0
 42
0.0000001
 43
0.0000001
 44
0.0000000001
 40
0.0
 40
0.0
 40
0.0
 40
0.0
 40
0.239417757
 40
1.0
 40
1.0
 40
1.0
 40
1.0
 10
11.3316035538
 20
10.9006016576
 30
0.0
 10
11.3312144876
 20
10.8987352499
 30
0.0
 10
11.32965603
 20
10.8909257241
 30
0.0
 10
11.328340369
 20
10.8830692637
 30
0.0
 10
11.3274229893
 20
10.8770824844
 30
0.0
  0
SPLINE
  5
427
100
AcDbEntity
  8
0
100
AcDbSpline
 62
7
  6
CONTINUOUS
 70
0
 71
3
 72
9
 73
5
 74
0
 42
0.0000001
 43
0.0000001
 44
0.0000000001
 40
0.0
 40
0.0
 40
0.0
 40
0.0
 40
0.2358224495
 40
1.0
 40
1.0
 40
1.0
 40
1.0
 10
11.3274229893
 20
10.8770824844
 30
0.0
 10
11.3270632981
 20
10.8747351551
 30
0.0
 10
11.3255931667
 20
10.8647729097
 30
0.0
 10
11.3243253249
 20
10.854781464
 30
0.0
 10
11.3234352122
 20
10.8471378628
 30
0.0
  0
SPLINE
  5
428
100
AcDbEntity
  8
0
100
AcDbSpline
 62
7
  6
CONTINUOUS
 70
0
 71
3
 72
9
 73
5
 74
0
 42
0.0000001
 43
0.0000001
 44
0.0000000001
 40
0.0
 40
0.0
 40
0.0
 40
0.0
 40
0.2319119361
 40
1.0
 40
1.0
 40
1.0
 40
1.0
 10
11.3234352122
 20
10.8471378628
 30
0.0
 10
11.3229723525
 20
10.8431631804
 30
0.0
 10
11.3210705561
 20
10.8260134706
 30
0.0
 10
11.3195009701
 20
10.8088280691
 30
0.0
 10
11.3184155278
 20
10.79561956
 30
0.0
  0
SPLINE
  5
429
100
AcDbEntity
  8
0
100
AcDbSpline
 62
7
  6
CONTINUOUS
 70
0
 71
3
 72
9
 73
5
 74
0
 42
0.0000001
 43
0.0000001
 44
0.0000000001
 40
0.0
 40
0.0
 40
0.0
 40
0.0
 40
0.2643297959
 40
1.0
 40
1.0
 40
1.0
 40
1.0
 10
11.3193400351
 20
9.9931825973
 30
0.0
 10
11.3196454866
 20
9.989700933
 30
0.0
 10
11.3208381108
 20
9.9765326095
 30
0.0
 10
11.322185697
 20
9.9633778107
 30
0.0
 10
11.3233006565
 20
9.9537146984
 30
0.0
  0
SPLINE
  5
42A
100
AcDbEntity
  8
0
100
AcDbSpline
 62
7
  6
CONTINUOUS
 70
0
 71
3
 72
9
 73
5
 74
0
 42
0.0000001
 43
0.0000001
 44
0.0000000001
 40
0.0
 40
0.0
 40
0.0
 40
0.0
 40
0.2646100381
 40
1.0
 40
1.0
 40
1.0
 40
1.0
 10
11.3233006565
 20
9.9537146984
 30
0.0
 10
11.3236113863
 20
9.9510216711
 30
0.0
 10
11.324822867
 20
9.9408487468
 30
0.0
 10
11.3261920631
 20
9.9306938924
 30
0.0
 10
11.3273255284
 20
9.9232456717
 30
0.0
  0
SPLINE
  5
42B
100
AcDbEntity
  8
0
100
AcDbSpline
 62
7
  6
CONTINUOUS
 70
0
 71
3
 72
9
 73
5
 74
0
 42
0.0000001
 43
0.0000001
 44
0.0000000001
 40
0.0
 40
0.0
 40
0.0
 40
0.0
 40
0.2618495167
 40
1.0
 40
1.0
 40
1.0
 40
1.0
 10
11.3273255284
 20
9.9232456717
 30
0.0
 10
11.3276435075
 20
9.9211561694
 30
0.0
 10
11.3288965349
 20
9.9131825193
 30
0.0
 10
11.33032853
 20
9.9052354688
 30
0.0
 10
11.3315388992
 20
9.8994016101
 30
0.0
  0
SPLINE
  5
42C
100
AcDbEntity
  8
0
100
AcDbSpline
 62
7
  6
CONTINUOUS
 70
0
 71
3
 72
10
 73
6
 74
0
 42
0.0000001
 43
0.0000001
 44
0.0000000001
 40
0.0
 40
0.0
 40
0.0
 40
0.0
 40
0.4774937056
 40
0.7226387977
 40
1.0
 40
1.0
 40
1.0
 40
1.0
 10
11.3315388992
 20
9.8994016101
 30
0.0
 10
11.3328574866
 20
9.8930461505
 30
0.0
 10
11.3351464616
 20
9.8834823942
 30
0.0
 10
11.339162556
 20
9.8704878106
 30
0.0
 10
11.3418475709
 20
9.8638982532
 30
0.0
 10
11.3434209427
 20
9.8604719276
 30
0.0
  0
SPLINE
  5
42D
100
AcDbEntity
  8
0
100
AcDbSpline
 62
7
  6
CONTINUOUS
 70
0
 71
3
 72
9
 73
5
 74
0
 42
0.0000001
 43
0.0000001
 44
0.0000000001
 40
0.0
 40
0.0
 40
0.0
 40
0.0
 40
0.4634791078
 40
1.0
 40
1.0
 40
1.0
 40
1.0
 10
11.3434209427
 20
9.8604719276
 30
0.0
 10
11.3450153054
 20
9.8569998905
 30
0.0
 10
11.3487871731
 20
9.8496540644
 30
0.0
 10
11.3534350457
 20
9.8428086613
 30
0.0
 10
11.3561674006
 20
9.8393309279
 30
0.0
  0
SPLINE
  5
42E
100
AcDbEntity
  8
0
100
AcDbSpline
 62
7
  6
CONTINUOUS
 70
0
 71
3
 72
9
 73
5
 74
0
 42
0.0000001
 43
0.0000001
 44
0.0000000001
 40
0.0
 40
0.0
 40
0.0
 40
0.0
 40
0.4241666923
 40
1.0
 40
1.0
 40
1.0
 40
1.0
 10
11.5682687132
 20
10.8467827711
 30
0.0
 10
11.5675682977
 20
10.8433709052
 30
0.0
 10
11.5661353663
 20
10.8352826939
 30
0.0
 10
11.5649712208
 20
10.827153244
 30
0.0
 10
11.5643488701
 20
10.8224659615
 30
0.0
  0
LINE
  5
42F
100
AcDbEntity
  8
0
100
AcDbLine
 62
7
  6
CONTINUOUS
 10
11.5643488701
 20
10.8224659615
 11
11.5614339089
 21
10.7974928841
  0
SPLINE
  5
430
100
AcDbEntity
  8
0
100
AcDbSpline
 62
7
  6
CONTINUOUS
 70
0
 71
3
 72
10
 73
6
 74
0
 42
0.0000001
 43
0.0000001
 44
0.0000000001
 40
0.0
 40
0.0
 40
0.0
 40
0.0
 40
0.5982331402
 40
0.8271197298
 40
1.0
 40
1.0
 40
1.0
 40
1.0
 10
11.5613373731
 20
10.0031342468
 30
0.0
 10
11.5623712068
 20
9.9930750943
 30
0.0
 10
11.5639608765
 20
9.9791801441
 30
0.0
 10
11.5664668283
 20
9.9624620895
 30
0.0
 10
11.5676798316
 20
9.955778288
 30
0.0
 10
11.5682671623
 20
9.9529156645
 30
0.0
  0
SPLINE
  5
431
100
AcDbEntity
  8
0
100
AcDbSpline
 62
7
  6
CONTINUOUS
 70
0
 71
3
 72
21
 73
17
 74
0
 42
0.0000001
 43
0.0000001
 44
0.0000000001
 40
0.0
 40
0.0
 40
0.0
 40
0.0
 40
0.0010820834
 40
0.0043163172
 40
0.0096845686
 40
0.0171687191
 40
0.0384123125
 40
0.0679024548
 40
0.1054947499
 40
0.1510450598
 40
0.2044095143
 40
0.2654432205
 40
0.4096542915
 40
0.5815848325
 40
0.7790757669
 40
1.0
 40
1.0
 40
1.0
 40
1.0
 10
12.9218918378
 20
7.9503338289
 30
0.0
 10
12.9219023975
 20
7.9503448559
 30
0.0
 10
12.9218263699
 20
7.9502340069
 30
0.0
 10
12.9217993709
 20
7.9501730718
 30
0.0
 10
12.9216590258
 20
7.9499462513
 30
0.0
 10
12.9214282435
 20
7.9495516728
 30
0.0
 10
12.9210001122
 20
7.9488299874
 30
0.0
 10
12.9203753696
 20
7.9477614327
 30
0.0
 10
12.9195743945
 20
7.94638509
 30
0.0
 10
12.9186120429
 20
7.944718042
 30
0.0
 10
12.9174897542
 20
7.9427596392
 30
0.0
 10
12.9156858181
 20
7.9395881027
 30
0.0
 10
12.9130830655
 20
7.9349460602
 30
0.0
 10
12.9096119004
 20
7.9285841802
 30
0.0
 10
12.9057241113
 20
7.9212173626
 30
0.0
 10
12.903052143
 20
7.915952651
 30
0.0
 10
12.9016650818
 20
7.9131611451
 30
0.0
  0
SPLINE
  5
432
100
AcDbEntity
  8
0
100
AcDbSpline
 62
7
  6
CONTINUOUS
 70
0
 71
3
 72
9
 73
5
 74
0
 42
0.0000001
 43
0.0000001
 44
0.0000000001
 40
0.0
 40
0.0
 40
0.0
 40
0.0
 40
0.2229567899
 40
1.0
 40
1.0
 40
1.0
 40
1.0
 10
12.9016650818
 20
7.9131611451
 30
0.0
 10
12.9000335998
 20
7.909877734
 30
0.0
 10
12.8928639283
 20
7.8950788618
 30
0.0
 10
12.8864163124
 20
7.8799231965
 30
0.0
 10
12.8819376627
 20
7.8679557217
 30
0.0
  0
SPLINE
  5
433
100
AcDbEntity
  8
0
100
AcDbSpline
 62
7
  6
CONTINUOUS
 70
0
 71
3
 72
9
 73
5
 74
0
 42
0.0000001
 43
0.0000001
 44
0.0000000001
 40
0.0
 40
0.0
 40
0.0
 40
0.0
 40
0.2353894454
 40
1.0
 40
1.0
 40
1.0
 40
1.0
 10
12.8819376627
 20
7.8679557217
 30
0.0
 10
12.8802335344
 20
7.863402092
 30
0.0
 10
12.8733182706
 20
7.8439396565
 30
0.0
 10
12.8678851969
 20
7.823929508
 30
0.0
 10
12.864836336
 20
7.8084332734
 30
0.0
  0
SPLINE
  5
434
100
AcDbEntity
  8
0
100
AcDbSpline
 62
7
  6
CONTINUOUS
 70
0
 71
3
 72
9
 73
5
 74
0
 42
0.0000001
 43
0.0000001
 44
0.0000000001
 40
0.0
 40
0.0
 40
0.0
 40
0.0
 40
0.4949527739
 40
1.0
 40
1.0
 40
1.0
 40
1.0
 10
12.864836336
 20
7.8084332734
 30
0.0
 10
12.8628143706
 20
7.7981563697
 30
0.0
 10
12.8596928334
 20
7.7771934
 30
0.0
 10
12.8585578073
 20
7.7560213667
 30
0.0
 10
12.8585578073
 20
7.7453338289
 30
0.0
  0
SPLINE
  5
435
100
AcDbEntity
  8
0
100
AcDbSpline
 62
7
  6
CONTINUOUS
 70
0
 71
3
 72
9
 73
5
 74
0
 42
0.0000001
 43
0.0000001
 44
0.0000000001
 40
0.0
 40
0.0
 40
0.0
 40
0.0
 40
0.5043086782
 40
1.0
 40
1.0
 40
1.0
 40
1.0
 10
12.8585578073
 20
7.7453338289
 30
0.0
 10
12.8585578073
 20
7.7354693541
 30
0.0
 10
12.8595176432
 20
7.7159002995
 30
0.0
 10
12.8621918409
 20
7.6964966527
 30
0.0
 10
12.863932422
 20
7.686958248
 30
0.0
  0
SPLINE
  5
436
100
AcDbEntity
  8
0
100
AcDbSpline
 62
7
  6
CONTINUOUS
 70
0
 71
3
 72
9
 73
5
 74
0
 42
0.0000001
 43
0.0000001
 44
0.0000000001
 40
0.0
 40
0.0
 40
0.0
 40
0.0
 40
0.5487119459
 40
1.0
 40
1.0
 40
1.0
 40
1.0
 10
12.863932422
 20
7.686958248
 30
0.0
 10
12.8676179509
 20
7.6667615056
 30
0.0
 10
12.8777657913
 20
7.6305301787
 30
0.0
 10
12.8925722564
 20
7.5961007074
 30
0.0
 10
12.8999799588
 20
7.5809272826
 30
0.0
  0
SPLINE
  5
437
100
AcDbEntity
  8
0
100
AcDbSpline
 62
7
  6
CONTINUOUS
 70
0
 71
3
 72
23
 73
19
 74
0
 42
0.0000001
 43
0.0000001
 44
0.0000000001
 40
0.0
 40
0.0
 40
0.0
 40
0.0
 40
0.2249613829
 40
0.4242197367
 40
0.5960685409
 40
0.6711943279
 40
0.7389210143
 40
0.7991292103
 40
0.8516993282
 40
0.8965115885
 40
0.9334460252
 40
0.9623824914
 40
0.9738138938
 40
0.9832006688
 40
0.9905277492
 40
0.9957800579
 40
0.9989425074
 40
1.0
 40
1.0
 40
1.0
 40
1.0
 10
12.9081386627
 20
7.564890498
 30
0.0
 10
12.9091262698
 20
7.5630250505
 30
0.0
 10
12.9110086008
 20
7.5595178166
 30
0.0
 10
12.9137044869
 20
7.5546176271
 30
0.0
 10
12.9157539387
 20
7.5509665992
 30
0.0
 10
12.9172110453
 20
7.5483984055
 30
0.0
 10
12.9181558882
 20
7.5467439328
 30
0.0
 10
12.9189998903
 20
7.5452755656
 30
0.0
 10
12.9197401801
 20
7.5439956613
 30
0.0
 10
12.9203742803
 20
7.542906362
 30
0.0
 10
12.9208985928
 20
7.5420104458
 30
0.0
 10
12.9212677562
 20
7.5413849075
 30
0.0
 10
12.9215039142
 20
7.5409840671
 30
0.0
 10
12.9216420926
 20
7.5407550593
 30
0.0
 10
12.9217387181
 20
7.5405829326
 30
0.0
 10
12.9218344083
 20
7.5404448009
 30
0.0
 10
12.9218448581
 20
7.5403884519
 30
0.0
 10
12.9219017654
 20
7.5403338289
 30
0.0
 10
12.9218918433
 20
7.5403338289
 30
0.0
  0
SPLINE
  5
438
100
AcDbEntity
  8
0
100
AcDbSpline
 62
7
  6
CONTINUOUS
 70
0
 71
3
 72
26
 73
22
 74
0
 42
0.0000001
 43
0.0000001
 44
0.0000000001
 40
0.0
 40
0.0
 40
0.0
 40
0.0
 40
0.0002705417
 40
0.0010806612
 40
0.0024281389
 40
0.004310756
 40
0.0096725378
 40
0.0171482747
 40
0.0267202488
 40
0.0383707569
 40
0.0520821103
 40
0.0678366354
 40
0.1054045718
 40
0.1509334955
 40
0.2042825845
 40
0.2653091133
 40
0.3338101537
 40
0.4095165704
 40
0.5814615039
 40
0.7789952293
 40
1.0
 40
1.0
 40
1.0
 40
1.0
 10
11.8068918185
 20
7.5403338289
 30
0.0
 10
11.8068956134
 20
7.5403338289
 30
0.0
 10
11.8068989241
 20
7.5403547458
 30
0.0
 10
11.8069207325
 20
7.5403763424
 30
0.0
 10
11.8069473583
 20
7.5404293022
 30
0.0
 10
11.8070105744
 20
7.540530192
 30
0.0
 10
11.8071150373
 20
7.5407095818
 30
0.0
 10
11.8072758756
 20
7.540979032
 30
0.0
 10
11.8074804598
 20
7.5413259516
 30
0.0
 10
11.8077291887
 20
7.5417480536
 30
0.0
 10
11.8080210756
 20
7.5422454965
 30
0.0
 10
11.8084957637
 20
7.5430571344
 30
0.0
 10
11.8091928253
 20
7.5442557571
 30
0.0
 10
11.8101498588
 20
7.5459131917
 30
0.0
 10
11.811265204
 20
7.5478591696
 30
0.0
 10
11.8125337768
 20
7.550088708
 30
0.0
 10
11.8139479378
 20
7.5525962029
 30
0.0
 10
11.8161073732
 20
7.5564695278
 30
0.0
 10
11.8190996141
 20
7.5619506492
 30
0.0
 10
11.8229676359
 20
7.5692748679
 30
0.0
 10
11.8256270194
 20
7.5745091056
 30
0.0
 10
11.8270078843
 20
7.5772845545
 30
0.0
  0
SPLINE
  5
439
100
AcDbEntity
  8
0
100
AcDbSpline
 62
7
  6
CONTINUOUS
 70
0
 71
3
 72
9
 73
5
 74
0
 42
0.0000001
 43
0.0000001
 44
0.0000000001
 40
0.0
 40
0.0
 40
0.0
 40
0.0
 40
0.222620832
 40
1.0
 40
1.0
 40
1.0
 40
1.0
 10
11.8270078843
 20
7.5772845545
 30
0.0
 10
11.8286570959
 20
7.5805993627
 30
0.0
 10
11.8359149184
 20
7.5955627939
 30
0.0
 10
11.8424347561
 20
7.6108915477
 30
0.0
 10
11.8469572877
 20
7.6230033454
 30
0.0
  0
SPLINE
  5
43A
100
AcDbEntity
  8
0
100
AcDbSpline
 62
7
  6
CONTINUOUS
 70
0
 71
3
 72
9
 73
5
 74
0
 42
0.0000001
 43
0.0000001
 44
0.0000000001
 40
0.0
 40
0.0
 40
0.0
 40
0.0
 40
0.2354114731
 40
1.0
 40
1.0
 40
1.0
 40
1.0
 10
11.8469572877
 20
7.6230033454
 30
0.0
 10
11.8486690038
 20
7.6275874945
 30
0.0
 10
11.8556106343
 20
7.6471793384
 30
0.0
 10
11.8610486449
 20
7.6673254412
 30
0.0
 10
11.8640851216
 20
7.6829255322
 30
0.0
  0
SPLINE
  5
43B
100
AcDbEntity
  8
0
100
AcDbSpline
 62
7
  6
CONTINUOUS
 70
0
 71
3
 72
9
 73
5
 74
0
 42
0.0000001
 43
0.0000001
 44
0.0000000001
 40
0.0
 40
0.0
 40
0.0
 40
0.0
 40
0.4950668169
 40
1.0
 40
1.0
 40
1.0
 40
1.0
 10
11.8640851216
 20
7.6829255322
 30
0.0
 10
11.8660645368
 20
7.6930949028
 30
0.0
 10
11.8691179515
 20
7.7138299385
 30
0.0
 10
11.8702258792
 20
7.7347671351
 30
0.0
 10
11.8702258792
 20
7.7453338289
 30
0.0
  0
SPLINE
  5
43C
100
AcDbEntity
  8
0
100
AcDbSpline
 62
7
  6
CONTINUOUS
 70
0
 71
3
 72
9
 73
5
 74
0
 42
0.0000001
 43
0.0000001
 44
0.0000000001
 40
0.0
 40
0.0
 40
0.0
 40
0.0
 40
0.5044122093
 40
1.0
 40
1.0
 40
1.0
 40
1.0
 10
11.8702258792
 20
7.7453338289
 30
0.0
 10
11.8702258792
 20
7.7553146313
 30
0.0
 10
11.8692419912
 20
7.7751105517
 30
0.0
 10
11.8665059706
 20
7.7947352232
 30
0.0
 10
11.8647263776
 20
7.8043785878
 30
0.0
  0
SPLINE
  5
43D
100
AcDbEntity
  8
0
100
AcDbSpline
 62
7
  6
CONTINUOUS
 70
0
 71
3
 72
9
 73
5
 74
0
 42
0.0000001
 43
0.0000001
 44
0.0000000001
 40
0.0
 40
0.0
 40
0.0
 40
0.0
 40
0.5483668059
 40
1.0
 40
1.0
 40
1.0
 40
1.0
 10
11.8647263776
 20
7.8043785878
 30
0.0
 10
11.8610346282
 20
7.8243836591
 30
0.0
 10
11.8509349538
 20
7.860291505
 30
0.0
 10
11.8362660482
 20
7.8944321061
 30
0.0
 10
11.8289247383
 20
7.9094923928
 30
0.0
  0
SPLINE
  5
43E
100
AcDbEntity
  8
0
100
AcDbSpline
 62
7
  6
CONTINUOUS
 70
0
 71
3
 72
18
 73
14
 74
0
 42
0.0000001
 43
0.0000001
 44
0.0000000001
 40
0.0
 40
0.0
 40
0.0
 40
0.0
 40
0.2249326146
 40
0.4241623604
 40
0.5959816117
 40
0.7388245782
 40
0.8516217575
 40
0.8964494822
 40
0.9334008764
 40
0.9623539172
 40
0.9831864002
 40
0.9957759449
 40
1.0
 40
1.0
 40
1.0
 40
1.0
 10
11.8206445732
 20
7.9257795483
 30
0.0
 10
11.8196571645
 20
7.9276446019
 30
0.0
 10
11.8177752125
 20
7.931151064
 30
0.0
 10
11.8150798756
 20
7.9360501025
 30
0.0
 10
11.8127201488
 20
7.9402545353
 30
0.0
 10
11.8107367978
 20
7.9437401557
 30
0.0
 10
11.8093296297
 20
7.9461829068
 30
0.0
 10
11.8084104349
 20
7.9477599755
 30
0.0
 10
11.8078868714
 20
7.9486575628
 30
0.0
 10
11.8074696772
 20
7.9493555576
 30
0.0
 10
11.8071804694
 20
7.9498659905
 30
0.0
 10
11.8069833408
 20
7.9501569302
 30
0.0
 10
11.8069192274
 20
7.9503052063
 30
0.0
 10
11.806891818
 20
7.9503338289
 30
0.0
  0
SPLINE
  5
43F
100
AcDbEntity
  8
0
100
AcDbSpline
 62
7
  6
CONTINUOUS
 70
0
 71
3
 72
21
 73
17
 74
0
 42
0.0000001
 43
0.0000001
 44
0.0000000001
 40
0.0
 40
0.0
 40
0.0
 40
0.0
 40
0.0010820834
 40
0.0043163172
 40
0.0096845686
 40
0.0171687192
 40
0.0384123125
 40
0.0679024548
 40
0.1054947499
 40
0.1510450598
 40
0.2044095143
 40
0.2654432205
 40
0.4096542915
 40
0.5815848325
 40
0.7790757669
 40
1.0
 40
1.0
 40
1.0
 40
1.0
 10
6.9218918378
 20
7.9503338289
 30
0.0
 10
6.9219023975
 20
7.9503448559
 30
0.0
 10
6.9218263699
 20
7.9502340069
 30
0.0
 10
6.9217993709
 20
7.9501730718
 30
0.0
 10
6.9216590258
 20
7.9499462513
 30
0.0
 10
6.9214282435
 20
7.9495516728
 30
0.0
 10
6.9210001122
 20
7.9488299874
 30
0.0
 10
6.9203753696
 20
7.9477614327
 30
0.0
 10
6.9195743945
 20
7.94638509
 30
0.0
 10
6.9186120429
 20
7.944718042
 30
0.0
 10
6.9174897542
 20
7.9427596392
 30
0.0
 10
6.9156858181
 20
7.9395881027
 30
0.0
 10
6.9130830655
 20
7.9349460602
 30
0.0
 10
6.9096119004
 20
7.9285841802
 30
0.0
 10
6.9057241113
 20
7.9212173626
 30
0.0
 10
6.903052143
 20
7.915952651
 30
0.0
 10
6.9016650818
 20
7.9131611451
 30
0.0
  0
SPLINE
  5
440
100
AcDbEntity
  8
0
100
AcDbSpline
 62
7
  6
CONTINUOUS
 70
0
 71
3
 72
9
 73
5
 74
0
 42
0.0000001
 43
0.0000001
 44
0.0000000001
 40
0.0
 40
0.0
 40
0.0
 40
0.0
 40
0.2229567899
 40
1.0
 40
1.0
 40
1.0
 40
1.0
 10
6.9016650818
 20
7.9131611451
 30
0.0
 10
6.9000335998
 20
7.909877734
 30
0.0
 10
6.8928639283
 20
7.8950788618
 30
0.0
 10
6.8864163124
 20
7.8799231965
 30
0.0
 10
6.8819376627
 20
7.8679557217
 30
0.0
  0
SPLINE
  5
441
100
AcDbEntity
  8
0
100
AcDbSpline
 62
7
  6
CONTINUOUS
 70
0
 71
3
 72
9
 73
5
 74
0
 42
0.0000001
 43
0.0000001
 44
0.0000000001
 40
0.0
 40
0.0
 40
0.0
 40
0.0
 40
0.2353894454
 40
1.0
 40
1.0
 40
1.0
 40
1.0
 10
6.8819376627
 20
7.8679557217
 30
0.0
 10
6.8802335344
 20
7.863402092
 30
0.0
 10
6.8733182706
 20
7.8439396565
 30
0.0
 10
6.8678851969
 20
7.823929508
 30
0.0
 10
6.864836336
 20
7.8084332734
 30
0.0
  0
SPLINE
  5
442
100
AcDbEntity
  8
0
100
AcDbSpline
 62
7
  6
CONTINUOUS
 70
0
 71
3
 72
9
 73
5
 74
0
 42
0.0000001
 43
0.0000001
 44
0.0000000001
 40
0.0
 40
0.0
 40
0.0
 40
0.0
 40
0.4949527739
 40
1.0
 40
1.0
 40
1.0
 40
1.0
 10
6.864836336
 20
7.8084332734
 30
0.0
 10
6.8628143706
 20
7.7981563697
 30
0.0
 10
6.8596928334
 20
7.7771934
 30
0.0
 10
6.8585578073
 20
7.7560213667
 30
0.0
 10
6.8585578073
 20
7.7453338289
 30
0.0
  0
SPLINE
  5
443
100
AcDbEntity
  8
0
100
AcDbSpline
 62
7
  6
CONTINUOUS
 70
0
 71
3
 72
9
 73
5
 74
0
 42
0.0000001
 43
0.0000001
 44
0.0000000001
 40
0.0
 40
0.0
 40
0.0
 40
0.0
 40
0.5043086782
 40
1.0
 40
1.0
 40
1.0
 40
1.0
 10
6.8585578073
 20
7.7453338289
 30
0.0
 10
6.8585578073
 20
7.7354693541
 30
0.0
 10
6.8595176432
 20
7.7159002995
 30
0.0
 10
6.8621918409
 20
7.6964966527
 30
0.0
 10
6.863932422
 20
7.686958248
 30
0.0
  0
SPLINE
  5
444
100
AcDbEntity
  8
0
100
AcDbSpline
 62
7
  6
CONTINUOUS
 70
0
 71
3
 72
9
 73
5
 74
0
 42
0.0000001
 43
0.0000001
 44
0.0000000001
 40
0.0
 40
0.0
 40
0.0
 40
0.0
 40
0.5487119459
 40
1.0
 40
1.0
 40
1.0
 40
1.0
 10
6.863932422
 20
7.686958248
 30
0.0
 10
6.8676179509
 20
7.6667615056
 30
0.0
 10
6.8777657913
 20
7.6305301787
 30
0.0
 10
6.8925722564
 20
7.5961007074
 30
0.0
 10
6.8999799588
 20
7.5809272826
 30
0.0
  0
SPLINE
  5
445
100
AcDbEntity
  8
0
100
AcDbSpline
 62
7
  6
CONTINUOUS
 70
0
 71
3
 72
23
 73
19
 74
0
 42
0.0000001
 43
0.0000001
 44
0.0000000001
 40
0.0
 40
0.0
 40
0.0
 40
0.0
 40
0.2249613829
 40
0.4242197367
 40
0.5960685409
 40
0.6711943279
 40
0.7389210143
 40
0.7991292103
 40
0.8516993282
 40
0.8965115885
 40
0.9334460252
 40
0.9623824914
 40
0.9738138938
 40
0.9832006688
 40
0.9905277492
 40
0.9957800579
 40
0.9989425074
 40
1.0
 40
1.0
 40
1.0
 40
1.0
 10
6.9081386627
 20
7.564890498
 30
0.0
 10
6.9091262698
 20
7.5630250505
 30
0.0
 10
6.9110086008
 20
7.5595178166
 30
0.0
 10
6.9137044869
 20
7.5546176271
 30
0.0
 10
6.9157539387
 20
7.5509665992
 30
0.0
 10
6.9172110453
 20
7.5483984055
 30
0.0
 10
6.9181558882
 20
7.5467439328
 30
0.0
 10
6.9189998903
 20
7.5452755656
 30
0.0
 10
6.9197401801
 20
7.5439956613
 30
0.0
 10
6.9203742803
 20
7.542906362
 30
0.0
 10
6.9208985928
 20
7.5420104458
 30
0.0
 10
6.9212677562
 20
7.5413849075
 30
0.0
 10
6.9215039142
 20
7.5409840671
 30
0.0
 10
6.9216420926
 20
7.5407550593
 30
0.0
 10
6.9217387181
 20
7.5405829326
 30
0.0
 10
6.9218344083
 20
7.5404448009
 30
0.0
 10
6.9218448581
 20
7.5403884519
 30
0.0
 10
6.9219017654
 20
7.5403338289
 30
0.0
 10
6.9218918433
 20
7.5403338289
 30
0.0
  0
SPLINE
  5
446
100
AcDbEntity
  8
0
100
AcDbSpline
 62
7
  6
CONTINUOUS
 70
0
 71
3
 72
26
 73
22
 74
0
 42
0.0000001
 43
0.0000001
 44
0.0000000001
 40
0.0
 40
0.0
 40
0.0
 40
0.0
 40
0.0002705417
 40
0.0010806612
 40
0.0024281389
 40
0.004310756
 40
0.0096725378
 40
0.0171482747
 40
0.0267202488
 40
0.0383707569
 40
0.0520821102
 40
0.0678366354
 40
0.1054045717
 40
0.1509334955
 40
0.2042825845
 40
0.2653091132
 40
0.3338101536
 40
0.4095165703
 40
0.5814615039
 40
0.7789952292
 40
1.0
 40
1.0
 40
1.0
 40
1.0
 10
5.8068918185
 20
7.5403338289
 30
0.0
 10
5.8068956134
 20
7.5403338289
 30
0.0
 10
5.8068989241
 20
7.5403547458
 30
0.0
 10
5.8069207325
 20
7.5403763424
 30
0.0
 10
5.8069473583
 20
7.5404293022
 30
0.0
 10
5.8070105744
 20
7.540530192
 30
0.0
 10
5.8071150373
 20
7.5407095818
 30
0.0
 10
5.8072758756
 20
7.540979032
 30
0.0
 10
5.8074804598
 20
7.5413259516
 30
0.0
 10
5.8077291887
 20
7.5417480536
 30
0.0
 10
5.8080210756
 20
7.5422454965
 30
0.0
 10
5.8084957637
 20
7.5430571344
 30
0.0
 10
5.8091928253
 20
7.544255757
 30
0.0
 10
5.8101498588
 20
7.5459131917
 30
0.0
 10
5.811265204
 20
7.5478591695
 30
0.0
 10
5.8125337768
 20
7.550088708
 30
0.0
 10
5.8139479378
 20
7.5525962029
 30
0.0
 10
5.8161073732
 20
7.5564695278
 30
0.0
 10
5.8190996141
 20
7.5619506492
 30
0.0
 10
5.8229676359
 20
7.5692748678
 30
0.0
 10
5.8256270194
 20
7.5745091055
 30
0.0
 10
5.8270078843
 20
7.5772845544
 30
0.0
  0
SPLINE
  5
447
100
AcDbEntity
  8
0
100
AcDbSpline
 62
7
  6
CONTINUOUS
 70
0
 71
3
 72
9
 73
5
 74
0
 42
0.0000001
 43
0.0000001
 44
0.0000000001
 40
0.0
 40
0.0
 40
0.0
 40
0.0
 40
0.222620832
 40
1.0
 40
1.0
 40
1.0
 40
1.0
 10
5.8270078843
 20
7.5772845544
 30
0.0
 10
5.8286570958
 20
7.5805993626
 30
0.0
 10
5.8359149183
 20
7.5955627937
 30
0.0
 10
5.842434756
 20
7.6108915474
 30
0.0
 10
5.8469572876
 20
7.6230033451
 30
0.0
  0
SPLINE
  5
448
100
AcDbEntity
  8
0
100
AcDbSpline
 62
7
  6
CONTINUOUS
 70
0
 71
3
 72
9
 73
5
 74
0
 42
0.0000001
 43
0.0000001
 44
0.0000000001
 40
0.0
 40
0.0
 40
0.0
 40
0.0
 40
0.235411473
 40
1.0
 40
1.0
 40
1.0
 40
1.0
 10
5.8469572876
 20
7.6230033451
 30
0.0
 10
5.8486690037
 20
7.6275874942
 30
0.0
 10
5.8556106342
 20
7.6471793381
 30
0.0
 10
5.8610486448
 20
7.6673254409
 30
0.0
 10
5.8640851215
 20
7.6829255319
 30
0.0
  0
SPLINE
  5
449
100
AcDbEntity
  8
0
100
AcDbSpline
 62
7
  6
CONTINUOUS
 70
0
 71
3
 72
9
 73
5
 74
0
 42
0.0000001
 43
0.0000001
 44
0.0000000001
 40
0.0
 40
0.0
 40
0.0
 40
0.0
 40
0.4950668169
 40
1.0
 40
1.0
 40
1.0
 40
1.0
 10
5.8640851215
 20
7.6829255319
 30
0.0
 10
5.8660645368
 20
7.6930949026
 30
0.0
 10
5.8691179515
 20
7.7138299383
 30
0.0
 10
5.8702258792
 20
7.734767135
 30
0.0
 10
5.8702258792
 20
7.7453338289
 30
0.0
  0
SPLINE
  5
44A
100
AcDbEntity
  8
0
100
AcDbSpline
 62
7
  6
CONTINUOUS
 70
0
 71
3
 72
9
 73
5
 74
0
 42
0.0000001
 43
0.0000001
 44
0.0000000001
 40
0.0
 40
0.0
 40
0.0
 40
0.0
 40
0.5044122093
 40
1.0
 40
1.0
 40
1.0
 40
1.0
 10
5.8702258792
 20
7.7453338289
 30
0.0
 10
5.8702258792
 20
7.7553146313
 30
0.0
 10
5.8692419912
 20
7.7751105517
 30
0.0
 10
5.8665059706
 20
7.7947352232
 30
0.0
 10
5.8647263776
 20
7.8043785878
 30
0.0
  0
SPLINE
  5
44B
100
AcDbEntity
  8
0
100
AcDbSpline
 62
7
  6
CONTINUOUS
 70
0
 71
3
 72
9
 73
5
 74
0
 42
0.0000001
 43
0.0000001
 44
0.0000000001
 40
0.0
 40
0.0
 40
0.0
 40
0.0
 40
0.5483668059
 40
1.0
 40
1.0
 40
1.0
 40
1.0
 10
5.8647263776
 20
7.8043785878
 30
0.0
 10
5.8610346282
 20
7.8243836591
 30
0.0
 10
5.8509349538
 20
7.860291505
 30
0.0
 10
5.8362660482
 20
7.8944321061
 30
0.0
 10
5.8289247383
 20
7.9094923928
 30
0.0
  0
SPLINE
  5
44C
100
AcDbEntity
  8
0
100
AcDbSpline
 62
7
  6
CONTINUOUS
 70
0
 71
3
 72
18
 73
14
 74
0
 42
0.0000001
 43
0.0000001
 44
0.0000000001
 40
0.0
 40
0.0
 40
0.0
 40
0.0
 40
0.2249326146
 40
0.4241623604
 40
0.5959816117
 40
0.7388245782
 40
0.8516217575
 40
0.8964494822
 40
0.9334008764
 40
0.9623539172
 40
0.9831864002
 40
0.9957759449
 40
1.0
 40
1.0
 40
1.0
 40
1.0
 10
5.8206445732
 20
7.9257795483
 30
0.0
 10
5.8196571645
 20
7.9276446019
 30
0.0
 10
5.8177752125
 20
7.931151064
 30
0.0
 10
5.8150798756
 20
7.9360501025
 30
0.0
 10
5.8127201488
 20
7.9402545353
 30
0.0
 10
5.8107367978
 20
7.9437401557
 30
0.0
 10
5.8093296297
 20
7.9461829068
 30
0.0
 10
5.8084104349
 20
7.9477599755
 30
0.0
 10
5.8078868714
 20
7.9486575628
 30
0.0
 10
5.8074696772
 20
7.9493555576
 30
0.0
 10
5.8071804694
 20
7.9498659905
 30
0.0
 10
5.8069833408
 20
7.9501569302
 30
0.0
 10
5.8069192274
 20
7.9503052063
 30
0.0
 10
5.806891818
 20
7.9503338289
 30
0.0
  0
SPLINE
  5
44D
100
AcDbEntity
  8
0
100
AcDbSpline
 62
7
  6
CONTINUOUS
 70
0
 71
3
 72
20
 73
16
 74
0
 42
0.0000001
 43
0.0000001
 44
0.0000000001
 40
0.0
 40
0.0
 40
0.0
 40
0.0
 40
0.0037997075
 40
0.0141441428
 40
0.0313083454
 40
0.0553855806
 40
0.0865036851
 40
0.1247956289
 40
0.1704629156
 40
0.2237563494
 40
0.3546308033
 40
0.5212250528
 40
0.6200211594
 40
0.7310700061
 40
1.0
 40
1.0
 40
1.0
 40
1.0
 10
6.8747258906
 20
11.0080383603
 30
0.0
 10
6.8747405288
 20
11.0080124119
 30
0.0
 10
6.8746100638
 20
11.0079193887
 30
0.0
 10
6.8744537468
 20
11.0077940488
 30
0.0
 10
6.874102728
 20
11.0075456409
 30
0.0
 10
6.8736640981
 20
11.0072036609
 30
0.0
 10
6.873083324
 20
11.0067492906
 30
0.0
 10
6.8723774085
 20
11.0061898831
 30
0.0
 10
6.8715375283
 20
11.0055161302
 30
0.0
 10
6.8701435472
 20
11.0043744022
 30
0.0
 10
6.8680524968
 20
11.0025870934
 30
0.0
 10
6.8657590401
 20
11.0004900029
 30
0.0
 10
6.8636568338
 20
10.9984165573
 30
0.0
 10
6.8610983348
 20
10.9956721546
 30
0.0
 10
6.8591278484
 20
10.9934171441
 30
0.0
 10
6.8579462328
 20
10.9916707146
 30
0.0
  0
LINE
  5
44E
100
AcDbEntity
  8
0
100
AcDbLine
 62
7
  6
CONTINUOUS
 10
6.8579462328
 20
10.9916707146
 11
6.8551925933
 21
10.9869196228
  0
SPLINE
  5
44F
100
AcDbEntity
  8
0
100
AcDbSpline
 62
7
  6
CONTINUOUS
 70
0
 71
3
 72
11
 73
7
 74
0
 42
0.0000001
 43
0.0000001
 44
0.0000000001
 40
0.0
 40
0.0
 40
0.0
 40
0.0
 40
0.2012390354
 40
0.4406423954
 40
0.7091839766
 40
1.0
 40
1.0
 40
1.0
 40
1.0
 10
6.8552008135
 20
10.9868616426
 30
0.0
 10
6.8490639664
 20
10.9747323423
 30
0.0
 10
6.8352770154
 20
10.9483503131
 30
0.0
 10
6.8124270441
 20
10.9062460809
 30
0.0
 10
6.7863724048
 20
10.8589985459
 30
0.0
 10
6.7680756824
 20
10.8259403387
 30
0.0
 10
6.7585606944
 20
10.8087542992
 30
0.0
  0
SPLINE
  5
450
100
AcDbEntity
  8
0
100
AcDbSpline
 62
7
  6
CONTINUOUS
 70
0
 71
3
 72
9
 73
5
 74
0
 42
0.0000001
 43
0.0000001
 44
0.0000000001
 40
0.0
 40
0.0
 40
0.0
 40
0.0
 40
0.2450198705
 40
1.0
 40
1.0
 40
1.0
 40
1.0
 10
6.7586032045
 20
10.8087005155
 30
0.0
 10
6.7555436737
 20
10.8031044088
 30
0.0
 10
6.7430866474
 20
10.7802488177
 30
0.0
 10
6.7307857745
 20
10.7573072158
 30
0.0
 10
6.7216658987
 20
10.7398993527
 30
0.0
  0
SPLINE
  5
451
100
AcDbEntity
  8
0
100
AcDbSpline
 62
7
  6
CONTINUOUS
 70
0
 71
3
 72
9
 73
5
 74
0
 42
0.0000001
 43
0.0000001
 44
0.0000000001
 40
0.0
 40
0.0
 40
0.0
 40
0.0
 40
0.2542915491
 40
1.0
 40
1.0
 40
1.0
 40
1.0
 10
6.721665072
 20
10.0597920705
 30
0.0
 10
6.7247368666
 20
10.053928694
 30
0.0
 10
6.7368912104
 20
10.0309100133
 30
0.0
 10
6.7492911703
 20
10.0080218986
 30
0.0
 10
6.7586028835
 20
9.9909901363
 30
0.0
  0
SPLINE
  5
452
100
AcDbEntity
  8
0
100
AcDbSpline
 62
7
  6
CONTINUOUS
 70
0
 71
3
 72
12
 73
8
 74
0
 42
0.0000001
 43
0.0000001
 44
0.0000000001
 40
0.0
 40
0.0
 40
0.0
 40
0.0
 40
0.2907564326
 40
0.4281906066
 40
0.5592141844
 40
0.7986392172
 40
1.0
 40
1.0
 40
1.0
 40
1.0
 10
6.7585607435
 20
9.9909367921
 30
0.0
 10
6.76809451
 20
9.9737578857
 30
0.0
 10
6.7821015594
 20
9.9484405103
 30
0.0
 10
6.8003406306
 20
9.9153463253
 30
0.0
 10
6.8168766356
 20
9.8852742173
 30
0.0
 10
6.835309856
 20
9.851314639
 30
0.0
 10
6.8490274604
 20
9.8248744439
 30
0.0
 10
6.8551889904
 20
9.8127430858
 30
0.0
  0
SPLINE
  5
453
100
AcDbEntity
  8
0
100
AcDbSpline
 62
7
  6
CONTINUOUS
 70
0
 71
3
 72
12
 73
8
 74
0
 42
0.0000001
 43
0.0000001
 44
0.0000000001
 40
0.0
 40
0.0
 40
0.0
 40
0.0
 40
0.0546627407
 40
0.2229311823
 40
0.5206707283
 40
0.7307020661
 40
1.0
 40
1.0
 40
1.0
 40
1.0
 10
6.8747375333
 20
9.7916698797
 30
0.0
 10
6.8743964835
 20
9.7919275672
 30
0.0
 10
6.8730115963
 20
9.7929862325
 30
0.0
 10
6.869833837
 20
9.7955315216
 30
0.0
 10
6.8658570386
 20
9.7990253284
 30
0.0
 10
6.8616235239
 20
9.8033832074
 30
0.0
 10
6.8591757761
 20
9.8062413921
 30
0.0
 10
6.8579794041
 20
9.8079742551
 30
0.0
  0
LINE
  5
454
100
AcDbEntity
  8
0
100
AcDbLine
 62
7
  6
CONTINUOUS
 10
6.8579794041
 20
9.8079742551
 11
6.8551890257
 21
9.8127429194
  0
SPLINE
  5
455
100
AcDbEntity
  8
0
100
AcDbSpline
 62
9
  6
CONTINUOUS
 70
0
 71
3
 72
12
 73
8
 74
0
 42
0.0000001
 43
0.0000001
 44
0.0000000001
 40
0.0
 40
0.0
 40
0.0
 40
0.0
 40
0.2241774561
 40
0.4669908104
 40
0.5958237388
 40
0.7286896462
 40
1.0
 40
1.0
 40
1.0
 40
1.0
 10
6.1523041823
 20
10.7398471637
 30
0.0
 10
6.1453378987
 20
10.7398971431
 30
0.0
 10
6.1307812938
 20
10.7423015288
 30
0.0
 10
6.1138944086
 20
10.7505708549
 30
0.0
 10
6.1016890785
 20
10.7604940418
 30
0.0
 10
6.0903460822
 20
10.7726100007
 30
0.0
 10
6.0835526833
 20
10.783383537
 30
0.0
 10
6.0799880756
 20
10.7910240765
 30
0.0
  0
SPLINE
  5
456
100
AcDbEntity
  8
0
100
AcDbSpline
 62
9
  6
CONTINUOUS
 70
0
 71
3
 72
11
 73
7
 74
0
 42
0.0000001
 43
0.0000001
 44
0.0000000001
 40
0.0
 40
0.0
 40
0.0
 40
0.0
 40
0.2328194137
 40
0.4795697827
 40
0.7379337193
 40
1.0
 40
1.0
 40
1.0
 40
1.0
 10
6.1522901153
 20
10.0598440435
 30
0.0
 10
6.1450611367
 20
10.0597899885
 30
0.0
 10
6.1301233966
 20
10.057193742
 30
0.0
 10
6.1093625278
 20
10.0467169918
 30
0.0
 10
6.0920630489
 20
10.0299017518
 30
0.0
 10
6.0834284121
 20
10.0160414878
 30
0.0
 10
6.0799880376
 20
10.0086672292
 30
0.0
  0
SPLINE
  5
457
100
AcDbEntity
  8
0
100
AcDbSpline
 62
7
  6
CONTINUOUS
 70
0
 71
3
 72
9
 73
5
 74
0
 42
0.0000001
 43
0.0000001
 44
0.0000000001
 40
0.0
 40
0.0
 40
0.0
 40
0.0
 40
0.5000023348
 40
1.0
 40
1.0
 40
1.0
 40
1.0
 10
6.3643918433
 20
9.7563695353
 30
0.0
 10
6.3756072768
 20
9.7563695353
 30
0.0
 10
6.3980394996
 20
9.7559994534
 30
0.0
 10
6.4204466323
 20
9.7548335737
 30
0.0
 10
6.4316315419
 20
9.7540081057
 30
0.0
  0
SPLINE
  5
458
100
AcDbEntity
  8
0
100
AcDbSpline
 62
7
  6
CONTINUOUS
 70
0
 71
3
 72
18
 73
14
 74
0
 42
0.0000001
 43
0.0000001
 44
0.0000000001
 40
0.0
 40
0.0
 40
0.0
 40
0.0
 40
0.1250169506
 40
0.2500330284
 40
0.3750461442
 40
0.5000516328
 40
0.6250373525
 40
0.6875587675
 40
0.7500838914
 40
0.812608997
 40
0.8751369145
 40
0.9376013219
 40
1.0
 40
1.0
 40
1.0
 40
1.0
 10
6.4316315419
 20
9.7540081057
 30
0.0
 10
6.4399962754
 20
9.7533907722
 30
0.0
 10
6.4567075607
 20
9.7518834497
 30
0.0
 10
6.481664596
 20
9.7486155461
 30
0.0
 10
6.506426372
 20
9.7440622187
 30
0.0
 10
6.5308205478
 20
9.7378134921
 30
0.0
 10
6.5505959452
 20
9.7306784349
 30
0.0
 10
6.5656846523
 20
9.7233091004
 30
0.0
 10
6.5764557547
 20
9.7167563781
 30
0.0
 10
6.586367773
 20
9.7089395111
 30
0.0
 10
6.5948960021
 20
9.6995784575
 30
0.0
 10
6.6010414786
 20
9.6884467424
 30
0.0
 10
6.6026748521
 20
9.6800202089
 30
0.0
 10
6.6026748521
 20
9.6758338339
 30
0.0
  0
SPLINE
  5
459
100
AcDbEntity
  8
0
100
AcDbSpline
 62
7
  6
CONTINUOUS
 70
0
 71
3
 72
13
 73
9
 74
0
 42
0.0000001
 43
0.0000001
 44
0.0000000001
 40
0.0
 40
0.0
 40
0.0
 40
0.0
 40
0.1249150198
 40
0.2498991014
 40
0.3749894444
 40
0.5000778114
 40
0.7499559386
 40
1.0
 40
1.0
 40
1.0
 40
1.0
 10
6.6026748521
 20
9.6758338339
 30
0.0
 10
6.6026748521
 20
9.6721746287
 30
0.0
 10
6.6014278071
 20
9.6648194825
 30
0.0
 10
6.5966313286
 20
9.6548184785
 30
0.0
 10
6.5897497905
 20
9.6461599036
 30
0.0
 10
6.5788571444
 20
9.6362986759
 30
0.0
 10
6.5631640379
 20
9.6266141405
 30
0.0
 10
6.5496694655
 20
9.6208466394
 30
0.0
 10
6.5427968626
 20
9.6183132102
 30
0.0
  0
SPLINE
  5
45A
100
AcDbEntity
  8
0
100
AcDbSpline
 62
7
  6
CONTINUOUS
 70
0
 71
3
 72
11
 73
7
 74
0
 42
0.0000001
 43
0.0000001
 44
0.0000000001
 40
0.0
 40
0.0
 40
0.0
 40
0.0
 40
0.249998878
 40
0.5000149929
 40
0.7500231982
 40
1.0
 40
1.0
 40
1.0
 40
1.0
 10
6.3643918433
 20
9.581134737
 30
0.0
 10
6.3796554524
 20
9.581134737
 30
0.0
 10
6.4102126292
 20
9.5830247306
 30
0.0
 10
6.4553790109
 20
9.5910212059
 30
0.0
 10
6.4996020996
 20
9.6030799088
 30
0.0
 10
6.5284765833
 20
9.613034364
 30
0.0
 10
6.5427968626
 20
9.6183132102
 30
0.0
  0
SPLINE
  5
45B
100
AcDbEntity
  8
0
100
AcDbSpline
 62
7
  6
CONTINUOUS
 70
0
 71
3
 72
17
 73
13
 74
0
 42
0.0000001
 43
0.0000001
 44
0.0000000001
 40
0.0
 40
0.0
 40
0.0
 40
0.0
 40
0.1335321869
 40
0.2613236353
 40
0.3227723752
 40
0.3827644492
 40
0.500001028
 40
0.6172385497
 40
0.6772312021
 40
0.7386799458
 40
0.8664695415
 40
1.0
 40
1.0
 40
1.0
 40
1.0
 10
6.7896084234
 20
9.6183132102
 30
0.0
 10
6.7966459465
 20
9.6131247636
 30
0.0
 10
6.8107083318
 20
9.6033504968
 30
0.0
 10
6.8292711467
 20
9.5930994963
 30
0.0
 10
6.84444127
 20
9.5870205752
 30
0.0
 10
6.8594819871
 20
9.5826868939
 30
0.0
 10
6.8788108609
 20
9.5804655549
 30
0.0
 10
6.8981395338
 20
9.5826884679
 30
0.0
 10
6.9131801744
 20
9.5870226822
 30
0.0
 10
6.9283503087
 20
9.5931012929
 30
0.0
 10
6.9469134569
 20
9.6033511642
 30
0.0
 10
6.9609760108
 20
9.6131248308
 30
0.0
 10
6.9680134428
 20
9.6183132102
 30
0.0
  0
SPLINE
  5
45C
100
AcDbEntity
  8
0
100
AcDbSpline
 62
7
  6
CONTINUOUS
 70
0
 71
3
 72
12
 73
8
 74
0
 42
0.0000001
 43
0.0000001
 44
0.0000000001
 40
0.0
 40
0.0
 40
0.0
 40
0.0
 40
0.1989222367
 40
0.4223003581
 40
0.6862097327
 40
0.838218613
 40
1.0
 40
1.0
 40
1.0
 40
1.0
 10
6.7896084234
 20
9.6183132102
 30
0.0
 10
6.7860211434
 20
9.6209579491
 30
0.0
 10
6.7788363466
 20
9.6271947687
 30
0.0
 10
6.7692704206
 20
9.6393618789
 30
0.0
 10
6.7631865147
 20
9.6525253749
 30
0.0
 10
6.7602488724
 20
9.6651673809
 30
0.0
 10
6.7596672264
 20
9.672209155
 30
0.0
 10
6.7596672264
 20
9.6758338383
 30
0.0
  0
SPLINE
  5
45D
100
AcDbEntity
  8
0
100
AcDbSpline
 62
7
  6
CONTINUOUS
 70
0
 71
3
 72
15
 73
11
 74
0
 42
0.0000001
 43
0.0000001
 44
0.0000000001
 40
0.0
 40
0.0
 40
0.0
 40
0.0
 40
0.0960108821
 40
0.1858472573
 40
0.340823452
 40
0.471651192
 40
0.5882796422
 40
0.6967078127
 40
0.8003276923
 40
1.0
 40
1.0
 40
1.0
 40
1.0
 10
6.7596672264
 20
9.6758338383
 30
0.0
 10
6.7596672264
 20
9.6795998708
 30
0.0
 10
6.7602895959
 20
9.6869029301
 30
0.0
 10
6.7634426424
 20
9.6999355303
 30
0.0
 10
6.7699026419
 20
9.7133918793
 30
0.0
 10
6.7799867402
 20
9.7256830957
 30
0.0
 10
6.7907909202
 20
9.7346306358
 30
0.0
 10
6.8019035147
 20
9.7412478937
 30
0.0
 10
6.8167228233
 20
9.7477392118
 30
0.0
 10
6.8282745782
 20
9.7508716024
 30
0.0
 10
6.835954455
 20
9.7524085452
 30
0.0
  0
SPLINE
  5
45E
100
AcDbEntity
  8
0
100
AcDbSpline
 62
7
  6
CONTINUOUS
 70
0
 71
3
 72
9
 73
5
 74
0
 42
0.0000001
 43
0.0000001
 44
0.0000000001
 40
0.0
 40
0.0
 40
0.0
 40
0.0
 40
0.250983762
 40
1.0
 40
1.0
 40
1.0
 40
1.0
 10
6.835954455
 20
9.7524085452
 30
0.0
 10
6.8372472581
 20
9.7526672686
 30
0.0
 10
6.8424098576
 20
9.7536395406
 30
0.0
 10
6.8476137775
 20
9.7543877901
 30
0.0
 10
6.8515222939
 20
9.7548404512
 30
0.0
  0
SPLINE
  5
45F
100
AcDbEntity
  8
0
100
AcDbSpline
 62
7
  6
CONTINUOUS
 70
0
 71
3
 72
18
 73
14
 74
0
 42
0.0000001
 43
0.0000001
 44
0.0000000001
 40
0.0
 40
0.0
 40
0.0
 40
0.0
 40
0.1075925333
 40
0.214990763
 40
0.3227629189
 40
0.4318094662
 40
0.5441545108
 40
0.6648053062
 40
0.7319835773
 40
0.8075409753
 40
0.89625633
 40
0.9467300039
 40
1.0
 40
1.0
 40
1.0
 40
1.0
 10
6.8515222939
 20
9.7548404512
 30
0.0
 10
6.8582229216
 20
9.755616478
 30
0.0
 10
6.871689987
 20
9.7565388094
 30
0.0
 10
6.8919431262
 20
9.7563031091
 30
0.0
 10
6.9122065314
 20
9.7543927527
 30
0.0
 10
6.9324950978
 20
9.7503617754
 30
0.0
 10
6.9528190978
 20
9.7432414926
 30
0.0
 10
6.9691026018
 20
9.7333742554
 30
0.0
 10
6.981069201
 20
9.7218927787
 30
0.0
 10
6.9895979713
 20
9.7100380529
 30
0.0
 10
6.9949194371
 20
9.6975114388
 30
0.0
 10
6.997460179
 20
9.685686923
 30
0.0
 10
6.99795474
 20
9.679173552
 30
0.0
 10
6.99795474
 20
9.6758338384
 30
0.0
  0
SPLINE
  5
460
100
AcDbEntity
  8
0
100
AcDbSpline
 62
7
  6
CONTINUOUS
 70
0
 71
3
 72
12
 73
8
 74
0
 42
0.0000001
 43
0.0000001
 44
0.0000000001
 40
0.0
 40
0.0
 40
0.0
 40
0.0
 40
0.1617815836
 40
0.3137902449
 40
0.5776995886
 40
0.8010777503
 40
1.0
 40
1.0
 40
1.0
 40
1.0
 10
6.99795474
 20
9.6758338384
 30
0.0
 10
6.99795474
 20
9.6722091503
 30
0.0
 10
6.9973729432
 20
9.6651673883
 30
0.0
 10
6.9944353803
 20
9.6525253735
 30
0.0
 10
6.9883514408
 20
9.6393618846
 30
0.0
 10
6.9787855238
 20
9.6271947706
 30
0.0
 10
6.9716007235
 20
9.6209579495
 30
0.0
 10
6.9680134428
 20
9.6183132102
 30
0.0
  0
SPLINE
  5
461
100
AcDbEntity
  8
0
100
AcDbSpline
 62
9
  6
CONTINUOUS
 70
0
 71
3
 72
17
 73
13
 74
0
 42
0.0000001
 43
0.0000001
 44
0.0000000001
 40
0.0
 40
0.0
 40
0.0
 40
0.0
 40
0.1687649886
 40
0.3182236705
 40
0.3859369234
 40
0.450018288
 40
0.5113926668
 40
0.5708257407
 40
0.6850231294
 40
0.7940552713
 40
0.8988357396
 40
1.0
 40
1.0
 40
1.0
 40
1.0
 10
8.3213233779
 20
3.3998456399
 30
0.0
 10
8.3213233779
 20
3.4112797658
 30
0.0
 10
8.3232171523
 20
3.4328835845
 30
0.0
 10
8.3295695934
 20
3.4583372399
 30
0.0
 10
8.3360035446
 20
3.4762849269
 30
0.0
 10
8.3411952648
 20
3.4883079942
 30
0.0
 10
8.3468127639
 20
3.4995106081
 30
0.0
 10
8.3546134605
 20
3.5133958944
 30
0.0
 10
8.3650874919
 20
3.5294595897
 30
0.0
 10
8.3787236846
 20
3.547034758
 30
0.0
 10
8.3929809905
 20
3.5629322922
 30
0.0
 10
8.4028786512
 20
3.5727779951
 30
0.0
 10
8.4078633947
 20
3.5774822944
 30
0.0
  0
SPLINE
  5
462
100
AcDbEntity
  8
0
100
AcDbSpline
 62
9
  6
CONTINUOUS
 70
0
 71
3
 72
13
 73
9
 74
0
 42
0.0000001
 43
0.0000001
 44
0.0000000001
 40
0.0
 40
0.0
 40
0.0
 40
0.0
 40
0.2353865261
 40
0.3590299495
 40
0.4856575255
 40
0.6142215916
 40
0.7435487959
 40
1.0
 40
1.0
 40
1.0
 40
1.0
 10
8.9149205054
 20
9.6888311496
 30
0.0
 10
8.9128519636
 20
9.7039052611
 30
0.0
 10
8.9079159181
 20
9.7266973511
 30
0.0
 10
8.8979167819
 20
9.7564770687
 30
0.0
 10
8.8883129388
 20
9.7790324217
 30
0.0
 10
8.8768081084
 20
9.8010955242
 30
0.0
 10
8.859138485
 20
9.8292865373
 30
0.0
 10
8.8432437162
 20
9.8487081996
 30
0.0
 10
8.8316712668
 20
9.8605772878
 30
0.0
  0
SPLINE
  5
463
100
AcDbEntity
  8
0
100
AcDbSpline
 62
7
  6
CONTINUOUS
 70
0
 71
3
 72
11
 73
7
 74
0
 42
0.0000001
 43
0.0000001
 44
0.0000000001
 40
0.0
 40
0.0
 40
0.0
 40
0.0
 40
0.2499791022
 40
0.4999893392
 40
0.7500035895
 40
1.0
 40
1.0
 40
1.0
 40
1.0
 10
6.1859868239
 20
9.6183132102
 30
0.0
 10
6.2003072376
 20
9.6130343145
 30
0.0
 10
6.2291818755
 20
9.6030794025
 30
0.0
 10
6.2734053621
 20
9.5910216966
 30
0.0
 10
6.3185713787
 20
9.583023843
 30
0.0
 10
6.3491283821
 20
9.581134737
 30
0.0
 10
6.3643918433
 20
9.581134737
 30
0.0
  0
SPLINE
  5
464
100
AcDbEntity
  8
0
100
AcDbSpline
 62
9
  6
CONTINUOUS
 70
0
 71
3
 72
26
 73
22
 74
0
 42
0.0000001
 43
0.0000001
 44
0.0000000001
 40
0.0
 40
0.0
 40
0.0
 40
0.0
 40
0.2160487443
 40
0.4114254129
 40
0.583272556
 40
0.6594610084
 40
0.7286652262
 40
0.7905391045
 40
0.8448458939
 40
0.8913759441
 40
0.9299190496
 40
0.9461296731
 40
0.9602644941
 40
0.9722970928
 40
0.9822010193
 40
0.9899497946
 40
0.9955169112
 40
0.9974740564
 40
0.998875834
 40
0.9997189227
 40
1.0
 40
1.0
 40
1.0
 40
1.0
 10
9.8138616602
 20
9.6888423445
 30
0.0
 10
9.8213561209
 20
9.6843382978
 30
0.0
 10
9.8355188661
 20
9.6755782264
 30
0.0
 10
9.8553034722
 20
9.6626987994
 30
0.0
 10
9.8701492226
 20
9.6526152048
 30
0.0
 10
9.8806823777
 20
9.6452737569
 30
0.0
 10
9.8875332088
 20
9.6404331886
 30
0.0
 10
9.8936399856
 20
9.6360744086
 30
0.0
 10
9.8989821957
 20
9.6322241024
 30
0.0
 10
9.9035434934
 20
9.6289053758
 30
0.0
 10
9.9068475911
 20
9.6264792379
 30
0.0
 10
9.9090891636
 20
9.6248216388
 30
0.0
 10
9.9104662156
 20
9.6237987534
 30
0.0
 10
9.9116357223
 20
9.6229264789
 30
0.0
 10
9.9125989549
 20
9.6222043686
 30
0.0
 10
9.9133454247
 20
9.6216439957
 30
0.0
 10
9.9138480008
 20
9.6212618699
 30
0.0
 10
9.9141232775
 20
9.6210565997
 30
0.0
 10
9.9142795921
 20
9.6209324161
 30
0.0
 10
9.9143240015
 20
9.6209083214
 30
0.0
 10
9.9143985116
 20
9.6208415793
 30
0.0
 10
9.9143918333
 20
9.6208507881
 30
0.0
  0
SPLINE
  5
465
100
AcDbEntity
  8
0
100
AcDbSpline
 62
9
  6
CONTINUOUS
 70
0
 71
3
 72
17
 73
13
 74
0
 42
0.0000001
 43
0.0000001
 44
0.0000000001
 40
0.0
 40
0.0
 40
0.0
 40
0.0
 40
0.0274678508
 40
0.0510730381
 40
0.0822267988
 40
0.121141854
 40
0.1678048512
 40
0.2220084313
 40
0.2835011113
 40
0.4272611022
 40
0.5967343022
 40
1.0
 40
1.0
 40
1.0
 40
1.0
 10
11.612870172
 20
9.8667972774
 30
0.0
 10
11.6128625581
 20
9.8663571639
 30
0.0
 10
11.6120820308
 20
9.8657277946
 30
0.0
 10
11.6109370336
 20
9.8652024759
 30
0.0
 10
11.6094956698
 20
9.8647067971
 30
0.0
 10
11.6076915587
 20
9.864238192
 30
0.0
 10
11.6054963607
 20
9.8637761247
 30
0.0
 10
11.6029333241
 20
9.8633311859
 30
0.0
 10
11.5988185771
 20
9.8627289874
 30
0.0
 10
11.5928503289
 20
9.8620536717
 30
0.0
 10
11.5814079441
 20
9.8610886528
 30
0.0
 10
11.5722386544
 20
9.8606224756
 30
0.0
 10
11.5657808188
 20
9.8603786715
 30
0.0
  0
SPLINE
  5
466
100
AcDbEntity
  8
0
100
AcDbSpline
 62
9
  6
CONTINUOUS
 70
0
 71
3
 72
15
 73
11
 74
0
 42
0.0000001
 43
0.0000001
 44
0.0000000001
 40
0.0
 40
0.0
 40
0.0
 40
0.0
 40
0.0344721224
 40
0.0592055747
 40
0.0902781967
 40
0.1729222868
 40
0.2839766833
 40
0.42334827
 40
0.5899896194
 40
1.0
 40
1.0
 40
1.0
 40
1.0
 10
7.1160368969
 20
9.8468756437
 30
0.0
 10
7.116041235
 20
9.8466248884
 30
0.0
 10
7.1163176877
 20
9.8462236604
 30
0.0
 10
7.1168429504
 20
9.8458440091
 30
0.0
 10
7.1177354018
 20
9.8453625838
 30
0.0
 10
7.1192804125
 20
9.8448155121
 30
0.0
 10
7.1216284869
 20
9.8442100025
 30
0.0
 10
7.1246077819
 20
9.843628448
 30
0.0
 10
7.1297559758
 20
9.8428284767
 30
0.0
 10
7.1339282439
 20
9.8423695317
 30
0.0
 10
7.1368977136
 20
9.8420865674
 30
0.0
  0
SPLINE
  5
467
100
AcDbEntity
  8
0
100
AcDbSpline
 62
9
  6
CONTINUOUS
 70
0
 71
3
 72
10
 73
6
 74
0
 42
0.0000001
 43
0.0000001
 44
0.0000000001
 40
0.0
 40
0.0
 40
0.0
 40
0.0
 40
0.2083752203
 40
0.4509078995
 40
1.0
 40
1.0
 40
1.0
 40
1.0
 10
7.1368977136
 20
9.8420865674
 30
0.0
 10
7.1409279118
 20
9.841702525
 30
0.0
 10
7.1496663642
 20
9.8410540125
 30
0.0
 10
7.1690739657
 20
9.8401264346
 30
0.0
 10
7.1844573997
 20
9.839884823
 30
0.0
 10
7.1951255324
 20
9.839884823
 30
0.0
  0
SPLINE
  5
468
100
AcDbEntity
  8
0
100
AcDbSpline
 62
9
  6
CONTINUOUS
 70
0
 71
3
 72
26
 73
22
 74
0
 42
0.0000001
 43
0.0000001
 44
0.0000000001
 40
0.0
 40
0.0
 40
0.0
 40
0.0
 40
0.0002826153
 40
0.0011270132
 40
0.0025298828
 40
0.0044879143
 40
0.0100562332
 40
0.0178055285
 40
0.0277093861
 40
0.039741421
 40
0.0538752776
 40
0.0700846302
 40
0.1086246539
 40
0.1551515369
 40
0.2094558389
 40
0.2713286792
 40
0.3405338364
 40
0.4167247403
 40
0.5885783555
 40
0.7839582679
 40
1.0
 40
1.0
 40
1.0
 40
1.0
 10
8.8143946497
 20
9.6208508446
 30
0.0
 10
8.8144012763
 20
9.6208601666
 30
0.0
 10
8.814443499
 20
9.620882078
 30
0.0
 10
8.8145192167
 20
9.6209496416
 30
0.0
 10
8.8146579595
 20
9.6210494802
 30
0.0
 10
8.8149439437
 20
9.6212697043
 30
0.0
 10
8.815438612
 20
9.6216409993
 30
0.0
 10
8.8161888158
 20
9.6222067328
 30
0.0
 10
8.8171504696
 20
9.6229268601
 30
0.0
 10
8.8183203387
 20
9.623799857
 30
0.0
 10
8.8196970134
 20
9.6248224368
 30
0.0
 10
8.8219383427
 20
9.6264799863
 30
0.0
 10
8.8252419971
 20
9.6289057584
 30
0.0
 10
8.8298029082
 20
9.63222401
 30
0.0
 10
8.8351448485
 20
9.6360736738
 30
0.0
 10
8.8412515938
 20
9.6404317084
 30
0.0
 10
8.8481026633
 20
9.6452714102
 30
0.0
 10
8.8586363931
 20
9.6526116623
 30
0.0
 10
8.8734826383
 20
9.6626938724
 30
0.0
 10
8.8932664748
 20
9.6755725954
 30
0.0
 10
8.9074275786
 20
9.6843334861
 30
0.0
 10
8.9149207505
 20
9.6888383173
 30
0.0
  0
SPLINE
  5
469
100
AcDbEntity
  8
0
100
AcDbSpline
 62
9
  6
CONTINUOUS
 70
0
 71
3
 72
18
 73
14
 74
0
 42
0.0000001
 43
0.0000001
 44
0.0000000001
 40
0.0
 40
0.0
 40
0.0
 40
0.0
 40
0.0084579591
 40
0.0152491577
 40
0.0240777782
 40
0.0481472402
 40
0.0809406794
 40
0.1717694314
 40
0.2936787236
 40
0.4428502118
 40
0.6143971644
 40
0.8026292844
 40
1.0
 40
1.0
 40
1.0
 40
1.0
 10
7.2708610837
 20
9.7624072893
 30
0.0
 10
7.2706406877
 20
9.7624104892
 30
0.0
 10
7.2703035508
 20
9.7627384761
 30
0.0
 10
7.270008806
 20
9.7632712558
 30
0.0
 10
7.2696058887
 20
9.7642354808
 30
0.0
 10
7.2691554469
 20
9.765885606
 30
0.0
 10
7.2683985665
 20
9.7696635474
 30
0.0
 10
7.2675905206
 20
9.7760150007
 30
0.0
 10
7.266755327
 20
9.7854102982
 30
0.0
 10
7.2660507408
 20
9.7969251915
 30
0.0
 10
7.2654932864
 20
9.8101775445
 30
0.0
 10
7.265114465
 20
9.82469278
 30
0.0
 10
7.2649868716
 20
9.8347413273
 30
0.0
 10
7.2649550159
 20
9.839884823
 30
0.0
  0
SPLINE
  5
46A
100
AcDbEntity
  8
0
100
AcDbSpline
 62
9
  6
CONTINUOUS
 70
0
 71
3
 72
11
 73
7
 74
0
 42
0.0000001
 43
0.0000001
 44
0.0000000001
 40
0.0
 40
0.0
 40
0.0
 40
0.0
 40
0.2352071209
 40
0.4831696137
 40
0.7399817537
 40
1.0
 40
1.0
 40
1.0
 40
1.0
 10
9.8138534596
 20
9.6888379335
 30
0.0
 10
9.8154985108
 20
9.7008248505
 30
0.0
 10
9.8203942408
 20
9.7252621963
 30
0.0
 10
9.8322877172
 20
9.7615197362
 30
0.0
 10
9.8491699479
 20
9.7971641738
 30
0.0
 10
9.8635163351
 20
9.8196540553
 30
0.0
 10
9.871466849
 20
9.8304102365
 30
0.0
  0
SPLINE
  5
46B
100
AcDbEntity
  8
0
100
AcDbSpline
 62
9
  6
CONTINUOUS
 70
0
 71
3
 72
11
 73
7
 74
0
 42
0.0000001
 43
0.0000001
 44
0.0000000001
 40
0.0
 40
0.0
 40
0.0
 40
0.0
 40
0.3054599963
 40
0.5739349558
 40
0.8051497224
 40
1.0
 40
1.0
 40
1.0
 40
1.0
 10
9.9165477941
 20
10.9407724359
 30
0.0
 10
9.9119317167
 20
10.9439284387
 30
0.0
 10
9.9030592979
 20
10.9495769612
 30
0.0
 10
9.8899848823
 20
10.9564309129
 30
0.0
 10
9.8781376464
 20
10.9611148752
 30
0.0
 10
9.8705022191
 20
10.9629310388
 30
0.0
 10
9.8669616599
 20
10.963364363
 30
0.0
  0
SPLINE
  5
46C
100
AcDbEntity
  8
0
100
AcDbSpline
 62
7
  6
CONTINUOUS
 70
0
 71
3
 72
9
 73
5
 74
0
 42
0.0000001
 43
0.0000001
 44
0.0000000001
 40
0.0
 40
0.0
 40
0.0
 40
0.0
 40
0.3990178408
 40
1.0
 40
1.0
 40
1.0
 40
1.0
 10
11.5714387275
 20
10.7506651173
 30
0.0
 10
11.5699600643
 20
10.7480884275
 30
0.0
 10
11.5663896732
 20
10.741553226
 30
0.0
 10
11.5630391518
 20
10.7349024813
 30
0.0
 10
11.5610875816
 20
10.73087599
 30
0.0
  0
LINE
  5
46D
100
AcDbEntity
  8
0
100
AcDbLine
 62
7
  6
CONTINUOUS
 10
11.5610394672
 20
10.0688004397
 11
11.564760098
 21
10.0613063409
  0
SPLINE
  5
46E
100
AcDbEntity
  8
0
100
AcDbSpline
 62
7
  6
CONTINUOUS
 70
0
 71
3
 72
10
 73
6
 74
0
 42
0.0000001
 43
0.0000001
 44
0.0000000001
 40
0.0
 40
0.0
 40
0.0
 40
0.0
 40
0.5786431848
 40
0.8116565493
 40
1.0
 40
1.0
 40
1.0
 40
1.0
 10
11.564760098
 20
10.0613063409
 30
0.0
 10
11.5661263841
 20
10.0588676136
 30
0.0
 10
11.5682909441
 20
10.0555855087
 30
0.0
 10
11.5711377238
 20
10.0516849672
 30
0.0
 10
11.5723202712
 20
10.0500262828
 30
0.0
 10
11.5728098559
 20
10.0492593586
 30
0.0
  0
SPLINE
  5
46F
100
AcDbEntity
  8
0
100
AcDbSpline
 62
9
  6
CONTINUOUS
 70
0
 71
3
 72
11
 73
7
 74
0
 42
0.0000001
 43
0.0000001
 44
0.0000000001
 40
0.0
 40
0.0
 40
0.0
 40
0.0
 40
0.1948558798
 40
0.4260720089
 40
0.6945447984
 40
1.0
 40
1.0
 40
1.0
 40
1.0
 10
8.8618213635
 20
10.9633642628
 30
0.0
 10
8.8582812003
 20
10.9629309823
 30
0.0
 10
8.8506467052
 20
10.9611151522
 30
0.0
 10
8.8388009442
 20
10.9564320882
 30
0.0
 10
8.825728273
 20
10.9495794993
 30
0.0
 10
8.8168570432
 20
10.9439320982
 30
0.0
 10
8.8122415911
 20
10.9407767275
 30
0.0
  0
SPLINE
  5
470
100
AcDbEntity
  8
0
100
AcDbSpline
 62
9
  6
CONTINUOUS
 70
0
 71
3
 72
13
 73
9
 74
0
 42
0.0000001
 43
0.0000001
 44
0.0000000001
 40
0.0
 40
0.0
 40
0.0
 40
0.0
 40
0.1416706244
 40
0.2754750424
 40
0.4041897872
 40
0.5289910294
 40
0.7693740295
 40
1.0
 40
1.0
 40
1.0
 40
1.0
 10
10.0068074967
 20
9.1165302621
 30
0.0
 10
10.0061680447
 20
9.1023279219
 30
0.0
 10
10.0033626364
 20
9.0747759723
 30
0.0
 10
9.9962276985
 20
9.0348242737
 30
0.0
 10
9.9870319704
 20
8.9970344466
 30
0.0
 10
9.9725941371
 20
8.9495999761
 30
0.0
 10
9.9507507796
 20
8.8938226365
 30
0.0
 10
9.9289763699
 20
8.8517584353
 30
0.0
 10
9.9172510927
 20
8.8318050627
 30
0.0
  0
SPLINE
  5
471
100
AcDbEntity
  8
0
100
AcDbSpline
 62
9
  6
CONTINUOUS
 70
0
 71
3
 72
18
 73
14
 74
0
 42
0.0000001
 43
0.0000001
 44
0.0000000001
 40
0.0
 40
0.0
 40
0.0
 40
0.0
 40
0.0084579591
 40
0.0152491577
 40
0.0240777782
 40
0.0481472402
 40
0.0809406794
 40
0.1717694314
 40
0.2936787236
 40
0.4428502118
 40
0.6143971644
 40
0.8026292844
 40
1.0
 40
1.0
 40
1.0
 40
1.0
 10
7.2010316002
 20
11.0372839905
 30
0.0
 10
7.2008112042
 20
11.0372807907
 30
0.0
 10
7.2004740673
 20
11.0369528037
 30
0.0
 10
7.2001793225
 20
11.0364200241
 30
0.0
 10
7.1997764052
 20
11.0354557991
 30
0.0
 10
7.1993259634
 20
11.0338056739
 30
0.0
 10
7.198569083
 20
11.0300277324
 30
0.0
 10
7.1977610371
 20
11.0236762791
 30
0.0
 10
7.1969258435
 20
11.0142809817
 30
0.0
 10
7.1962212573
 20
11.0027660884
 30
0.0
 10
7.1956638029
 20
10.9895137353
 30
0.0
 10
7.1952849815
 20
10.9749984998
 30
0.0
 10
7.1951573881
 20
10.9649499525
 30
0.0
 10
7.1951255324
 20
10.9598064568
 30
0.0
  0
SPLINE
  5
472
100
AcDbEntity
  8
0
100
AcDbSpline
 62
9
  6
CONTINUOUS
 70
0
 71
3
 72
17
 73
13
 74
0
 42
0.0000001
 43
0.0000001
 44
0.0000000001
 40
0.0
 40
0.0
 40
0.0
 40
0.0
 40
0.0274678508
 40
0.0510730381
 40
0.0822267988
 40
0.121141854
 40
0.1678048512
 40
0.2220084313
 40
0.2835011113
 40
0.4272611022
 40
0.5967343022
 40
1.0
 40
1.0
 40
1.0
 40
1.0
 10
7.1159135145
 20
10.9328940024
 30
0.0
 10
7.1159211285
 20
10.9333341159
 30
0.0
 10
7.1167016558
 20
10.9339634852
 30
0.0
 10
7.1178466529
 20
10.934488804
 30
0.0
 10
7.1192880167
 20
10.9349844828
 30
0.0
 10
7.1210921278
 20
10.9354530879
 30
0.0
 10
7.1232873258
 20
10.9359151552
 30
0.0
 10
7.1258503624
 20
10.936360094
 30
0.0
 10
7.1299651094
 20
10.9369622925
 30
0.0
 10
7.1359333576
 20
10.9376376082
 30
0.0
 10
7.1473757425
 20
10.9386026271
 30
0.0
 10
7.1565450321
 20
10.9390688043
 30
0.0
 10
7.1630028677
 20
10.9393126083
 30
0.0
  0
SPLINE
  5
473
100
AcDbEntity
  8
0
100
AcDbSpline
 62
9
  6
CONTINUOUS
 70
0
 71
3
 72
13
 73
9
 74
0
 42
0.0000001
 43
0.0000001
 44
0.0000000001
 40
0.0
 40
0.0
 40
0.0
 40
0.0
 40
0.1416706244
 40
0.2754750424
 40
0.4041897872
 40
0.5289910294
 40
0.7693740295
 40
1.0
 40
1.0
 40
1.0
 40
1.0
 10
8.7219761898
 20
9.1165302621
 30
0.0
 10
8.7226156418
 20
9.1023279219
 30
0.0
 10
8.7254210501
 20
9.0747759723
 30
0.0
 10
8.732555988
 20
9.0348242737
 30
0.0
 10
8.7417517161
 20
8.9970344466
 30
0.0
 10
8.7561895495
 20
8.9495999761
 30
0.0
 10
8.778032907
 20
8.8938226365
 30
0.0
 10
8.7998073166
 20
8.8517584353
 30
0.0
 10
8.8115325938
 20
8.8318050627
 30
0.0
  0
SPLINE
  5
474
100
AcDbEntity
  8
0
100
AcDbSpline
 62
9
  6
CONTINUOUS
 70
0
 71
3
 72
11
 73
7
 74
0
 42
0.0000001
 43
0.0000001
 44
0.0000000001
 40
0.0
 40
0.0
 40
0.0
 40
0.0
 40
0.2718527913
 40
0.5256280745
 40
0.7670531648
 40
1.0
 40
1.0
 40
1.0
 40
1.0
 10
10.2588675948
 20
4.6496424486
 30
0.0
 10
10.2588291112
 20
4.6443707993
 30
0.0
 10
10.2583114256
 20
4.6341748086
 30
0.0
 10
10.2562766556
 20
4.6194245301
 30
0.0
 10
10.2533304839
 20
4.6056051513
 30
0.0
 10
10.2508841203
 20
4.5967315349
 30
0.0
 10
10.2495606825
 20
4.5924124243
 30
0.0
  0
SPLINE
  5
475
100
AcDbEntity
  8
0
100
AcDbSpline
 62
9
  6
CONTINUOUS
 70
0
 71
3
 72
22
 73
18
 74
0
 42
0.0000001
 43
0.0000001
 44
0.0000000001
 40
0.0
 40
0.0
 40
0.0
 40
0.0
 40
0.015990135
 40
0.0315723949
 40
0.0618835111
 40
0.091510767
 40
0.1207760732
 40
0.1788283938
 40
0.2078329707
 40
0.2368957069
 40
0.2953348336
 40
0.3543740289
 40
0.4746894161
 40
0.5986977971
 40
0.7270228801
 40
0.8604134999
 40
1.0
 40
1.0
 40
1.0
 40
1.0
 10
10.2495606825
 20
4.5924124243
 30
0.0
 10
10.2479386035
 20
4.5871186819
 30
0.0
 10
10.2443743324
 20
4.5767743033
 30
0.0
 10
10.236214493
 20
4.5569510925
 30
0.0
 10
10.2242863814
 20
4.5336254061
 30
0.0
 10
10.2078136991
 20
4.5074616201
 30
0.0
 10
10.1838556102
 20
4.4747839912
 30
0.0
 10
10.1569862783
 20
4.4446393405
 30
0.0
 10
10.128045903
 20
4.4167159485
 30
0.0
 10
10.097764057
 20
4.3900424038
 30
0.0
 10
10.0575514896
 20
4.3589975181
 30
0.0
 10
9.9887563811
 20
4.3136524812
 30
0.0
 10
9.8953762917
 20
4.264874429
 30
0.0
 10
9.7744882097
 20
4.2190152317
 30
0.0
 10
9.6449508348
 20
4.1854564296
 30
0.0
 10
9.5073230631
 20
4.1646900401
 30
0.0
 10
9.4127245242
 20
4.1601602626
 30
0.0
 10
9.3643918433
 20
4.1601602626
 30
0.0
  0
SPLINE
  5
476
100
AcDbEntity
  8
0
100
AcDbSpline
 62
9
  6
CONTINUOUS
 70
0
 71
3
 72
15
 73
11
 74
0
 42
0.0000001
 43
0.0000001
 44
0.0000000001
 40
0.0
 40
0.0
 40
0.0
 40
0.0
 40
0.1056170918
 40
0.2182002257
 40
0.3368849206
 40
0.461141093
 40
0.5905946726
 40
0.7243144552
 40
0.8613343252
 40
1.0
 40
1.0
 40
1.0
 40
1.0
 10
8.9149173707
 20
9.6888503152
 30
0.0
 10
8.9270873475
 20
9.6758405782
 30
0.0
 10
8.9533648074
 20
9.6500023199
 30
0.0
 10
8.9971206564
 20
9.6136441077
 30
0.0
 10
9.046538616
 20
9.5795233091
 30
0.0
 10
9.1014993429
 20
9.5488992338
 30
0.0
 10
9.1616641813
 20
9.5230836718
 30
0.0
 10
9.2263613445
 20
9.5033162881
 30
0.0
 10
9.2944596323
 20
9.4909802492
 30
0.0
 10
9.341002877
 20
9.488090077
 30
0.0
 10
9.3643918924
 20
9.4880857722
 30
0.0
  0
SPLINE
  5
477
100
AcDbEntity
  8
0
100
AcDbSpline
 62
7
  6
CONTINUOUS
 70
0
 71
3
 72
17
 73
13
 74
0
 42
0.0000001
 43
0.0000001
 44
0.0000000001
 40
0.0
 40
0.0
 40
0.0
 40
0.0
 40
0.1274851741
 40
0.2531726035
 40
0.3770930349
 40
0.4386264804
 40
0.500000212
 40
0.5613739869
 40
0.6229074242
 40
0.7468275807
 40
0.8725148206
 40
1.0
 40
1.0
 40
1.0
 40
1.0
 10
6.8618355698
 20
11.4984046514
 30
0.0
 10
6.8468693972
 20
11.5092719698
 30
0.0
 10
6.8161229776
 20
11.5295117554
 30
0.0
 10
6.7669541256
 20
11.5538739813
 30
0.0
 10
6.7235773499
 20
11.5673035774
 30
0.0
 10
6.6881398265
 20
11.5728180159
 30
0.0
 10
6.6613917457
 20
11.5742106451
 30
0.0
 10
6.634643663
 20
11.5728180215
 30
0.0
 10
6.5992061896
 20
11.5673034904
 30
0.0
 10
6.5558294751
 20
11.5538739532
 30
0.0
 10
6.5066606876
 20
11.529511738
 30
0.0
 10
6.47591429
 20
11.5092719703
 30
0.0
 10
6.4609481168
 20
11.4984046514
 30
0.0
  0
SPLINE
  5
478
100
AcDbEntity
  8
0
100
AcDbSpline
 62
7
  6
CONTINUOUS
 70
0
 71
3
 72
17
 73
13
 74
0
 42
0.0000001
 43
0.0000001
 44
0.0000000001
 40
0.0
 40
0.0
 40
0.0
 40
0.0
 40
0.1274851741
 40
0.2531726035
 40
0.3770930349
 40
0.4386264804
 40
0.500000212
 40
0.5613739869
 40
0.6229074242
 40
0.7468275807
 40
0.8725148206
 40
1.0
 40
1.0
 40
1.0
 40
1.0
 10
6.2678355698
 20
11.4984046514
 30
0.0
 10
6.2528693972
 20
11.5092719698
 30
0.0
 10
6.2221229776
 20
11.5295117554
 30
0.0
 10
6.1729541256
 20
11.5538739813
 30
0.0
 10
6.1295773499
 20
11.5673035774
 30
0.0
 10
6.0941398265
 20
11.5728180159
 30
0.0
 10
6.0673917457
 20
11.5742106451
 30
0.0
 10
6.040643663
 20
11.5728180215
 30
0.0
 10
6.0052061896
 20
11.5673034904
 30
0.0
 10
5.9618294751
 20
11.5538739532
 30
0.0
 10
5.9126606876
 20
11.529511738
 30
0.0
 10
5.88191429
 20
11.5092719703
 30
0.0
 10
5.8669481168
 20
11.4984046514
 30
0.0
  0
SPLINE
  5
479
100
AcDbEntity
  8
0
100
AcDbSpline
 62
7
  6
CONTINUOUS
 70
0
 71
3
 72
9
 73
5
 74
0
 42
0.0000001
 43
0.0000001
 44
0.0000000001
 40
0.0
 40
0.0
 40
0.0
 40
0.0
 40
0.2490879914
 40
1.0
 40
1.0
 40
1.0
 40
1.0
 10
6.2314170719
 20
11.1279210944
 30
0.0
 10
6.2345247433
 20
11.1298090427
 30
0.0
 10
6.2469139362
 20
11.1375313755
 30
0.0
 10
6.2589654779
 20
11.1457907111
 30
0.0
 10
6.2678355698
 20
11.1522315104
 30
0.0
  0
SPLINE
  5
47A
100
AcDbEntity
  8
0
100
AcDbSpline
 62
7
  6
CONTINUOUS
 70
0
 71
3
 72
17
 73
13
 74
0
 42
0.0000001
 43
0.0000001
 44
0.0000000001
 40
0.0
 40
0.0
 40
0.0
 40
0.0
 40
0.1274851741
 40
0.2531726035
 40
0.3770930349
 40
0.4386264804
 40
0.500000212
 40
0.5613739869
 40
0.6229074242
 40
0.7468275807
 40
0.8725148206
 40
1.0
 40
1.0
 40
1.0
 40
1.0
 10
6.4609481168
 20
11.1522315104
 30
0.0
 10
6.4759142894
 20
11.141364192
 30
0.0
 10
6.506660709
 20
11.1211244064
 30
0.0
 10
6.5558295609
 20
11.0967621804
 30
0.0
 10
6.5992063366
 20
11.0833325843
 30
0.0
 10
6.6346438601
 20
11.0778181459
 30
0.0
 10
6.6613919408
 20
11.0764255166
 30
0.0
 10
6.6881400236
 20
11.0778181403
 30
0.0
 10
6.7235774969
 20
11.0833326713
 30
0.0
 10
6.7669542115
 20
11.0967622085
 30
0.0
 10
6.816122999
 20
11.1211244238
 30
0.0
 10
6.8468693966
 20
11.1413641915
 30
0.0
 10
6.8618355698
 20
11.1522315104
 30
0.0
  0
SPLINE
  5
47B
100
AcDbEntity
  8
0
100
AcDbSpline
 62
9
  6
CONTINUOUS
 70
0
 71
3
 72
10
 73
6
 74
0
 42
0.0000001
 43
0.0000001
 44
0.0000000001
 40
0.0
 40
0.0
 40
0.0
 40
0.0
 40
0.5606109109
 40
0.795594455
 40
1.0
 40
1.0
 40
1.0
 40
1.0
 10
8.889621372
 20
10.9417601859
 30
0.0
 10
8.8972003008
 20
10.9514554036
 30
0.0
 10
8.9086101678
 20
10.9647505467
 30
0.0
 10
8.9245262359
 20
10.9798864296
 30
0.0
 10
8.9320147174
 20
10.9859891361
 30
0.0
 10
8.9356369688
 20
10.9886370954
 30
0.0
  0
SPLINE
  5
47C
100
AcDbEntity
  8
0
100
AcDbSpline
 62
9
  6
CONTINUOUS
 70
0
 71
3
 72
15
 73
11
 74
0
 42
0.0000001
 43
0.0000001
 44
0.0000000001
 40
0.0
 40
0.0
 40
0.0
 40
0.0
 40
0.1386696645
 40
0.2756941722
 40
0.4094147954
 40
0.5388670296
 40
0.66312192
 40
0.7818052407
 40
0.8943862849
 40
1.0
 40
1.0
 40
1.0
 40
1.0
 10
9.3643918917
 20
9.4880861468
 30
0.0
 10
9.3877811388
 20
9.4880905906
 30
0.0
 10
9.4343249293
 20
9.4909810581
 30
0.0
 10
9.5024235468
 20
9.5033168753
 30
0.0
 10
9.5671201945
 20
9.5230840299
 30
0.0
 10
9.6272835064
 20
9.5488992516
 30
0.0
 10
9.6822426008
 20
9.5795224008
 30
0.0
 10
9.731659167
 20
9.6136417953
 30
0.0
 10
9.7754136999
 20
9.6499980933
 30
0.0
 10
9.801690372
 20
9.6758348425
 30
0.0
 10
9.813859907
 20
9.6888437527
 30
0.0
  0
SPLINE
  5
47D
100
AcDbEntity
  8
0
100
AcDbSpline
 62
9
  6
CONTINUOUS
 70
0
 71
3
 72
9
 73
5
 74
0
 42
0.0000001
 43
0.0000001
 44
0.0000000001
 40
0.0
 40
0.0
 40
0.0
 40
0.0
 40
0.2713636365
 40
1.0
 40
1.0
 40
1.0
 40
1.0
 10
9.5929784807
 20
9.7593965529
 30
0.0
 10
9.6086935314
 20
9.763280152
 30
0.0
 10
9.6662054158
 20
9.7791532186
 30
0.0
 10
9.7221071498
 20
9.8009242522
 30
0.0
 10
9.7611428698
 20
9.820041907
 30
0.0
  0
SPLINE
  5
47E
100
AcDbEntity
  8
0
100
AcDbSpline
 62
9
  6
CONTINUOUS
 70
0
 71
3
 72
9
 73
5
 74
0
 42
0.0000001
 43
0.0000001
 44
0.0000000001
 40
0.0
 40
0.0
 40
0.0
 40
0.0
 40
0.2620437657
 40
1.0
 40
1.0
 40
1.0
 40
1.0
 10
9.7611428698
 20
9.820041907
 30
0.0
 10
9.7668056501
 20
9.8228152408
 30
0.0
 10
9.7882843117
 20
9.8336633418
 30
0.0
 10
9.8092223445
 20
9.8455937559
 30
0.0
 10
9.8242486822
 20
9.8550554193
 30
0.0
  0
SPLINE
  5
47F
100
AcDbEntity
  8
0
100
AcDbSpline
 62
7
  6
CONTINUOUS
 70
0
 71
3
 72
26
 73
22
 74
0
 42
0.0000001
 43
0.0000001
 44
0.0000000001
 40
0.0
 40
0.0
 40
0.0
 40
0.0
 40
0.0008160814
 40
0.0032274851
 40
0.0072657026
 40
0.0129243247
 40
0.0201976522
 40
0.0290875882
 40
0.0517928614
 40
0.0811979139
 40
0.1174833657
 40
0.1608786396
 40
0.2116617426
 40
0.2702337996
 40
0.3370869213
 40
0.41286442
 40
0.4986377981
 40
0.5959187816
 40
0.7063972711
 40
0.8367236125
 40
1.0
 40
1.0
 40
1.0
 40
1.0
 10
11.854059183
 20
9.7916507862
 30
0.0
 10
11.8540636208
 20
9.7916442588
 30
0.0
 10
11.8541002837
 20
9.7916777046
 30
0.0
 10
11.8541431305
 20
9.7917085025
 30
0.0
 10
11.8542372833
 20
9.7917941405
 30
0.0
 10
11.8543590224
 20
9.7918974419
 30
0.0
 10
11.85452272
 20
9.7920334196
 30
0.0
 10
11.8548175764
 20
9.7922653346
 30
0.0
 10
11.8552869396
 20
9.7926236949
 30
0.0
 10
11.8559630224
 20
9.7931466471
 30
0.0
 10
11.8567884689
 20
9.7938039531
 30
0.0
 10
11.8577674062
 20
9.7946001064
 30
0.0
 10
11.8589037913
 20
9.7955442678
 30
0.0
 10
11.8601977872
 20
9.7966534886
 30
0.0
 10
11.8616516058
 20
9.7979472615
 30
0.0
 10
11.8632719012
 20
9.7994490717
 30
0.0
 10
11.8650589877
 20
9.8012030978
 30
0.0
 10
11.8669982803
 20
9.8032771712
 30
0.0
 10
11.8691715315
 20
9.8057217952
 30
0.0
 10
11.8715105785
 20
9.808864005
 30
0.0
 10
11.8728835089
 20
9.8113597205
 30
0.0
 10
11.8735909415
 20
9.8127715909
 30
0.0
  0
SPLINE
  5
480
100
AcDbEntity
  8
0
100
AcDbSpline
 62
7
  6
CONTINUOUS
 70
0
 71
3
 72
18
 73
14
 74
0
 42
0.0000001
 43
0.0000001
 44
0.0000000001
 40
0.0
 40
0.0
 40
0.0
 40
0.0
 40
0.1250164334
 40
0.2500322668
 40
0.3750452502
 40
0.5000529427
 40
0.6250463515
 40
0.6875644844
 40
0.7500834586
 40
0.8126053646
 40
0.8751242508
 40
0.9376235592
 40
1.0
 40
1.0
 40
1.0
 40
1.0
 10
12.7778183383
 20
10.5093647315
 30
0.0
 10
12.7778183383
 20
10.5120559435
 30
0.0
 10
12.7777332944
 20
10.5174389548
 30
0.0
 10
12.7772922415
 20
10.5255027988
 30
0.0
 10
12.7764617314
 20
10.5335375254
 30
0.0
 10
12.7751355012
 20
10.5415065493
 30
0.0
 10
12.7734851087
 20
10.5480418507
 30
0.0
 10
12.7717006613
 20
10.5531239495
 30
0.0
 10
12.7700719616
 20
10.5568239175
 30
0.0
 10
12.7680768026
 20
10.5603448399
 30
0.0
 10
12.7655926764
 20
10.563551637
 30
0.0
 10
12.7624724853
 20
10.5661788018
 30
0.0
 10
12.7598358629
 20
10.5671004941
 30
0.0
 10
12.7584976986
 20
10.5672116055
 30
0.0
  0
SPLINE
  5
481
100
AcDbEntity
  8
0
100
AcDbSpline
 62
7
  6
CONTINUOUS
 70
0
 71
3
 72
18
 73
14
 74
0
 42
0.0000001
 43
0.0000001
 44
0.0000000001
 40
0.0
 40
0.0
 40
0.0
 40
0.0
 40
0.0623796132
 40
0.1248777307
 40
0.1873967691
 40
0.2499183942
 40
0.3124372061
 40
0.3749552515
 40
0.4999482879
 40
0.6249556672
 40
0.7499683425
 40
0.874983869
 40
1.0
 40
1.0
 40
1.0
 40
1.0
 10
12.7584832126
 20
10.2324755067
 30
0.0
 10
12.7598217606
 20
10.23258665
 30
0.0
 10
12.7624596937
 20
10.2335051093
 30
0.0
 10
12.7655838224
 20
10.2361297468
 30
0.0
 10
12.7680700519
 20
10.2393361488
 30
0.0
 10
12.7700669708
 20
10.2428571798
 30
0.0
 10
12.7716968997
 20
10.2465576518
 30
0.0
 10
12.7734826016
 20
10.2516406472
 30
0.0
 10
12.775134039
 20
10.2581773256
 30
0.0
 10
12.7764610285
 20
10.2661481379
 30
0.0
 10
12.7772919815
 20
10.2741847178
 30
0.0
 10
12.7777332548
 20
10.2822504394
 30
0.0
 10
12.7778183383
 20
10.2876347079
 30
0.0
 10
12.7778183383
 20
10.2903265484
 30
0.0
  0
SPLINE
  5
482
100
AcDbEntity
  8
0
100
AcDbSpline
 62
9
  6
CONTINUOUS
 70
0
 71
3
 72
9
 73
5
 74
0
 42
0.0000001
 43
0.0000001
 44
0.0000000001
 40
0.0
 40
0.0
 40
0.0
 40
0.0
 40
0.2383806784
 40
1.0
 40
1.0
 40
1.0
 40
1.0
 10
9.7931478189
 20
10.9886366175
 30
0.0
 10
9.793892833
 20
10.988091901
 30
0.0
 10
9.7969929663
 20
10.9857724438
 30
0.0
 10
9.7999947184
 20
10.9833227248
 30
0.0
 10
9.8022325986
 20
10.981402688
 30
0.0
  0
SPLINE
  5
483
100
AcDbEntity
  8
0
100
AcDbSpline
 62
9
  6
CONTINUOUS
 70
0
 71
3
 72
9
 73
5
 74
0
 42
0.0000001
 43
0.0000001
 44
0.0000000001
 40
0.0
 40
0.0
 40
0.0
 40
0.0
 40
0.4586561781
 40
1.0
 40
1.0
 40
1.0
 40
1.0
 10
9.8022325986
 20
10.981402688
 30
0.0
 10
9.8078111541
 20
10.9766164481
 30
0.0
 10
9.8193497074
 20
10.965450566
 30
0.0
 10
9.8298688524
 20
10.9533369187
 30
0.0
 10
9.8353238755
 20
10.9465909686
 30
0.0
  0
SPLINE
  5
484
100
AcDbEntity
  8
0
100
AcDbSpline
 62
9
  6
CONTINUOUS
 70
0
 71
3
 72
11
 73
7
 74
0
 42
0.0000001
 43
0.0000001
 44
0.0000000001
 40
0.0
 40
0.0
 40
0.0
 40
0.0
 40
0.2729988318
 40
0.5269100382
 40
0.7678698837
 40
1.0
 40
1.0
 40
1.0
 40
1.0
 10
8.448922078
 20
4.2775966355
 30
0.0
 10
8.4489635192
 20
4.2723017916
 30
0.0
 10
8.4495084085
 20
4.2620786336
 30
0.0
 10
8.4516544948
 20
4.2473234333
 30
0.0
 10
8.4547576507
 20
4.233557332
 30
0.0
 10
8.4573324921
 20
4.2247435313
 30
0.0
 10
8.4587243719
 20
4.2204617523
 30
0.0
  0
SPLINE
  5
485
100
AcDbEntity
  8
0
100
AcDbSpline
 62
9
  6
CONTINUOUS
 70
0
 71
3
 72
23
 73
19
 74
0
 42
0.0000001
 43
0.0000001
 44
0.0000000001
 40
0.0
 40
0.0
 40
0.0
 40
0.0
 40
0.0157835268
 40
0.031154563
 40
0.061048013
 40
0.0757246063
 40
0.0902888807
 40
0.1191938195
 40
0.1766331989
 40
0.2053857334
 40
0.2342303744
 40
0.2923336563
 40
0.3511622924
 40
0.4714012549
 40
0.5957416794
 40
0.7247582368
 40
0.8591483574
 40
1.0
 40
1.0
 40
1.0
 40
1.0
 10
8.4587243719
 20
4.2204617523
 30
0.0
 10
8.4604254713
 20
4.2152287348
 30
0.0
 10
8.4641612987
 20
4.2050192182
 30
0.0
 10
8.4727054153
 20
4.1855158956
 30
0.0
 10
8.4827360109
 20
4.1671298322
 30
0.0
 10
8.493882898
 20
4.1497832051
 30
0.0
 10
8.5055192101
 20
4.1331778964
 30
0.0
 10
8.5273106753
 20
4.1055247164
 30
0.0
 10
8.5551940526
 20
4.076520612
 30
0.0
 10
8.5851246926
 20
4.0498146173
 30
0.0
 10
8.6164282738
 20
4.0243550455
 30
0.0
 10
8.6578992054
 20
3.9948735936
 30
0.0
 10
8.7286785759
 20
3.9520231058
 30
0.0
 10
8.8243753562
 20
3.9062839795
 30
0.0
 10
8.9476702442
 20
3.8635913416
 30
0.0
 10
9.079447117
 20
3.8324837446
 30
0.0
 10
9.2192634469
 20
3.8132552904
 30
0.0
 10
9.3152871529
 20
3.8090737656
 30
0.0
 10
9.3643918431
 20
3.8090737656
 30
0.0
  0
SPLINE
  5
486
100
AcDbEntity
  8
0
100
AcDbSpline
 62
9
  6
CONTINUOUS
 70
0
 71
3
 72
11
 73
7
 74
0
 42
0.0000001
 43
0.0000001
 44
0.0000000001
 40
0.0
 40
0.0
 40
0.0
 40
0.0
 40
0.2740282826
 40
0.5284036636
 40
0.7689623367
 40
1.0
 40
1.0
 40
1.0
 40
1.0
 10
10.3033345282
 20
3.8616208436
 30
0.0
 10
10.303308604
 20
3.8566850816
 30
0.0
 10
10.302837263
 20
3.847163204
 30
0.0
 10
10.3009086063
 20
3.8334310151
 30
0.0
 10
10.2980616505
 20
3.8206573562
 30
0.0
 10
10.295683863
 20
3.8124961236
 30
0.0
 10
10.2943964963
 20
3.8085387779
 30
0.0
  0
SPLINE
  5
487
100
AcDbEntity
  8
0
100
AcDbSpline
 62
9
  6
CONTINUOUS
 70
0
 71
3
 72
23
 73
19
 74
0
 42
0.0000001
 43
0.0000001
 44
0.0000000001
 40
0.0
 40
0.0
 40
0.0
 40
0.0
 40
0.0308815169
 40
0.0603104484
 40
0.0889783954
 40
0.117273082
 40
0.1454032734
 40
0.1735058723
 40
0.2016724017
 40
0.2299641137
 40
0.2870945366
 40
0.3451652771
 40
0.4043204852
 40
0.4646791203
 40
0.5893007762
 40
0.7196325875
 40
0.8562392074
 40
1.0
 40
1.0
 40
1.0
 40
1.0
 10
10.2943964963
 20
3.8085387779
 30
0.0
 10
10.2910608174
 20
3.7982849511
 30
0.0
 10
10.2829566453
 20
3.7787520688
 30
0.0
 10
10.2674164381
 20
3.7517749797
 30
0.0
 10
10.2496126706
 20
3.7273678643
 30
0.0
 10
10.2301677845
 20
3.7048653566
 30
0.0
 10
10.2092438256
 20
3.6840163902
 30
0.0
 10
10.1870759271
 20
3.6645730847
 30
0.0
 10
10.1637969788
 20
3.6463881197
 30
0.0
 10
10.1313591759
 20
3.6235437366
 30
0.0
 10
10.088429932
 20
3.5975799816
 30
0.0
 10
10.0340267468
 20
3.5701514815
 30
0.0
 10
9.9769071788
 20
3.5459184193
 30
0.0
 10
9.8965712836
 20
3.5172932902
 30
0.0
 10
9.7900736776
 20
3.4886391462
 30
0.0
 10
9.6553214764
 20
3.4647245463
 30
0.0
 10
9.5125204506
 20
3.45034635
 30
0.0
 10
9.4145881089
 20
3.4473341886
 30
0.0
 10
9.3643918435
 20
3.4473341886
 30
0.0
  0
SPLINE
  5
488
100
AcDbEntity
  8
0
100
AcDbSpline
 62
7
  6
CONTINUOUS
 70
0
 71
3
 72
12
 73
8
 74
0
 42
0.0000001
 43
0.0000001
 44
0.0000000001
 40
0.0
 40
0.0
 40
0.0
 40
0.0
 40
0.1989222365
 40
0.4223003575
 40
0.6862097315
 40
0.8382186114
 40
1.0
 40
1.0
 40
1.0
 40
1.0
 10
11.7607702437
 20
9.6183132102
 30
0.0
 10
11.7571829637
 20
9.6209579491
 30
0.0
 10
11.7499981669
 20
9.6271947687
 30
0.0
 10
11.7404322409
 20
9.6393618788
 30
0.0
 10
11.7343483353
 20
9.6525253748
 30
0.0
 10
11.7314106923
 20
9.6651673808
 30
0.0
 10
11.7308290474
 20
9.672209155
 30
0.0
 10
11.7308290474
 20
9.6758338383
 30
0.0
  0
SPLINE
  5
489
100
AcDbEntity
  8
0
100
AcDbSpline
 62
7
  6
CONTINUOUS
 70
0
 71
3
 72
18
 73
14
 74
0
 42
0.0000001
 43
0.0000001
 44
0.0000000001
 40
0.0
 40
0.0
 40
0.0
 40
0.0
 40
0.0532544004
 40
0.1037252804
 40
0.192468988
 40
0.2680659156
 40
0.3352775832
 40
0.455965749
 40
0.5683158152
 40
0.6773468931
 40
0.7850912102
 40
0.8924534417
 40
1.0
 40
1.0
 40
1.0
 40
1.0
 10
11.7308290474
 20
9.6758338383
 30
0.0
 10
11.7308290474
 20
9.6791653812
 30
0.0
 10
11.7313211426
 20
9.6856635347
 30
0.0
 10
11.7338507779
 20
9.6974642935
 30
0.0
 10
11.7391510205
 20
9.7099719262
 30
0.0
 10
11.7476502478
 20
9.7218167093
 30
0.0
 10
11.7595793142
 20
9.7332954683
 30
0.0
 10
11.7758160287
 20
9.7431698268
 30
0.0
 10
11.7960872977
 20
9.7503059603
 30
0.0
 10
11.8163244486
 20
9.7543552201
 30
0.0
 10
11.8365369191
 20
9.7562858807
 30
0.0
 10
11.8567391668
 20
9.7565468229
 30
0.0
 10
11.8701733082
 20
9.7556480886
 30
0.0
 10
11.8768581019
 20
9.7548867673
 30
0.0
  0
SPLINE
  5
48A
100
AcDbEntity
  8
0
100
AcDbSpline
 62
7
  6
CONTINUOUS
 70
0
 71
3
 72
9
 73
5
 74
0
 42
0.0000001
 43
0.0000001
 44
0.0000000001
 40
0.0
 40
0.0
 40
0.0
 40
0.0
 40
0.4936771066
 40
1.0
 40
1.0
 40
1.0
 40
1.0
 10
11.8768581019
 20
9.7548867673
 30
0.0
 10
11.8840362289
 20
9.7540692611
 30
0.0
 10
11.8985056957
 20
9.7516884973
 30
0.0
 10
11.9125625255
 20
9.7473310897
 30
0.0
 10
11.919390946
 20
9.7444545141
 30
0.0
  0
SPLINE
  5
48B
100
AcDbEntity
  8
0
100
AcDbSpline
 62
7
  6
CONTINUOUS
 70
0
 71
3
 72
11
 73
7
 74
0
 42
0.0000001
 43
0.0000001
 44
0.0000000001
 40
0.0
 40
0.0
 40
0.0
 40
0.0
 40
0.196465035
 40
0.4121740534
 40
0.6694786022
 40
1.0
 40
1.0
 40
1.0
 40
1.0
 10
11.919390946
 20
9.7444545141
 30
0.0
 10
11.9248024538
 20
9.7421748344
 30
0.0
 10
11.9358116836
 20
9.7364895091
 30
0.0
 10
11.9514485722
 20
9.7236949107
 30
0.0
 10
11.9652211025
 20
9.703539557
 30
0.0
 10
11.969116561
 20
9.6857126904
 30
0.0
 10
11.969116561
 20
9.6758338384
 30
0.0
  0
SPLINE
  5
48C
100
AcDbEntity
  8
0
100
AcDbSpline
 62
7
  6
CONTINUOUS
 70
0
 71
3
 72
12
 73
8
 74
0
 42
0.0000001
 43
0.0000001
 44
0.0000000001
 40
0.0
 40
0.0
 40
0.0
 40
0.0
 40
0.1617815817
 40
0.3137902435
 40
0.5776995879
 40
0.8010777501
 40
1.0
 40
1.0
 40
1.0
 40
1.0
 10
11.969116561
 20
9.6758338384
 30
0.0
 10
11.969116561
 20
9.6722091503
 30
0.0
 10
11.968534763
 20
9.6651673884
 30
0.0
 10
11.9655972009
 20
9.6525253735
 30
0.0
 10
11.9595132611
 20
9.6393618846
 30
0.0
 10
11.9499473441
 20
9.6271947707
 30
0.0
 10
11.9427625438
 20
9.6209579496
 30
0.0
 10
11.9391752631
 20
9.6183132102
 30
0.0
  0
SPLINE
  5
48D
100
AcDbEntity
  8
0
100
AcDbSpline
 62
9
  6
CONTINUOUS
 70
0
 71
3
 72
11
 73
7
 74
0
 42
0.0000001
 43
0.0000001
 44
0.0000000001
 40
0.0
 40
0.0
 40
0.0
 40
0.0
 40
0.2729988318
 40
0.5269100382
 40
0.7678698837
 40
1.0
 40
1.0
 40
1.0
 40
1.0
 10
10.2798616085
 20
4.2775966355
 30
0.0
 10
10.2798201673
 20
4.2723017916
 30
0.0
 10
10.279275278
 20
4.2620786336
 30
0.0
 10
10.2771291917
 20
4.2473234333
 30
0.0
 10
10.2740260359
 20
4.233557332
 30
0.0
 10
10.2714511944
 20
4.2247435313
 30
0.0
 10
10.2700593146
 20
4.2204617523
 30
0.0
  0
SPLINE
  5
48E
100
AcDbEntity
  8
0
100
AcDbSpline
 62
9
  6
CONTINUOUS
 70
0
 71
3
 72
23
 73
19
 74
0
 42
0.0000001
 43
0.0000001
 44
0.0000000001
 40
0.0
 40
0.0
 40
0.0
 40
0.0
 40
0.0157835268
 40
0.031154563
 40
0.061048013
 40
0.0757246063
 40
0.0902888807
 40
0.1191938195
 40
0.1766331989
 40
0.2053857334
 40
0.2342303744
 40
0.2923336562
 40
0.3511622924
 40
0.4714012549
 40
0.5957416793
 40
0.7247582368
 40
0.8591483574
 40
1.0
 40
1.0
 40
1.0
 40
1.0
 10
10.2700593146
 20
4.2204617523
 30
0.0
 10
10.2683582152
 20
4.2152287348
 30
0.0
 10
10.2646223878
 20
4.2050192182
 30
0.0
 10
10.2560782712
 20
4.1855158956
 30
0.0
 10
10.2460476757
 20
4.1671298322
 30
0.0
 10
10.2349007885
 20
4.1497832051
 30
0.0
 10
10.2232644764
 20
4.1331778964
 30
0.0
 10
10.2014730112
 20
4.1055247164
 30
0.0
 10
10.173589634
 20
4.076520612
 30
0.0
 10
10.1436589939
 20
4.0498146173
 30
0.0
 10
10.1123554127
 20
4.0243550455
 30
0.0
 10
10.0708844811
 20
3.9948735935
 30
0.0
 10
10.0001051105
 20
3.9520231057
 30
0.0
 10
9.9044083302
 20
3.9062839795
 30
0.0
 10
9.7811134422
 20
3.8635913416
 30
0.0
 10
9.6493365694
 20
3.8324837446
 30
0.0
 10
9.5095202394
 20
3.8132552903
 30
0.0
 10
9.4134965334
 20
3.8090737656
 30
0.0
 10
9.3643918432
 20
3.8090737656
 30
0.0
  0
SPLINE
  5
48F
100
AcDbEntity
  8
0
100
AcDbSpline
 62
7
  6
CONTINUOUS
 70
0
 71
3
 72
11
 73
7
 74
0
 42
0.0000001
 43
0.0000001
 44
0.0000000001
 40
0.0
 40
0.0
 40
0.0
 40
0.0
 40
0.204281627
 40
0.4437044606
 40
0.710780407
 40
1.0
 40
1.0
 40
1.0
 40
1.0
 10
11.8735777316
 20
9.8128296372
 30
0.0
 10
11.878760544
 20
9.8230682258
 30
0.0
 10
11.8902678016
 20
9.8451801104
 30
0.0
 10
11.9091996094
 20
9.8803357847
 30
0.0
 10
11.9307206591
 20
9.9195142045
 30
0.0
 10
11.9458332564
 20
9.9468671616
 30
0.0
 10
11.9536981385
 20
9.9610837396
 30
0.0
  0
SPLINE
  5
490
100
AcDbEntity
  8
0
100
AcDbSpline
 62
7
  6
CONTINUOUS
 70
0
 71
3
 72
9
 73
5
 74
0
 42
0.0000001
 43
0.0000001
 44
0.0000000001
 40
0.0
 40
0.0
 40
0.0
 40
0.0
 40
0.480476986
 40
1.0
 40
1.0
 40
1.0
 40
1.0
 10
11.5925679047
 20
10.1872592262
 30
0.0
 10
11.5914092209
 20
10.2212586423
 30
0.0
 10
11.5893386066
 20
10.2920317139
 30
0.0
 10
11.5873667326
 20
10.3628069812
 30
0.0
 10
11.5863204659
 20
10.3995758237
 30
0.0
  0
LINE
  5
491
100
AcDbEntity
  8
0
100
AcDbLine
 62
7
  6
CONTINUOUS
 10
11.5863204659
 20
10.3995758237
 11
11.5860631035
 21
10.4086033086
  0
SPLINE
  5
492
100
AcDbEntity
  8
0
100
AcDbSpline
 62
7
  6
CONTINUOUS
 70
0
 71
3
 72
16
 73
12
 74
0
 42
0.0000001
 43
0.0000001
 44
0.0000000001
 40
0.0
 40
0.0
 40
0.0
 40
0.0
 40
0.1422165905
 40
0.2825145714
 40
0.419303711
 40
0.5510630994
 40
0.67639161
 40
0.7362137944
 40
0.7939137047
 40
0.9022518731
 40
1.0
 40
1.0
 40
1.0
 40
1.0
 10
11.5860631035
 20
10.4086033086
 30
0.0
 10
11.5856547327
 20
10.4228993236
 30
0.0
 10
11.5848361058
 20
10.4512982772
 30
0.0
 10
11.583628322
 20
10.493447771
 30
0.0
 10
11.5825104992
 20
10.5345477747
 30
0.0
 10
11.5814646348
 20
10.5741436997
 30
0.0
 10
11.5804460186
 20
10.605997651
 30
0.0
 10
11.5794293268
 20
10.6303986995
 30
0.0
 10
11.5783046994
 20
10.6530844357
 30
0.0
 10
11.5767942901
 20
10.6795686828
 30
0.0
 10
11.5756452466
 20
10.7002621068
 30
0.0
 10
11.5751944814
 20
10.7100816931
 30
0.0
  0
SPLINE
  5
493
100
AcDbEntity
  8
0
100
AcDbSpline
 62
9
  6
CONTINUOUS
 70
0
 71
3
 72
11
 73
7
 74
0
 42
0.0000001
 43
0.0000001
 44
0.0000000001
 40
0.0
 40
0.0
 40
0.0
 40
0.0
 40
0.2718527913
 40
0.5256280745
 40
0.7670531648
 40
1.0
 40
1.0
 40
1.0
 40
1.0
 10
8.4699160918
 20
4.6496424486
 30
0.0
 10
8.4699545753
 20
4.6443707993
 30
0.0
 10
8.470472261
 20
4.6341748086
 30
0.0
 10
8.4725070309
 20
4.6194245301
 30
0.0
 10
8.4754532026
 20
4.6056051513
 30
0.0
 10
8.4778995663
 20
4.5967315349
 30
0.0
 10
8.479223004
 20
4.5924124243
 30
0.0
  0
SPLINE
  5
494
100
AcDbEntity
  8
0
100
AcDbSpline
 62
9
  6
CONTINUOUS
 70
0
 71
3
 72
22
 73
18
 74
0
 42
0.0000001
 43
0.0000001
 44
0.0000000001
 40
0.0
 40
0.0
 40
0.0
 40
0.0
 40
0.015990135
 40
0.0315723949
 40
0.0618835111
 40
0.091510767
 40
0.1207760732
 40
0.1788283938
 40
0.2078329707
 40
0.2368957069
 40
0.2953348336
 40
0.3543740288
 40
0.4746894161
 40
0.5986977971
 40
0.7270228801
 40
0.8604134999
 40
1.0
 40
1.0
 40
1.0
 40
1.0
 10
8.479223004
 20
4.5924124243
 30
0.0
 10
8.480845083
 20
4.5871186819
 30
0.0
 10
8.4844093541
 20
4.5767743033
 30
0.0
 10
8.4925691936
 20
4.5569510925
 30
0.0
 10
8.5044973052
 20
4.5336254061
 30
0.0
 10
8.5209699875
 20
4.5074616201
 30
0.0
 10
8.5449280764
 20
4.4747839912
 30
0.0
 10
8.5717974083
 20
4.4446393405
 30
0.0
 10
8.6007377835
 20
4.4167159485
 30
0.0
 10
8.6310196296
 20
4.3900424038
 30
0.0
 10
8.6712321969
 20
4.3589975181
 30
0.0
 10
8.7400273055
 20
4.3136524812
 30
0.0
 10
8.8334073949
 20
4.264874429
 30
0.0
 10
8.9542954769
 20
4.2190152317
 30
0.0
 10
9.0838328518
 20
4.1854564296
 30
0.0
 10
9.2214606235
 20
4.1646900401
 30
0.0
 10
9.3160591624
 20
4.1601602626
 30
0.0
 10
9.3643918433
 20
4.1601602626
 30
0.0
  0
SPLINE
  5
495
100
AcDbEntity
  8
0
100
AcDbSpline
 62
9
  6
CONTINUOUS
 70
0
 71
3
 72
31
 73
27
 74
0
 42
0.0000001
 43
0.0000001
 44
0.0000000001
 40
0.0
 40
0.0
 40
0.0
 40
0.0
 40
0.1250255528
 40
0.2500460817
 40
0.3125606739
 40
0.3750745476
 40
0.4375874179
 40
0.500099215
 40
0.5626095577
 40
0.6251175605
 40
0.6563737169
 40
0.6876293171
 40
0.7188871497
 40
0.7501496692
 40
0.7814119462
 40
0.8126705268
 40
0.8439265108
 40
0.8751758415
 40
0.8908029743
 40
0.9064270574
 40
0.9220454871
 40
0.9376669101
 40
0.9532933018
 40
0.9689060167
 40
0.9844818197
 40
1.0
 40
1.0
 40
1.0
 40
1.0
 10
9.3643918342
 20
3.0592853361
 30
0.0
 10
9.4095752879
 20
3.0592837649
 30
0.0
 10
9.4999569656
 20
3.0614553576
 30
0.0
 10
9.6126462039
 20
3.0700302846
 30
0.0
 10
9.7024005703
 20
3.0806166562
 30
0.0
 10
9.7694617209
 20
3.0905096974
 30
0.0
 10
9.8361740429
 20
3.102536919
 30
0.0
 10
9.9024195537
 20
3.1169261316
 30
0.0
 10
9.9680369171
 20
3.133957577
 30
0.0
 10
10.0220118433
 20
3.1506738462
 30
0.0
 10
10.0645752802
 20
3.1658473974
 30
0.0
 10
10.0961352551
 20
3.1782070455
 30
0.0
 10
10.1272441558
 20
3.1916730761
 30
0.0
 10
10.1577701878
 20
3.2064245859
 30
0.0
 10
10.1875726027
 20
3.2225957723
 30
0.0
 10
10.2164286796
 20
3.2404103293
 30
0.0
 10
10.2440043114
 20
3.2601557743
 30
0.0
 10
10.2655031227
 20
3.2785394726
 30
0.0
 10
10.2814232526
 20
3.2945779127
 30
0.0
 10
10.2926058605
 20
3.3073184479
 30
0.0
 10
10.3027725372
 20
3.3208880898
 30
0.0
 10
10.3117166189
 20
3.3352997277
 30
0.0
 10
10.3191954702
 20
3.3505286178
 30
0.0
 10
10.3249286591
 20
3.3664883409
 30
0.0
 10
10.3285849476
 20
3.3830210291
 30
0.0
 10
10.3293782615
 20
3.3942766186
 30
0.0
 10
10.3293899116
 20
3.3998847799
 30
0.0
  0
LINE
  5
496
100
AcDbEntity
  8
0
100
AcDbLine
 62
7
  6
CONTINUOUS
 10
11.5952249579
 20
10.3998279388
 11
11.5865148754
 21
10.6791532814
  0
LINE
  5
497
100
AcDbEntity
  8
0
100
AcDbLine
 62
7
  6
CONTINUOUS
 10
11.5852226425
 20
10.7129089415
 11
11.5850755715
 21
10.71630095
  0
LINE
  5
498
100
AcDbEntity
  8
0
100
AcDbLine
 62
7
  6
CONTINUOUS
 10
11.5850755715
 20
10.71630095
 11
11.5834344638
 21
10.7482501107
  0
SPLINE
  5
499
100
AcDbEntity
  8
0
100
AcDbSpline
 62
7
  6
CONTINUOUS
 70
0
 71
3
 72
17
 73
13
 74
0
 42
0.0000001
 43
0.0000001
 44
0.0000000001
 40
0.0
 40
0.0
 40
0.0
 40
0.0
 40
0.2136086333
 40
0.4031227649
 40
0.5678478409
 40
0.7070804247
 40
0.8201340582
 40
0.9066388594
 40
0.9399019643
 40
0.9665071461
 40
0.9864932219
 40
1.0
 40
1.0
 40
1.0
 40
1.0
 10
11.5834344638
 20
10.7482501107
 30
0.0
 10
11.5831824103
 20
10.7523772632
 30
0.0
 10
11.5826684656
 20
10.7601637654
 30
0.0
 10
11.5818341962
 20
10.7711241219
 30
0.0
 10
11.5810174778
 20
10.7806414382
 30
0.0
 10
11.5802508564
 20
10.7886772915
 30
0.0
 10
11.5795748298
 20
10.7952001387
 30
0.0
 10
11.5790523649
 20
10.7996774269
 30
0.0
 10
11.5786405168
 20
10.8024804973
 30
0.0
 10
11.5783690623
 20
10.8040035209
 30
0.0
 10
11.5781027165
 20
10.8051346935
 30
0.0
 10
11.5778945912
 20
10.8057541791
 30
0.0
 10
11.5777722742
 20
10.8059852541
 30
0.0
  0
SPLINE
  5
49A
100
AcDbEntity
  8
0
100
AcDbSpline
 62
9
  6
CONTINUOUS
 70
0
 71
3
 72
29
 73
25
 74
0
 42
0.0000001
 43
0.0000001
 44
0.0000000001
 40
0.0
 40
0.0
 40
0.0
 40
0.0
 40
0.1249658859
 40
0.2499325774
 40
0.3124158711
 40
0.3748998304
 40
0.4373816577
 40
0.4998629398
 40
0.5623431262
 40
0.6248203002
 40
0.687294687
 40
0.7497615748
 40
0.7810055683
 40
0.8122689588
 40
0.843532305
 40
0.8591609073
 40
0.8747916962
 40
0.8904229942
 40
0.9060719046
 40
0.9217553998
 40
0.9374323171
 40
0.9530947153
 40
0.9687865703
 40
1.0
 40
1.0
 40
1.0
 40
1.0
 10
9.3643918433
 20
3.0571603453
 30
0.0
 10
9.409625533
 20
3.0571606184
 30
0.0
 10
9.5001093166
 20
3.0593523907
 30
0.0
 10
9.6129251698
 20
3.0679459839
 30
0.0
 10
9.7027760493
 20
3.0785860398
 30
0.0
 10
9.7699075271
 20
3.0885112122
 30
0.0
 10
9.8366886837
 20
3.1005785707
 30
0.0
 10
9.9030002734
 20
3.1150125582
 30
0.0
 10
9.9686868832
 20
3.1320795735
 30
0.0
 10
10.033505701
 20
3.1522141904
 30
0.0
 10
10.0971160109
 20
3.1759041514
 30
0.0
 10
10.1486322742
 20
3.1993654048
 30
0.0
 10
10.1883722577
 20
3.2210180779
 30
0.0
 10
10.2172250319
 20
3.2389340253
 30
0.0
 10
10.2401939544
 20
3.2555041318
 30
0.0
 10
10.257651242
 20
3.2699170848
 30
0.0
 10
10.2702161518
 20
3.281339142
 30
0.0
 10
10.2821192423
 20
3.2934639775
 30
0.0
 10
10.2932088946
 20
3.3063663557
 30
0.0
 10
10.3033091528
 20
3.3200838978
 30
0.0
 10
10.312176735
 20
3.3346398221
 30
0.0
 10
10.3195366832
 20
3.3500336748
 30
0.0
 10
10.3268871774
 20
3.3714852148
 30
0.0
 10
10.329391464
 20
3.3885473677
 30
0.0
 10
10.3293918525
 20
3.3998456399
 30
0.0
  0
SPLINE
  5
49B
100
AcDbEntity
  8
0
100
AcDbSpline
 62
9
  6
CONTINUOUS
 70
0
 71
3
 72
28
 73
24
 74
0
 42
0.0000001
 43
0.0000001
 44
0.0000000001
 40
0.0
 40
0.0
 40
0.0
 40
0.0
 40
0.0255614026
 40
0.0485280078
 40
0.0689688317
 40
0.0876374892
 40
0.1052626157
 40
0.1221081859
 40
0.1383076134
 40
0.1539564992
 40
0.1839103852
 40
0.2127392051
 40
0.2410654384
 40
0.269131822
 40
0.3249434561
 40
0.3809223932
 40
0.4375337493
 40
0.4950201474
 40
0.5535367295
 40
0.6131753905
 40
0.736124654
 40
0.8647215622
 40
1.0
 40
1.0
 40
1.0
 40
1.0
 10
10.4074604029
 20
3.3998456399
 30
0.0
 10
10.4074604029
 20
3.3895497568
 30
0.0
 10
10.4059202445
 20
3.3699681988
 30
0.0
 10
10.3997727605
 20
3.3428036326
 30
0.0
 10
10.3913841709
 20
3.3191887459
 30
0.0
 10
10.3813598745
 20
3.2986123959
 30
0.0
 10
10.3704064068
 20
3.280199045
 30
0.0
 10
10.3586433562
 20
3.2634974232
 30
0.0
 10
10.3462464463
 20
3.2482801438
 30
0.0
 10
10.329380387
 20
3.2299571672
 30
0.0
 10
10.3074778122
 20
3.2094143839
 30
0.0
 10
10.2798638568
 20
3.1877158394
 30
0.0
 10
10.2515107103
 20
3.1683287941
 30
0.0
 10
10.2127931299
 20
3.1449796489
 30
0.0
 10
10.162531879
 20
3.1193651138
 30
0.0
 10
10.0998452918
 20
3.0933305408
 30
0.0
 10
10.0351329995
 20
3.0707533249
 30
0.0
 10
9.9683865218
 20
3.051195943
 30
0.0
 10
9.8996770231
 20
3.034256748
 30
0.0
 10
9.804528534
 20
3.0147147247
 30
0.0
 10
9.6804843739
 20
2.9960455885
 30
0.0
 10
9.5251995062
 20
2.9822816643
 30
0.0
 10
9.4188806757
 20
2.9792770803
 30
0.0
 10
9.3643918433
 20
2.9792770803
 30
0.0
  0
SPLINE
  5
49C
100
AcDbEntity
  8
0
100
AcDbSpline
 62
7
  6
CONTINUOUS
 70
0
 71
3
 72
12
 73
8
 74
0
 42
0.0000001
 43
0.0000001
 44
0.0000000001
 40
0.0
 40
0.0
 40
0.0
 40
0.0
 40
0.0546626644
 40
0.2229308988
 40
0.5206702334
 40
0.7307014403
 40
1.0
 40
1.0
 40
1.0
 40
1.0
 10
11.8540461533
 20
11.0080214001
 30
0.0
 10
11.854387205
 20
11.0077637111
 30
0.0
 10
11.8557721005
 20
11.0067050395
 30
0.0
 10
11.8589498806
 20
11.0041597348
 30
0.0
 10
11.8629266941
 20
11.000665896
 30
0.0
 10
11.8671602607
 20
10.9963079989
 30
0.0
 10
11.869607976
 20
10.9934497509
 30
0.0
 10
11.8708043815
 20
10.9917168867
 30
0.0
  0
LINE
  5
49D
100
AcDbEntity
  8
0
100
AcDbLine
 62
7
  6
CONTINUOUS
 10
11.8708043815
 20
10.9917168867
 11
11.8735948084
 21
10.9869482745
  0
SPLINE
  5
49E
100
AcDbEntity
  8
0
100
AcDbSpline
 62
7
  6
CONTINUOUS
 70
0
 71
3
 72
10
 73
6
 74
0
 42
0.0000001
 43
0.0000001
 44
0.0000000001
 40
0.0
 40
0.0
 40
0.0
 40
0.0
 40
0.4438969324
 40
0.7108554283
 40
1.0
 40
1.0
 40
1.0
 40
1.0
 10
11.8735948295
 20
10.9869481301
 30
0.0
 10
11.8848447538
 20
10.964683892
 30
0.0
 10
11.9036445671
 20
10.9294281248
 30
0.0
 10
11.9307197771
 20
10.8801865117
 30
0.0
 10
11.9458256246
 20
10.8528290676
 30
0.0
 10
11.9536907822
 20
10.8386108193
 30
0.0
  0
SPLINE
  5
49F
100
AcDbEntity
  8
0
100
AcDbSpline
 62
7
  6
CONTINUOUS
 70
0
 71
3
 72
9
 73
5
 74
0
 42
0.0000001
 43
0.0000001
 44
0.0000000001
 40
0.0
 40
0.0
 40
0.0
 40
0.0
 40
0.5000023348
 40
1.0
 40
1.0
 40
1.0
 40
1.0
 10
12.3643918433
 20
9.7563695353
 30
0.0
 10
12.3756072768
 20
9.7563695353
 30
0.0
 10
12.3980394996
 20
9.7559994534
 30
0.0
 10
12.4204466323
 20
9.7548335737
 30
0.0
 10
12.4316315419
 20
9.7540081057
 30
0.0
  0
SPLINE
  5
4A0
100
AcDbEntity
  8
0
100
AcDbSpline
 62
7
  6
CONTINUOUS
 70
0
 71
3
 72
18
 73
14
 74
0
 42
0.0000001
 43
0.0000001
 44
0.0000000001
 40
0.0
 40
0.0
 40
0.0
 40
0.0
 40
0.1250169506
 40
0.2500330284
 40
0.3750461442
 40
0.5000516328
 40
0.6250373525
 40
0.6875587675
 40
0.7500838914
 40
0.812608997
 40
0.8751369145
 40
0.9376013219
 40
1.0
 40
1.0
 40
1.0
 40
1.0
 10
12.4316315419
 20
9.7540081057
 30
0.0
 10
12.4399962754
 20
9.7533907722
 30
0.0
 10
12.4567075607
 20
9.7518834497
 30
0.0
 10
12.481664596
 20
9.7486155461
 30
0.0
 10
12.506426372
 20
9.7440622187
 30
0.0
 10
12.5308205478
 20
9.7378134921
 30
0.0
 10
12.5505959452
 20
9.7306784349
 30
0.0
 10
12.5656846523
 20
9.7233091004
 30
0.0
 10
12.5764557547
 20
9.7167563781
 30
0.0
 10
12.586367773
 20
9.7089395111
 30
0.0
 10
12.5948960021
 20
9.6995784575
 30
0.0
 10
12.6010414786
 20
9.6884467424
 30
0.0
 10
12.6026748521
 20
9.6800202089
 30
0.0
 10
12.6026748521
 20
9.6758338339
 30
0.0
  0
SPLINE
  5
4A1
100
AcDbEntity
  8
0
100
AcDbSpline
 62
7
  6
CONTINUOUS
 70
0
 71
3
 72
13
 73
9
 74
0
 42
0.0000001
 43
0.0000001
 44
0.0000000001
 40
0.0
 40
0.0
 40
0.0
 40
0.0
 40
0.1249150198
 40
0.2498991014
 40
0.3749894444
 40
0.5000778114
 40
0.7499559386
 40
1.0
 40
1.0
 40
1.0
 40
1.0
 10
12.6026748521
 20
9.6758338339
 30
0.0
 10
12.6026748521
 20
9.6721746287
 30
0.0
 10
12.6014278071
 20
9.6648194825
 30
0.0
 10
12.5966313286
 20
9.6548184785
 30
0.0
 10
12.5897497905
 20
9.6461599036
 30
0.0
 10
12.5788571444
 20
9.6362986759
 30
0.0
 10
12.5631640379
 20
9.6266141405
 30
0.0
 10
12.5496694655
 20
9.6208466394
 30
0.0
 10
12.5427968626
 20
9.6183132102
 30
0.0
  0
SPLINE
  5
4A2
100
AcDbEntity
  8
0
100
AcDbSpline
 62
7
  6
CONTINUOUS
 70
0
 71
3
 72
13
 73
9
 74
0
 42
0.0000001
 43
0.0000001
 44
0.0000000001
 40
0.0
 40
0.0
 40
0.0
 40
0.0
 40
0.2500441099
 40
0.4999222497
 40
0.6250107768
 40
0.7501009621
 40
0.875085533
 40
1.0
 40
1.0
 40
1.0
 40
1.0
 10
12.1859868239
 20
9.6183132102
 30
0.0
 10
12.179114226
 20
9.6208466375
 30
0.0
 10
12.165619655
 20
9.6266141288
 30
0.0
 10
12.1499265895
 20
9.6362986721
 30
0.0
 10
12.1390338832
 20
9.6461598557
 30
0.0
 10
12.1321525081
 20
9.6548184909
 30
0.0
 10
12.127355518
 20
9.6648193486
 30
0.0
 10
12.1261094231
 20
9.6721746481
 30
0.0
 10
12.1261094231
 20
9.6758338337
 30
0.0
  0
SPLINE
  5
4A3
100
AcDbEntity
  8
0
100
AcDbSpline
 62
7
  6
CONTINUOUS
 70
0
 71
3
 72
9
 73
5
 74
0
 42
0.0000001
 43
0.0000001
 44
0.0000000001
 40
0.0
 40
0.0
 40
0.0
 40
0.0
 40
0.2650119599
 40
1.0
 40
1.0
 40
1.0
 40
1.0
 10
11.4391158803
 20
9.9767522315
 30
0.0
 10
11.4368645746
 20
9.9767634355
 30
0.0
 10
11.4283690284
 20
9.9765343448
 30
0.0
 10
11.4199097113
 20
9.9753127863
 30
0.0
 10
11.4138183383
 20
9.973941206
 30
0.0
  0
SPLINE
  5
4A4
100
AcDbEntity
  8
0
100
AcDbSpline
 62
7
  6
CONTINUOUS
 70
0
 71
3
 72
9
 73
5
 74
0
 42
0.0000001
 43
0.0000001
 44
0.0000000001
 40
0.0
 40
0.0
 40
0.0
 40
0.0
 40
0.2313353946
 40
1.0
 40
1.0
 40
1.0
 40
1.0
 10
11.4138183383
 20
10.8257500738
 30
0.0
 10
11.4157352762
 20
10.8253184414
 30
0.0
 10
11.4240649172
 20
10.8236556123
 30
0.0
 10
11.4325870267
 20
10.8229065566
 30
0.0
 10
11.4391158803
 20
10.8229390484
 30
0.0
  0
SPLINE
  5
4A5
100
AcDbEntity
  8
0
100
AcDbSpline
 62
7
  6
CONTINUOUS
 70
0
 71
3
 72
18
 73
14
 74
0
 42
0.0000001
 43
0.0000001
 44
0.0000000001
 40
0.0
 40
0.0
 40
0.0
 40
0.0
 40
0.0623990666
 40
0.1248634297
 40
0.1873911439
 40
0.2499161382
 40
0.3124412548
 40
0.3749626521
 40
0.4999483456
 40
0.624953827
 40
0.7499669502
 40
0.874983039
 40
1.0
 40
1.0
 40
1.0
 40
1.0
 10
12.1261094231
 20
9.6758338337
 30
0.0
 10
12.1261094231
 20
9.6800192805
 30
0.0
 10
12.1277410125
 20
9.688444115
 30
0.0
 10
12.1338846552
 20
9.6995736496
 30
0.0
 10
12.1424096284
 20
9.7089336235
 30
0.0
 10
12.1523185531
 20
9.7167497852
 30
0.0
 10
12.1630864648
 20
9.7233021901
 30
0.0
 10
12.1781709797
 20
9.7306713934
 30
0.0
 10
12.1979412028
 20
9.7378066859
 30
0.0
 10
12.2223292994
 20
9.744056033
 30
0.0
 10
12.2470850947
 20
9.7486101789
 30
0.0
 10
12.2720362251
 20
9.7518790246
 30
0.0
 10
12.2887436108
 20
9.753387035
 30
0.0
 10
12.2971064014
 20
9.7540047283
 30
0.0
  0
SPLINE
  5
4A6
100
AcDbEntity
  8
0
100
AcDbSpline
 62
7
  6
CONTINUOUS
 70
0
 71
3
 72
9
 73
5
 74
0
 42
0.0000001
 43
0.0000001
 44
0.0000000001
 40
0.0
 40
0.0
 40
0.0
 40
0.0
 40
0.4999976556
 40
1.0
 40
1.0
 40
1.0
 40
1.0
 10
12.2971064014
 20
9.7540047283
 30
0.0
 10
12.3082988837
 20
9.7548314287
 30
0.0
 10
12.3307212545
 20
9.7559989552
 30
0.0
 10
12.3531687663
 20
9.7563695353
 30
0.0
 10
12.3643918433
 20
9.7563695353
 30
0.0
  0
SPLINE
  5
4A7
100
AcDbEntity
  8
0
100
AcDbSpline
 62
7
  6
CONTINUOUS
 70
0
 71
3
 72
11
 73
7
 74
0
 42
0.0000001
 43
0.0000001
 44
0.0000000001
 40
0.0
 40
0.0
 40
0.0
 40
0.0
 40
0.249998878
 40
0.5000149929
 40
0.7500231982
 40
1.0
 40
1.0
 40
1.0
 40
1.0
 10
12.3643918433
 20
9.581134737
 30
0.0
 10
12.3796554524
 20
9.581134737
 30
0.0
 10
12.4102126292
 20
9.5830247306
 30
0.0
 10
12.4553790109
 20
9.5910212059
 30
0.0
 10
12.4996020996
 20
9.6030799088
 30
0.0
 10
12.5284765833
 20
9.613034364
 30
0.0
 10
12.5427968626
 20
9.6183132102
 30
0.0
  0
SPLINE
  5
4A8
100
AcDbEntity
  8
0
100
AcDbSpline
 62
7
  6
CONTINUOUS
 70
0
 71
3
 72
17
 73
13
 74
0
 42
0.0000001
 43
0.0000001
 44
0.0000000001
 40
0.0
 40
0.0
 40
0.0
 40
0.0
 40
0.1335321869
 40
0.2613236353
 40
0.3227723752
 40
0.3827644492
 40
0.500001028
 40
0.6172385497
 40
0.6772312021
 40
0.7386799458
 40
0.8664695415
 40
1.0
 40
1.0
 40
1.0
 40
1.0
 10
12.7896084234
 20
9.6183132102
 30
0.0
 10
12.7966459465
 20
9.6131247636
 30
0.0
 10
12.8107083318
 20
9.6033504968
 30
0.0
 10
12.8292711467
 20
9.5930994963
 30
0.0
 10
12.84444127
 20
9.5870205752
 30
0.0
 10
12.8594819871
 20
9.5826868939
 30
0.0
 10
12.8788108609
 20
9.5804655549
 30
0.0
 10
12.8981395338
 20
9.5826884679
 30
0.0
 10
12.9131801744
 20
9.5870226822
 30
0.0
 10
12.9283503087
 20
9.5931012929
 30
0.0
 10
12.9469134569
 20
9.6033511642
 30
0.0
 10
12.9609760108
 20
9.6131248308
 30
0.0
 10
12.9680134428
 20
9.6183132102
 30
0.0
  0
SPLINE
  5
4A9
100
AcDbEntity
  8
0
100
AcDbSpline
 62
7
  6
CONTINUOUS
 70
0
 71
3
 72
12
 73
8
 74
0
 42
0.0000001
 43
0.0000001
 44
0.0000000001
 40
0.0
 40
0.0
 40
0.0
 40
0.0
 40
0.1488038374
 40
0.245628371
 40
0.3596706179
 40
0.6426493793
 40
1.0
 40
1.0
 40
1.0
 40
1.0
 10
11.3784908189
 20
10.8251578211
 30
0.0
 10
11.3799876168
 20
10.82609655
 30
0.0
 10
11.3829376215
 20
10.8268028198
 30
0.0
 10
11.3871801856
 20
10.8270789849
 30
0.0
 10
11.3930557543
 20
10.8269827547
 30
0.0
 10
11.4019826207
 20
10.8263030508
 30
0.0
 10
11.4095767534
 20
10.8258585487
 30
0.0
 10
11.4138183383
 20
10.8257500738
 30
0.0
  0
SPLINE
  5
4AA
100
AcDbEntity
  8
0
100
AcDbSpline
 62
7
  6
CONTINUOUS
 70
0
 71
3
 72
12
 73
8
 74
0
 42
0.0000001
 43
0.0000001
 44
0.0000000001
 40
0.0
 40
0.0
 40
0.0
 40
0.0
 40
0.3573507541
 40
0.6403287625
 40
0.7543713703
 40
0.851196327
 40
1.0
 40
1.0
 40
1.0
 40
1.0
 10
11.4138183383
 20
9.973941206
 30
0.0
 10
11.4095767524
 20
9.9738327311
 30
0.0
 10
11.401982628
 20
9.9733882191
 30
0.0
 10
11.3930557668
 20
9.9727085242
 30
0.0
 10
11.3871801966
 20
9.9726122871
 30
0.0
 10
11.3829376309
 20
9.9728884962
 30
0.0
 10
11.3799876149
 20
9.973594731
 30
0.0
 10
11.3784908189
 20
9.9745334588
 30
0.0
  0
SPLINE
  5
4AB
100
AcDbEntity
  8
0
100
AcDbSpline
 62
9
  6
CONTINUOUS
 70
0
 71
3
 72
9
 73
5
 74
0
 42
0.0000001
 43
0.0000001
 44
0.0000000001
 40
0.0
 40
0.0
 40
0.0
 40
0.0
 40
0.5001229576
 40
1.0
 40
1.0
 40
1.0
 40
1.0
 10
11.5213603233
 20
10.8079844751
 30
0.0
 10
11.5275389917
 20
10.8101510091
 30
0.0
 10
11.5394315768
 20
10.8159300549
 30
0.0
 10
11.5496801225
 20
10.8242937571
 30
0.0
 10
11.5542232983
 20
10.8290040882
 30
0.0
  0
SPLINE
  5
4AC
100
AcDbEntity
  8
0
100
AcDbSpline
 62
7
  6
CONTINUOUS
 70
0
 71
3
 72
12
 73
8
 74
0
 42
0.0000001
 43
0.0000001
 44
0.0000000001
 40
0.0
 40
0.0
 40
0.0
 40
0.0
 40
0.1989222367
 40
0.4223003581
 40
0.6862097327
 40
0.838218613
 40
1.0
 40
1.0
 40
1.0
 40
1.0
 10
12.7896084234
 20
9.6183132102
 30
0.0
 10
12.7860211434
 20
9.6209579491
 30
0.0
 10
12.7788363466
 20
9.6271947687
 30
0.0
 10
12.7692704206
 20
9.6393618789
 30
0.0
 10
12.7631865147
 20
9.6525253749
 30
0.0
 10
12.7602488724
 20
9.6651673809
 30
0.0
 10
12.7596672264
 20
9.672209155
 30
0.0
 10
12.7596672264
 20
9.6758338383
 30
0.0
  0
SPLINE
  5
4AD
100
AcDbEntity
  8
0
100
AcDbSpline
 62
7
  6
CONTINUOUS
 70
0
 71
3
 72
13
 73
9
 74
0
 42
0.0000001
 43
0.0000001
 44
0.0000000001
 40
0.0
 40
0.0
 40
0.0
 40
0.0
 40
0.1887107447
 40
0.3414730879
 40
0.4695458498
 40
0.5845707903
 40
0.7966242684
 40
1.0
 40
1.0
 40
1.0
 40
1.0
 10
12.7596672264
 20
9.6758338383
 30
0.0
 10
12.7596672264
 20
9.6842149361
 30
0.0
 10
12.7624926791
 20
9.6995369981
 30
0.0
 10
12.7728565234
 20
9.7179484988
 30
0.0
 10
12.7852548159
 20
9.730631995
 30
0.0
 10
12.8020839488
 20
9.7420098578
 30
0.0
 10
12.8243262313
 20
9.7505443836
 30
0.0
 10
12.8425498615
 20
9.7538013175
 30
0.0
 10
12.8515222939
 20
9.7548404512
 30
0.0
  0
SPLINE
  5
4AE
100
AcDbEntity
  8
0
100
AcDbSpline
 62
7
  6
CONTINUOUS
 70
0
 71
3
 72
18
 73
14
 74
0
 42
0.0000001
 43
0.0000001
 44
0.0000000001
 40
0.0
 40
0.0
 40
0.0
 40
0.0
 40
0.1075925333
 40
0.214990763
 40
0.3227629189
 40
0.4318094662
 40
0.5441545108
 40
0.6648053062
 40
0.7319835773
 40
0.8075409753
 40
0.89625633
 40
0.9467300039
 40
1.0
 40
1.0
 40
1.0
 40
1.0
 10
12.8515222939
 20
9.7548404512
 30
0.0
 10
12.8582229216
 20
9.755616478
 30
0.0
 10
12.871689987
 20
9.7565388094
 30
0.0
 10
12.8919431262
 20
9.7563031091
 30
0.0
 10
12.9122065314
 20
9.7543927527
 30
0.0
 10
12.9324950978
 20
9.7503617754
 30
0.0
 10
12.9528190978
 20
9.7432414926
 30
0.0
 10
12.9691026018
 20
9.7333742554
 30
0.0
 10
12.981069201
 20
9.7218927787
 30
0.0
 10
12.9895979713
 20
9.7100380529
 30
0.0
 10
12.9949194371
 20
9.6975114388
 30
0.0
 10
12.997460179
 20
9.685686923
 30
0.0
 10
12.99795474
 20
9.679173552
 30
0.0
 10
12.99795474
 20
9.6758338384
 30
0.0
  0
SPLINE
  5
4AF
100
AcDbEntity
  8
0
100
AcDbSpline
 62
9
  6
CONTINUOUS
 70
0
 71
3
 72
11
 73
7
 74
0
 42
0.0000001
 43
0.0000001
 44
0.0000000001
 40
0.0
 40
0.0
 40
0.0
 40
0.0
 40
0.249960314
 40
0.500238856
 40
0.7503776445
 40
1.0
 40
1.0
 40
1.0
 40
1.0
 10
11.4585703607
 20
10.8477006542
 30
0.0
 10
11.4475297448
 20
10.8477006542
 30
0.0
 10
11.4251971519
 20
10.8521173941
 30
0.0
 10
11.3969255699
 20
10.8709442511
 30
0.0
 10
11.3778871849
 20
10.8990577876
 30
0.0
 10
11.3733213263
 20
10.9213421207
 30
0.0
 10
11.3732530413
 20
10.9323675977
 30
0.0
  0
SPLINE
  5
4B0
100
AcDbEntity
  8
0
100
AcDbSpline
 62
9
  6
CONTINUOUS
 70
0
 71
3
 72
14
 73
10
 74
0
 42
0.0000001
 43
0.0000001
 44
0.0000000001
 40
0.0
 40
0.0
 40
0.0
 40
0.0
 40
0.0414055373
 40
0.106644558
 40
0.1968450734
 40
0.3119015597
 40
0.4512065084
 40
0.6133944202
 40
1.0
 40
1.0
 40
1.0
 40
1.0
 10
11.3732530413
 20
10.9323675977
 30
0.0
 10
11.3735064451
 20
10.9326901293
 30
0.0
 10
11.3744433205
 20
10.9332580745
 30
0.0
 10
11.3762559227
 20
10.9339432609
 30
0.0
 10
11.3788550235
 20
10.9346351746
 30
0.0
 10
11.3821987516
 20
10.935312693
 30
0.0
 10
11.3862749738
 20
10.9359661029
 30
0.0
 10
11.393034228
 20
10.9368484049
 30
0.0
 10
11.3984478405
 20
10.9373667468
 30
0.0
 10
11.40226454
 20
10.9376830787
 30
0.0
  0
SPLINE
  5
4B1
100
AcDbEntity
  8
0
100
AcDbSpline
 62
9
  6
CONTINUOUS
 70
0
 71
3
 72
9
 73
5
 74
0
 42
0.0000001
 43
0.0000001
 44
0.0000000001
 40
0.0
 40
0.0
 40
0.0
 40
0.0
 40
0.4670527075
 40
1.0
 40
1.0
 40
1.0
 40
1.0
 10
11.40226454
 20
10.9376830787
 30
0.0
 10
11.4118434184
 20
10.9384769858
 30
0.0
 10
11.4324043326
 20
10.9395386344
 30
0.0
 10
11.4529842518
 20
10.939884823
 30
0.0
 10
11.463952053
 20
10.939884823
 30
0.0
  0
SPLINE
  5
4B2
100
AcDbEntity
  8
0
100
AcDbSpline
 62
9
  6
CONTINUOUS
 70
0
 71
3
 72
18
 73
14
 74
0
 42
0.0000001
 43
0.0000001
 44
0.0000000001
 40
0.0
 40
0.0
 40
0.0
 40
0.0
 40
0.1795705517
 40
0.3560926495
 40
0.5218105521
 40
0.6705574357
 40
0.7968046947
 40
0.8500442206
 40
0.8959758348
 40
0.9341251501
 40
0.9642390607
 40
0.9861740375
 40
1.0
 40
1.0
 40
1.0
 40
1.0
 10
11.463952053
 20
10.939884823
 30
0.0
 10
11.4639863811
 20
10.9343421183
 30
0.0
 10
11.4639777585
 20
10.9233501963
 30
0.0
 10
11.4637498023
 20
10.9072445854
 30
0.0
 10
11.4633091848
 20
10.892094961
 30
0.0
 10
11.4626796851
 20
10.8785054743
 30
0.0
 10
11.4619882982
 20
10.8683957841
 30
0.0
 10
11.4613334265
 20
10.8614685865
 30
0.0
 10
11.4608421585
 20
10.8572572883
 30
0.0
 10
11.4603256793
 20
10.8537717456
 30
0.0
 10
11.4597976653
 20
10.8510314938
 30
0.0
 10
11.4592619477
 20
10.8490788709
 30
0.0
 10
11.4588340173
 20
10.8480362355
 30
0.0
 10
11.4585703607
 20
10.8477006542
 30
0.0
  0
SPLINE
  5
4B3
100
AcDbEntity
  8
0
100
AcDbSpline
 62
9
  6
CONTINUOUS
 70
0
 71
3
 72
15
 73
11
 74
0
 42
0.0000001
 43
0.0000001
 44
0.0000000001
 40
0.0
 40
0.0
 40
0.0
 40
0.0
 40
0.0222019363
 40
0.0495383743
 40
0.1203530949
 40
0.2131850791
 40
0.3280821742
 40
0.4648213951
 40
0.6228431979
 40
1.0
 40
1.0
 40
1.0
 40
1.0
 10
11.3383362968
 20
10.8879256672
 30
0.0
 10
11.3379083979
 20
10.8873810388
 30
0.0
 10
11.3370754454
 20
10.8860709833
 30
0.0
 10
11.3354349788
 20
10.8826894637
 30
0.0
 10
11.3334962654
 20
10.8770377031
 30
0.0
 10
11.3313240635
 20
10.8686220819
 30
0.0
 10
11.3291824792
 20
10.8580869086
 30
0.0
 10
11.3270852192
 20
10.8454788953
 30
0.0
 10
11.3241920912
 20
10.8247163548
 30
0.0
 10
11.3224068539
 20
10.8081122647
 30
0.0
 10
11.3212815089
 20
10.7964003392
 30
0.0
  0
SPLINE
  5
4B4
100
AcDbEntity
  8
0
100
AcDbSpline
 62
9
  6
CONTINUOUS
 70
0
 71
3
 72
15
 73
11
 74
0
 42
0.0000001
 43
0.0000001
 44
0.0000000001
 40
0.0
 40
0.0
 40
0.0
 40
0.0
 40
0.3771571459
 40
0.5351790479
 40
0.6719183413
 40
0.7868154483
 40
0.8796473464
 40
0.9504618884
 40
0.9777982046
 40
1.0
 40
1.0
 40
1.0
 40
1.0
 10
11.321281334
 20
10.0032927599
 30
0.0
 10
11.3224066869
 20
9.9915805936
 30
0.0
 10
11.3241919386
 20
9.9749761631
 30
0.0
 10
11.3270850945
 20
9.954213197
 30
0.0
 10
11.3291823751
 20
9.9416049283
 30
0.0
 10
11.3313239812
 20
9.9310695453
 30
0.0
 10
11.3334962069
 20
9.9226537631
 30
0.0
 10
11.3354349424
 20
9.9170018995
 30
0.0
 10
11.3370754293
 20
9.9136203234
 30
0.0
 10
11.3379083923
 20
9.9123102483
 30
0.0
 10
11.3383362968
 20
9.9117656127
 30
0.0
  0
SPLINE
  5
4B5
100
AcDbEntity
  8
0
100
AcDbSpline
 62
9
  6
CONTINUOUS
 70
0
 71
3
 72
15
 73
11
 74
0
 42
0.0000001
 43
0.0000001
 44
0.0000000001
 40
0.0
 40
0.0
 40
0.0
 40
0.0
 40
0.0211546564
 40
0.0476199005
 40
0.1172320977
 40
0.2095360235
 40
0.3245122039
 40
0.4617847561
 40
0.6206487364
 40
1.0
 40
1.0
 40
1.0
 40
1.0
 10
11.3382129144
 20
9.8918439789
 30
0.0
 10
11.3377220452
 20
9.8924687559
 30
0.0
 10
11.3367713852
 20
9.8939947325
 30
0.0
 10
11.3349032166
 20
9.8979867818
 30
0.0
 10
11.3327096464
 20
9.9047354582
 30
0.0
 10
11.3302577032
 20
9.9148436363
 30
0.0
 10
11.3278492696
 20
9.9275640249
 30
0.0
 10
11.3254988262
 20
9.9428265045
 30
0.0
 10
11.322272218
 20
9.9679931168
 30
0.0
 10
11.320305703
 20
9.988116682
 30
0.0
 10
11.3190741413
 20
10.0023113281
 30
0.0
  0
SPLINE
  5
4B6
100
AcDbEntity
  8
0
100
AcDbSpline
 62
9
  6
CONTINUOUS
 70
0
 71
3
 72
15
 73
11
 74
0
 42
0.0000001
 43
0.0000001
 44
0.0000000001
 40
0.0
 40
0.0
 40
0.0
 40
0.0
 40
0.3793512159
 40
0.5382151387
 40
0.6754876526
 40
0.7904638336
 40
0.8827677732
 40
0.9523800123
 40
0.9788452935
 40
1.0
 40
1.0
 40
1.0
 40
1.0
 10
11.3190742075
 20
10.7973807143
 30
0.0
 10
11.3203057668
 20
10.8115752617
 30
0.0
 10
11.3222722764
 20
10.8316986856
 30
0.0
 10
11.3254988751
 20
10.85686512
 30
0.0
 10
11.3278493105
 20
10.8721274911
 30
0.0
 10
11.3302577343
 20
10.8848477912
 30
0.0
 10
11.3327096682
 20
10.8949559011
 30
0.0
 10
11.3349032302
 20
10.9017045332
 30
0.0
 10
11.3367713912
 20
10.9056965583
 30
0.0
 10
11.3377220473
 20
10.9072225268
 30
0.0
 10
11.3382129144
 20
10.907847301
 30
0.0
  0
SPLINE
  5
4B7
100
AcDbEntity
  8
0
100
AcDbSpline
 62
9
  6
CONTINUOUS
 70
0
 71
3
 72
11
 73
7
 74
0
 42
0.0000001
 43
0.0000001
 44
0.0000000001
 40
0.0
 40
0.0
 40
0.0
 40
0.0
 40
0.2493729617
 40
0.4993793193
 40
0.7495490411
 40
1.0
 40
1.0
 40
1.0
 40
1.0
 10
11.3383362968
 20
10.8879256672
 30
0.0
 10
11.3383758575
 20
10.8815380972
 30
0.0
 10
11.3399274878
 20
10.868711214
 30
0.0
 10
11.3464844373
 20
10.8504976129
 30
0.0
 10
11.3569856739
 20
10.8342005091
 30
0.0
 10
11.3662589968
 20
10.8251606535
 30
0.0
 10
11.3713229352
 20
10.8212220407
 30
0.0
  0
SPLINE
  5
4B8
100
AcDbEntity
  8
0
100
AcDbSpline
 62
9
  6
CONTINUOUS
 70
0
 71
3
 72
11
 73
7
 74
0
 42
0.0000001
 43
0.0000001
 44
0.0000000001
 40
0.0
 40
0.0
 40
0.0
 40
0.0
 40
0.2496223555
 40
0.499761144
 40
0.750039686
 40
1.0
 40
1.0
 40
1.0
 40
1.0
 10
11.3732530413
 20
9.8673236822
 30
0.0
 10
11.3733213263
 20
9.8783491592
 30
0.0
 10
11.3778871849
 20
9.9006334922
 30
0.0
 10
11.3969255699
 20
9.9287470287
 30
0.0
 10
11.4251971519
 20
9.9475738858
 30
0.0
 10
11.4475297448
 20
9.9519906257
 30
0.0
 10
11.4585703607
 20
9.9519906257
 30
0.0
  0
SPLINE
  5
4B9
100
AcDbEntity
  8
0
100
AcDbSpline
 62
9
  6
CONTINUOUS
 70
0
 71
3
 72
18
 73
14
 74
0
 42
0.0000001
 43
0.0000001
 44
0.0000000001
 40
0.0
 40
0.0
 40
0.0
 40
0.0
 40
0.0138259625
 40
0.0357609393
 40
0.0658748499
 40
0.1040241652
 40
0.1499557794
 40
0.2031953053
 40
0.3294425643
 40
0.4781894479
 40
0.6439073505
 40
0.8204294483
 40
1.0
 40
1.0
 40
1.0
 40
1.0
 10
11.4585703607
 20
9.9519906257
 30
0.0
 10
11.4588340173
 20
9.9516550443
 30
0.0
 10
11.4592619477
 20
9.950612409
 30
0.0
 10
11.4597976653
 20
9.948659786
 30
0.0
 10
11.4603256793
 20
9.9459195342
 30
0.0
 10
11.4608421585
 20
9.9424339915
 30
0.0
 10
11.4613334265
 20
9.9382226934
 30
0.0
 10
11.4619882982
 20
9.9312954957
 30
0.0
 10
11.4626796851
 20
9.9211858055
 30
0.0
 10
11.4633091848
 20
9.9075963189
 30
0.0
 10
11.4637498023
 20
9.8924466945
 30
0.0
 10
11.4639777585
 20
9.8763410835
 30
0.0
 10
11.4639863811
 20
9.8653491616
 30
0.0
 10
11.463952053
 20
9.8598064568
 30
0.0
  0
SPLINE
  5
4BA
100
AcDbEntity
  8
0
100
AcDbSpline
 62
9
  6
CONTINUOUS
 70
0
 71
3
 72
9
 73
5
 74
0
 42
0.0000001
 43
0.0000001
 44
0.0000000001
 40
0.0
 40
0.0
 40
0.0
 40
0.0
 40
0.5329472925
 40
1.0
 40
1.0
 40
1.0
 40
1.0
 10
11.463952053
 20
9.8598064568
 30
0.0
 10
11.4529842518
 20
9.8598064568
 30
0.0
 10
11.4324043326
 20
9.8601526455
 30
0.0
 10
11.4118434184
 20
9.8612142941
 30
0.0
 10
11.40226454
 20
9.8620082012
 30
0.0
  0
SPLINE
  5
4BB
100
AcDbEntity
  8
0
100
AcDbSpline
 62
9
  6
CONTINUOUS
 70
0
 71
3
 72
14
 73
10
 74
0
 42
0.0000001
 43
0.0000001
 44
0.0000000001
 40
0.0
 40
0.0
 40
0.0
 40
0.0
 40
0.3866055798
 40
0.5487934916
 40
0.6880984403
 40
0.8031549266
 40
0.893355442
 40
0.9585944627
 40
1.0
 40
1.0
 40
1.0
 40
1.0
 10
11.40226454
 20
9.8620082012
 30
0.0
 10
11.3984478405
 20
9.862324533
 30
0.0
 10
11.393034228
 20
9.8628428749
 30
0.0
 10
11.3862749738
 20
9.863725177
 30
0.0
 10
11.3821987516
 20
9.8643785868
 30
0.0
 10
11.3788550235
 20
9.8650561053
 30
0.0
 10
11.3762559227
 20
9.8657480189
 30
0.0
 10
11.3744433205
 20
9.8664332054
 30
0.0
 10
11.3735064451
 20
9.8670011506
 30
0.0
 10
11.3732530413
 20
9.8673236822
 30
0.0
  0
SPLINE
  5
4BC
100
AcDbEntity
  8
0
100
AcDbSpline
 62
7
  6
CONTINUOUS
 70
0
 71
3
 72
12
 73
8
 74
0
 42
0.0000001
 43
0.0000001
 44
0.0000000001
 40
0.0
 40
0.0
 40
0.0
 40
0.0
 40
0.1617815836
 40
0.3137902449
 40
0.5776995886
 40
0.8010777503
 40
1.0
 40
1.0
 40
1.0
 40
1.0
 10
12.99795474
 20
9.6758338384
 30
0.0
 10
12.99795474
 20
9.6722091503
 30
0.0
 10
12.9973729432
 20
9.6651673883
 30
0.0
 10
12.9944353803
 20
9.6525253735
 30
0.0
 10
12.9883514408
 20
9.6393618846
 30
0.0
 10
12.9787855238
 20
9.6271947706
 30
0.0
 10
12.9716007235
 20
9.6209579495
 30
0.0
 10
12.9680134428
 20
9.6183132102
 30
0.0
  0
SPLINE
  5
4BD
100
AcDbEntity
  8
0
100
AcDbSpline
 62
9
  6
CONTINUOUS
 70
0
 71
3
 72
18
 73
14
 74
0
 42
0.0000001
 43
0.0000001
 44
0.0000000001
 40
0.0
 40
0.0
 40
0.0
 40
0.0
 40
0.0084579591
 40
0.0152491577
 40
0.0240777782
 40
0.0481472402
 40
0.0809406794
 40
0.1717694314
 40
0.2936787236
 40
0.4428502118
 40
0.6143971644
 40
0.8026292844
 40
1.0
 40
1.0
 40
1.0
 40
1.0
 10
11.4579226028
 20
11.0372839905
 30
0.0
 10
11.4581429989
 20
11.0372807907
 30
0.0
 10
11.4584801358
 20
11.0369528037
 30
0.0
 10
11.4587748805
 20
11.0364200241
 30
0.0
 10
11.4591777978
 20
11.0354557991
 30
0.0
 10
11.4596282396
 20
11.0338056739
 30
0.0
 10
11.46038512
 20
11.0300277324
 30
0.0
 10
11.4611931659
 20
11.0236762791
 30
0.0
 10
11.4620283595
 20
11.0142809817
 30
0.0
 10
11.4627329457
 20
11.0027660884
 30
0.0
 10
11.4632904001
 20
10.9895137353
 30
0.0
 10
11.4636692216
 20
10.9749984998
 30
0.0
 10
11.4637968149
 20
10.9649499525
 30
0.0
 10
11.4638286706
 20
10.9598064568
 30
0.0
  0
SPLINE
  5
4BE
100
AcDbEntity
  8
0
100
AcDbSpline
 62
9
  6
CONTINUOUS
 70
0
 71
3
 72
13
 73
9
 74
0
 42
0.0000001
 43
0.0000001
 44
0.0000000001
 40
0.0
 40
0.0
 40
0.0
 40
0.0
 40
0.2582972585
 40
0.3875064651
 40
0.5151915115
 40
0.6406784752
 40
0.7635997875
 40
1.0
 40
1.0
 40
1.0
 40
1.0
 10
8.9149188644
 20
9.6888327124
 30
0.0
 10
8.9185980082
 20
9.7038997052
 30
0.0
 10
8.9222080374
 20
9.7270478041
 30
0.0
 10
8.9227305647
 20
9.7580137599
 30
0.0
 10
8.9207919847
 20
9.7809383281
 30
0.0
 10
8.9162951065
 20
9.8031302514
 30
0.0
 10
8.907108944
 20
9.8307946882
 30
0.0
 10
8.8965530523
 20
9.8499833898
 30
0.0
 10
8.8880049668
 20
9.8613158323
 30
0.0
  0
SPLINE
  5
4BF
100
AcDbEntity
  8
0
100
AcDbSpline
 62
9
  6
CONTINUOUS
 70
0
 71
3
 72
17
 73
13
 74
0
 42
0.0000001
 43
0.0000001
 44
0.0000000001
 40
0.0
 40
0.0
 40
0.0
 40
0.0
 40
0.1011591824
 40
0.2059629105
 40
0.315032488
 40
0.4292703274
 40
0.4887195242
 40
0.5501213548
 40
0.6142422471
 40
0.6819948014
 40
0.8314390042
 40
1.0
 40
1.0
 40
1.0
 40
1.0
 10
10.3217799018
 20
3.5766669421
 30
0.0
 10
10.3267204878
 20
3.5719746085
 30
0.0
 10
10.3365321949
 20
3.5621562639
 30
0.0
 10
10.350659284
 20
3.546304151
 30
0.0
 10
10.3641656792
 20
3.528783977
 30
0.0
 10
10.3745368132
 20
3.5127795081
 30
0.0
 10
10.3822620529
 20
3.4989518959
 30
0.0
 10
10.3878217876
 20
3.4877957839
 30
0.0
 10
10.3929572693
 20
3.4758238839
 30
0.0
 10
10.3993183654
 20
3.457963736
 30
0.0
 10
10.4055946897
 20
3.4326621161
 30
0.0
 10
10.4074630455
 20
3.4111993785
 30
0.0
 10
10.4074630455
 20
3.3998456399
 30
0.0
  0
SPLINE
  5
4C0
100
AcDbEntity
  8
0
100
AcDbSpline
 62
9
  6
CONTINUOUS
 70
0
 71
3
 72
18
 73
14
 74
0
 42
0.0000001
 43
0.0000001
 44
0.0000000001
 40
0.0
 40
0.0
 40
0.0
 40
0.0
 40
0.0084579591
 40
0.0152491577
 40
0.0240777782
 40
0.0481472402
 40
0.0809406794
 40
0.1717694314
 40
0.2936787236
 40
0.4428502118
 40
0.6143971644
 40
0.8026292844
 40
1.0
 40
1.0
 40
1.0
 40
1.0
 10
11.5277520863
 20
9.7624072893
 30
0.0
 10
11.5279724824
 20
9.7624104892
 30
0.0
 10
11.5283096193
 20
9.7627384761
 30
0.0
 10
11.528604364
 20
9.7632712558
 30
0.0
 10
11.5290072813
 20
9.7642354808
 30
0.0
 10
11.5294577231
 20
9.765885606
 30
0.0
 10
11.5302146035
 20
9.7696635474
 30
0.0
 10
11.5310226494
 20
9.7760150007
 30
0.0
 10
11.5318578431
 20
9.7854102982
 30
0.0
 10
11.5325624293
 20
9.7969251915
 30
0.0
 10
11.5331198837
 20
9.8101775445
 30
0.0
 10
11.5334987051
 20
9.82469278
 30
0.0
 10
11.5336262985
 20
9.8347413273
 30
0.0
 10
11.5336581541
 20
9.839884823
 30
0.0
  0
SPLINE
  5
4C1
100
AcDbEntity
  8
0
100
AcDbSpline
 62
9
  6
CONTINUOUS
 70
0
 71
3
 72
15
 73
11
 74
0
 42
0.0000001
 43
0.0000001
 44
0.0000000001
 40
0.0
 40
0.0
 40
0.0
 40
0.0
 40
0.0344721224
 40
0.0592055747
 40
0.0902781967
 40
0.1729222868
 40
0.2839766833
 40
0.42334827
 40
0.5899896194
 40
1.0
 40
1.0
 40
1.0
 40
1.0
 10
11.6127467897
 20
10.9528156362
 30
0.0
 10
11.6127424516
 20
10.9530663914
 30
0.0
 10
11.6124659988
 20
10.9534676195
 30
0.0
 10
11.6119407361
 20
10.9538472708
 30
0.0
 10
11.6110482848
 20
10.9543286961
 30
0.0
 10
11.609503274
 20
10.9548757678
 30
0.0
 10
11.6071551997
 20
10.9554812774
 30
0.0
 10
11.6041759047
 20
10.9560628318
 30
0.0
 10
11.5990277108
 20
10.9568628032
 30
0.0
 10
11.5948554427
 20
10.9573217481
 30
0.0
 10
11.5918859729
 20
10.9576047125
 30
0.0
  0
SPLINE
  5
4C2
100
AcDbEntity
  8
0
100
AcDbSpline
 62
9
  6
CONTINUOUS
 70
0
 71
3
 72
10
 73
6
 74
0
 42
0.0000001
 43
0.0000001
 44
0.0000000001
 40
0.0
 40
0.0
 40
0.0
 40
0.0
 40
0.2083752203
 40
0.4509078995
 40
1.0
 40
1.0
 40
1.0
 40
1.0
 10
11.5918859729
 20
10.9576047125
 30
0.0
 10
11.5878557748
 20
10.9579887549
 30
0.0
 10
11.5791173224
 20
10.9586372674
 30
0.0
 10
11.5597097209
 20
10.9595648452
 30
0.0
 10
11.5443262868
 20
10.9598064568
 30
0.0
 10
11.5336581541
 20
10.9598064568
 30
0.0
  0
SPLINE
  5
4C3
100
AcDbEntity
  8
0
100
AcDbSpline
 62
7
  6
CONTINUOUS
 70
0
 71
3
 72
11
 73
7
 74
0
 42
0.0000001
 43
0.0000001
 44
0.0000000001
 40
0.0
 40
0.0
 40
0.0
 40
0.0
 40
0.2499791022
 40
0.4999893392
 40
0.7500035895
 40
1.0
 40
1.0
 40
1.0
 40
1.0
 10
12.1859868239
 20
9.6183132102
 30
0.0
 10
12.2003072376
 20
9.6130343145
 30
0.0
 10
12.2291818755
 20
9.6030794025
 30
0.0
 10
12.2734053621
 20
9.5910216966
 30
0.0
 10
12.3185713787
 20
9.583023843
 30
0.0
 10
12.3491283821
 20
9.581134737
 30
0.0
 10
12.3643918433
 20
9.581134737
 30
0.0
  0
SPLINE
  5
4C4
100
AcDbEntity
  8
0
100
AcDbSpline
 62
9
  6
CONTINUOUS
 70
0
 71
3
 72
18
 73
14
 74
0
 42
0.0000001
 43
0.0000001
 44
0.0000000001
 40
0.0
 40
0.0
 40
0.0
 40
0.0
 40
0.1973707156
 40
0.3856028356
 40
0.5571497882
 40
0.7063212764
 40
0.8282305686
 40
0.9190593206
 40
0.9518527598
 40
0.9759222218
 40
0.9847508423
 40
0.9915420409
 40
1.0
 40
1.0
 40
1.0
 40
1.0
 10
11.5336581541
 20
10.9598064568
 30
0.0
 10
11.5336262985
 20
10.9649499525
 30
0.0
 10
11.5334987051
 20
10.9749984998
 30
0.0
 10
11.5331198837
 20
10.9895137353
 30
0.0
 10
11.5325624293
 20
11.0027660884
 30
0.0
 10
11.5318578431
 20
11.0142809817
 30
0.0
 10
11.5310226494
 20
11.0236762791
 30
0.0
 10
11.5302146035
 20
11.0300277324
 30
0.0
 10
11.5294577231
 20
11.0338056739
 30
0.0
 10
11.5290072813
 20
11.0354557991
 30
0.0
 10
11.528604364
 20
11.0364200241
 30
0.0
 10
11.5283096193
 20
11.0369528037
 30
0.0
 10
11.5279724824
 20
11.0372807907
 30
0.0
 10
11.5277520863
 20
11.0372839905
 30
0.0
  0
SPLINE
  5
4C5
100
AcDbEntity
  8
0
100
AcDbSpline
 62
9
  6
CONTINUOUS
 70
0
 71
3
 72
9
 73
5
 74
0
 42
0.0000001
 43
0.0000001
 44
0.0000000001
 40
0.0
 40
0.0
 40
0.0
 40
0.0
 40
0.5329472925
 40
1.0
 40
1.0
 40
1.0
 40
1.0
 10
11.4638286706
 20
10.9598064568
 30
0.0
 10
11.4528608694
 20
10.9598064568
 30
0.0
 10
11.4322809502
 20
10.9594602682
 30
0.0
 10
11.411720036
 20
10.9583986196
 30
0.0
 10
11.4021411576
 20
10.9576047125
 30
0.0
  0
SPLINE
  5
4C6
100
AcDbEntity
  8
0
100
AcDbSpline
 62
9
  6
CONTINUOUS
 70
0
 71
3
 72
14
 73
10
 74
0
 42
0.0000001
 43
0.0000001
 44
0.0000000001
 40
0.0
 40
0.0
 40
0.0
 40
0.0
 40
0.3866055798
 40
0.5487934916
 40
0.6880984403
 40
0.8031549266
 40
0.893355442
 40
0.9585944627
 40
1.0
 40
1.0
 40
1.0
 40
1.0
 10
11.4021411576
 20
10.9576047125
 30
0.0
 10
11.3983244582
 20
10.9572883806
 30
0.0
 10
11.3929108457
 20
10.9567700387
 30
0.0
 10
11.3861515915
 20
10.9558877367
 30
0.0
 10
11.3820753692
 20
10.9552343268
 30
0.0
 10
11.3787316411
 20
10.9545568083
 30
0.0
 10
11.3761325403
 20
10.9538648947
 30
0.0
 10
11.3743199381
 20
10.9531797082
 30
0.0
 10
11.3733830627
 20
10.9526117631
 30
0.0
 10
11.3731296589
 20
10.9522892314
 30
0.0
  0
SPLINE
  5
4C7
100
AcDbEntity
  8
0
100
AcDbSpline
 62
9
  6
CONTINUOUS
 70
0
 71
3
 72
9
 73
5
 74
0
 42
0.0000001
 43
0.0000001
 44
0.0000000001
 40
0.0
 40
0.0
 40
0.0
 40
0.0
 40
0.4995715311
 40
1.0
 40
1.0
 40
1.0
 40
1.0
 10
11.5598022157
 20
9.964282618
 30
0.0
 10
11.5548947452
 20
9.970528823
 30
0.0
 10
11.5432124805
 20
9.9816756726
 30
0.0
 10
11.5288691555
 20
9.9890738522
 30
0.0
 10
11.5213603233
 20
9.9917068048
 30
0.0
  0
SPLINE
  5
4C8
100
AcDbEntity
  8
0
100
AcDbSpline
 62
9
  6
CONTINUOUS
 70
0
 71
3
 72
11
 73
7
 74
0
 42
0.0000001
 43
0.0000001
 44
0.0000000001
 40
0.0
 40
0.0
 40
0.0
 40
0.0
 40
0.2533138146
 40
0.5072229047
 40
0.7569929763
 40
1.0
 40
1.0
 40
1.0
 40
1.0
 10
9.8138625047
 20
9.6888348007
 30
0.0
 10
9.8111691719
 20
9.6998653879
 30
0.0
 10
9.807156777
 20
9.7223165326
 30
0.0
 10
9.805559905
 20
9.7563128336
 30
0.0
 10
9.8089140836
 20
9.7897548926
 30
0.0
 10
9.8149462262
 20
9.8111505158
 30
0.0
 10
9.8188444279
 20
9.8213217382
 30
0.0
  0
SPLINE
  5
4C9
100
AcDbEntity
  8
0
100
AcDbSpline
 62
9
  6
CONTINUOUS
 70
0
 71
3
 72
9
 73
5
 74
0
 42
0.0000001
 43
0.0000001
 44
0.0000000001
 40
0.0
 40
0.0
 40
0.0
 40
0.0
 40
0.2555218672
 40
1.0
 40
1.0
 40
1.0
 40
1.0
 10
9.8188444279
 20
9.8213217382
 30
0.0
 10
9.8202367702
 20
9.8249546502
 30
0.0
 10
9.8261475701
 20
9.8389880191
 30
0.0
 10
9.8339425345
 20
9.8522509
 30
0.0
 10
9.840767725
 20
9.8613012776
 30
0.0
  0
SPLINE
  5
4CA
100
AcDbEntity
  8
0
100
AcDbSpline
 62
7
  6
CONTINUOUS
 70
0
 71
3
 72
17
 73
13
 74
0
 42
0.0000001
 43
0.0000001
 44
0.0000000001
 40
0.0
 40
0.0
 40
0.0
 40
0.0
 40
0.1335304622
 40
0.261320048
 40
0.3227687845
 40
0.3827614348
 40
0.4999989767
 40
0.6172355797
 40
0.6772276543
 40
0.7386763871
 40
0.8664678173
 40
1.0
 40
1.0
 40
1.0
 40
1.0
 10
11.7607702437
 20
9.6183132102
 30
0.0
 10
11.7678076753
 20
9.6131248311
 30
0.0
 10
11.7818702255
 20
9.6033511631
 30
0.0
 10
11.8004333712
 20
9.5931012921
 30
0.0
 10
11.8156035063
 20
9.5870226902
 30
0.0
 10
11.8306441513
 20
9.5826884938
 30
0.0
 10
11.8499728252
 20
9.5804655927
 30
0.0
 10
11.8693016992
 20
9.5826869269
 30
0.0
 10
11.8843424203
 20
9.5870205931
 30
0.0
 10
11.8995125445
 20
9.593099504
 30
0.0
 10
11.9180753584
 20
9.6033504989
 30
0.0
 10
11.9321377409
 20
9.6131247643
 30
0.0
 10
11.9391752631
 20
9.6183132102
 30
0.0
  0
SPLINE
  5
4CB
100
AcDbEntity
  8
0
100
AcDbSpline
 62
9
  6
CONTINUOUS
 70
0
 71
3
 72
9
 73
5
 74
0
 42
0.0000001
 43
0.0000001
 44
0.0000000001
 40
0.0
 40
0.0
 40
0.0
 40
0.0
 40
0.257757369
 40
1.0
 40
1.0
 40
1.0
 40
1.0
 10
11.5337815365
 20
10.939884823
 30
0.0
 10
11.5365314128
 20
10.939884823
 30
0.0
 10
11.5471997552
 20
10.9398370576
 30
0.0
 10
11.557867864
 20
10.9396113479
 30
0.0
 10
11.5657808188
 20
10.9393126083
 30
0.0
  0
SPLINE
  5
4CC
100
AcDbEntity
  8
0
100
AcDbSpline
 62
9
  6
CONTINUOUS
 70
0
 71
3
 72
12
 73
8
 74
0
 42
0.0000001
 43
0.0000001
 44
0.0000000001
 40
0.0
 40
0.0
 40
0.0
 40
0.0
 40
0.3292223441
 40
0.6120781584
 40
0.8382308927
 40
0.9275832418
 40
1.0
 40
1.0
 40
1.0
 40
1.0
 10
11.5657808188
 20
10.9393126083
 30
0.0
 10
11.5704895533
 20
10.9391348385
 30
0.0
 10
11.579241266
 20
10.9387162387
 30
0.0
 10
11.5912064543
 20
10.9378248958
 30
0.0
 10
11.5997229225
 20
10.936878288
 30
0.0
 10
11.6052035199
 20
10.9359836351
 30
0.0
 10
11.6074704115
 20
10.9355030311
 30
0.0
 10
11.6084740889
 20
10.9352443153
 30
0.0
  0
SPLINE
  5
4CD
100
AcDbEntity
  8
0
100
AcDbSpline
 62
9
  6
CONTINUOUS
 70
0
 71
3
 72
12
 73
8
 74
0
 42
0.0000001
 43
0.0000001
 44
0.0000000001
 40
0.0
 40
0.0
 40
0.0
 40
0.0
 40
0.3849315481
 40
0.6732215353
 40
0.7828494013
 40
0.8714204012
 40
1.0
 40
1.0
 40
1.0
 40
1.0
 10
11.6084740889
 20
10.9352443153
 30
0.0
 10
11.6091168445
 20
10.9350786335
 30
0.0
 10
11.610232823
 20
10.9347557099
 30
0.0
 10
11.6114919959
 20
10.9342570751
 30
0.0
 10
11.6122158254
 20
10.9338233554
 30
0.0
 10
11.6126505159
 20
10.9334726883
 30
0.0
 10
11.6128663369
 20
10.9331156886
 30
0.0
 10
11.612870172
 20
10.9328940024
 30
0.0
  0
SPLINE
  5
4CE
100
AcDbEntity
  8
0
100
AcDbSpline
 62
9
  6
CONTINUOUS
 70
0
 71
3
 72
14
 73
10
 74
0
 42
0.0000001
 43
0.0000001
 44
0.0000000001
 40
0.0
 40
0.0
 40
0.0
 40
0.0
 40
0.0419677479
 40
0.108549845
 40
0.199958527
 40
0.3157581214
 40
0.455180343
 40
0.6167852223
 40
1.0
 40
1.0
 40
1.0
 40
1.0
 10
11.5283998442
 20
10.8477006542
 30
0.0
 10
11.5286635008
 20
10.8480362355
 30
0.0
 10
11.5290914312
 20
10.8490788709
 30
0.0
 10
11.5296271489
 20
10.8510314938
 30
0.0
 10
11.5301551623
 20
10.8537717459
 30
0.0
 10
11.5306716448
 20
10.857257287
 30
0.0
 10
11.5311628967
 20
10.8614685927
 30
0.0
 10
11.531817874
 20
10.8683957411
 30
0.0
 10
11.5321953663
 20
10.8739242536
 30
0.0
 10
11.5324224786
 20
10.8778145088
 30
0.0
  0
SPLINE
  5
4CF
100
AcDbEntity
  8
0
100
AcDbSpline
 62
9
  6
CONTINUOUS
 70
0
 71
3
 72
9
 73
5
 74
0
 42
0.0000001
 43
0.0000001
 44
0.0000000001
 40
0.0
 40
0.0
 40
0.0
 40
0.0
 40
0.4689562967
 40
1.0
 40
1.0
 40
1.0
 40
1.0
 10
11.5324224786
 20
10.8778145088
 30
0.0
 10
11.532988162
 20
10.8875042217
 30
0.0
 10
11.5337009543
 20
10.9081947008
 30
0.0
 10
11.5338496083
 20
10.9288937703
 30
0.0
 10
11.5337815365
 20
10.939884823
 30
0.0
  0
SPLINE
  5
4D0
100
AcDbEntity
  8
0
100
AcDbSpline
 62
9
  6
CONTINUOUS
 70
0
 71
3
 72
9
 73
5
 74
0
 42
0.0000001
 43
0.0000001
 44
0.0000000001
 40
0.0
 40
0.0
 40
0.0
 40
0.0
 40
0.5310437033
 40
1.0
 40
1.0
 40
1.0
 40
1.0
 10
11.5337815365
 20
9.8598064568
 30
0.0
 10
11.5338496083
 20
9.8707975096
 30
0.0
 10
11.5337009543
 20
9.8914965791
 30
0.0
 10
11.532988162
 20
9.9121870582
 30
0.0
 10
11.5324224786
 20
9.921876771
 30
0.0
  0
SPLINE
  5
4D1
100
AcDbEntity
  8
0
100
AcDbSpline
 62
9
  6
CONTINUOUS
 70
0
 71
3
 72
14
 73
10
 74
0
 42
0.0000001
 43
0.0000001
 44
0.0000000001
 40
0.0
 40
0.0
 40
0.0
 40
0.0
 40
0.3832147777
 40
0.544819657
 40
0.6842418786
 40
0.800041473
 40
0.891450155
 40
0.9580322521
 40
1.0
 40
1.0
 40
1.0
 40
1.0
 10
11.5324224786
 20
9.921876771
 30
0.0
 10
11.5321953663
 20
9.9257670262
 30
0.0
 10
11.531817874
 20
9.9312955387
 30
0.0
 10
11.5311628967
 20
9.9382226872
 30
0.0
 10
11.5306716448
 20
9.9424339928
 30
0.0
 10
11.5301551623
 20
9.945919534
 30
0.0
 10
11.5296271489
 20
9.9486597861
 30
0.0
 10
11.5290914312
 20
9.950612409
 30
0.0
 10
11.5286635008
 20
9.9516550443
 30
0.0
 10
11.5283998442
 20
9.9519906257
 30
0.0
  0
SPLINE
  5
4D2
100
AcDbEntity
  8
0
100
AcDbSpline
 62
9
  6
CONTINUOUS
 70
0
 71
3
 72
20
 73
16
 74
0
 42
0.0000001
 43
0.0000001
 44
0.0000000001
 40
0.0
 40
0.0
 40
0.0
 40
0.0
 40
0.1956196268
 40
0.3826850209
 40
0.5535628951
 40
0.7024899875
 40
0.7671336778
 40
0.8245085363
 40
0.8741931773
 40
0.9157878699
 40
0.9489407195
 40
0.9735525213
 40
0.9827620221
 40
0.9900449483
 40
1.0
 40
1.0
 40
1.0
 40
1.0
 10
11.5336581541
 20
9.839884823
 30
0.0
 10
11.538881938
 20
9.839884823
 30
0.0
 10
11.549101266
 20
9.8399697439
 30
0.0
 10
11.5638795969
 20
9.8403440955
 30
0.0
 10
11.5774019059
 20
9.8409587743
 30
0.0
 10
11.5876449951
 20
9.8416725869
 30
0.0
 10
11.59484716
 20
9.842368346
 30
0.0
 10
11.5994009235
 20
9.842907673
 30
0.0
 10
11.6033291682
 20
9.843483553
 30
0.0
 10
11.6065979498
 20
9.8440867561
 30
0.0
 10
11.6091773002
 20
9.8447171833
 30
0.0
 10
11.6108756745
 20
9.8452878356
 30
0.0
 10
11.6118590499
 20
9.84579301
 30
0.0
 10
11.6124320903
 20
9.8461866432
 30
0.0
 10
11.6127421914
 20
9.8466098459
 30
0.0
 10
11.6127467897
 20
9.8468756437
 30
0.0
  0
SPLINE
  5
4D3
100
AcDbEntity
  8
0
100
AcDbSpline
 62
9
  6
CONTINUOUS
 70
0
 71
3
 72
18
 73
14
 74
0
 42
0.0000001
 43
0.0000001
 44
0.0000000001
 40
0.0
 40
0.0
 40
0.0
 40
0.0
 40
0.1973707156
 40
0.3856028356
 40
0.5571497882
 40
0.7063212764
 40
0.8282305686
 40
0.9190593206
 40
0.9518527598
 40
0.9759222218
 40
0.9847508423
 40
0.9915420409
 40
1.0
 40
1.0
 40
1.0
 40
1.0
 10
11.4638286706
 20
9.839884823
 30
0.0
 10
11.4637968149
 20
9.8347413273
 30
0.0
 10
11.4636692216
 20
9.82469278
 30
0.0
 10
11.4632904001
 20
9.8101775445
 30
0.0
 10
11.4627329457
 20
9.7969251915
 30
0.0
 10
11.4620283595
 20
9.7854102982
 30
0.0
 10
11.4611931659
 20
9.7760150007
 30
0.0
 10
11.46038512
 20
9.7696635474
 30
0.0
 10
11.4596282396
 20
9.765885606
 30
0.0
 10
11.4591777978
 20
9.7642354808
 30
0.0
 10
11.4587748805
 20
9.7632712558
 30
0.0
 10
11.4584801358
 20
9.7627384761
 30
0.0
 10
11.4581429989
 20
9.7624104892
 30
0.0
 10
11.4579226028
 20
9.7624072893
 30
0.0
  0
SPLINE
  5
4D4
100
AcDbEntity
  8
0
100
AcDbSpline
 62
9
  6
CONTINUOUS
 70
0
 71
3
 72
14
 73
10
 74
0
 42
0.0000001
 43
0.0000001
 44
0.0000000001
 40
0.0
 40
0.0
 40
0.0
 40
0.0
 40
0.0414055373
 40
0.106644558
 40
0.1968450734
 40
0.3119015597
 40
0.4512065084
 40
0.6133944202
 40
1.0
 40
1.0
 40
1.0
 40
1.0
 10
11.3731296589
 20
9.8474020484
 30
0.0
 10
11.3733830627
 20
9.8470795168
 30
0.0
 10
11.3743199381
 20
9.8465115716
 30
0.0
 10
11.3761325403
 20
9.8458263851
 30
0.0
 10
11.3787316411
 20
9.8451344715
 30
0.0
 10
11.3820753692
 20
9.8444569531
 30
0.0
 10
11.3861515915
 20
9.8438035432
 30
0.0
 10
11.3929108457
 20
9.8429212412
 30
0.0
 10
11.3983244582
 20
9.8424028993
 30
0.0
 10
11.4021411576
 20
9.8420865674
 30
0.0
  0
SPLINE
  5
4D5
100
AcDbEntity
  8
0
100
AcDbSpline
 62
9
  6
CONTINUOUS
 70
0
 71
3
 72
9
 73
5
 74
0
 42
0.0000001
 43
0.0000001
 44
0.0000000001
 40
0.0
 40
0.0
 40
0.0
 40
0.0
 40
0.4670527075
 40
1.0
 40
1.0
 40
1.0
 40
1.0
 10
11.4021411576
 20
9.8420865674
 30
0.0
 10
11.411720036
 20
9.8412926603
 30
0.0
 10
11.4322809502
 20
9.8402310117
 30
0.0
 10
11.4528608694
 20
9.839884823
 30
0.0
 10
11.4638286706
 20
9.839884823
 30
0.0
  0
SPLINE
  5
4D6
100
AcDbEntity
  8
0
100
AcDbSpline
 62
7
  6
CONTINUOUS
 70
0
 71
3
 72
17
 73
13
 74
0
 42
0.0000001
 43
0.0000001
 44
0.0000000001
 40
0.0
 40
0.0
 40
0.0
 40
0.0
 40
0.1274851741
 40
0.2531726035
 40
0.3770930349
 40
0.4386264804
 40
0.500000212
 40
0.5613739869
 40
0.6229074242
 40
0.7468275807
 40
0.8725148206
 40
1.0
 40
1.0
 40
1.0
 40
1.0
 10
12.8618355698
 20
11.4984046514
 30
0.0
 10
12.8468693972
 20
11.5092719698
 30
0.0
 10
12.8161229776
 20
11.5295117554
 30
0.0
 10
12.7669541256
 20
11.5538739813
 30
0.0
 10
12.7235773499
 20
11.5673035774
 30
0.0
 10
12.6881398265
 20
11.5728180159
 30
0.0
 10
12.6613917457
 20
11.5742106451
 30
0.0
 10
12.634643663
 20
11.5728180215
 30
0.0
 10
12.5992061896
 20
11.5673034904
 30
0.0
 10
12.5558294751
 20
11.5538739532
 30
0.0
 10
12.5066606876
 20
11.529511738
 30
0.0
 10
12.47591429
 20
11.5092719703
 30
0.0
 10
12.4609481168
 20
11.4984046514
 30
0.0
  0
SPLINE
  5
4D7
100
AcDbEntity
  8
0
100
AcDbSpline
 62
7
  6
CONTINUOUS
 70
0
 71
3
 72
17
 73
13
 74
0
 42
0.0000001
 43
0.0000001
 44
0.0000000001
 40
0.0
 40
0.0
 40
0.0
 40
0.0
 40
0.1274851741
 40
0.2531726035
 40
0.3770930349
 40
0.4386264804
 40
0.500000212
 40
0.5613739869
 40
0.6229074242
 40
0.7468275807
 40
0.8725148206
 40
1.0
 40
1.0
 40
1.0
 40
1.0
 10
12.2678355698
 20
11.4984046514
 30
0.0
 10
12.2528693972
 20
11.5092719698
 30
0.0
 10
12.2221229776
 20
11.5295117554
 30
0.0
 10
12.1729541256
 20
11.5538739813
 30
0.0
 10
12.1295773499
 20
11.5673035774
 30
0.0
 10
12.0941398265
 20
11.5728180159
 30
0.0
 10
12.0673917457
 20
11.5742106451
 30
0.0
 10
12.040643663
 20
11.5728180215
 30
0.0
 10
12.0052061896
 20
11.5673034904
 30
0.0
 10
11.9618294751
 20
11.5538739532
 30
0.0
 10
11.9126606876
 20
11.529511738
 30
0.0
 10
11.88191429
 20
11.5092719703
 30
0.0
 10
11.8669481168
 20
11.4984046514
 30
0.0
  0
SPLINE
  5
4D8
100
AcDbEntity
  8
0
100
AcDbSpline
 62
9
  6
CONTINUOUS
 70
0
 71
3
 72
12
 73
8
 74
0
 42
0.0000001
 43
0.0000001
 44
0.0000000001
 40
0.0
 40
0.0
 40
0.0
 40
0.0
 40
0.2886042607
 40
0.5523964005
 40
0.6742707596
 40
0.7892106569
 40
1.0
 40
1.0
 40
1.0
 40
1.0
 10
9.1810290852
 20
9.749442405
 30
0.0
 10
9.1521673508
 20
9.755030893
 30
0.0
 10
9.0973997246
 20
9.7683897627
 30
0.0
 10
9.0324440597
 20
9.7910310549
 30
0.0
 10
8.9856034332
 20
9.8112309654
 30
0.0
 10
8.9445892264
 20
9.8311658879
 30
0.0
 10
8.9157461588
 20
9.8477078216
 30
0.0
 10
8.897734425
 20
9.8593953969
 30
0.0
  0
SPLINE
  5
4D9
100
AcDbEntity
  8
0
100
AcDbSpline
 62
9
  6
CONTINUOUS
 70
0
 71
3
 72
20
 73
16
 74
0
 42
0.0000001
 43
0.0000001
 44
0.0000000001
 40
0.0
 40
0.0
 40
0.0
 40
0.0
 40
0.1956196268
 40
0.3826850209
 40
0.5535628951
 40
0.7024899875
 40
0.7671336778
 40
0.8245085363
 40
0.8741931773
 40
0.9157878699
 40
0.9489407195
 40
0.9735525213
 40
0.9827620221
 40
0.9900449483
 40
1.0
 40
1.0
 40
1.0
 40
1.0
 10
7.1951255324
 20
10.9598064568
 30
0.0
 10
7.1899017485
 20
10.9598064568
 30
0.0
 10
7.1796824206
 20
10.959721536
 30
0.0
 10
7.1649040896
 20
10.9593471844
 30
0.0
 10
7.1513817806
 20
10.9587325056
 30
0.0
 10
7.1411386914
 20
10.958018693
 30
0.0
 10
7.1339365265
 20
10.9573229339
 30
0.0
 10
7.1293827631
 20
10.9567836068
 30
0.0
 10
7.1254545183
 20
10.9562077268
 30
0.0
 10
7.1221857367
 20
10.9556045238
 30
0.0
 10
7.1196063863
 20
10.9549740966
 30
0.0
 10
7.1179080121
 20
10.9544034442
 30
0.0
 10
7.1169246366
 20
10.9538982699
 30
0.0
 10
7.1163515962
 20
10.9535046366
 30
0.0
 10
7.1160414952
 20
10.953081434
 30
0.0
 10
7.1160368969
 20
10.9528156362
 30
0.0
  0
SPLINE
  5
4DA
100
AcDbEntity
  8
0
100
AcDbSpline
 62
9
  6
CONTINUOUS
 70
0
 71
3
 72
14
 73
10
 74
0
 42
0.0000001
 43
0.0000001
 44
0.0000000001
 40
0.0
 40
0.0
 40
0.0
 40
0.0
 40
0.0414055373
 40
0.106644558
 40
0.1968450734
 40
0.3119015597
 40
0.4512065084
 40
0.6133944202
 40
1.0
 40
1.0
 40
1.0
 40
1.0
 10
7.3556540276
 20
10.9522892314
 30
0.0
 10
7.3554006238
 20
10.9526117631
 30
0.0
 10
7.3544637485
 20
10.9531797082
 30
0.0
 10
7.3526511462
 20
10.9538648947
 30
0.0
 10
7.3500520454
 20
10.9545568083
 30
0.0
 10
7.3467083174
 20
10.9552343268
 30
0.0
 10
7.3426320951
 20
10.9558877367
 30
0.0
 10
7.3358728409
 20
10.9567700387
 30
0.0
 10
7.3304592284
 20
10.9572883806
 30
0.0
 10
7.3266425289
 20
10.9576047125
 30
0.0
  0
SPLINE
  5
4DB
100
AcDbEntity
  8
0
100
AcDbSpline
 62
9
  6
CONTINUOUS
 70
0
 71
3
 72
9
 73
5
 74
0
 42
0.0000001
 43
0.0000001
 44
0.0000000001
 40
0.0
 40
0.0
 40
0.0
 40
0.0
 40
0.4670527075
 40
1.0
 40
1.0
 40
1.0
 40
1.0
 10
7.3266425289
 20
10.9576047125
 30
0.0
 10
7.3170636505
 20
10.9583986196
 30
0.0
 10
7.2965027363
 20
10.9594602682
 30
0.0
 10
7.2759228171
 20
10.9598064568
 30
0.0
 10
7.2649550159
 20
10.9598064568
 30
0.0
  0
SPLINE
  5
4DC
100
AcDbEntity
  8
0
100
AcDbSpline
 62
9
  6
CONTINUOUS
 70
0
 71
3
 72
18
 73
14
 74
0
 42
0.0000001
 43
0.0000001
 44
0.0000000001
 40
0.0
 40
0.0
 40
0.0
 40
0.0
 40
0.1973707156
 40
0.3856028356
 40
0.5571497882
 40
0.7063212764
 40
0.8282305686
 40
0.9190593206
 40
0.9518527598
 40
0.9759222218
 40
0.9847508423
 40
0.9915420409
 40
1.0
 40
1.0
 40
1.0
 40
1.0
 10
7.2649550159
 20
10.9598064568
 30
0.0
 10
7.2649868716
 20
10.9649499525
 30
0.0
 10
7.265114465
 20
10.9749984998
 30
0.0
 10
7.2654932864
 20
10.9895137353
 30
0.0
 10
7.2660507408
 20
11.0027660884
 30
0.0
 10
7.266755327
 20
11.0142809817
 30
0.0
 10
7.2675905206
 20
11.0236762791
 30
0.0
 10
7.2683985665
 20
11.0300277324
 30
0.0
 10
7.2691554469
 20
11.0338056739
 30
0.0
 10
7.2696058887
 20
11.0354557991
 30
0.0
 10
7.270008806
 20
11.0364200241
 30
0.0
 10
7.2703035508
 20
11.0369528037
 30
0.0
 10
7.2706406877
 20
11.0372807907
 30
0.0
 10
7.2708610837
 20
11.0372839905
 30
0.0
  0
SPLINE
  5
4DD
100
AcDbEntity
  8
0
100
AcDbSpline
 62
9
  6
CONTINUOUS
 70
0
 71
3
 72
13
 73
9
 74
0
 42
0.0000001
 43
0.0000001
 44
0.0000000001
 40
0.0
 40
0.0
 40
0.0
 40
0.0
 40
0.0589685357
 40
0.1361516395
 40
0.2322797118
 40
0.3476037171
 40
0.6358670659
 40
1.0
 40
1.0
 40
1.0
 40
1.0
 10
7.3905707721
 20
10.907847301
 30
0.0
 10
7.3912039512
 20
10.9070413925
 30
0.0
 10
7.3924079171
 20
10.9049840605
 30
0.0
 10
7.3939843068
 20
10.901264427
 30
0.0
 10
7.3955597134
 20
10.8964963639
 30
0.0
 10
7.3978186886
 20
10.8881075026
 30
0.0
 10
7.4004757532
 20
10.8750205055
 30
0.0
 10
7.4022276976
 20
10.8638162239
 30
0.0
 10
7.4031168579
 20
10.8575502485
 30
0.0
  0
SPLINE
  5
4DE
100
AcDbEntity
  8
0
100
AcDbSpline
 62
9
  6
CONTINUOUS
 70
0
 71
3
 72
9
 73
5
 74
0
 42
0.0000001
 43
0.0000001
 44
0.0000000001
 40
0.0
 40
0.0
 40
0.0
 40
0.0
 40
0.4649719172
 40
1.0
 40
1.0
 40
1.0
 40
1.0
 10
7.4031168579
 20
10.8575502485
 30
0.0
 10
7.4041111995
 20
10.8505430533
 30
0.0
 10
7.4060101381
 20
10.8354388293
 30
0.0
 10
7.4075827683
 20
10.8202982945
 30
0.0
 10
7.4083595316
 20
10.8121916968
 30
0.0
  0
SPLINE
  5
4DF
100
AcDbEntity
  8
0
100
AcDbSpline
 62
9
  6
CONTINUOUS
 70
0
 71
3
 72
10
 73
6
 74
0
 42
0.0000001
 43
0.0000001
 44
0.0000000001
 40
0.0
 40
0.0
 40
0.0
 40
0.0
 40
0.5612223528
 40
0.7964259498
 40
1.0
 40
1.0
 40
1.0
 40
1.0
 10
7.4083588052
 20
9.9874920023
 30
0.0
 10
7.407187146
 20
9.97526477
 30
0.0
 10
7.4053282667
 20
9.9579284653
 30
0.0
 10
7.4023151985
 20
9.9362488714
 30
0.0
 10
7.4007441634
 20
9.9267729324
 30
0.0
 10
7.3999298184
 20
9.9223924433
 30
0.0
  0
SPLINE
  5
4E0
100
AcDbEntity
  8
0
100
AcDbSpline
 62
9
  6
CONTINUOUS
 70
0
 71
3
 72
12
 73
8
 74
0
 42
0.0000001
 43
0.0000001
 44
0.0000000001
 40
0.0
 40
0.0
 40
0.0
 40
0.0
 40
0.3503816308
 40
0.6333973273
 40
0.8491851601
 40
0.9324325241
 40
1.0
 40
1.0
 40
1.0
 40
1.0
 10
7.3999298184
 20
9.9223924433
 30
0.0
 10
7.3992437923
 20
9.9187022014
 30
0.0
 10
7.3978957642
 20
9.9120486182
 30
0.0
 10
7.3956270441
 20
9.9032373015
 30
0.0
 10
7.3936021283
 20
9.8973210813
 30
0.0
 10
7.3918882505
 20
9.8937830609
 30
0.0
 10
7.3910179469
 20
9.8924131417
 30
0.0
 10
7.3905707721
 20
9.8918439789
 30
0.0
  0
SPLINE
  5
4E1
100
AcDbEntity
  8
0
100
AcDbSpline
 62
9
  6
CONTINUOUS
 70
0
 71
3
 72
12
 73
8
 74
0
 42
0.0000001
 43
0.0000001
 44
0.0000000001
 40
0.0
 40
0.0
 40
0.0
 40
0.0
 40
0.0675659829
 40
0.1508122907
 40
0.3665993446
 40
0.6496159418
 40
1.0
 40
1.0
 40
1.0
 40
1.0
 10
7.3904473897
 20
9.9117656127
 30
0.0
 10
7.390877053
 20
9.9123124867
 30
0.0
 10
7.3917132725
 20
9.9136287711
 30
0.0
 10
7.3933600272
 20
9.9170282985
 30
0.0
 10
7.395305631
 20
9.9227129721
 30
0.0
 10
7.3974854873
 20
9.9311794642
 30
0.0
 10
7.3987807101
 20
9.9375726748
 30
0.0
 10
7.3994398631
 20
9.9411185128
 30
0.0
  0
SPLINE
  5
4E2
100
AcDbEntity
  8
0
100
AcDbSpline
 62
9
  6
CONTINUOUS
 70
0
 71
3
 72
9
 73
5
 74
0
 42
0.0000001
 43
0.0000001
 44
0.0000000001
 40
0.0
 40
0.0
 40
0.0
 40
0.0
 40
0.4561091531
 40
1.0
 40
1.0
 40
1.0
 40
1.0
 10
7.4001538618
 20
9.9450916351
 30
0.0
 10
7.4012386129
 20
9.9513303691
 30
0.0
 10
7.4032894376
 20
9.9650652556
 30
0.0
 10
7.4049413532
 20
9.9788512055
 30
0.0
 10
7.4057648548
 20
9.9863572097
 30
0.0
  0
SPLINE
  5
4E3
100
AcDbEntity
  8
0
100
AcDbSpline
 62
9
  6
CONTINUOUS
 70
0
 71
3
 72
9
 73
5
 74
0
 42
0.0000001
 43
0.0000001
 44
0.0000000001
 40
0.0
 40
0.0
 40
0.0
 40
0.0
 40
0.5505765944
 40
1.0
 40
1.0
 40
1.0
 40
1.0
 10
7.4057649605
 20
10.813333109
 30
0.0
 10
7.4048504969
 20
10.8216682757
 30
0.0
 10
7.4030225233
 20
10.8367894417
 30
0.0
 10
7.4006904176
 20
10.8518458408
 30
0.0
 10
7.3994394146
 20
10.8585751818
 30
0.0
  0
SPLINE
  5
4E4
100
AcDbEntity
  8
0
100
AcDbSpline
 62
9
  6
CONTINUOUS
 70
0
 71
3
 72
12
 73
8
 74
0
 42
0.0000001
 43
0.0000001
 44
0.0000000001
 40
0.0
 40
0.0
 40
0.0
 40
0.0
 40
0.3503816308
 40
0.6333973273
 40
0.8491851601
 40
0.9324325241
 40
1.0
 40
1.0
 40
1.0
 40
1.0
 10
7.3994394146
 20
10.8585751818
 30
0.0
 10
7.3987802915
 20
10.8621207083
 30
0.0
 10
7.3974851273
 20
10.8685133667
 30
0.0
 10
7.3953053765
 20
10.8769791415
 30
0.0
 10
7.3933598692
 20
10.8826633531
 30
0.0
 10
7.3917132023
 20
10.8860626276
 30
0.0
 10
7.3908770283
 20
10.8873788245
 30
0.0
 10
7.3904473897
 20
10.8879256672
 30
0.0
  0
SPLINE
  5
4E5
100
AcDbEntity
  8
0
100
AcDbSpline
 62
9
  6
CONTINUOUS
 70
0
 71
3
 72
11
 73
7
 74
0
 42
0.0000001
 43
0.0000001
 44
0.0000000001
 40
0.0
 40
0.0
 40
0.0
 40
0.0
 40
0.2496223555
 40
0.499761144
 40
0.750039686
 40
1.0
 40
1.0
 40
1.0
 40
1.0
 10
7.3555306453
 20
10.9323675977
 30
0.0
 10
7.3554623602
 20
10.9213421207
 30
0.0
 10
7.3508965017
 20
10.8990577876
 30
0.0
 10
7.3318581167
 20
10.8709442511
 30
0.0
 10
7.3035865346
 20
10.8521173941
 30
0.0
 10
7.2812539417
 20
10.8477006542
 30
0.0
 10
7.2702133259
 20
10.8477006542
 30
0.0
  0
SPLINE
  5
4E6
100
AcDbEntity
  8
0
100
AcDbSpline
 62
9
  6
CONTINUOUS
 70
0
 71
3
 72
18
 73
14
 74
0
 42
0.0000001
 43
0.0000001
 44
0.0000000001
 40
0.0
 40
0.0
 40
0.0
 40
0.0
 40
0.0138259625
 40
0.0357609393
 40
0.0658748499
 40
0.1040241652
 40
0.1499557794
 40
0.2031953053
 40
0.3294425643
 40
0.4781894479
 40
0.6439073505
 40
0.8204294483
 40
1.0
 40
1.0
 40
1.0
 40
1.0
 10
7.2702133259
 20
10.8477006542
 30
0.0
 10
7.2699496692
 20
10.8480362355
 30
0.0
 10
7.2695217389
 20
10.8490788709
 30
0.0
 10
7.2689860213
 20
10.8510314938
 30
0.0
 10
7.2684580073
 20
10.8537717456
 30
0.0
 10
7.267941528
 20
10.8572572883
 30
0.0
 10
7.2674502601
 20
10.8614685865
 30
0.0
 10
7.2667953883
 20
10.8683957841
 30
0.0
 10
7.2661040014
 20
10.8785054743
 30
0.0
 10
7.2654745017
 20
10.892094961
 30
0.0
 10
7.2650338842
 20
10.9072445854
 30
0.0
 10
7.2648059281
 20
10.9233501963
 30
0.0
 10
7.2647973054
 20
10.9343421183
 30
0.0
 10
7.2648316336
 20
10.939884823
 30
0.0
  0
SPLINE
  5
4E7
100
AcDbEntity
  8
0
100
AcDbSpline
 62
9
  6
CONTINUOUS
 70
0
 71
3
 72
9
 73
5
 74
0
 42
0.0000001
 43
0.0000001
 44
0.0000000001
 40
0.0
 40
0.0
 40
0.0
 40
0.0
 40
0.5329472925
 40
1.0
 40
1.0
 40
1.0
 40
1.0
 10
7.2648316336
 20
10.939884823
 30
0.0
 10
7.2757994348
 20
10.939884823
 30
0.0
 10
7.296379354
 20
10.9395386344
 30
0.0
 10
7.3169402681
 20
10.9384769858
 30
0.0
 10
7.3265191466
 20
10.9376830787
 30
0.0
  0
SPLINE
  5
4E8
100
AcDbEntity
  8
0
100
AcDbSpline
 62
9
  6
CONTINUOUS
 70
0
 71
3
 72
14
 73
10
 74
0
 42
0.0000001
 43
0.0000001
 44
0.0000000001
 40
0.0
 40
0.0
 40
0.0
 40
0.0
 40
0.3866055798
 40
0.5487934916
 40
0.6880984403
 40
0.8031549266
 40
0.893355442
 40
0.9585944627
 40
1.0
 40
1.0
 40
1.0
 40
1.0
 10
7.3265191466
 20
10.9376830787
 30
0.0
 10
7.330335846
 20
10.9373667468
 30
0.0
 10
7.3357494585
 20
10.9368484049
 30
0.0
 10
7.3425087127
 20
10.9359661029
 30
0.0
 10
7.346584935
 20
10.935312693
 30
0.0
 10
7.349928663
 20
10.9346351746
 30
0.0
 10
7.3525277638
 20
10.9339432609
 30
0.0
 10
7.3543403661
 20
10.9332580745
 30
0.0
 10
7.3552772415
 20
10.9326901293
 30
0.0
 10
7.3555306453
 20
10.9323675977
 30
0.0
  0
SPLINE
  5
4E9
100
AcDbEntity
  8
0
100
AcDbSpline
 62
7
  6
CONTINUOUS
 70
0
 71
3
 72
11
 73
7
 74
0
 42
0.0000001
 43
0.0000001
 44
0.0000000001
 40
0.0
 40
0.0
 40
0.0
 40
0.0
 40
0.14173373
 40
0.3443459864
 40
0.6233782681
 40
1.0
 40
1.0
 40
1.0
 40
1.0
 10
7.373191147
 20
10.8498468477
 30
0.0
 10
7.3719242984
 20
10.8498468477
 30
0.0
 10
7.3688801149
 20
10.8490567204
 30
0.0
 10
7.3638471372
 20
10.8466853493
 30
0.0
 10
7.3571482485
 20
10.8429304998
 30
0.0
 10
7.3520071152
 20
10.8401209975
 30
0.0
 10
7.3490217094
 20
10.8385655109
 30
0.0
  0
SPLINE
  5
4EA
100
AcDbEntity
  8
0
100
AcDbSpline
 62
7
  6
CONTINUOUS
 70
0
 71
3
 72
9
 73
5
 74
0
 42
0.0000001
 43
0.0000001
 44
0.0000000001
 40
0.0
 40
0.0
 40
0.0
 40
0.0
 40
0.4429349571
 40
1.0
 40
1.0
 40
1.0
 40
1.0
 10
7.3490217094
 20
10.8385655109
 30
0.0
 10
7.345855913
 20
10.8369160353
 30
0.0
 10
7.3386192413
 20
10.8333555285
 30
0.0
 10
7.3310798586
 20
10.8304612712
 30
0.0
 10
7.3268183383
 20
10.829048661
 30
0.0
  0
SPLINE
  5
4EB
100
AcDbEntity
  8
0
100
AcDbSpline
 62
9
  6
CONTINUOUS
 70
0
 71
3
 72
11
 73
7
 74
0
 42
0.0000001
 43
0.0000001
 44
0.0000000001
 40
0.0
 40
0.0
 40
0.0
 40
0.0
 40
0.2740366031
 40
0.5284130416
 40
0.7689681996
 40
1.0
 40
1.0
 40
1.0
 40
1.0
 10
8.4254490931
 20
3.8616333567
 30
0.0
 10
8.4254746574
 20
3.8566963008
 30
0.0
 10
8.4259454868
 20
3.8471720128
 30
0.0
 10
8.4278740038
 20
3.8334364483
 30
0.0
 10
8.4307213175
 20
3.8206599145
 30
0.0
 10
8.4330995583
 20
3.8124969388
 30
0.0
 10
8.4343871902
 20
3.8085387779
 30
0.0
  0
SPLINE
  5
4EC
100
AcDbEntity
  8
0
100
AcDbSpline
 62
9
  6
CONTINUOUS
 70
0
 71
3
 72
23
 73
19
 74
0
 42
0.0000001
 43
0.0000001
 44
0.0000000001
 40
0.0
 40
0.0
 40
0.0
 40
0.0
 40
0.0308815168
 40
0.0603104483
 40
0.0889783954
 40
0.117273082
 40
0.1454032733
 40
0.1735058722
 40
0.2016724017
 40
0.2299641136
 40
0.2870945365
 40
0.345165277
 40
0.4043204851
 40
0.4646791201
 40
0.589300776
 40
0.7196325874
 40
0.8562392074
 40
1.0
 40
1.0
 40
1.0
 40
1.0
 10
8.4343871902
 20
3.8085387779
 30
0.0
 10
8.4377228691
 20
3.7982849511
 30
0.0
 10
8.4458270413
 20
3.7787520688
 30
0.0
 10
8.4613672485
 20
3.7517749796
 30
0.0
 10
8.479171016
 20
3.7273678642
 30
0.0
 10
8.4986159022
 20
3.7048653564
 30
0.0
 10
8.5195398611
 20
3.68401639
 30
0.0
 10
8.5417077597
 20
3.6645730845
 30
0.0
 10
8.5649867081
 20
3.6463881195
 30
0.0
 10
8.597424511
 20
3.6235437364
 30
0.0
 10
8.6403537551
 20
3.5975799813
 30
0.0
 10
8.6947569404
 20
3.5701514812
 30
0.0
 10
8.7518765085
 20
3.5459184189
 30
0.0
 10
8.832212404
 20
3.5172932899
 30
0.0
 10
8.9387100103
 20
3.4886391459
 30
0.0
 10
9.0734622118
 20
3.4647245461
 30
0.0
 10
9.216263238
 20
3.4503463499
 30
0.0
 10
9.31419558
 20
3.4473341885
 30
0.0
 10
9.3643918456
 20
3.4473341886
 30
0.0
  0
SPLINE
  5
4ED
100
AcDbEntity
  8
0
100
AcDbSpline
 62
9
  6
CONTINUOUS
 70
0
 71
3
 72
27
 73
23
 74
0
 42
0.0000001
 43
0.0000001
 44
0.0000000001
 40
0.0
 40
0.0
 40
0.0
 40
0.0
 40
0.0311374619
 40
0.0468106793
 40
0.0624585837
 40
0.0781144715
 40
0.0937598211
 40
0.1093975454
 40
0.1250465118
 40
0.1563254992
 40
0.1875932011
 40
0.250076018
 40
0.3125667144
 40
0.3750614304
 40
0.4375582932
 40
0.5000555454
 40
0.5625493271
 40
0.6250426047
 40
0.687536639
 40
0.7500316641
 40
0.8750138309
 40
1.0
 40
1.0
 40
1.0
 40
1.0
 10
8.3993937736
 20
3.3998846162
 30
0.0
 10
8.3994066532
 20
3.3886331781
 30
0.0
 10
8.4020625584
 20
3.3716388199
 30
0.0
 10
8.4096445971
 20
3.3503539737
 30
0.0
 10
8.4171586389
 20
3.3350892179
 30
0.0
 10
8.4261499054
 20
3.3206760065
 30
0.0
 10
8.4363465866
 20
3.3070987065
 30
0.0
 10
8.4475306296
 20
3.2943316869
 30
0.0
 10
8.4635143042
 20
3.2783259921
 30
0.0
 10
8.4850534905
 20
3.2599632268
 30
0.0
 10
8.5218248162
 20
3.2336477978
 30
0.0
 10
8.5709646928
 20
3.2055681064
 30
0.0
 10
8.6327012157
 20
3.1775359411
 30
0.0
 10
8.696250433
 20
3.1539300932
 30
0.0
 10
8.7609947731
 20
3.1338855543
 30
0.0
 10
8.8265937841
 20
3.1168726496
 30
0.0
 10
8.8928142632
 20
3.1024974887
 30
0.0
 10
8.9594987742
 20
3.090481743
 30
0.0
 10
9.0265301492
 20
3.0805920459
 30
0.0
 10
9.1162472726
 20
3.0700284839
 30
0.0
 10
9.2288861235
 20
3.061449896
 30
0.0
 10
9.3192284505
 20
3.0592836383
 30
0.0
 10
9.3643918961
 20
3.0592853404
 30
0.0
  0
SPLINE
  5
4EE
100
AcDbEntity
  8
0
100
AcDbSpline
 62
7
  6
CONTINUOUS
 70
0
 71
3
 72
12
 73
8
 74
0
 42
0.0000001
 43
0.0000001
 44
0.0000000001
 40
0.0
 40
0.0
 40
0.0
 40
0.0
 40
0.3793498929
 40
0.6564076146
 40
0.8577660736
 40
0.9354415327
 40
1.0
 40
1.0
 40
1.0
 40
1.0
 10
7.3268183383
 20
9.9706426188
 30
0.0
 10
7.3323710039
 20
9.9688020194
 30
0.0
 10
7.3417704317
 20
9.964957415
 30
0.0
 10
7.353492016
 20
9.9588188426
 30
0.0
 10
7.3609502496
 20
9.9545844174
 30
0.0
 10
7.3656582836
 20
9.9521524455
 30
0.0
 10
7.367662572
 20
9.95125492
 30
0.0
 10
7.3685915392
 20
9.9508970204
 30
0.0
  0
SPLINE
  5
4EF
100
AcDbEntity
  8
0
100
AcDbSpline
 62
7
  6
CONTINUOUS
 70
0
 71
3
 72
9
 73
5
 74
0
 42
0.0000001
 43
0.0000001
 44
0.0000000001
 40
0.0
 40
0.0
 40
0.0
 40
0.0
 40
0.5533333103
 40
1.0
 40
1.0
 40
1.0
 40
1.0
 10
7.3685915392
 20
9.9508970204
 30
0.0
 10
7.3694069098
 20
9.9505828858
 30
0.0
 10
7.370908135
 20
9.9500815603
 30
0.0
 10
7.372485751
 20
9.949844437
 30
0.0
 10
7.3731911
 20
9.9498444322
 30
0.0
  0
SPLINE
  5
4F0
100
AcDbEntity
  8
0
100
AcDbSpline
 62
9
  6
CONTINUOUS
 70
0
 71
3
 72
11
 73
7
 74
0
 42
0.0000001
 43
0.0000001
 44
0.0000000001
 40
0.0
 40
0.0
 40
0.0
 40
0.0
 40
0.249960314
 40
0.500238856
 40
0.7503776445
 40
1.0
 40
1.0
 40
1.0
 40
1.0
 10
7.2702133259
 20
9.9519906257
 30
0.0
 10
7.2812539417
 20
9.9519906257
 30
0.0
 10
7.3035865346
 20
9.9475738858
 30
0.0
 10
7.3318581167
 20
9.9287470287
 30
0.0
 10
7.3508965017
 20
9.9006334922
 30
0.0
 10
7.3554623602
 20
9.8783491592
 30
0.0
 10
7.3555306453
 20
9.8673236822
 30
0.0
  0
SPLINE
  5
4F1
100
AcDbEntity
  8
0
100
AcDbSpline
 62
9
  6
CONTINUOUS
 70
0
 71
3
 72
14
 73
10
 74
0
 42
0.0000001
 43
0.0000001
 44
0.0000000001
 40
0.0
 40
0.0
 40
0.0
 40
0.0
 40
0.0414055373
 40
0.106644558
 40
0.1968450734
 40
0.3119015597
 40
0.4512065084
 40
0.6133944202
 40
1.0
 40
1.0
 40
1.0
 40
1.0
 10
7.3555306453
 20
9.8673236822
 30
0.0
 10
7.3552772415
 20
9.8670011506
 30
0.0
 10
7.3543403661
 20
9.8664332054
 30
0.0
 10
7.3525277638
 20
9.8657480189
 30
0.0
 10
7.349928663
 20
9.8650561053
 30
0.0
 10
7.346584935
 20
9.8643785868
 30
0.0
 10
7.3425087127
 20
9.863725177
 30
0.0
 10
7.3357494585
 20
9.8628428749
 30
0.0
 10
7.330335846
 20
9.862324533
 30
0.0
 10
7.3265191466
 20
9.8620082012
 30
0.0
  0
SPLINE
  5
4F2
100
AcDbEntity
  8
0
100
AcDbSpline
 62
9
  6
CONTINUOUS
 70
0
 71
3
 72
9
 73
5
 74
0
 42
0.0000001
 43
0.0000001
 44
0.0000000001
 40
0.0
 40
0.0
 40
0.0
 40
0.0
 40
0.4670527075
 40
1.0
 40
1.0
 40
1.0
 40
1.0
 10
7.3265191466
 20
9.8620082012
 30
0.0
 10
7.3169402681
 20
9.8612142941
 30
0.0
 10
7.296379354
 20
9.8601526455
 30
0.0
 10
7.2757994348
 20
9.8598064568
 30
0.0
 10
7.2648316336
 20
9.8598064568
 30
0.0
  0
SPLINE
  5
4F3
100
AcDbEntity
  8
0
100
AcDbSpline
 62
9
  6
CONTINUOUS
 70
0
 71
3
 72
18
 73
14
 74
0
 42
0.0000001
 43
0.0000001
 44
0.0000000001
 40
0.0
 40
0.0
 40
0.0
 40
0.0
 40
0.1795705517
 40
0.3560926495
 40
0.5218105521
 40
0.6705574357
 40
0.7968046947
 40
0.8500442206
 40
0.8959758348
 40
0.9341251501
 40
0.9642390607
 40
0.9861740375
 40
1.0
 40
1.0
 40
1.0
 40
1.0
 10
7.2648316336
 20
9.8598064568
 30
0.0
 10
7.2647973054
 20
9.8653491616
 30
0.0
 10
7.2648059281
 20
9.8763410835
 30
0.0
 10
7.2650338842
 20
9.8924466945
 30
0.0
 10
7.2654745017
 20
9.9075963189
 30
0.0
 10
7.2661040014
 20
9.9211858055
 30
0.0
 10
7.2667953883
 20
9.9312954957
 30
0.0
 10
7.2674502601
 20
9.9382226934
 30
0.0
 10
7.267941528
 20
9.9424339915
 30
0.0
 10
7.2684580073
 20
9.9459195342
 30
0.0
 10
7.2689860213
 20
9.948659786
 30
0.0
 10
7.2695217389
 20
9.950612409
 30
0.0
 10
7.2699496692
 20
9.9516550443
 30
0.0
 10
7.2702133259
 20
9.9519906257
 30
0.0
  0
SPLINE
  5
4F4
100
AcDbEntity
  8
0
100
AcDbSpline
 62
9
  6
CONTINUOUS
 70
0
 71
3
 72
9
 73
5
 74
0
 42
0.0000001
 43
0.0000001
 44
0.0000000001
 40
0.0
 40
0.0
 40
0.0
 40
0.0
 40
0.5329472925
 40
1.0
 40
1.0
 40
1.0
 40
1.0
 10
7.2649550159
 20
9.839884823
 30
0.0
 10
7.2759228171
 20
9.839884823
 30
0.0
 10
7.2965027363
 20
9.8402310117
 30
0.0
 10
7.3170636505
 20
9.8412926603
 30
0.0
 10
7.3266425289
 20
9.8420865674
 30
0.0
  0
SPLINE
  5
4F5
100
AcDbEntity
  8
0
100
AcDbSpline
 62
9
  6
CONTINUOUS
 70
0
 71
3
 72
14
 73
10
 74
0
 42
0.0000001
 43
0.0000001
 44
0.0000000001
 40
0.0
 40
0.0
 40
0.0
 40
0.0
 40
0.3866055798
 40
0.5487934916
 40
0.6880984403
 40
0.8031549266
 40
0.893355442
 40
0.9585944627
 40
1.0
 40
1.0
 40
1.0
 40
1.0
 10
7.3266425289
 20
9.8420865674
 30
0.0
 10
7.3304592284
 20
9.8424028993
 30
0.0
 10
7.3358728409
 20
9.8429212412
 30
0.0
 10
7.3426320951
 20
9.8438035432
 30
0.0
 10
7.3467083174
 20
9.8444569531
 30
0.0
 10
7.3500520454
 20
9.8451344715
 30
0.0
 10
7.3526511462
 20
9.8458263851
 30
0.0
 10
7.3544637485
 20
9.8465115716
 30
0.0
 10
7.3554006238
 20
9.8470795168
 30
0.0
 10
7.3556540276
 20
9.8474020484
 30
0.0
  0
SPLINE
  5
4F6
100
AcDbEntity
  8
0
100
AcDbSpline
 62
7
  6
CONTINUOUS
 70
0
 71
3
 72
17
 73
13
 74
0
 42
0.0000001
 43
0.0000001
 44
0.0000000001
 40
0.0
 40
0.0
 40
0.0
 40
0.0
 40
0.1274851741
 40
0.2531726035
 40
0.3770930349
 40
0.4386264804
 40
0.500000212
 40
0.5613739869
 40
0.6229074242
 40
0.7468275807
 40
0.8725148206
 40
1.0
 40
1.0
 40
1.0
 40
1.0
 10
11.8669481168
 20
11.1522315104
 30
0.0
 10
11.8819142894
 20
11.141364192
 30
0.0
 10
11.912660709
 20
11.1211244064
 30
0.0
 10
11.9618295609
 20
11.0967621804
 30
0.0
 10
12.0052063366
 20
11.0833325843
 30
0.0
 10
12.0406438601
 20
11.0778181459
 30
0.0
 10
12.0673919408
 20
11.0764255166
 30
0.0
 10
12.0941400236
 20
11.0778181403
 30
0.0
 10
12.1295774969
 20
11.0833326713
 30
0.0
 10
12.1729542115
 20
11.0967622085
 30
0.0
 10
12.222122999
 20
11.1211244238
 30
0.0
 10
12.2528693966
 20
11.1413641915
 30
0.0
 10
12.2678355698
 20
11.1522315104
 30
0.0
  0
SPLINE
  5
4F7
100
AcDbEntity
  8
0
100
AcDbSpline
 62
7
  6
CONTINUOUS
 70
0
 71
3
 72
17
 73
13
 74
0
 42
0.0000001
 43
0.0000001
 44
0.0000000001
 40
0.0
 40
0.0
 40
0.0
 40
0.0
 40
0.1274851741
 40
0.2531726035
 40
0.3770930349
 40
0.4386264804
 40
0.500000212
 40
0.5613739869
 40
0.6229074242
 40
0.7468275807
 40
0.8725148206
 40
1.0
 40
1.0
 40
1.0
 40
1.0
 10
12.4609481168
 20
11.1522315104
 30
0.0
 10
12.4759142894
 20
11.141364192
 30
0.0
 10
12.506660709
 20
11.1211244064
 30
0.0
 10
12.5558295609
 20
11.0967621804
 30
0.0
 10
12.5992063366
 20
11.0833325843
 30
0.0
 10
12.6346438601
 20
11.0778181459
 30
0.0
 10
12.6613919408
 20
11.0764255166
 30
0.0
 10
12.6881400236
 20
11.0778181403
 30
0.0
 10
12.7235774969
 20
11.0833326713
 30
0.0
 10
12.7669542115
 20
11.0967622085
 30
0.0
 10
12.816122999
 20
11.1211244238
 30
0.0
 10
12.8468693966
 20
11.1413641915
 30
0.0
 10
12.8618355698
 20
11.1522315104
 30
0.0
  0
SPLINE
  5
4F8
100
AcDbEntity
  8
0
100
AcDbSpline
 62
9
  6
CONTINUOUS
 70
0
 71
3
 72
18
 73
14
 74
0
 42
0.0000001
 43
0.0000001
 44
0.0000000001
 40
0.0
 40
0.0
 40
0.0
 40
0.0
 40
0.1973707156
 40
0.3856028356
 40
0.5571497882
 40
0.7063212764
 40
0.8282305686
 40
0.9190593206
 40
0.9518527598
 40
0.9759222218
 40
0.9847508423
 40
0.9915420409
 40
1.0
 40
1.0
 40
1.0
 40
1.0
 10
7.1951255324
 20
9.839884823
 30
0.0
 10
7.1951573881
 20
9.8347413273
 30
0.0
 10
7.1952849815
 20
9.82469278
 30
0.0
 10
7.1956638029
 20
9.8101775445
 30
0.0
 10
7.1962212573
 20
9.7969251915
 30
0.0
 10
7.1969258435
 20
9.7854102982
 30
0.0
 10
7.1977610371
 20
9.7760150007
 30
0.0
 10
7.198569083
 20
9.7696635474
 30
0.0
 10
7.1993259634
 20
9.765885606
 30
0.0
 10
7.1997764052
 20
9.7642354808
 30
0.0
 10
7.2001793225
 20
9.7632712558
 30
0.0
 10
7.2004740673
 20
9.7627384761
 30
0.0
 10
7.2008112042
 20
9.7624104892
 30
0.0
 10
7.2010316002
 20
9.7624072893
 30
0.0
  0
SPLINE
  5
4F9
100
AcDbEntity
  8
0
100
AcDbSpline
 62
9
  6
CONTINUOUS
 70
0
 71
3
 72
14
 73
10
 74
0
 42
0.0000001
 43
0.0000001
 44
0.0000000001
 40
0.0
 40
0.0
 40
0.0
 40
0.0
 40
0.0419677479
 40
0.1085498449
 40
0.199958527
 40
0.3157581214
 40
0.455180343
 40
0.6167852223
 40
1.0
 40
1.0
 40
1.0
 40
1.0
 10
7.2003838423
 20
9.9519906257
 30
0.0
 10
7.2001201857
 20
9.9516550443
 30
0.0
 10
7.1996922554
 20
9.950612409
 30
0.0
 10
7.1991565376
 20
9.9486597861
 30
0.0
 10
7.1986285243
 20
9.945919534
 30
0.0
 10
7.1981120418
 20
9.9424339928
 30
0.0
 10
7.1976207898
 20
9.9382226872
 30
0.0
 10
7.1969658125
 20
9.9312955387
 30
0.0
 10
7.1965883202
 20
9.9257670262
 30
0.0
 10
7.1963612079
 20
9.921876771
 30
0.0
  0
SPLINE
  5
4FA
100
AcDbEntity
  8
0
100
AcDbSpline
 62
9
  6
CONTINUOUS
 70
0
 71
3
 72
9
 73
5
 74
0
 42
0.0000001
 43
0.0000001
 44
0.0000000001
 40
0.0
 40
0.0
 40
0.0
 40
0.0
 40
0.4689562967
 40
1.0
 40
1.0
 40
1.0
 40
1.0
 10
7.1963612079
 20
9.921876771
 30
0.0
 10
7.1957955245
 20
9.9121870582
 30
0.0
 10
7.1950827323
 20
9.8914965791
 30
0.0
 10
7.1949340782
 20
9.8707975096
 30
0.0
 10
7.19500215
 20
9.8598064568
 30
0.0
  0
SPLINE
  5
4FB
100
AcDbEntity
  8
0
100
AcDbSpline
 62
9
  6
CONTINUOUS
 70
0
 71
3
 72
9
 73
5
 74
0
 42
0.0000001
 43
0.0000001
 44
0.0000000001
 40
0.0
 40
0.0
 40
0.0
 40
0.0
 40
0.257757369
 40
1.0
 40
1.0
 40
1.0
 40
1.0
 10
7.19500215
 20
9.8598064568
 30
0.0
 10
7.1922522737
 20
9.8598064568
 30
0.0
 10
7.1815839313
 20
9.8598542223
 30
0.0
 10
7.1709158226
 20
9.860079932
 30
0.0
 10
7.1630028677
 20
9.8603786715
 30
0.0
  0
SPLINE
  5
4FC
100
AcDbEntity
  8
0
100
AcDbSpline
 62
9
  6
CONTINUOUS
 70
0
 71
3
 72
12
 73
8
 74
0
 42
0.0000001
 43
0.0000001
 44
0.0000000001
 40
0.0
 40
0.0
 40
0.0
 40
0.0
 40
0.3292223441
 40
0.6120781584
 40
0.8382308927
 40
0.9275832418
 40
1.0
 40
1.0
 40
1.0
 40
1.0
 10
7.1630028677
 20
9.8603786715
 30
0.0
 10
7.1582941333
 20
9.8605564414
 30
0.0
 10
7.1495424205
 20
9.8609750411
 30
0.0
 10
7.1375772323
 20
9.861866384
 30
0.0
 10
7.129060764
 20
9.8628129919
 30
0.0
 10
7.1235801667
 20
9.8637076447
 30
0.0
 10
7.121313275
 20
9.8641882487
 30
0.0
 10
7.1203095976
 20
9.8644469646
 30
0.0
  0
SPLINE
  5
4FD
100
AcDbEntity
  8
0
100
AcDbSpline
 62
9
  6
CONTINUOUS
 70
0
 71
3
 72
12
 73
8
 74
0
 42
0.0000001
 43
0.0000001
 44
0.0000000001
 40
0.0
 40
0.0
 40
0.0
 40
0.0
 40
0.3849315481
 40
0.6732215353
 40
0.7828494013
 40
0.8714204012
 40
1.0
 40
1.0
 40
1.0
 40
1.0
 10
7.1203095976
 20
9.8644469646
 30
0.0
 10
7.119666842
 20
9.8646126463
 30
0.0
 10
7.1185508635
 20
9.8649355699
 30
0.0
 10
7.1172916907
 20
9.8654342047
 30
0.0
 10
7.1165678611
 20
9.8658679244
 30
0.0
 10
7.1161331707
 20
9.8662185915
 30
0.0
 10
7.1159173497
 20
9.8665755913
 30
0.0
 10
7.1159135145
 20
9.8667972774
 30
0.0
  0
SPLINE
  5
4FE
100
AcDbEntity
  8
0
100
AcDbSpline
 62
9
  6
CONTINUOUS
 70
0
 71
3
 72
9
 73
5
 74
0
 42
0.0000001
 43
0.0000001
 44
0.0000000001
 40
0.0
 40
0.0
 40
0.0
 40
0.0
 40
0.4401367119
 40
1.0
 40
1.0
 40
1.0
 40
1.0
 10
7.2353005868
 20
10.8032587237
 30
0.0
 10
7.2357291235
 20
10.8027132835
 30
0.0
 10
7.2365537936
 20
10.8013593267
 30
0.0
 10
7.237203288
 20
10.7999217436
 30
0.0
 10
7.2375374415
 20
10.7991051295
 30
0.0
  0
SPLINE
  5
4FF
100
AcDbEntity
  8
0
100
AcDbSpline
 62
9
  6
CONTINUOUS
 70
0
 71
3
 72
9
 73
5
 74
0
 42
0.0000001
 43
0.0000001
 44
0.0000000001
 40
0.0
 40
0.0
 40
0.0
 40
0.0
 40
0.5598632881
 40
1.0
 40
1.0
 40
1.0
 40
1.0
 10
7.2375374415
 20
10.0005861504
 30
0.0
 10
7.237203288
 20
9.9997695363
 30
0.0
 10
7.2365537936
 20
9.9983319532
 30
0.0
 10
7.2357291235
 20
9.9969779964
 30
0.0
 10
7.2353005868
 20
9.9964325562
 30
0.0
  0
SPLINE
  5
500
100
AcDbEntity
  8
0
100
AcDbSpline
 62
9
  6
CONTINUOUS
 70
0
 71
3
 72
23
 73
19
 74
0
 42
0.0000001
 43
0.0000001
 44
0.0000000001
 40
0.0
 40
0.0
 40
0.0
 40
0.0
 40
0.03122125
 40
0.0624606824
 40
0.0937056204
 40
0.1249658765
 40
0.1562260541
 40
0.1874766725
 40
0.2187291341
 40
0.2499825257
 40
0.3124807439
 40
0.3749850949
 40
0.4374930857
 40
0.5000008683
 40
0.6249901422
 40
0.7499875617
 40
0.8749912443
 40
1.0
 40
1.0
 40
1.0
 40
1.0
 10
8.4016717168
 20
3.3760733462
 30
0.0
 10
8.4037818506
 20
3.3652249979
 30
0.0
 10
8.4109806208
 20
3.3440553472
 30
0.0
 10
8.4279161208
 20
3.315338464
 30
0.0
 10
8.4494016917
 20
3.2898941779
 30
0.0
 10
8.4737038141
 20
3.2672078729
 30
0.0
 10
8.5000013286
 20
3.2468895076
 30
0.0
 10
8.5277315257
 20
3.2286073016
 30
0.0
 10
8.5565031374
 20
3.2120328772
 30
0.0
 10
8.5959057422
 20
3.191866185
 30
0.0
 10
8.6467399255
 20
3.1699153281
 30
0.0
 10
8.7092777065
 20
3.1475776661
 30
0.0
 10
8.7728961495
 20
3.1285443177
 30
0.0
 10
8.8587362033
 20
3.1069328324
 30
0.0
 10
8.9674752233
 20
3.0861172737
 30
0.0
 10
9.0991897323
 20
3.0691401869
 30
0.0
 10
9.2316251353
 20
3.0592451747
 30
0.0
 10
9.3201413716
 20
3.0571605247
 30
0.0
 10
9.3643918433
 20
3.0571603453
 30
0.0
  0
SPLINE
  5
501
100
AcDbEntity
  8
0
100
AcDbSpline
 62
7
  6
CONTINUOUS
 70
0
 71
3
 72
9
 73
5
 74
0
 42
0.0000001
 43
0.0000001
 44
0.0000000001
 40
0.0
 40
0.0
 40
0.0
 40
0.0
 40
0.3883548084
 40
1.0
 40
1.0
 40
1.0
 40
1.0
 10
11.5812828456
 20
10.032453428
 30
0.0
 10
11.5810334443
 20
10.0328466014
 30
0.0
 10
11.5806274696
 20
10.0339928968
 30
0.0
 10
11.5803455837
 20
10.0351535045
 30
0.0
 10
11.5801934157
 20
10.0358708513
 30
0.0
  0
SPLINE
  5
502
100
AcDbEntity
  8
0
100
AcDbSpline
 62
7
  6
CONTINUOUS
 70
0
 71
3
 72
11
 73
7
 74
0
 42
0.0000001
 43
0.0000001
 44
0.0000000001
 40
0.0
 40
0.0
 40
0.0
 40
0.0
 40
0.1568104308
 40
0.3764110603
 40
0.6578518911
 40
1.0
 40
1.0
 40
1.0
 40
1.0
 10
11.5801934157
 20
10.0358708513
 30
0.0
 10
11.5798328653
 20
10.037570549
 30
0.0
 10
11.5791988355
 20
10.0416972603
 30
0.0
 10
11.5783664932
 20
10.0489382968
 30
0.0
 10
11.5775161941
 20
10.0582434553
 30
0.0
 10
11.5769809156
 20
10.0651322689
 30
0.0
 10
11.5767039539
 20
10.0689132673
 30
0.0
  0
SPLINE
  5
503
100
AcDbEntity
  8
0
100
AcDbSpline
 62
7
  6
CONTINUOUS
 70
0
 71
3
 72
9
 73
5
 74
0
 42
0.0000001
 43
0.0000001
 44
0.0000000001
 40
0.0
 40
0.0
 40
0.0
 40
0.0
 40
0.2135343016
 40
1.0
 40
1.0
 40
1.0
 40
1.0
 10
11.5767039539
 20
10.0689132673
 30
0.0
 10
11.5764377642
 20
10.0725472097
 30
0.0
 10
11.5752691633
 20
10.0895709617
 30
0.0
 10
11.5743877424
 20
10.1066138932
 30
0.0
 10
11.5738183383
 20
10.1200217985
 30
0.0
  0
SPLINE
  5
504
100
AcDbEntity
  8
0
100
AcDbSpline
 62
9
  6
CONTINUOUS
 70
0
 71
3
 72
9
 73
5
 74
0
 42
0.0000001
 43
0.0000001
 44
0.0000000001
 40
0.0
 40
0.0
 40
0.0
 40
0.0
 40
0.5310437033
 40
1.0
 40
1.0
 40
1.0
 40
1.0
 10
7.19500215
 20
10.939884823
 30
0.0
 10
7.1949340782
 20
10.9288937703
 30
0.0
 10
7.1950827323
 20
10.9081947008
 30
0.0
 10
7.1957955245
 20
10.8875042217
 30
0.0
 10
7.1963612079
 20
10.8778145088
 30
0.0
  0
SPLINE
  5
505
100
AcDbEntity
  8
0
100
AcDbSpline
 62
9
  6
CONTINUOUS
 70
0
 71
3
 72
14
 73
10
 74
0
 42
0.0000001
 43
0.0000001
 44
0.0000000001
 40
0.0
 40
0.0
 40
0.0
 40
0.0
 40
0.3832147777
 40
0.544819657
 40
0.6842418786
 40
0.800041473
 40
0.891450155
 40
0.9580322521
 40
1.0
 40
1.0
 40
1.0
 40
1.0
 10
7.1963612079
 20
10.8778145088
 30
0.0
 10
7.1965883202
 20
10.8739242536
 30
0.0
 10
7.1969658125
 20
10.8683957411
 30
0.0
 10
7.1976207898
 20
10.8614685927
 30
0.0
 10
7.1981120418
 20
10.857257287
 30
0.0
 10
7.1986285243
 20
10.8537717459
 30
0.0
 10
7.1991565376
 20
10.8510314938
 30
0.0
 10
7.1996922554
 20
10.8490788709
 30
0.0
 10
7.2001201857
 20
10.8480362355
 30
0.0
 10
7.2003838423
 20
10.8477006542
 30
0.0
  0
SPLINE
  5
506
100
AcDbEntity
  8
0
100
AcDbSpline
 62
7
  6
CONTINUOUS
 70
0
 71
3
 72
12
 73
8
 74
0
 42
0.0000001
 43
0.0000001
 44
0.0000000001
 40
0.0
 40
0.0
 40
0.0
 40
0.0
 40
0.0757407269
 40
0.168605362
 40
0.4007851908
 40
0.6828176182
 40
1.0
 40
1.0
 40
1.0
 40
1.0
 10
7.2609133283
 20
10.8095420004
 30
0.0
 10
7.2615831705
 20
10.8100428689
 30
0.0
 10
7.2631889888
 20
10.8110019645
 30
0.0
 10
7.2672120385
 20
10.812853952
 30
0.0
 10
7.2735757992
 20
10.8150062954
 30
0.0
 10
7.2824260558
 20
10.8174457953
 30
0.0
 10
7.2888612478
 20
10.8189932128
 30
0.0
 10
7.2922735423
 20
10.8197834671
 30
0.0
  0
SPLINE
  5
507
100
AcDbEntity
  8
0
100
AcDbSpline
 62
7
  6
CONTINUOUS
 70
0
 71
3
 72
12
 73
8
 74
0
 42
0.0000001
 43
0.0000001
 44
0.0000000001
 40
0.0
 40
0.0
 40
0.0
 40
0.0
 40
0.3110805287
 40
0.5900659345
 40
0.8239470816
 40
0.9198358447
 40
1.0
 40
1.0
 40
1.0
 40
1.0
 10
7.2922735418
 20
9.9799078124
 30
0.0
 10
7.2890166416
 20
9.9806620896
 30
0.0
 10
7.2828496304
 20
9.9821434187
 30
0.0
 10
7.2743067065
 20
9.9844727581
 30
0.0
 10
7.2680836844
 20
9.9865232086
 30
0.0
 10
7.2640372181
 20
9.9882712361
 30
0.0
 10
7.2623680644
 20
9.9891734233
 30
0.0
 10
7.2616450285
 20
9.9896418327
 30
0.0
  0
SPLINE
  5
508
100
AcDbEntity
  8
0
100
AcDbSpline
 62
9
  6
CONTINUOUS
 70
0
 71
3
 72
28
 73
24
 74
0
 42
0.0000001
 43
0.0000001
 44
0.0000000001
 40
0.0
 40
0.0
 40
0.0
 40
0.0
 40
0.1352994876
 40
0.2638739902
 40
0.3868226444
 40
0.4464618611
 40
0.50497733
 40
0.5624630493
 40
0.6190745887
 40
0.6750542002
 40
0.7308647321
 40
0.758928458
 40
0.7872472803
 40
0.8160636689
 40
0.8460145912
 40
0.8616703134
 40
0.8778784393
 40
0.8947288252
 40
0.9123487801
 40
0.9310012346
 40
0.951435744
 40
0.9744223926
 40
1.0
 40
1.0
 40
1.0
 40
1.0
 10
9.3643918433
 20
2.9792751176
 30
0.0
 10
9.3098942149
 20
2.9792751176
 30
0.0
 10
9.2035753181
 20
2.9822807159
 30
0.0
 10
9.0482903885
 20
2.9960447757
 30
0.0
 10
8.924254497
 20
3.0147129621
 30
0.0
 10
8.8291058569
 20
3.0342547306
 30
0.0
 10
8.7603965072
 20
3.0511941746
 30
0.0
 10
8.6936502134
 20
3.0707512938
 30
0.0
 10
8.6289374573
 20
3.0933286553
 30
0.0
 10
8.5662508727
 20
3.1193640073
 30
0.0
 10
8.5159903587
 20
3.1449778959
 30
0.0
 10
8.4772758983
 20
3.1683239693
 30
0.0
 10
8.4489283185
 20
3.1877032916
 30
0.0
 10
8.4213176177
 20
3.2093914878
 30
0.0
 10
8.399417652
 20
3.2299326139
 30
0.0
 10
8.3825509622
 20
3.2482620894
 30
0.0
 10
8.3701497492
 20
3.2634865023
 30
0.0
 10
8.3583824428
 20
3.2801892584
 30
0.0
 10
8.3474257284
 20
3.2985928886
 30
0.0
 10
8.3373968011
 20
3.3191548675
 30
0.0
 10
8.3290085092
 20
3.3427694484
 30
0.0
 10
8.3228645297
 20
3.3699472242
 30
0.0
 10
8.3213213209
 20
3.3895431697
 30
0.0
 10
8.3213213209
 20
3.3998456399
 30
0.0
  0
SPLINE
  5
509
100
AcDbEntity
  8
0
100
AcDbSpline
 62
7
  6
CONTINUOUS
 70
0
 71
3
 72
10
 73
6
 74
0
 42
0.0000001
 43
0.0000001
 44
0.0000000001
 40
0.0
 40
0.0
 40
0.0
 40
0.0
 40
0.3734965839
 40
0.703666591
 40
1.0
 40
1.0
 40
1.0
 40
1.0
 10
7.2922735397
 20
10.8197835613
 30
0.0
 10
7.2966121353
 20
10.8207945656
 30
0.0
 10
7.3048103695
 20
10.8225971412
 30
0.0
 10
7.316333886
 20
10.8256926705
 30
0.0
 10
7.3234633763
 20
10.8279365571
 30
0.0
 10
7.3268183383
 20
10.829048661
 30
0.0
  0
SPLINE
  5
50A
100
AcDbEntity
  8
0
100
AcDbSpline
 62
7
  6
CONTINUOUS
 70
0
 71
3
 72
10
 73
6
 74
0
 42
0.0000001
 43
0.0000001
 44
0.0000000001
 40
0.0
 40
0.0
 40
0.0
 40
0.0
 40
0.2963345545
 40
0.6265031385
 40
1.0
 40
1.0
 40
1.0
 40
1.0
 10
7.3268183383
 20
9.9706426188
 30
0.0
 10
7.3234633632
 20
9.9717547271
 30
0.0
 10
7.3163338763
 20
9.9739986137
 30
0.0
 10
7.304810359
 20
9.9770941405
 30
0.0
 10
7.2966121381
 20
9.9788967132
 30
0.0
 10
7.2922735391
 20
9.9799077183
 30
0.0
  0
SPLINE
  5
50B
100
AcDbEntity
  8
0
100
AcDbSpline
 62
9
  6
CONTINUOUS
 70
0
 71
3
 72
41
 73
37
 74
0
 42
0.0000001
 43
0.0000001
 44
0.0000000001
 40
0.0
 40
0.0
 40
0.0
 40
0.0
 40
0.0490068608
 40
0.0751481409
 40
0.1024665131
 40
0.1606429144
 40
0.2233427234
 40
0.2562107403
 40
0.2899535413
 40
0.3244507243
 40
0.359544131
 40
0.3950537564
 40
0.4128824355
 40
0.4306937947
 40
0.4484171344
 40
0.4659368787
 40
0.4746321568
 40
0.4832266534
 40
0.5000004208
 40
0.5167741378
 40
0.5253685909
 40
0.5340638325
 40
0.5515835594
 40
0.5693068864
 40
0.5871181268
 40
0.6049466928
 40
0.6404564793
 40
0.6755499411
 40
0.7100469776
 40
0.7437896071
 40
0.7766575825
 40
0.8393578086
 40
0.8975345895
 40
0.9248532251
 40
0.950994617
 40
1.0
 40
1.0
 40
1.0
 40
1.0
 10
6.1527713826
 20
10.0598458441
 30
0.0
 10
6.1322637728
 20
10.05984658
 30
0.0
 10
6.1007569004
 20
10.0637467867
 30
0.0
 10
6.0592626132
 20
10.0746122436
 30
0.0
 10
6.0150850078
 20
10.0899499109
 30
0.0
 10
5.9587490409
 20
10.1162382301
 30
0.0
 10
5.9033491769
 20
10.1491015423
 30
0.0
 10
5.8584699651
 20
10.1793502625
 30
0.0
 10
5.824267794
 20
10.2042726832
 30
0.0
 10
5.7902109616
 20
10.2309333121
 30
0.0
 10
5.7566562149
 20
10.2593812106
 30
0.0
 10
5.7294920423
 20
10.2845419709
 30
0.0
 10
5.7087036229
 20
10.3058673498
 30
0.0
 10
5.6938528677
 20
10.3225554517
 30
0.0
 10
5.6800469553
 20
10.3399663501
 30
0.0
 10
5.670197927
 20
10.3555661417
 30
0.0
 10
5.6639605566
 20
10.3687545886
 30
0.0
 10
5.6591376466
 20
10.3821781838
 30
0.0
 10
5.6561392566
 20
10.3998461901
 30
0.0
 10
5.6591376751
 20
10.4175141821
 30
0.0
 10
5.6639606835
 20
10.4309376867
 30
0.0
 10
5.6701982196
 20
10.4441260134
 30
0.0
 10
5.6800475901
 20
10.45972556
 30
0.0
 10
5.6938537095
 20
10.4771361982
 30
0.0
 10
5.7087042237
 20
10.4938243693
 30
0.0
 10
5.7294923653
 20
10.5151499868
 30
0.0
 10
5.756656949
 20
10.540310381
 30
0.0
 10
5.7902116828
 20
10.5687583198
 30
0.0
 10
5.8242682841
 20
10.5954190698
 30
0.0
 10
5.858470341
 20
10.6203413959
 30
0.0
 10
5.9033497121
 20
10.6505900328
 30
0.0
 10
5.9587498491
 20
10.6834534928
 30
0.0
 10
6.0150862511
 20
10.7097419595
 30
0.0
 10
6.0592642548
 20
10.7250794575
 30
0.0
 10
6.1007581418
 20
10.7359445796
 30
0.0
 10
6.1322644244
 20
10.739844851
 30
0.0
 10
6.1527714158
 20
10.7398455123
 30
0.0
  0
SPLINE
  5
50C
100
AcDbEntity
  8
0
100
AcDbSpline
 62
9
  6
CONTINUOUS
 70
0
 71
3
 72
45
 73
41
 74
0
 42
0.0000001
 43
0.0000001
 44
0.0000000001
 40
0.0
 40
0.0
 40
0.0
 40
0.0
 40
0.0215323315
 40
0.0443760235
 40
0.068532425
 40
0.0940962078
 40
0.1211766537
 40
0.1497806779
 40
0.1798660444
 40
0.211364418
 40
0.2441728878
 40
0.278178065
 40
0.3132610702
 40
0.3492847613
 40
0.3861054258
 40
0.4235905803
 40
0.4425584543
 40
0.4616550234
 40
0.4809297165
 40
0.490570182
 40
0.5001915855
 40
0.538520387
 40
0.5576025605
 40
0.5765607399
 40
0.5953738799
 40
0.6140395394
 40
0.6508484726
 40
0.6868551749
 40
0.7219231475
 40
0.7559170009
 40
0.7887140619
 40
0.8202003276
 40
0.8502741431
 40
0.8788647844
 40
0.9059322534
 40
0.9314738065
 40
0.9437000794
 40
0.9555899932
 40
0.9784138371
 40
1.0
 40
1.0
 40
1.0
 40
1.0
 10
6.0799881738
 20
10.7910241407
 30
0.0
 10
6.071141357
 20
10.7907021517
 30
0.0
 10
6.0529320615
 20
10.7890333655
 30
0.0
 10
6.0252613759
 20
10.7834409689
 30
0.0
 10
5.9968041006
 20
10.774264931
 30
0.0
 10
5.9679640856
 20
10.7612832839
 30
0.0
 10
5.9387286489
 20
10.745068152
 30
0.0
 10
5.9090239548
 20
10.7260275409
 30
0.0
 10
5.8789689669
 20
10.7042817987
 30
0.0
 10
5.8486941007
 20
10.6799804722
 30
0.0
 10
5.8182789614
 20
10.6533434101
 30
0.0
 10
5.7878537321
 20
10.6245305098
 30
0.0
 10
5.7576017444
 20
10.5936562145
 30
0.0
 10
5.7278160255
 20
10.5607471332
 30
0.0
 10
5.699003396
 20
10.5256897369
 30
0.0
 10
5.6767030498
 20
10.4944201958
 30
0.0
 10
5.6609404694
 20
10.4676214987
 30
0.0
 10
5.6510054696
 20
10.4461894855
 30
0.0
 10
5.6451851144
 20
10.4272303149
 30
0.0
 10
5.6426217454
 20
10.4115706209
 30
0.0
 10
5.6412951901
 20
10.3878837307
 30
0.0
 10
5.6477323672
 20
10.3602603136
 30
0.0
 10
5.6611244848
 20
10.3318769684
 30
0.0
 10
5.6729420058
 20
10.3116700823
 30
0.0
 10
5.6858770777
 20
10.2923982995
 30
0.0
 10
5.7040628827
 20
10.2678497875
 30
0.0
 10
5.7279662713
 20
10.2387826637
 30
0.0
 10
5.7577436793
 20
10.2058935954
 30
0.0
 10
5.7879835861
 20
10.1750315954
 30
0.0
 10
5.8184009179
 20
10.1462330848
 30
0.0
 10
5.8488134562
 20
10.1196143491
 30
0.0
 10
5.8790873429
 20
10.0953357119
 30
0.0
 10
5.909111174
 20
10.0735734736
 30
0.0
 10
5.9388222792
 20
10.0545664571
 30
0.0
 10
5.9680921557
 20
10.0384590782
 30
0.0
 10
5.9924114182
 20
10.0274468069
 30
0.0
 10
6.0116195505
 20
10.0204980156
 30
0.0
 10
6.030131786
 20
10.0150093268
 30
0.0
 10
6.0528762329
 20
10.0104197366
 30
0.0
 10
6.07111625
 20
10.0088933122
 30
0.0
 10
6.0799881738
 20
10.0086671392
 30
0.0
  0
SPLINE
  5
50D
100
AcDbEntity
  8
0
100
AcDbSpline
 62
9
  6
CONTINUOUS
 70
0
 71
3
 72
11
 73
7
 74
0
 42
0.0000001
 43
0.0000001
 44
0.0000000001
 40
0.0
 40
0.0
 40
0.0
 40
0.0
 40
0.2652467902
 40
0.514194447
 40
0.7562724308
 40
1.0
 40
1.0
 40
1.0
 40
1.0
 10
6.1930980444
 20
10.0581421731
 30
0.0
 10
6.1852879569
 20
10.0501013119
 30
0.0
 10
6.1687700489
 20
10.0357502135
 30
0.0
 10
6.1407477975
 20
10.0199157372
 30
0.0
 10
6.1108865834
 20
10.0106123234
 30
0.0
 10
6.0902882588
 20
10.0086678158
 30
0.0
 10
6.0799881738
 20
10.0086671392
 30
0.0
  0
SPLINE
  5
50E
100
AcDbEntity
  8
0
100
AcDbSpline
 62
9
  6
CONTINUOUS
 70
0
 71
3
 72
11
 73
7
 74
0
 42
0.0000001
 43
0.0000001
 44
0.0000000001
 40
0.0
 40
0.0
 40
0.0
 40
0.0
 40
0.2437510407
 40
0.4858183994
 40
0.7347633148
 40
1.0
 40
1.0
 40
1.0
 40
1.0
 10
6.0799881738
 20
10.7910241407
 30
0.0
 10
6.090286428
 20
10.7910200251
 30
0.0
 10
6.1108788764
 20
10.7890757334
 30
0.0
 10
6.1407343816
 20
10.7797812275
 30
0.0
 10
6.1687497682
 20
10.7639541724
 30
0.0
 10
6.1852647277
 20
10.7496099711
 30
0.0
 10
6.1930740869
 20
10.7415732786
 30
0.0
  0
ENDSEC
  0
SECTION
  2
OBJECTS
  0
DICTIONARY
  5
C
100
AcDbDictionary
280
0
281
1
  3
ACAD_GROUP
350
D
  3
ACAD_MLINESTYLE
350
17
  3
ACAD_LAYOUT
350
1A
  3
ACAD_PLOTSETTINGS
350
19
  3
ACAD_PLOTSTYLENAME
350
E
  0
DICTIONARY
  5
D
102
{ACAD_REACTORS
330
C
102
}
100
AcDbDictionary
280
0
281
1
  0
ACDBDICTIONARYWDFLT
  5
E
102
{ACAD_REACTORS
330
C
102
}
100
AcDbDictionary
281
1
  3
Normal
350
F
100
AcDbDictionaryWithDefault
340
F
  0
DICTIONARY
  5
17
102
{ACAD_REACTORS
330
C
102
}
100
AcDbDictionary
280
0
281
1
  3
Standard
350
18
  0
DICTIONARY
  5
19
102
{ACAD_REACTORS
330
C
102
}
100
AcDbDictionary
281
1
  0
DICTIONARY
  5
1A
102
{ACAD_REACTORS
330
C
102
}
100
AcDbDictionary
281
1
  3
Model
350
50F
  3
Layout1
350
510
  0
ACDBPLACEHOLDER
  5
F
102
{ACAD_REACTORS
330
E
102
}
  0
MLINESTYLE
  5
18
102
{ACAD_REACTORS
330
17
102
}
100
AcDbMlineStyle
  2
STANDARD
 70
0
  3

 62
256
 51
90.0
 52
90.0
 71
2
 49
0.5
 62
256
  6
BYLAYER
 49
-0.5
 62
256
  6
BYLAYER
  0
LAYOUT
  5
50F
102
{ACAD_REACTORS
330
1A
102
}
100
AcDbPlotSettings
  1

  2
none_device
  4
ANSI_C_(22.00_x_17.00_Inches)
  6

 40
0.0
 41
0.0
 42
0.0
 43
0.0
 44
558.8
 45
431.8
 46
0.0
 47
0.0
 48
0.0
 49
0.0
140
0.0
141
0.0
142
1.0
143
1.0
 70
1024
 72
0
 73
0
 74
0
  7

 75
0
147
1.0
148
0.0
149
0.0
100
AcDbLayout
  1
Model
 70
0
 71
0
 10
0.0
 20
0.0
 11
22.0
 21
17.0
 12
0.0
 22
0.0
 32
0.0
 14
0.0
 24
0.0
 34
0.0
 15
0.0
 25
0.0
 35
0.0
146
0.0
 13
0.0
 23
0.0
 33
0.0
 16
1.0
 26
0.0
 36
0.0
 17
0.0
 27
1.0
 37
0.0
 76
0
330
202
345
0
346
0
  0
LAYOUT
  5
510
102
{ACAD_REACTORS
330
1A
102
}
100
AcDbPlotSettings
  1

  2
none_device
  4
ANSI_C_(22.00_x_17.00_Inches)
  6

 40
0.0
 41
0.0
 42
0.0
 43
0.0
 44
558.8
 45
431.8
 46
0.0
 47
0.0
 48
0.0
 49
0.0
140
0.0
141
0.0
142
1.0
143
1.0
 70
0
 72
0
 73
0
 74
0
  7

 75
0
147
1.0
148
0.0
149
0.0
100
AcDbLayout
  1
Layout1
 70
0
 71
1
 10
0.0
 20
0.0
 11
22.0
 21
17.0
 12
0.0
 22
0.0
 32
0.0
 14
0.0
 24
0.0
 34
0.0
 15
0.0
 25
0.0
 35
0.0
146
0.0
 13
0.0
 23
0.0
 33
0.0
 16
1.0
 26
0.0
 36
0.0
 17
0.0
 27
1.0
 37
0.0
 76
0
330
203
345
0
346
0
  0
ENDSEC
  0
EOF
