999
DXF file: 942_front.dxf
999
Pro/ENGINEER 2018400 by Parametric Technology Corporation
  0
SECTION
  2
HEADER
  9
$ACADVER
  1
AC1027
  9
$DWGCODEPAGE
  3
ANSI_1252
  9
$EXTMAX
 10
11.0
 20
8.5
 30
0.0
  9
$EXTMIN
 10
0.0
 20
0.0
 30
0.0
  9
$LIMMIN
 10
0.0
 20
0.0
  9
$LIMMAX
 10
11.0
 20
8.5
  9
$VIEWCTR
 10
5.5
 20
4.25
  9
$VIEWSIZE
 40
8.5
  9
$CLAYER
  8
0
  9
$LTSCALE
 40
0.605
  9
$CELTYPE
  6
BYLAYER
  9
$DIMSCALE
 40
1.0
  9
$DIMASZ
 40
0.1
  9
$DIMEXO
 40
0.0625
  9
$DIMDLI
 40
0.418
  9
$DIMEXE
 40
0.125
  9
$DIMCEN
 40
0.099
  9
$DIMLFAC
 40
1.0
  9
$DIMBLK
  1
_FILLED
  9
$DIMALT
 70
1
  9
$DIMALTD
 70
1
  9
$DIMALTTD
 70
2
  9
$DIMALTF
 40
25.4
  9
$DIMTXT
 40
0.08
  9
$DIMTOL
 70
1
  9
$DIMLIM
 70
0
  9
$DIMTFAC
 40
1.0
  9
$DIMTP
 40
0.01
  9
$DIMTM
 40
0.01
  9
$DIMGAP
 40
0.09
  9
$DIMDSEP
 70
46
  9
$AUNITS
 70
0
  9
$PDMODE
 70
3
  9
$PDSIZE
 40
0.3125
  9
$HANDSEED
  5
3F5
  9
$TILEMODE
 70
1
  9
$MEASUREMENT
 70
0
  9
$INSUNITS
 70
1
  0
ENDSEC
  0
SECTION
  2
CLASSES
  0
CLASS
  1
ACDBDICTIONARYWDFLT
  2
AcDbDictionaryWithDefault
  3
AutoCAD 2000
 90
0
 91
1
280
0
281
0
  0
CLASS
  1
ACDBPLACEHOLDER
  2
AcDbPlaceHolder
  3
AutoCAD 2000
 90
0
 91
1
280
0
281
0
  0
CLASS
  1
LAYOUT
  2
AcDbLayout
  3
AutoCAD 2000
 90
0
 91
0
280
0
281
0
  0
ENDSEC
  0
SECTION
  2
TABLES
  0
TABLE
  2
VPORT
  5
8
100
AcDbSymbolTable
 70
2
  0
VPORT
  5
1F4
100
AcDbSymbolTableRecord
100
AcDbViewportTableRecord
  2
*ACTIVE
 70
0
 10
0.0
 20
0.0
 11
1.0
 21
1.0
 12
5.5
 22
4.25
 13
0.0
 23
0.0
 14
1.0
 24
1.0
 15
0.0
 25
0.0
 16
0.0
 26
0.0
 36
1.0
 17
0.0
 27
0.0
 37
0.0
 40
8.5
 41
1.2941176471
 42
50.0
 43
0.0
 44
0.0
 50
0.0
 51
0.0
 71
0
 72
100
 73
1
 74
1
 75
0
 76
0
 77
0
 78
0
  0
ENDTAB
  0
TABLE
  2
LTYPE
  5
5
100
AcDbSymbolTable
 70
6
  0
LTYPE
  5
14
100
AcDbSymbolTableRecord
100
AcDbLinetypeTableRecord
  2
BYBLOCK
 70
0
  3

 72
65
 73
0
 40
0.0
  0
LTYPE
  5
15
100
AcDbSymbolTableRecord
100
AcDbLinetypeTableRecord
  2
BYLAYER
 70
0
  3

 72
65
 73
0
 40
0.0
  0
LTYPE
  5
16
100
AcDbSymbolTableRecord
100
AcDbLinetypeTableRecord
  2
CONTINUOUS
 70
64
  3
Solid line
 72
65
 73
0
 40
0.0
  0
LTYPE
  5
1F5
100
AcDbSymbolTableRecord
100
AcDbLinetypeTableRecord
  2
CENTER
 70
64
  3
____ _ ____ _ ____ _ ____ _ ____ _ ____ _ ____
 72
65
 73
4
 40
0.6
 49
0.375
 74
0
 49
-0.075
 74
0
 49
0.075
 74
0
 49
-0.075
 74
0
  0
LTYPE
  5
1F6
100
AcDbSymbolTableRecord
100
AcDbLinetypeTableRecord
  2
HIDDEN
 70
64
  3
- - - - - - - - - - - - - - - - - - - -
 72
65
 73
2
 40
0.2
 49
0.1
 74
0
 49
-0.1
 74
0
  0
LTYPE
  5
1F7
100
AcDbSymbolTableRecord
100
AcDbLinetypeTableRecord
  2
PHANTOM
 70
64
  3
_____ _ _ _____ _ _ _____ _ _ _____
 72
65
 73
6
 40
0.8
 49
0.45
 74
0
 49
-0.05
 74
0
 49
0.1
 74
0
 49
-0.05
 74
0
 49
0.1
 74
0
 49
-0.05
 74
0
  0
LTYPE
  5
1F8
100
AcDbSymbolTableRecord
100
AcDbLinetypeTableRecord
  2
DOT
 70
64
  3
. . . . . . . . . . . . . . . . . . . .
 72
65
 73
2
 40
0.2
 49
0.1
 74
0
 49
-0.1
 74
0
  0
LTYPE
  5
1F9
100
AcDbSymbolTableRecord
100
AcDbLinetypeTableRecord
  2
DASHED
 70
64
  3
- - - - - - - - - - - - - - - - - - - -
 72
65
 73
2
 40
0.2
 49
0.1
 74
0
 49
-0.1
 74
0
  0
ENDTAB
  0
TABLE
  2
LAYER
  5
2
100
AcDbSymbolTable
 70
36
  0
LAYER
  5
10
100
AcDbSymbolTableRecord
100
AcDbLayerTableRecord
  2
0
 70
0
 62
7
  6
CONTINUOUS
370
-3
390
F
  0
LAYER
  5
1FA
100
AcDbSymbolTableRecord
100
AcDbLayerTableRecord
  2
DEFAULT_1
 70
0
 62
7
  6
CENTER
370
-3
390
F
  0
LAYER
  5
1FB
100
AcDbSymbolTableRecord
100
AcDbLayerTableRecord
  2
DEFAULT_2
 70
0
 62
8
  6
HIDDEN
370
-3
390
F
  0
LAYER
  5
1FC
100
AcDbSymbolTableRecord
100
AcDbLayerTableRecord
  2
DEFAULT_3
 70
0
 62
7
  6
PHANTOM
370
-3
390
F
  0
LAYER
  5
1FD
100
AcDbSymbolTableRecord
100
AcDbLayerTableRecord
  2
DEFAULT_COORDINATE_SYSTEM
 70
0
 62
7
  6
CONTINUOUS
370
-3
390
F
  0
LAYER
  5
1FE
100
AcDbSymbolTableRecord
100
AcDbLayerTableRecord
  2
DEFAULT_DATUM_AXES
 70
0
 62
7
  6
CONTINUOUS
370
-3
390
F
  0
LAYER
  5
1FF
100
AcDbSymbolTableRecord
100
AcDbLayerTableRecord
  2
DEFAULT_DATUM_PLANES
 70
0
 62
7
  6
CONTINUOUS
370
-3
390
F
  0
ENDTAB
  0
TABLE
  2
STYLE
  5
3
100
AcDbSymbolTable
 70
1
  0
STYLE
  5
11
100
AcDbSymbolTableRecord
100
AcDbTextStyleTableRecord
  2
STANDARD
 70
0
 40
0.0
 41
0.8
 50
0.0
 71
0
 42
0.2
  3
txt
  4

  0
STYLE
  5
200
100
AcDbSymbolTableRecord
100
AcDbTextStyleTableRecord
  2
TEXTSTYLE_1
 70
0
 40
0.0
 41
0.8
 50
0.0
 71
0
 42
0.2
  3
gdt
  4

  0
ENDTAB
  0
TABLE
  2
VIEW
  5
6
100
AcDbSymbolTable
 70
0
  0
ENDTAB
  0
TABLE
  2
UCS
  5
7
100
AcDbSymbolTable
 70
0
  0
ENDTAB
  0
TABLE
  2
APPID
  5
9
100
AcDbSymbolTable
 70
1
  0
APPID
  5
201
100
AcDbSymbolTableRecord
100
AcDbRegAppTableRecord
  2
ACAD
 70
0
  0
ENDTAB
  0
TABLE
  2
BLOCK_RECORD
  5
1
100
AcDbSymbolTable
 70
0
  0
BLOCK_RECORD
  5
202
100
AcDbSymbolTableRecord
100
AcDbBlockTableRecord
  2
*Model_Space
  0
BLOCK_RECORD
  5
203
100
AcDbSymbolTableRecord
100
AcDbBlockTableRecord
  2
*Paper_Space
  0
BLOCK_RECORD
  5
204
100
AcDbSymbolTableRecord
100
AcDbBlockTableRecord
  2
_FILLED
  0
ENDTAB
  0
TABLE
  2
DIMSTYLE
  5
A
100
AcDbSymbolTable
 70
1
100
AcDbDimStyleTable
 71
0
  0
DIMSTYLE
105
205
100
AcDbSymbolTableRecord
100
AcDbDimStyleTableRecord
  2
STANDARD
 70
0
  3

  4

 40
1.0
 41
0.1
 42
0.0625
 43
0.38
 44
0.125
 45
0.0
 46
0.0
 47
0.01
 48
0.01
140
0.08
141
0.09
142
0.0
143
25.4
144
1.0
145
0.0
146
1.0
147
0.09
 71
1.0
 72
0.0
 73
1
 74
1
 75
0
 76
0
 77
0
 78
4
 79
1
170
1
171
1
172
0
173
0
174
0
175
0
176
0
177
0
178
0
270
2
179
2
271
2
272
2
273
2
274
2
275
0
280
0
281
0
282
0
283
1
284
4
285
0
286
0
287
3
288
0
340
11
278
46
341
204
342
204
343
204
344
204
  0
ENDTAB
  0
ENDSEC
  0
SECTION
  2
BLOCKS
  0
BLOCK
  5
20
100
AcDbEntity
  8
0
100
AcDbBlockBegin
  2
*Model_Space
 70
0
 10
0.0
 20
0.0
 30
0.0
  3
*Model_Space
  1

  0
ENDBLK
  5
21
100
AcDbEntity
  8
0
100
AcDbBlockEnd
  0
BLOCK
  5
1C
100
AcDbEntity
  8
0
100
AcDbBlockBegin
  2
*Paper_Space
 70
0
 10
0.0
 20
0.0
 30
0.0
  3
*Paper_Space
  1

  0
ENDBLK
  5
1D
100
AcDbEntity
  8
0
100
AcDbBlockEnd
  0
BLOCK
  5
206
100
AcDbEntity
  8
0
100
AcDbBlockBegin
  2
_FILLED
 70
64
 10
0.0
 20
0.0
  3
_FILLED
  1

  0
SOLID
  5
207
100
AcDbEntity
  8
0
  6
BYBLOCK
 62
0
100
AcDbTrace
 10
0.0
 20
0.0
 11
-1.0
 21
0.2
 12
-1.0
 22
-0.2
 13
-1.0
 23
-0.2
  0
ENDBLK
  5
208
100
AcDbEntity
  8
0
  6
BYBLOCK
 62
0
100
AcDbBlockEnd
  0
ENDSEC
  0
SECTION
  2
ENTITIES
  0
MTEXT
  5
209
100
AcDbEntity
  8
0
100
AcDbMText
 62
2
  6
CONTINUOUS
  7
STANDARD
 71
3
 72
1
 10
5.280939441
 20
1.5597026398
 30
0.0
 11
1.0
 21
0.0
 31
0.0
 73
2
 44
0.9
  1
SCALE  .500
 40
0.08
 41
0.704
  0
LINE
  5
20A
100
AcDbEntity
  8
0
100
AcDbLine
 62
7
  6
CONTINUOUS
 10
0.0
 20
0.0
 11
0.0
 21
8.5
  0
LINE
  5
20B
100
AcDbEntity
  8
0
100
AcDbLine
 62
7
  6
CONTINUOUS
 10
0.0
 20
0.0
 11
11.0
 21
0.0
  0
LINE
  5
20C
100
AcDbEntity
  8
0
100
AcDbLine
 62
7
  6
CONTINUOUS
 10
0.0
 20
8.5
 11
11.0
 21
8.5
  0
LINE
  5
20D
100
AcDbEntity
  8
0
100
AcDbLine
 62
7
  6
CONTINUOUS
 10
11.0
 20
0.0
 11
11.0
 21
8.5
  0
LINE
  5
20E
100
AcDbEntity
  8
0
100
AcDbLine
 62
7
  6
CONTINUOUS
 10
2.4111416047
 20
3.5611639542
 11
2.4111416047
 21
3.7864307663
  0
LINE
  5
20F
100
AcDbEntity
  8
0
100
AcDbLine
 62
7
  6
CONTINUOUS
 10
2.4521862332
 20
3.5899037124
 11
2.4521862332
 21
3.7576910081
  0
LINE
  5
210
100
AcDbEntity
  8
0
100
AcDbLine
 62
7
  6
CONTINUOUS
 10
2.4647748447
 20
3.5792519154
 11
2.4647748447
 21
3.7683428051
  0
LINE
  5
211
100
AcDbEntity
  8
0
100
AcDbLine
 62
7
  6
CONTINUOUS
 10
2.477206424
 20
3.5783387136
 11
2.477206424
 21
3.7692560069
  0
LINE
  5
212
100
AcDbEntity
  8
0
100
AcDbLine
 62
7
  6
CONTINUOUS
 10
2.544494393
 20
2.6917973602
 11
2.544494393
 21
2.8167686687
  0
LINE
  5
213
100
AcDbEntity
  8
0
100
AcDbLine
 62
7
  6
CONTINUOUS
 10
2.5530248447
 20
2.6607973602
 11
2.5530248447
 21
2.6917973602
  0
LINE
  5
214
100
AcDbEntity
  8
0
100
AcDbLine
 62
7
  6
CONTINUOUS
 10
3.3025512179
 20
2.8167710631
 11
3.2441065646
 21
2.8750473602
  0
LINE
  5
215
100
AcDbEntity
  8
0
100
AcDbLine
 62
7
  6
CONTINUOUS
 10
2.6579418398
 20
3.7513492808
 11
2.6579418398
 21
3.5962454396
  0
LINE
  5
216
100
AcDbEntity
  8
0
100
AcDbLine
 62
7
  6
CONTINUOUS
 10
2.6597748447
 20
3.8674394088
 11
2.6597748447
 21
3.8317973602
  0
LINE
  5
217
100
AcDbEntity
  8
0
100
AcDbLine
 62
7
  6
CONTINUOUS
 10
2.6690218566
 20
3.7224641289
 11
2.6690218566
 21
3.625130591
  0
LINE
  5
218
100
AcDbEntity
  8
0
100
AcDbLine
 62
7
  6
CONTINUOUS
 10
2.7340096189
 20
2.6917973602
 11
2.7340096189
 21
2.8167696313
  0
LINE
  5
219
100
AcDbEntity
  8
0
100
AcDbLine
 62
7
  6
CONTINUOUS
 10
2.7517748447
 20
3.5062973602
 11
2.7517748447
 21
3.3267973602
  0
LINE
  5
21A
100
AcDbEntity
  8
0
100
AcDbLine
 62
7
  6
CONTINUOUS
 10
2.7910248447
 20
3.9117086516
 11
2.7910248447
 21
3.912282675
  0
LINE
  5
21B
100
AcDbEntity
  8
0
100
AcDbLine
 62
7
  6
CONTINUOUS
 10
2.7992748447
 20
3.9135317828
 11
2.7992748447
 21
3.9142739187
  0
LINE
  5
21C
100
AcDbEntity
  8
0
100
AcDbLine
 62
7
  6
CONTINUOUS
 10
2.8192748447
 20
3.9165145681
 11
2.8192748447
 21
3.9172405154
  0
LINE
  5
21D
100
AcDbEntity
  8
0
100
AcDbLine
 62
7
  6
CONTINUOUS
 10
2.8275248447
 20
3.9177263907
 11
2.8275248447
 21
3.917156435
  0
LINE
  5
21E
100
AcDbEntity
  8
0
100
AcDbLine
 62
7
  6
CONTINUOUS
 10
2.8360248447
 20
3.9181709685
 11
2.8360248447
 21
3.918740173
  0
LINE
  5
21F
100
AcDbEntity
  8
0
100
AcDbLine
 62
7
  6
CONTINUOUS
 10
2.8442748447
 20
3.9194971626
 11
2.8442748447
 21
3.9202203025
  0
LINE
  5
220
100
AcDbEntity
  8
0
100
AcDbLine
 62
7
  6
CONTINUOUS
 10
7.5135248447
 20
2.4732973602
 11
6.3335248447
 21
2.4732973602
  0
LINE
  5
221
100
AcDbEntity
  8
0
100
AcDbLine
 62
7
  6
CONTINUOUS
 10
5.5510248447
 20
2.4732973602
 11
4.2960248447
 21
2.4732973602
  0
LINE
  5
222
100
AcDbEntity
  8
0
100
AcDbLine
 62
7
  6
CONTINUOUS
 10
3.5135248447
 20
2.4732973602
 11
2.3335248447
 21
2.4732973602
  0
LINE
  5
223
100
AcDbEntity
  8
0
100
AcDbLine
 62
7
  6
CONTINUOUS
 10
5.5610248447
 20
2.4832973602
 11
4.2860248447
 21
2.4832973602
  0
LINE
  5
224
100
AcDbEntity
  8
0
100
AcDbLine
 62
7
  6
CONTINUOUS
 10
5.5610248447
 20
2.5282973602
 11
4.2860248447
 21
2.5282973602
  0
LINE
  5
225
100
AcDbEntity
  8
0
100
AcDbLine
 62
7
  6
CONTINUOUS
 10
5.5460248447
 20
2.5432973602
 11
4.3010248447
 21
2.5432973602
  0
LINE
  5
226
100
AcDbEntity
  8
0
100
AcDbLine
 62
7
  6
CONTINUOUS
 10
7.4235248447
 20
2.5667973602
 11
6.4235248447
 21
2.5667973602
  0
LINE
  5
227
100
AcDbEntity
  8
0
100
AcDbLine
 62
7
  6
CONTINUOUS
 10
3.4235248447
 20
2.5667973602
 11
2.4235248447
 21
2.5667973602
  0
LINE
  5
228
100
AcDbEntity
  8
0
100
AcDbLine
 62
7
  6
CONTINUOUS
 10
2.4521862332
 20
3.7576910081
 11
2.4111416047
 21
3.7864307663
  0
LINE
  5
229
100
AcDbEntity
  8
0
100
AcDbLine
 62
7
  6
CONTINUOUS
 10
3.2308418418
 20
3.096646766
 11
3.1937748447
 21
3.1496055796
  0
LINE
  5
22A
100
AcDbEntity
  8
0
100
AcDbLine
 62
7
  6
CONTINUOUS
 10
2.8642748447
 20
3.9212925199
 11
2.8642748447
 21
3.9220301499
  0
LINE
  5
22B
100
AcDbEntity
  8
0
100
AcDbLine
 62
7
  6
CONTINUOUS
 10
2.8725248447
 20
3.9220167697
 11
2.8725248447
 21
3.9214499795
  0
LINE
  5
22C
100
AcDbEntity
  8
0
100
AcDbLine
 62
7
  6
CONTINUOUS
 10
2.9016748447
 20
3.9234892195
 11
2.9016748447
 21
3.9239894183
  0
LINE
  5
22D
100
AcDbEntity
  8
0
100
AcDbLine
 62
7
  6
CONTINUOUS
 10
2.9441748447
 20
3.9235221421
 11
2.9441748447
 21
3.9240223196
  0
LINE
  5
22E
100
AcDbEntity
  8
0
100
AcDbLine
 62
7
  6
CONTINUOUS
 10
2.9925248447
 20
3.9200506345
 11
2.9925248447
 21
3.9206184525
  0
LINE
  5
22F
100
AcDbEntity
  8
0
100
AcDbLine
 62
7
  6
CONTINUOUS
 10
3.0017748447
 20
3.9196945317
 11
3.0017748447
 21
3.9203368349
  0
LINE
  5
230
100
AcDbEntity
  8
0
100
AcDbLine
 62
7
  6
CONTINUOUS
 10
3.0197748447
 20
3.9176541626
 11
3.0197748447
 21
3.9182999455
  0
LINE
  5
231
100
AcDbEntity
  8
0
100
AcDbLine
 62
7
  6
CONTINUOUS
 10
3.0290248447
 20
3.9164803657
 11
3.0290248447
 21
3.915909484
  0
LINE
  5
232
100
AcDbEntity
  8
0
100
AcDbLine
 62
7
  6
CONTINUOUS
 10
7.3300261816
 20
2.6607973602
 11
6.5170235078
 21
2.6607973602
  0
LINE
  5
233
100
AcDbEntity
  8
0
100
AcDbLine
 62
7
  6
CONTINUOUS
 10
3.3300261816
 20
2.6607973602
 11
2.5170235078
 21
2.6607973602
  0
LINE
  5
234
100
AcDbEntity
  8
0
100
AcDbLine
 62
7
  6
CONTINUOUS
 10
2.544494393
 20
2.6917973602
 11
3.3025552964
 21
2.6917973602
  0
LINE
  5
235
100
AcDbEntity
  8
0
100
AcDbLine
 62
7
  6
CONTINUOUS
 10
6.544494393
 20
2.6917973602
 11
7.3025552964
 21
2.6917973602
  0
LINE
  5
236
100
AcDbEntity
  8
0
100
AcDbLine
 62
7
  6
CONTINUOUS
 10
5.3910248447
 20
2.6982973602
 11
4.4560248447
 21
2.6982973602
  0
LINE
  5
237
100
AcDbEntity
  8
0
100
AcDbLine
 62
7
  6
CONTINUOUS
 10
2.6597748447
 20
3.8317973602
 11
2.6731982385
 21
3.8240473602
  0
LINE
  5
238
100
AcDbEntity
  8
0
100
AcDbLine
 62
7
  6
CONTINUOUS
 10
4.2860248447
 20
2.4832973602
 11
4.2960248447
 21
2.4732973602
  0
LINE
  5
239
100
AcDbEntity
  8
0
100
AcDbLine
 62
7
  6
CONTINUOUS
 10
3.1801419208
 20
3.8772570363
 11
3.1872748447
 21
3.8674394088
  0
LINE
  5
23A
100
AcDbEntity
  8
0
100
AcDbLine
 62
7
  6
CONTINUOUS
 10
3.0952748447
 20
3.5062973602
 11
3.0952748447
 21
3.3267973602
  0
LINE
  5
23B
100
AcDbEntity
  8
0
100
AcDbLine
 62
7
  6
CONTINUOUS
 10
3.1130400706
 20
2.6917973602
 11
3.1130400706
 21
2.8167693882
  0
LINE
  5
23C
100
AcDbEntity
  8
0
100
AcDbLine
 62
7
  6
CONTINUOUS
 10
3.1780278328
 20
3.625130591
 11
3.1780278328
 21
3.722464129
  0
LINE
  5
23D
100
AcDbEntity
  8
0
100
AcDbLine
 62
7
  6
CONTINUOUS
 10
3.1872748447
 20
3.8674394088
 11
3.1872748447
 21
3.8317973602
  0
LINE
  5
23E
100
AcDbEntity
  8
0
100
AcDbLine
 62
7
  6
CONTINUOUS
 10
3.1891078496
 20
3.5962454395
 11
3.1891078496
 21
3.7513492808
  0
LINE
  5
23F
100
AcDbEntity
  8
0
100
AcDbLine
 62
7
  6
CONTINUOUS
 10
3.2940248447
 20
2.6607973602
 11
3.2940248447
 21
2.6917973602
  0
LINE
  5
240
100
AcDbEntity
  8
0
100
AcDbLine
 62
7
  6
CONTINUOUS
 10
3.3025552964
 20
2.6917973602
 11
3.3025552964
 21
2.8167696313
  0
LINE
  5
241
100
AcDbEntity
  8
0
100
AcDbLine
 62
7
  6
CONTINUOUS
 10
7.2441065646
 20
2.8750473602
 11
6.6029431249
 21
2.8750473602
  0
LINE
  5
242
100
AcDbEntity
  8
0
100
AcDbLine
 62
7
  6
CONTINUOUS
 10
3.2441065646
 20
2.8750473602
 11
2.6029431249
 21
2.8750473602
  0
LINE
  5
243
100
AcDbEntity
  8
0
100
AcDbLine
 62
7
  6
CONTINUOUS
 10
5.1890248447
 20
2.9632973602
 11
4.6580248447
 21
2.9632973602
  0
LINE
  5
244
100
AcDbEntity
  8
0
100
AcDbLine
 62
7
  6
CONTINUOUS
 10
7.2327748447
 20
2.9825473602
 11
6.6142748447
 21
2.9825473602
  0
LINE
  5
245
100
AcDbEntity
  8
0
100
AcDbLine
 62
7
  6
CONTINUOUS
 10
3.2327748447
 20
2.9825473602
 11
2.6142748447
 21
2.9825473602
  0
LINE
  5
246
100
AcDbEntity
  8
0
100
AcDbLine
 62
7
  6
CONTINUOUS
 10
5.1385248447
 20
3.0432973602
 11
4.7085248447
 21
3.0432973602
  0
LINE
  5
247
100
AcDbEntity
  8
0
100
AcDbLine
 62
7
  6
CONTINUOUS
 10
2.6597748447
 20
3.5317973602
 11
2.7382748447
 21
3.5062973602
  0
LINE
  5
248
100
AcDbEntity
  8
0
100
AcDbLine
 62
7
  6
CONTINUOUS
 10
3.3948634562
 20
3.5899037124
 11
3.4359080847
 21
3.5611639542
  0
LINE
  5
249
100
AcDbEntity
  8
0
100
AcDbLine
 62
7
  6
CONTINUOUS
 10
3.3698432654
 20
3.5783387136
 11
3.3698432654
 21
3.7692560069
  0
LINE
  5
24A
100
AcDbEntity
  8
0
100
AcDbLine
 62
7
  6
CONTINUOUS
 10
3.3822748447
 20
3.5792519154
 11
3.3822748447
 21
3.7683428051
  0
LINE
  5
24B
100
AcDbEntity
  8
0
100
AcDbLine
 62
7
  6
CONTINUOUS
 10
3.3948634562
 20
3.5899037124
 11
3.3948634562
 21
3.7576910081
  0
LINE
  5
24C
100
AcDbEntity
  8
0
100
AcDbLine
 62
7
  6
CONTINUOUS
 10
3.4359080847
 20
3.5611639542
 11
3.4359080847
 21
3.7864307663
  0
LINE
  5
24D
100
AcDbEntity
  8
0
100
AcDbLine
 62
7
  6
CONTINUOUS
 10
7.2308418418
 20
3.096646766
 11
6.6162078476
 21
3.096646766
  0
LINE
  5
24E
100
AcDbEntity
  8
0
100
AcDbLine
 62
7
  6
CONTINUOUS
 10
3.2308418418
 20
3.096646766
 11
2.6162078476
 21
3.096646766
  0
LINE
  5
24F
100
AcDbEntity
  8
0
100
AcDbLine
 62
7
  6
CONTINUOUS
 10
7.1937748447
 20
3.1496055796
 11
6.6532748447
 21
3.1496055796
  0
LINE
  5
250
100
AcDbEntity
  8
0
100
AcDbLine
 62
7
  6
CONTINUOUS
 10
3.1937748447
 20
3.1496055796
 11
2.6532748447
 21
3.1496055796
  0
LINE
  5
251
100
AcDbEntity
  8
0
100
AcDbLine
 62
7
  6
CONTINUOUS
 10
3.173851451
 20
3.8240473602
 11
3.1872748447
 21
3.8162973602
  0
LINE
  5
252
100
AcDbEntity
  8
0
100
AcDbLine
 62
7
  6
CONTINUOUS
 10
2.6669077686
 20
3.8772570363
 11
2.6597748447
 21
3.8674394088
  0
LINE
  5
253
100
AcDbEntity
  8
0
100
AcDbLine
 62
7
  6
CONTINUOUS
 10
2.7086549809
 20
3.3025969816
 11
3.1383947085
 21
3.3025969816
  0
LINE
  5
254
100
AcDbEntity
  8
0
100
AcDbLine
 62
7
  6
CONTINUOUS
 10
6.7086549809
 20
3.3025969816
 11
7.1383947085
 21
3.3025969816
  0
LINE
  5
255
100
AcDbEntity
  8
0
100
AcDbLine
 62
7
  6
CONTINUOUS
 10
2.7241004005
 20
3.3167973602
 11
3.122949289
 21
3.3167973602
  0
LINE
  5
256
100
AcDbEntity
  8
0
100
AcDbLine
 62
7
  6
CONTINUOUS
 10
6.7241004005
 20
3.3167973602
 11
7.122949289
 21
3.3167973602
  0
LINE
  5
257
100
AcDbEntity
  8
0
100
AcDbLine
 62
7
  6
CONTINUOUS
 10
2.7517748447
 20
3.3267973602
 11
3.0952748447
 21
3.3267973602
  0
LINE
  5
258
100
AcDbEntity
  8
0
100
AcDbLine
 62
7
  6
CONTINUOUS
 10
6.7517748572
 20
3.3267973602
 11
7.0952748322
 21
3.3267973602
  0
LINE
  5
259
100
AcDbEntity
  8
0
100
AcDbLine
 62
7
  6
CONTINUOUS
 10
2.7382748447
 20
3.5062973602
 11
3.1087748447
 21
3.5062973602
  0
LINE
  5
25A
100
AcDbEntity
  8
0
100
AcDbLine
 62
7
  6
CONTINUOUS
 10
6.7382748447
 20
3.5062973602
 11
7.1087748447
 21
3.5062973602
  0
LINE
  5
25B
100
AcDbEntity
  8
0
100
AcDbLine
 62
7
  6
CONTINUOUS
 10
3.1507798228
 20
3.8867973602
 11
3.1801419208
 21
3.8772570363
  0
LWPOLYLINE
  5
25C
100
AcDbEntity
  8
0
100
AcDbPolyline
 62
7
  6
CONTINUOUS
 90
3
 70
0
 10
2.9016748447
 20
3.9239894183
 10
2.9016782158
 20
3.923988293
 10
2.9017038408
 20
3.9239853306
  0
LINE
  5
25D
100
AcDbEntity
  8
0
100
AcDbLine
 62
7
  6
CONTINUOUS
 10
2.6162078476
 20
3.096646766
 11
2.6532748447
 21
3.1496055796
  0
LINE
  5
25E
100
AcDbEntity
  8
0
100
AcDbLine
 62
7
  6
CONTINUOUS
 10
6.7603361819
 20
3.9063718616
 11
6.7485248447
 21
3.9042896817
  0
LINE
  5
25F
100
AcDbEntity
  8
0
100
AcDbLine
 62
7
  6
CONTINUOUS
 10
6.8056937958
 20
3.9142261691
 11
6.7891687274
 21
3.9114767723
  0
LINE
  5
260
100
AcDbEntity
  8
0
100
AcDbLine
 62
7
  6
CONTINUOUS
 10
6.7976856645
 20
3.9128950929
 11
6.7964594307
 21
3.9126911639
  0
LINE
  5
261
100
AcDbEntity
  8
0
100
AcDbLine
 62
7
  6
CONTINUOUS
 10
6.7927943384
 20
3.912080954
 11
6.7915788142
 21
3.9118788903
  0
LINE
  5
262
100
AcDbEntity
  8
0
100
AcDbLine
 62
7
  6
CONTINUOUS
 10
6.7891687274
 20
3.9119848459
 11
6.8247497889
 21
3.9178861866
  0
LINE
  5
263
100
AcDbEntity
  8
0
100
AcDbLine
 62
7
  6
CONTINUOUS
 10
6.8093414429
 20
3.9153373701
 11
6.8103807991
 21
3.9155096625
  0
LINE
  5
264
100
AcDbEntity
  8
0
100
AcDbLine
 62
7
  6
CONTINUOUS
 10
6.807164934
 20
3.9149764758
 11
6.8082679327
 21
3.9151592949
  0
LINE
  5
265
100
AcDbEntity
  8
0
100
AcDbLine
 62
7
  6
CONTINUOUS
 10
6.8113846254
 20
3.9156759441
 11
6.8123532477
 21
3.9158364429
  0
LINE
  5
266
100
AcDbEntity
  8
0
100
AcDbLine
 62
7
  6
CONTINUOUS
 10
6.8201426509
 20
3.9171253844
 11
6.8243436678
 21
3.9178189801
  0
LINE
  5
267
100
AcDbEntity
  8
0
100
AcDbLine
 62
7
  6
CONTINUOUS
 10
6.7695259776
 20
3.908849662
 11
6.770076264
 21
3.9089330788
  0
LINE
  5
268
100
AcDbEntity
  8
0
100
AcDbLine
 62
7
  6
CONTINUOUS
 10
6.7695259881
 20
3.9083394924
 11
6.7725093535
 21
3.9087836791
  0
LINE
  5
269
100
AcDbEntity
  8
0
100
AcDbLine
 62
7
  6
CONTINUOUS
 10
6.7700762679
 20
3.9089330628
 11
6.7725093535
 21
3.9092935523
  0
LINE
  5
26A
100
AcDbEntity
  8
0
100
AcDbLine
 62
7
  6
CONTINUOUS
 10
6.9041673172
 20
3.9240548075
 11
6.9041748447
 21
3.9240558641
  0
LINE
  5
26B
100
AcDbEntity
  8
0
100
AcDbLine
 62
7
  6
CONTINUOUS
 10
6.9219303843
 20
3.9242888281
 11
6.9219164458
 21
3.9242874843
  0
LINE
  5
26C
100
AcDbEntity
  8
0
100
AcDbLine
 62
7
  6
CONTINUOUS
 10
2.6597748447
 20
3.5317973602
 11
3.1872748447
 21
3.5317973602
  0
LINE
  5
26D
100
AcDbEntity
  8
0
100
AcDbLine
 62
7
  6
CONTINUOUS
 10
6.6597748447
 20
3.5317973602
 11
7.1872748447
 21
3.5317973602
  0
LINE
  5
26E
100
AcDbEntity
  8
0
100
AcDbLine
 62
7
  6
CONTINUOUS
 10
7.2022748447
 20
3.5712973602
 11
7.0151640641
 21
3.5712973602
  0
LINE
  5
26F
100
AcDbEntity
  8
0
100
AcDbLine
 62
7
  6
CONTINUOUS
 10
3.2022748447
 20
3.5712973602
 11
3.0151640641
 21
3.5712973602
  0
LINE
  5
270
100
AcDbEntity
  8
0
100
AcDbLine
 62
7
  6
CONTINUOUS
 10
2.6447748447
 20
3.5712973602
 11
2.8318856253
 21
3.5712973602
  0
LINE
  5
271
100
AcDbEntity
  8
0
100
AcDbLine
 62
7
  6
CONTINUOUS
 10
6.6447748447
 20
3.5712973602
 11
6.8318856253
 21
3.5712973602
  0
LINE
  5
272
100
AcDbEntity
  8
0
100
AcDbLine
 62
7
  6
CONTINUOUS
 10
2.9016748447
 20
3.9239894183
 11
2.9020789086
 21
3.9239543428
  0
LINE
  5
273
100
AcDbEntity
  8
0
100
AcDbLine
 62
7
  6
CONTINUOUS
 10
2.9017038408
 20
3.9239853306
 11
2.9018243673
 21
3.923973483
  0
LINE
  5
274
100
AcDbEntity
  8
0
100
AcDbLine
 62
7
  6
CONTINUOUS
 10
6.9218730262
 20
3.9242845604
 11
6.9218534768
 21
3.9242829831
  0
LINE
  5
275
100
AcDbEntity
  8
0
100
AcDbLine
 62
7
  6
CONTINUOUS
 10
6.921663045
 20
3.924269057
 11
6.9215896926
 21
3.9242636825
  0
LINE
  5
276
100
AcDbEntity
  8
0
100
AcDbLine
 62
7
  6
CONTINUOUS
 10
6.9220248447
 20
3.9242959093
 11
6.9209580044
 21
3.9242181196
  0
LINE
  5
277
100
AcDbEntity
  8
0
100
AcDbLine
 62
7
  6
CONTINUOUS
 10
6.9041542661
 20
3.9240544818
 11
6.9041748447
 21
3.9240558641
  0
LINE
  5
278
100
AcDbEntity
  8
0
100
AcDbLine
 62
7
  6
CONTINUOUS
 10
6.9032813672
 20
3.9231633791
 11
6.8616899589
 21
3.920965468
  0
LWPOLYLINE
  5
279
100
AcDbEntity
  8
0
100
AcDbPolyline
 62
7
  6
CONTINUOUS
 90
3
 70
0
 10
6.8827994842
 20
3.9220734546
 10
6.8812606368
 20
3.921992204
 10
6.8797228684
 20
3.9219111362
  0
LINE
  5
27A
100
AcDbEntity
  8
0
100
AcDbLine
 62
7
  6
CONTINUOUS
 10
6.8676862595
 20
3.9212785086
 11
6.8648999984
 21
3.9211325805
  0
LINE
  5
27B
100
AcDbEntity
  8
0
100
AcDbLine
 62
7
  6
CONTINUOUS
 10
6.8648999984
 20
3.9211325805
 11
6.8616934468
 21
3.9209656894
  0
LINE
  5
27C
100
AcDbEntity
  8
0
100
AcDbLine
 62
7
  6
CONTINUOUS
 10
6.8443324504
 20
3.920183051
 11
6.8435248447
 21
3.9201590682
  0
LINE
  5
27D
100
AcDbEntity
  8
0
100
AcDbLine
 62
7
  6
CONTINUOUS
 10
2.9620248447
 20
3.9233408952
 11
2.9612268316
 21
3.9233235103
  0
LINE
  5
27E
100
AcDbEntity
  8
0
100
AcDbLine
 62
7
  6
CONTINUOUS
 10
2.9620248447
 20
3.9233408952
 11
2.9612278698
 21
3.9233234574
  0
LWPOLYLINE
  5
27F
100
AcDbEntity
  8
0
100
AcDbPolyline
 62
7
  6
CONTINUOUS
 90
10
 70
0
 10
6.9220248447
 20
3.9242959093
 10
6.9219764957
 20
3.9242956962
 10
6.921981194
 20
3.9242953722
 10
6.9220116423
 20
3.9242949121
 10
6.9220188493
 20
3.924294245
 10
6.9219923708
 20
3.9242933603
 10
6.9219776319
 20
3.9242923588
 10
6.9219747025
 20
3.9242912856
 10
6.9219511127
 20
3.9242901006
 10
6.9218943362
 20
3.9242860632
  0
LINE
  5
280
100
AcDbEntity
  8
0
100
AcDbLine
 62
7
  6
CONTINUOUS
 10
7.2022748447
 20
3.7762973602
 11
7.0151640641
 21
3.7762973602
  0
LINE
  5
281
100
AcDbEntity
  8
0
100
AcDbLine
 62
7
  6
CONTINUOUS
 10
3.2022748447
 20
3.7762973602
 11
3.0151640641
 21
3.7762973602
  0
LINE
  5
282
100
AcDbEntity
  8
0
100
AcDbLine
 62
7
  6
CONTINUOUS
 10
2.6447748447
 20
3.7762973602
 11
2.8318856253
 21
3.7762973602
  0
LINE
  5
283
100
AcDbEntity
  8
0
100
AcDbLine
 62
7
  6
CONTINUOUS
 10
6.6447748447
 20
3.7762973602
 11
6.8318856253
 21
3.7762973602
  0
LINE
  5
284
100
AcDbEntity
  8
0
100
AcDbLine
 62
7
  6
CONTINUOUS
 10
2.6597748447
 20
3.8162973602
 11
3.1872748447
 21
3.8162973602
  0
LINE
  5
285
100
AcDbEntity
  8
0
100
AcDbLine
 62
7
  6
CONTINUOUS
 10
6.6597748447
 20
3.8162973602
 11
7.1872748447
 21
3.8162973602
  0
LINE
  5
286
100
AcDbEntity
  8
0
100
AcDbLine
 62
7
  6
CONTINUOUS
 10
2.6731982385
 20
3.8240473602
 11
3.173851451
 21
3.8240473602
  0
LINE
  5
287
100
AcDbEntity
  8
0
100
AcDbLine
 62
7
  6
CONTINUOUS
 10
6.6731982385
 20
3.8240473602
 11
7.173851451
 21
3.8240473602
  0
LINE
  5
288
100
AcDbEntity
  8
0
100
AcDbLine
 62
7
  6
CONTINUOUS
 10
2.6597748447
 20
3.8317973602
 11
3.1872748447
 21
3.8317973602
  0
LINE
  5
289
100
AcDbEntity
  8
0
100
AcDbLine
 62
7
  6
CONTINUOUS
 10
6.6597748447
 20
3.8317973602
 11
7.1872748447
 21
3.8317973602
  0
LINE
  5
28A
100
AcDbEntity
  8
0
100
AcDbLine
 62
7
  6
CONTINUOUS
 10
2.6597748447
 20
3.8674394088
 11
3.1872748447
 21
3.8674394088
  0
LINE
  5
28B
100
AcDbEntity
  8
0
100
AcDbLine
 62
7
  6
CONTINUOUS
 10
6.6597748447
 20
3.8674394088
 11
7.1872748447
 21
3.8674394088
  0
LINE
  5
28C
100
AcDbEntity
  8
0
100
AcDbLine
 62
7
  6
CONTINUOUS
 10
2.6669077686
 20
3.8772570363
 11
3.1801419208
 21
3.8772570363
  0
LINE
  5
28D
100
AcDbEntity
  8
0
100
AcDbLine
 62
7
  6
CONTINUOUS
 10
6.6669077686
 20
3.8772570363
 11
7.1801419208
 21
3.8772570363
  0
LINE
  5
28E
100
AcDbEntity
  8
0
100
AcDbLine
 62
7
  6
CONTINUOUS
 10
2.6962698667
 20
3.8867973602
 11
3.1507798228
 21
3.8867973602
  0
LINE
  5
28F
100
AcDbEntity
  8
0
100
AcDbLine
 62
7
  6
CONTINUOUS
 10
6.6962698667
 20
3.8867973602
 11
7.1507798228
 21
3.8867973602
  0
LINE
  5
290
100
AcDbEntity
  8
0
100
AcDbLine
 62
7
  6
CONTINUOUS
 10
7.121097173
 20
3.8987020069
 11
6.7259525164
 21
3.8987020069
  0
LINE
  5
291
100
AcDbEntity
  8
0
100
AcDbLine
 62
7
  6
CONTINUOUS
 10
3.1210971645
 20
3.8987020667
 11
2.7259525249
 21
3.8987020667
  0
LINE
  5
292
100
AcDbEntity
  8
0
100
AcDbLine
 62
7
  6
CONTINUOUS
 10
6.8620062326
 20
3.9218135333
 11
6.8621653671
 21
3.9218109669
  0
LINE
  5
293
100
AcDbEntity
  8
0
100
AcDbLine
 62
7
  6
CONTINUOUS
 10
2.8843293033
 20
3.9232470194
 11
2.8835248447
 21
3.923264863
  0
LINE
  5
294
100
AcDbEntity
  8
0
100
AcDbLine
 62
7
  6
CONTINUOUS
 10
2.8843303154
 20
3.923247073
 11
2.8835248447
 21
3.923264863
  0
LINE
  5
295
100
AcDbEntity
  8
0
100
AcDbLine
 62
7
  6
CONTINUOUS
 10
6.8616748447
 20
3.9218264749
 11
6.8621653671
 21
3.9218109669
  0
LINE
  5
296
100
AcDbEntity
  8
0
100
AcDbLine
 62
7
  6
CONTINUOUS
 10
2.9019286963
 20
3.9239644888
 11
2.9020789086
 21
3.9239543428
  0
LINE
  5
297
100
AcDbEntity
  8
0
100
AcDbLine
 62
7
  6
CONTINUOUS
 10
4.2860248447
 20
2.4832973602
 11
4.2860248447
 21
2.5282973602
  0
LINE
  5
298
100
AcDbEntity
  8
0
100
AcDbLine
 62
7
  6
CONTINUOUS
 10
2.4521862332
 20
3.5899037124
 11
2.4111416047
 21
3.5611639542
  0
LINE
  5
299
100
AcDbEntity
  8
0
100
AcDbLine
 62
7
  6
CONTINUOUS
 10
2.9441632111
 20
3.9240212982
 11
2.9441748447
 21
3.9240223196
  0
LINE
  5
29A
100
AcDbEntity
  8
0
100
AcDbLine
 62
7
  6
CONTINUOUS
 10
5.1946802298
 20
4.1026908483
 11
4.6523694596
 21
4.1026908483
  0
LINE
  5
29B
100
AcDbEntity
  8
0
100
AcDbLine
 62
7
  6
CONTINUOUS
 10
5.1823458648
 20
4.1197973602
 11
4.6647038246
 21
4.1197973602
  0
LINE
  5
29C
100
AcDbEntity
  8
0
100
AcDbLine
 62
7
  6
CONTINUOUS
 10
5.1726227828
 20
4.1355890687
 11
4.6744269066
 21
4.1355890687
  0
LINE
  5
29D
100
AcDbEntity
  8
0
100
AcDbLine
 62
7
  6
CONTINUOUS
 10
7.0022749954
 20
3.9196323701
 11
7.0037473131
 21
3.9195251013
  0
LINE
  5
29E
100
AcDbEntity
  8
0
100
AcDbLine
 62
7
  6
CONTINUOUS
 10
7.0037473131
 20
3.9195251013
 11
7.0042081036
 21
3.9194722813
  0
LINE
  5
29F
100
AcDbEntity
  8
0
100
AcDbLine
 62
7
  6
CONTINUOUS
 10
7.0037473131
 20
3.9195251013
 11
7.0042081024
 21
3.9194722661
  0
LINE
  5
2A0
100
AcDbEntity
  8
0
100
AcDbLine
 62
7
  6
CONTINUOUS
 10
6.6597748447
 20
3.5317973602
 11
6.7382748447
 21
3.5062973602
  0
LINE
  5
2A1
100
AcDbEntity
  8
0
100
AcDbLine
 62
7
  6
CONTINUOUS
 10
4.6917748447
 20
6.6792973602
 11
4.6917748447
 21
6.7062973602
  0
LINE
  5
2A2
100
AcDbEntity
  8
0
100
AcDbLine
 62
7
  6
CONTINUOUS
 10
2.5444969995
 20
2.8167695952
 11
2.6029431249
 21
2.8750473602
  0
LINE
  5
2A3
100
AcDbEntity
  8
0
100
AcDbLine
 62
7
  6
CONTINUOUS
 10
2.6731982385
 20
3.8240473602
 11
2.6597748447
 21
3.8162973602
  0
LINE
  5
2A4
100
AcDbEntity
  8
0
100
AcDbLine
 62
7
  6
CONTINUOUS
 10
2.9441685151
 20
3.9240211569
 11
2.9441748447
 21
3.9240223196
  0
LINE
  5
2A5
100
AcDbEntity
  8
0
100
AcDbLine
 62
7
  6
CONTINUOUS
 10
7.1030248447
 20
3.9032329155
 11
7.0607748447
 21
3.9108682271
  0
LINE
  5
2A6
100
AcDbEntity
  8
0
100
AcDbLine
 62
7
  6
CONTINUOUS
 10
4.7150325957
 20
5.751533741
 11
4.7495313132
 21
5.4028386611
  0
LINE
  5
2A7
100
AcDbEntity
  8
0
100
AcDbLine
 62
7
  6
CONTINUOUS
 10
4.7672748447
 20
6.4670543683
 11
4.7672748447
 21
5.824665284
  0
LINE
  5
2A8
100
AcDbEntity
  8
0
100
AcDbLine
 62
7
  6
CONTINUOUS
 10
4.7672748447
 20
6.6027973602
 11
4.7672748447
 21
6.6342973602
  0
LINE
  5
2A9
100
AcDbEntity
  8
0
100
AcDbLine
 62
7
  6
CONTINUOUS
 10
4.7672748447
 20
6.7667973602
 11
4.7672748447
 21
6.7827973602
  0
LINE
  5
2AA
100
AcDbEntity
  8
0
100
AcDbLine
 62
7
  6
CONTINUOUS
 10
3.3948634562
 20
3.7576910081
 11
3.4359080847
 21
3.7864307663
  0
LINE
  5
2AB
100
AcDbEntity
  8
0
100
AcDbLine
 62
7
  6
CONTINUOUS
 10
3.1872748447
 20
3.8317973602
 11
3.173851451
 21
3.8240473602
  0
LINE
  5
2AC
100
AcDbEntity
  8
0
100
AcDbLine
 62
7
  6
CONTINUOUS
 10
5.1726227828
 20
4.5095056518
 11
4.6744269066
 21
4.5095056518
  0
LINE
  5
2AD
100
AcDbEntity
  8
0
100
AcDbLine
 62
7
  6
CONTINUOUS
 10
5.1823458648
 20
4.5252973602
 11
4.6647038246
 21
4.5252973602
  0
LINE
  5
2AE
100
AcDbEntity
  8
0
100
AcDbLine
 62
7
  6
CONTINUOUS
 10
5.1946802298
 20
4.5424038722
 11
4.6523694596
 21
4.5424038722
  0
LINE
  5
2AF
100
AcDbEntity
  8
0
100
AcDbLine
 62
7
  6
CONTINUOUS
 10
7.0838553047
 20
3.907537962
 11
7.0838391938
 21
3.9075424041
  0
LINE
  5
2B0
100
AcDbEntity
  8
0
100
AcDbLine
 62
7
  6
CONTINUOUS
 10
7.1507798228
 20
3.8867973602
 11
7.1801419208
 21
3.8772570363
  0
LINE
  5
2B1
100
AcDbEntity
  8
0
100
AcDbLine
 62
7
  6
CONTINUOUS
 10
5.0797748447
 20
6.4670543683
 11
5.0797748447
 21
5.8246657752
  0
LINE
  5
2B2
100
AcDbEntity
  8
0
100
AcDbLine
 62
7
  6
CONTINUOUS
 10
5.0797748447
 20
6.6027973602
 11
5.0797748447
 21
6.6342973602
  0
LINE
  5
2B3
100
AcDbEntity
  8
0
100
AcDbLine
 62
7
  6
CONTINUOUS
 10
5.0797748447
 20
6.7667973602
 11
5.0797748447
 21
6.7827973602
  0
LINE
  5
2B4
100
AcDbEntity
  8
0
100
AcDbLine
 62
7
  6
CONTINUOUS
 10
5.1552748447
 20
6.6792973602
 11
5.1552748447
 21
6.7062973602
  0
LINE
  5
2B5
100
AcDbEntity
  8
0
100
AcDbLine
 62
7
  6
CONTINUOUS
 10
5.1320170937
 20
5.751533741
 11
5.0975183763
 21
5.4028386611
  0
LINE
  5
2B6
100
AcDbEntity
  8
0
100
AcDbLine
 62
7
  6
CONTINUOUS
 10
2.6962698667
 20
3.8867973602
 11
2.6669077686
 21
3.8772570363
  0
LINE
  5
2B7
100
AcDbEntity
  8
0
100
AcDbLine
 62
7
  6
CONTINUOUS
 10
6.6597748447
 20
3.8317973602
 11
6.6731982385
 21
3.8240473602
  0
LINE
  5
2B8
100
AcDbEntity
  8
0
100
AcDbLine
 62
7
  6
CONTINUOUS
 10
6.4521862332
 20
3.7576910081
 11
6.4111416047
 21
3.7864307663
  0
LINE
  5
2B9
100
AcDbEntity
  8
0
100
AcDbLine
 62
7
  6
CONTINUOUS
 10
7.173851451
 20
3.8240473602
 11
7.1872748447
 21
3.8162973602
  0
LINE
  5
2BA
100
AcDbEntity
  8
0
100
AcDbLine
 62
7
  6
CONTINUOUS
 10
7.3025512179
 20
2.8167710631
 11
7.2441065646
 21
2.8750473602
  0
LINE
  5
2BB
100
AcDbEntity
  8
0
100
AcDbLine
 62
7
  6
CONTINUOUS
 10
5.5610248447
 20
2.4832973602
 11
5.5610248447
 21
2.5282973602
  0
LINE
  5
2BC
100
AcDbEntity
  8
0
100
AcDbLine
 62
7
  6
CONTINUOUS
 10
3.1872748447
 20
3.5317973602
 11
3.1087748447
 21
3.5062973602
  0
LINE
  5
2BD
100
AcDbEntity
  8
0
100
AcDbLine
 62
7
  6
CONTINUOUS
 10
7.3948634562
 20
3.5899037124
 11
7.4359080847
 21
3.5611639542
  0
LINE
  5
2BE
100
AcDbEntity
  8
0
100
AcDbLine
 62
7
  6
CONTINUOUS
 10
5.1385248447
 20
5.6017973602
 11
5.1172026802
 21
5.6017973602
  0
LINE
  5
2BF
100
AcDbEntity
  8
0
100
AcDbLine
 62
7
  6
CONTINUOUS
 10
4.7298470092
 20
5.6017973602
 11
4.7085248447
 21
5.6017973602
  0
LINE
  5
2C0
100
AcDbEntity
  8
0
100
AcDbLine
 62
7
  6
CONTINUOUS
 10
5.1385248447
 20
5.6817973602
 11
5.1251176109
 21
5.6817973602
  0
LINE
  5
2C1
100
AcDbEntity
  8
0
100
AcDbLine
 62
7
  6
CONTINUOUS
 10
4.7219320785
 20
5.6817973602
 11
4.7085248447
 21
5.6817973602
  0
LINE
  5
2C2
100
AcDbEntity
  8
0
100
AcDbLine
 62
7
  6
CONTINUOUS
 10
7.2308418418
 20
3.096646766
 11
7.1937748447
 21
3.1496055796
  0
LINE
  5
2C3
100
AcDbEntity
  8
0
100
AcDbLine
 62
7
  6
CONTINUOUS
 10
6.6962698667
 20
3.8867973602
 11
6.6669077686
 21
3.8772570363
  0
LINE
  5
2C4
100
AcDbEntity
  8
0
100
AcDbLine
 62
7
  6
CONTINUOUS
 10
7.1801419208
 20
3.8772570363
 11
7.1872748447
 21
3.8674394088
  0
LINE
  5
2C5
100
AcDbEntity
  8
0
100
AcDbLine
 62
7
  6
CONTINUOUS
 10
6.4111416047
 20
3.5611639542
 11
6.4111416047
 21
3.7864307663
  0
LINE
  5
2C6
100
AcDbEntity
  8
0
100
AcDbLine
 62
7
  6
CONTINUOUS
 10
6.4521862332
 20
3.5899037124
 11
6.4521862332
 21
3.7576910081
  0
LINE
  5
2C7
100
AcDbEntity
  8
0
100
AcDbLine
 62
7
  6
CONTINUOUS
 10
6.4647748447
 20
3.5792519154
 11
6.4647748447
 21
3.7683428051
  0
LINE
  5
2C8
100
AcDbEntity
  8
0
100
AcDbLine
 62
7
  6
CONTINUOUS
 10
6.477206424
 20
3.5783387136
 11
6.477206424
 21
3.7692560069
  0
LINE
  5
2C9
100
AcDbEntity
  8
0
100
AcDbLine
 62
7
  6
CONTINUOUS
 10
6.544494393
 20
2.6917973602
 11
6.544494393
 21
2.8167686687
  0
LINE
  5
2CA
100
AcDbEntity
  8
0
100
AcDbLine
 62
7
  6
CONTINUOUS
 10
6.5530248447
 20
2.6607973602
 11
6.5530248447
 21
2.6917973602
  0
LINE
  5
2CB
100
AcDbEntity
  8
0
100
AcDbLine
 62
7
  6
CONTINUOUS
 10
6.6731982385
 20
3.8240473602
 11
6.6597748447
 21
3.8162973602
  0
LINE
  5
2CC
100
AcDbEntity
  8
0
100
AcDbLine
 62
7
  6
CONTINUOUS
 10
4.7610248447
 20
6.2827973602
 11
4.7672748447
 21
6.2827973602
  0
LINE
  5
2CD
100
AcDbEntity
  8
0
100
AcDbLine
 62
7
  6
CONTINUOUS
 10
5.0797748447
 20
6.2827973602
 11
5.0860248447
 21
6.2827973602
  0
LWPOLYLINE
  5
2CE
100
AcDbEntity
  8
0
100
AcDbPolyline
 62
7
  6
CONTINUOUS
 90
3
 70
0
 10
6.8616748447
 20
3.9218264749
 10
6.8616749558
 20
3.9218246629
 10
6.8617136212
 20
3.9218225424
  0
LINE
  5
2CF
100
AcDbEntity
  8
0
100
AcDbLine
 62
7
  6
CONTINUOUS
 10
6.6579418398
 20
3.7513475635
 11
6.6579418398
 21
3.5962471574
  0
LINE
  5
2D0
100
AcDbEntity
  8
0
100
AcDbLine
 62
7
  6
CONTINUOUS
 10
6.6597748447
 20
3.8674394088
 11
6.6597748447
 21
3.8317973602
  0
LINE
  5
2D1
100
AcDbEntity
  8
0
100
AcDbLine
 62
7
  6
CONTINUOUS
 10
6.6690218566
 20
3.7224636204
 11
6.6690218566
 21
3.6251310984
  0
LINE
  5
2D2
100
AcDbEntity
  8
0
100
AcDbLine
 62
7
  6
CONTINUOUS
 10
6.7340096189
 20
2.6917973602
 11
6.7340096189
 21
2.8167696313
  0
LINE
  5
2D3
100
AcDbEntity
  8
0
100
AcDbLine
 62
7
  6
CONTINUOUS
 10
6.7517748447
 20
3.5062973602
 11
6.7517748447
 21
3.3267973602
  0
LINE
  5
2D4
100
AcDbEntity
  8
0
100
AcDbLine
 62
7
  6
CONTINUOUS
 10
6.7695248447
 20
3.9083391976
 11
6.7695248447
 21
3.9088493691
  0
LINE
  5
2D5
100
AcDbEntity
  8
0
100
AcDbLine
 62
7
  6
CONTINUOUS
 10
6.7725093535
 20
3.9087836791
 11
6.7725093535
 21
3.9092935523
  0
LINE
  5
2D6
100
AcDbEntity
  8
0
100
AcDbLine
 62
7
  6
CONTINUOUS
 10
6.7891687274
 20
3.9114767723
 11
6.7891687274
 21
3.9119848459
  0
LINE
  5
2D7
100
AcDbEntity
  8
0
100
AcDbLine
 62
7
  6
CONTINUOUS
 10
6.6669077686
 20
3.8772570363
 11
6.6597748447
 21
3.8674394088
  0
LINE
  5
2D8
100
AcDbEntity
  8
0
100
AcDbLine
 62
7
  6
CONTINUOUS
 10
6.4521862332
 20
3.5899037124
 11
6.4111416047
 21
3.5611639542
  0
LINE
  5
2D9
100
AcDbEntity
  8
0
100
AcDbLine
 62
7
  6
CONTINUOUS
 10
7.1872748447
 20
3.8317973602
 11
7.173851451
 21
3.8240473602
  0
LINE
  5
2DA
100
AcDbEntity
  8
0
100
AcDbLine
 62
7
  6
CONTINUOUS
 10
7.1872748447
 20
3.5317973602
 11
7.1087748447
 21
3.5062973602
  0
LINE
  5
2DB
100
AcDbEntity
  8
0
100
AcDbLine
 62
7
  6
CONTINUOUS
 10
6.8247497889
 20
3.9174596042
 11
6.8247497889
 21
3.9178861866
  0
LINE
  5
2DC
100
AcDbEntity
  8
0
100
AcDbLine
 62
7
  6
CONTINUOUS
 10
6.8616748447
 20
3.9213248754
 11
6.8616748447
 21
3.9218264749
  0
LINE
  5
2DD
100
AcDbEntity
  8
0
100
AcDbLine
 62
7
  6
CONTINUOUS
 10
6.9041748447
 20
3.9235557082
 11
6.9041748447
 21
3.9240558641
  0
LINE
  5
2DE
100
AcDbEntity
  8
0
100
AcDbLine
 62
7
  6
CONTINUOUS
 10
6.9285248447
 20
3.9231155184
 11
6.9285248447
 21
3.9236810913
  0
LINE
  5
2DF
100
AcDbEntity
  8
0
100
AcDbLine
 62
7
  6
CONTINUOUS
 10
6.9392748447
 20
3.9234696436
 11
6.9392748447
 21
3.9241369798
  0
LINE
  5
2E0
100
AcDbEntity
  8
0
100
AcDbLine
 62
7
  6
CONTINUOUS
 10
6.9572748447
 20
3.9228942254
 11
6.9572748447
 21
3.9235624504
  0
LINE
  5
2E1
100
AcDbEntity
  8
0
100
AcDbLine
 62
7
  6
CONTINUOUS
 10
6.9722748447
 20
3.9216360246
 11
6.9722748447
 21
3.9221374223
  0
LINE
  5
2E2
100
AcDbEntity
  8
0
100
AcDbLine
 62
7
  6
CONTINUOUS
 10
6.9842748447
 20
3.920785262
 11
6.9842748447
 21
3.921287212
  0
LINE
  5
2E3
100
AcDbEntity
  8
0
100
AcDbLine
 62
7
  6
CONTINUOUS
 10
6.9971074397
 20
3.9199257511
 11
6.9971074397
 21
3.9204282603
  0
LINE
  5
2E4
100
AcDbEntity
  8
0
100
AcDbLine
 62
7
  6
CONTINUOUS
 10
7.0037473131
 20
3.9195251013
 11
7.0037473131
 21
3.9200278717
  0
LINE
  5
2E5
100
AcDbEntity
  8
0
100
AcDbLine
 62
7
  6
CONTINUOUS
 10
7.0185248447
 20
3.9172807268
 11
7.0185248447
 21
3.9178505916
  0
LINE
  5
2E6
100
AcDbEntity
  8
0
100
AcDbLine
 62
7
  6
CONTINUOUS
 10
7.0235248447
 20
3.9169895896
 11
7.0235248447
 21
3.9178173708
  0
LINE
  5
2E7
100
AcDbEntity
  8
0
100
AcDbLine
 62
7
  6
CONTINUOUS
 10
7.0416657849
 20
3.9142438416
 11
7.0416657849
 21
3.9152436868
  0
LINE
  5
2E8
100
AcDbEntity
  8
0
100
AcDbLine
 62
7
  6
CONTINUOUS
 10
7.0446657849
 20
3.9136609283
 11
7.0446657849
 21
3.9141675517
  0
LINE
  5
2E9
100
AcDbEntity
  8
0
100
AcDbLine
 62
7
  6
CONTINUOUS
 10
5.5610248447
 20
2.4832973602
 11
5.5510248447
 21
2.4732973602
  0
LINE
  5
2EA
100
AcDbEntity
  8
0
100
AcDbLine
 62
7
  6
CONTINUOUS
 10
5.0797748447
 20
6.6027973602
 11
5.0010933585
 21
6.6027973602
  0
LINE
  5
2EB
100
AcDbEntity
  8
0
100
AcDbLine
 62
7
  6
CONTINUOUS
 10
4.845956331
 20
6.6027973602
 11
4.7672748447
 21
6.6027973602
  0
LINE
  5
2EC
100
AcDbEntity
  8
0
100
AcDbLine
 62
7
  6
CONTINUOUS
 10
5.1102748447
 20
6.6342973602
 11
4.7367748447
 21
6.6342973602
  0
LINE
  5
2ED
100
AcDbEntity
  8
0
100
AcDbLine
 62
7
  6
CONTINUOUS
 10
5.1552748447
 20
6.6792973602
 11
4.6917748447
 21
6.6792973602
  0
LINE
  5
2EE
100
AcDbEntity
  8
0
100
AcDbLine
 62
7
  6
CONTINUOUS
 10
5.1552748447
 20
6.7062973602
 11
4.6917748447
 21
6.7062973602
  0
LINE
  5
2EF
100
AcDbEntity
  8
0
100
AcDbLine
 62
7
  6
CONTINUOUS
 10
5.1102748447
 20
6.7512973602
 11
4.7367748447
 21
6.7512973602
  0
LINE
  5
2F0
100
AcDbEntity
  8
0
100
AcDbLine
 62
7
  6
CONTINUOUS
 10
5.0797748447
 20
6.7667973602
 11
4.7672748447
 21
6.7667973602
  0
LINE
  5
2F1
100
AcDbEntity
  8
0
100
AcDbLine
 62
7
  6
CONTINUOUS
 10
5.0797748447
 20
6.7827973602
 11
4.7672748447
 21
6.7827973602
  0
LINE
  5
2F2
100
AcDbEntity
  8
0
100
AcDbLine
 62
7
  6
CONTINUOUS
 10
7.0585972388
 20
3.9113234793
 11
7.0585972388
 21
3.9118316549
  0
LINE
  5
2F3
100
AcDbEntity
  8
0
100
AcDbLine
 62
7
  6
CONTINUOUS
 10
7.0813648477
 20
3.9074194988
 11
7.0813648477
 21
3.9079302885
  0
LINE
  5
2F4
100
AcDbEntity
  8
0
100
AcDbLine
 62
7
  6
CONTINUOUS
 10
7.0838553047
 20
3.907026908
 11
7.0838553047
 21
3.907537962
  0
LINE
  5
2F5
100
AcDbEntity
  8
0
100
AcDbLine
 62
7
  6
CONTINUOUS
 10
7.0952748447
 20
3.5062973602
 11
7.0952748447
 21
3.3267973602
  0
LINE
  5
2F6
100
AcDbEntity
  8
0
100
AcDbLine
 62
7
  6
CONTINUOUS
 10
7.1130400706
 20
2.6917973602
 11
7.1130400706
 21
2.8167693882
  0
LINE
  5
2F7
100
AcDbEntity
  8
0
100
AcDbLine
 62
7
  6
CONTINUOUS
 10
7.1780278328
 20
3.6251310984
 11
7.1780278328
 21
3.7224636203
  0
LINE
  5
2F8
100
AcDbEntity
  8
0
100
AcDbLine
 62
7
  6
CONTINUOUS
 10
7.1872748447
 20
3.8674394088
 11
7.1872748447
 21
3.8317973602
  0
LINE
  5
2F9
100
AcDbEntity
  8
0
100
AcDbLine
 62
7
  6
CONTINUOUS
 10
7.1891078496
 20
3.5962471573
 11
7.1891078496
 21
3.7513475635
  0
LINE
  5
2FA
100
AcDbEntity
  8
0
100
AcDbLine
 62
7
  6
CONTINUOUS
 10
6.6162078476
 20
3.096646766
 11
6.6532748447
 21
3.1496055796
  0
LINE
  5
2FB
100
AcDbEntity
  8
0
100
AcDbLine
 62
7
  6
CONTINUOUS
 10
7.3948634562
 20
3.7576910081
 11
7.4359080847
 21
3.7864307663
  0
LINE
  5
2FC
100
AcDbEntity
  8
0
100
AcDbLine
 62
7
  6
CONTINUOUS
 10
5.0172748447
 20
6.8452973602
 11
4.8297748447
 21
6.8452973602
  0
LINE
  5
2FD
100
AcDbEntity
  8
0
100
AcDbLine
 62
7
  6
CONTINUOUS
 10
7.2940248447
 20
2.6607973602
 11
7.2940248447
 21
2.6917973602
  0
LINE
  5
2FE
100
AcDbEntity
  8
0
100
AcDbLine
 62
7
  6
CONTINUOUS
 10
7.3025552964
 20
2.6917973602
 11
7.3025552964
 21
2.8167696313
  0
LINE
  5
2FF
100
AcDbEntity
  8
0
100
AcDbLine
 62
7
  6
CONTINUOUS
 10
7.3698432654
 20
3.5783387136
 11
7.3698432654
 21
3.7692560069
  0
LINE
  5
300
100
AcDbEntity
  8
0
100
AcDbLine
 62
7
  6
CONTINUOUS
 10
7.3822748447
 20
3.5792519154
 11
7.3822748447
 21
3.7683428051
  0
LINE
  5
301
100
AcDbEntity
  8
0
100
AcDbLine
 62
7
  6
CONTINUOUS
 10
7.3948634562
 20
3.5899037124
 11
7.3948634562
 21
3.7576910081
  0
LINE
  5
302
100
AcDbEntity
  8
0
100
AcDbLine
 62
7
  6
CONTINUOUS
 10
7.4359080847
 20
3.5611639542
 11
7.4359080847
 21
3.7864307663
  0
LINE
  5
303
100
AcDbEntity
  8
0
100
AcDbLine
 62
7
  6
CONTINUOUS
 10
6.5444969995
 20
2.8167695952
 11
6.6029431249
 21
2.8750473602
  0
ARC
  5
304
100
AcDbEntity
  8
0
100
AcDbCircle
 62
7
  6
CONTINUOUS
 10
2.4270929003
 20
2.4732973602
 40
0.0935680556
100
AcDbArc
 50
92.1854050713
 51
180.0
  0
ARC
  5
305
100
AcDbEntity
  8
0
100
AcDbCircle
 62
7
  6
CONTINUOUS
 10
2.5170235078
 20
2.5672973602
 40
0.0935
100
AcDbArc
 50
90.0
 51
180.3063960032
  0
ARC
  5
306
100
AcDbEntity
  8
0
100
AcDbCircle
 62
7
  6
CONTINUOUS
 10
2.5423875779
 20
2.935777848
 40
0.0857622668
100
AcDbArc
 50
314.9173576842
 51
33.0478355064
  0
ARC
  5
307
100
AcDbEntity
  8
0
100
AcDbCircle
 62
7
  6
CONTINUOUS
 10
2.7547748447
 20
3.4709197842
 40
2.0
100
AcDbArc
 50
347.6542069248
 51
18.4142808257
  0
ARC
  5
308
100
AcDbEntity
  8
0
100
AcDbCircle
 62
7
  6
CONTINUOUS
 10
2.3972553937
 20
3.3287990245
 40
0.3125
100
AcDbArc
 50
325.0110095298
 51
355.1903004544
  0
ARC
  5
309
100
AcDbEntity
  8
0
100
AcDbCircle
 62
7
  6
CONTINUOUS
 10
2.5685868652
 20
3.4930473602
 40
0.125
100
AcDbArc
 50
47.7219518485
 51
136.9739483152
  0
ARC
  5
30A
100
AcDbEntity
  8
0
100
AcDbCircle
 62
7
  6
CONTINUOUS
 10
2.6997624053
 20
3.0381651586
 40
0.1019875605
100
AcDbArc
 50
145.0110095298
 51
213.0478355064
  0
ARC
  5
30B
100
AcDbEntity
  8
0
100
AcDbCircle
 62
7
  6
CONTINUOUS
 10
2.7241004005
 20
3.3012973602
 40
0.0155
100
AcDbArc
 50
90.0
 51
175.1903004543
  0
ARC
  5
30C
100
AcDbEntity
  8
0
100
AcDbCircle
 62
7
  6
CONTINUOUS
 10
3.4199567892
 20
2.4732973602
 40
0.0935680556
100
AcDbArc
 50
0.0
 51
87.8145949287
  0
ARC
  5
30D
100
AcDbEntity
  8
0
100
AcDbCircle
 62
7
  6
CONTINUOUS
 10
3.3300261816
 20
2.5672973602
 40
0.0935
100
AcDbArc
 50
359.6936039968
 51
90.0
  0
ARC
  5
30E
100
AcDbEntity
  8
0
100
AcDbCircle
 62
7
  6
CONTINUOUS
 10
3.3046621115
 20
2.935777848
 40
0.0857622668
100
AcDbArc
 50
146.9521644936
 51
225.0826423158
  0
ARC
  5
30F
100
AcDbEntity
  8
0
100
AcDbCircle
 62
7
  6
CONTINUOUS
 10
2.9235248447
 20
3.1489606642
 40
0.775336696
100
AcDbArc
 50
75.2370022574
 51
82.8689275621
  0
ARC
  5
310
100
AcDbEntity
  8
0
100
AcDbCircle
 62
7
  6
CONTINUOUS
 10
2.9235248447
 20
3.1489606642
 40
0.775336696
100
AcDbArc
 50
99.221579184
 51
104.7629977426
  0
ARC
  5
311
100
AcDbEntity
  8
0
100
AcDbCircle
 62
7
  6
CONTINUOUS
 10
2.9235248447
 20
3.1489606642
 40
0.775336696
100
AcDbArc
 50
88.473827208
 51
91.6148836456
  0
ARC
  5
312
100
AcDbEntity
  8
0
100
AcDbCircle
 62
7
  6
CONTINUOUS
 10
2.9235248447
 20
3.1489606642
 40
0.775336696
100
AcDbArc
 50
92.9572301428
 51
94.3827253199
  0
ARC
  5
313
100
AcDbEntity
  8
0
100
AcDbCircle
 62
7
  6
CONTINUOUS
 10
2.9235248447
 20
3.1489606642
 40
0.775336696
100
AcDbArc
 50
84.2076250178
 51
87.1537590823
  0
ARC
  5
314
100
AcDbEntity
  8
0
100
AcDbCircle
 62
7
  6
CONTINUOUS
 10
2.9235248447
 20
3.1489606642
 40
0.7753341165
100
AcDbArc
 50
96.0895835634
 51
97.5036217175
  0
ARC
  5
315
100
AcDbEntity
  8
0
100
AcDbCircle
 62
7
  6
CONTINUOUS
 10
2.9235248447
 20
3.1489606642
 40
0.774836696
100
AcDbArc
 50
82.8687745639
 51
84.2038744154
  0
ARC
  5
316
100
AcDbEntity
  8
0
100
AcDbCircle
 62
7
  6
CONTINUOUS
 10
2.9235248447
 20
3.1489606642
 40
0.774836696
100
AcDbArc
 50
94.3855590149
 51
95.8683848603
  0
ARC
  5
317
100
AcDbEntity
  8
0
100
AcDbCircle
 62
7
  6
CONTINUOUS
 10
2.9235248447
 20
3.1489606642
 40
0.774836696
100
AcDbArc
 50
97.7347337773
 51
99.2216419575
  0
ARC
  5
318
100
AcDbEntity
  8
0
100
AcDbCircle
 62
7
  6
CONTINUOUS
 10
2.9235248447
 20
3.1489606642
 40
0.774836696
100
AcDbArc
 50
91.6159260019
 51
92.3356347889
  0
ARC
  5
319
100
AcDbEntity
  8
0
100
AcDbCircle
 62
7
  6
CONTINUOUS
 10
2.9235248447
 20
3.1489606642
 40
0.774836696
100
AcDbArc
 50
87.7880901012
 51
88.4728421397
  0
ARC
  5
31A
100
AcDbEntity
  8
0
100
AcDbCircle
 62
7
  6
CONTINUOUS
 10
2.9235248447
 20
3.1489606642
 40
0.7741710032
100
AcDbArc
 50
93.7772047905
 51
96.4896726718
  0
ARC
  5
31B
100
AcDbEntity
  8
0
100
AcDbCircle
 62
7
  6
CONTINUOUS
 10
2.9235248447
 20
3.1489606642
 40
0.7741710032
100
AcDbArc
 50
97.1232192299
 51
99.8547367444
  0
ARC
  5
31C
100
AcDbEntity
  8
0
100
AcDbCircle
 62
7
  6
CONTINUOUS
 10
2.9235248447
 20
3.1489606642
 40
0.7741710032
100
AcDbArc
 50
82.1676580455
 51
84.8865797045
  0
ARC
  5
31D
100
AcDbEntity
  8
0
100
AcDbCircle
 62
7
  6
CONTINUOUS
 10
3.4497942958
 20
3.3287990245
 40
0.3125
100
AcDbArc
 50
184.8096995456
 51
214.9889904702
  0
ARC
  5
31E
100
AcDbEntity
  8
0
100
AcDbCircle
 62
7
  6
CONTINUOUS
 10
3.2784628242
 20
3.4930473602
 40
0.125
100
AcDbArc
 50
43.0260516848
 51
132.278048175
  0
ARC
  5
31F
100
AcDbEntity
  8
0
100
AcDbCircle
 62
7
  6
CONTINUOUS
 10
3.1472872842
 20
3.0381651586
 40
0.1019875605
100
AcDbArc
 50
326.9521644936
 51
34.9889904702
  0
ARC
  5
320
100
AcDbEntity
  8
0
100
AcDbCircle
 62
7
  6
CONTINUOUS
 10
3.122949289
 20
3.3012973602
 40
0.0155
100
AcDbArc
 50
4.8096995457
 51
90.0
  0
ARC
  5
321
100
AcDbEntity
  8
0
100
AcDbCircle
 62
7
  6
CONTINUOUS
 10
3.2886644902
 20
3.5576512432
 40
0.68
100
AcDbArc
 50
157.6438963444
 51
161.2440132164
  0
ARC
  5
322
100
AcDbEntity
  8
0
100
AcDbCircle
 62
7
  6
CONTINUOUS
 10
3.2876742351
 20
3.792838268
 40
0.68
100
AcDbArc
 50
199.0137742001
 51
202.5744557109
  0
ARC
  5
323
100
AcDbEntity
  8
0
100
AcDbCircle
 62
7
  6
CONTINUOUS
 10
2.5583851993
 20
3.5576512432
 40
0.68
100
AcDbArc
 50
18.7559867836
 51
22.3561036556
  0
ARC
  5
324
100
AcDbEntity
  8
0
100
AcDbCircle
 62
7
  6
CONTINUOUS
 10
2.5593754543
 20
3.792838268
 40
0.68
100
AcDbArc
 50
337.4255442891
 51
340.9862257999
  0
ARC
  5
325
100
AcDbEntity
  8
0
100
AcDbCircle
 62
7
  6
CONTINUOUS
 10
2.7152202535
 20
4.3175641776
 40
0.4128090991
100
AcDbArc
 50
280.5944555441
 51
280.7367269522
  0
ARC
  5
326
100
AcDbEntity
  8
0
100
AcDbCircle
 62
7
  6
CONTINUOUS
 10
2.7856183679
 20
4.3159432888
 40
0.4008883289
100
AcDbArc
 50
277.2325181289
 51
277.3849904799
  0
ARC
  5
327
100
AcDbEntity
  8
0
100
AcDbCircle
 62
7
  6
CONTINUOUS
 10
2.783051657
 20
4.3153160323
 40
0.4000692284
100
AcDbArc
 50
276.2318580926
 51
276.3824038419
  0
ARC
  5
328
100
AcDbEntity
  8
0
100
AcDbCircle
 62
7
  6
CONTINUOUS
 10
2.8516183728
 20
4.3162910814
 40
0.3948282075
100
AcDbArc
 50
272.8839264057
 51
273.0352772256
  0
CIRCLE
  5
329
100
AcDbEntity
  8
0
100
AcDbCircle
 62
7
  6
CONTINUOUS
 10
2.9235248447
 20
3.6737973602
 40
0.1375
  0
ARC
  5
32A
100
AcDbEntity
  8
0
100
AcDbCircle
 62
7
  6
CONTINUOUS
 10
2.3322748447
 20
3.6737973602
 40
0.1375
100
AcDbArc
 50
55.0
 51
305.0
  0
ARC
  5
32B
100
AcDbEntity
  8
0
100
AcDbCircle
 62
7
  6
CONTINUOUS
 10
3.5147748447
 20
3.6737973602
 40
0.1375
100
AcDbArc
 50
235.0
 51
125.0
  0
ARC
  5
32C
100
AcDbEntity
  8
0
100
AcDbCircle
 62
7
  6
CONTINUOUS
 10
2.5685868652
 20
3.8545473602
 40
0.125
100
AcDbArc
 50
223.0260516848
 51
312.2780482208
  0
ARC
  5
32D
100
AcDbEntity
  8
0
100
AcDbCircle
 62
7
  6
CONTINUOUS
 10
3.2784628242
 20
3.8545473602
 40
0.125
100
AcDbArc
 50
227.7219517562
 51
316.9739483152
  0
ARC
  5
32E
100
AcDbEntity
  8
0
100
AcDbCircle
 62
7
  6
CONTINUOUS
 10
3.1172748447
 20
3.8841972444
 40
0.015
100
AcDbArc
 50
9.9821323119
 51
75.2370022574
  0
ARC
  5
32F
100
AcDbEntity
  8
0
100
AcDbCircle
 62
7
  6
CONTINUOUS
 10
2.7297748447
 20
3.8841972444
 40
0.015
100
AcDbArc
 50
104.7629977426
 51
170.0178676881
  0
ARC
  5
330
100
AcDbEntity
  8
0
100
AcDbCircle
 62
7
  6
CONTINUOUS
 10
2.4567748447
 20
3.5833504961
 40
0.008
100
AcDbArc
 50
0.0
 51
125.0
  0
ARC
  5
331
100
AcDbEntity
  8
0
100
AcDbCircle
 62
7
  6
CONTINUOUS
 10
2.4567748447
 20
3.7642442244
 40
0.008
100
AcDbArc
 50
235.0
 51
360.0
  0
ARC
  5
332
100
AcDbEntity
  8
0
100
AcDbCircle
 62
7
  6
CONTINUOUS
 10
2.4713580758
 20
3.5837973602
 40
0.008
100
AcDbArc
 50
214.6234510997
 51
316.9739483152
  0
ARC
  5
333
100
AcDbEntity
  8
0
100
AcDbCircle
 62
7
  6
CONTINUOUS
 10
2.4713580758
 20
3.7637973602
 40
0.008
100
AcDbArc
 50
43.0260516848
 51
145.3765489003
  0
ARC
  5
334
100
AcDbEntity
  8
0
100
AcDbCircle
 62
7
  6
CONTINUOUS
 10
3.3902748447
 20
3.5833504961
 40
0.008
100
AcDbArc
 50
55.0
 51
180.0
  0
ARC
  5
335
100
AcDbEntity
  8
0
100
AcDbCircle
 62
7
  6
CONTINUOUS
 10
3.3902748447
 20
3.7642442244
 40
0.008
100
AcDbArc
 50
180.0
 51
305.0
  0
ARC
  5
336
100
AcDbEntity
  8
0
100
AcDbCircle
 62
7
  6
CONTINUOUS
 10
3.3756916137
 20
3.5837973602
 40
0.008
100
AcDbArc
 50
223.0260516848
 51
325.3765489003
  0
ARC
  5
337
100
AcDbEntity
  8
0
100
AcDbCircle
 62
7
  6
CONTINUOUS
 10
3.3756916137
 20
3.7637973602
 40
0.008
100
AcDbArc
 50
34.6234510997
 51
136.9739483152
  0
ARC
  5
338
100
AcDbEntity
  8
0
100
AcDbCircle
 62
7
  6
CONTINUOUS
 10
4.7808991867
 20
2.6896152526
 40
0.3
100
AcDbArc
 50
114.1785253943
 51
178.3416080219
  0
ARC
  5
339
100
AcDbEntity
  8
0
100
AcDbCircle
 62
7
  6
CONTINUOUS
 10
4.3010248447
 20
2.6982973602
 40
0.155
100
AcDbArc
 50
270.0
 51
360.0
  0
ARC
  5
33A
100
AcDbEntity
  8
0
100
AcDbCircle
 62
7
  6
CONTINUOUS
 10
4.7085248447
 20
3.0032973602
 40
0.04
100
AcDbArc
 50
90.0
 51
270.0
  0
ARC
  5
33B
100
AcDbEntity
  8
0
100
AcDbCircle
 62
7
  6
CONTINUOUS
 10
4.3010248447
 20
2.5282973602
 40
0.015
100
AcDbArc
 50
90.0
 51
180.0
  0
ARC
  5
33C
100
AcDbEntity
  8
0
100
AcDbCircle
 62
7
  6
CONTINUOUS
 10
4.9094714911
 20
4.3225473602
 40
0.3228033537
100
AcDbArc
 50
324.607754503
 51
35.392245497
  0
ARC
  5
33D
100
AcDbEntity
  8
0
100
AcDbCircle
 62
7
  6
CONTINUOUS
 10
4.6647038246
 20
4.1067973602
 40
0.013
100
AcDbArc
 50
90.0
 51
198.4142808257
  0
ARC
  5
33E
100
AcDbEntity
  8
0
100
AcDbCircle
 62
7
  6
CONTINUOUS
 10
4.6647038246
 20
4.5382973602
 40
0.013
100
AcDbArc
 50
161.5857191743
 51
270.0
  0
ARC
  5
33F
100
AcDbEntity
  8
0
100
AcDbCircle
 62
7
  6
CONTINUOUS
 10
4.6662748447
 20
4.5152973602
 40
0.01
100
AcDbArc
 50
324.607754503
 51
90.0
  0
ARC
  5
340
100
AcDbEntity
  8
0
100
AcDbCircle
 62
7
  6
CONTINUOUS
 10
4.6662748447
 20
4.1297973602
 40
0.01
100
AcDbArc
 50
270.0
 51
35.392245497
  0
ARC
  5
341
100
AcDbEntity
  8
0
100
AcDbCircle
 62
7
  6
CONTINUOUS
 10
2.7547748447
 20
5.1741749363
 40
2.0
100
AcDbArc
 50
341.5857191743
 51
12.3457930752
  0
ARC
  5
342
100
AcDbEntity
  8
0
100
AcDbCircle
 62
7
  6
CONTINUOUS
 10
4.6846062274
 20
6.5190608496
 40
0.1176686173
100
AcDbArc
 50
18.9548830703
 51
45.36768663
  0
ARC
  5
343
100
AcDbEntity
  8
0
100
AcDbCircle
 62
7
  6
CONTINUOUS
 10
4.8297748447
 20
6.7827973602
 40
0.0625
100
AcDbArc
 50
90.0
 51
180.0
  0
ARC
  5
344
100
AcDbEntity
  8
0
100
AcDbCircle
 62
7
  6
CONTINUOUS
 10
4.7367748447
 20
6.6792973602
 40
0.045
100
AcDbArc
 50
180.0
 51
270.0
  0
ARC
  5
345
100
AcDbEntity
  8
0
100
AcDbCircle
 62
7
  6
CONTINUOUS
 10
4.7367748447
 20
6.7062973602
 40
0.045
100
AcDbArc
 50
90.0
 51
180.0
  0
ARC
  5
346
100
AcDbEntity
  8
0
100
AcDbCircle
 62
7
  6
CONTINUOUS
 10
4.7085248447
 20
5.6417973602
 40
0.04
100
AcDbArc
 50
90.0
 51
270.0
  0
ARC
  5
347
100
AcDbEntity
  8
0
100
AcDbCircle
 62
7
  6
CONTINUOUS
 10
4.7517748447
 20
6.7667973602
 40
0.0155
100
AcDbArc
 50
270.0
 51
360.0
  0
ARC
  5
348
100
AcDbEntity
  8
0
100
AcDbCircle
 62
7
  6
CONTINUOUS
 10
5.0661505027
 20
2.6896152526
 40
0.3
100
AcDbArc
 50
1.6583919781
 51
65.8214746057
  0
ARC
  5
349
100
AcDbEntity
  8
0
100
AcDbCircle
 62
7
  6
CONTINUOUS
 10
5.5460248447
 20
2.6982973602
 40
0.155
100
AcDbArc
 50
180.0
 51
270.0
  0
ARC
  5
34A
100
AcDbEntity
  8
0
100
AcDbCircle
 62
7
  6
CONTINUOUS
 10
5.1385248447
 20
3.0032973602
 40
0.04
100
AcDbArc
 50
270.0
 51
90.0
  0
ARC
  5
34B
100
AcDbEntity
  8
0
100
AcDbCircle
 62
7
  6
CONTINUOUS
 10
5.5460248447
 20
2.5282973602
 40
0.015
100
AcDbArc
 50
0.0
 51
90.0
  0
ARC
  5
34C
100
AcDbEntity
  8
0
100
AcDbCircle
 62
7
  6
CONTINUOUS
 10
4.9375781984
 20
4.3225473602
 40
0.3228033537
100
AcDbArc
 50
144.607754503
 51
215.392245497
  0
ARC
  5
34D
100
AcDbEntity
  8
0
100
AcDbCircle
 62
7
  6
CONTINUOUS
 10
5.1823458648
 20
4.1067973602
 40
0.013
100
AcDbArc
 50
341.5857191743
 51
90.0
  0
ARC
  5
34E
100
AcDbEntity
  8
0
100
AcDbCircle
 62
7
  6
CONTINUOUS
 10
5.1823458648
 20
4.5382973602
 40
0.013
100
AcDbArc
 50
270.0
 51
18.4142808257
  0
ARC
  5
34F
100
AcDbEntity
  8
0
100
AcDbCircle
 62
7
  6
CONTINUOUS
 10
5.1807748447
 20
4.5152973602
 40
0.01
100
AcDbArc
 50
90.0
 51
215.392245497
  0
ARC
  5
350
100
AcDbEntity
  8
0
100
AcDbCircle
 62
7
  6
CONTINUOUS
 10
5.1807748447
 20
4.1297973602
 40
0.01
100
AcDbArc
 50
144.607754503
 51
270.0
  0
ARC
  5
351
100
AcDbEntity
  8
0
100
AcDbCircle
 62
7
  6
CONTINUOUS
 10
6.4270929003
 20
2.4732973602
 40
0.0935680556
100
AcDbArc
 50
92.1854050713
 51
180.0
  0
ARC
  5
352
100
AcDbEntity
  8
0
100
AcDbCircle
 62
7
  6
CONTINUOUS
 10
6.5170235078
 20
2.5672973602
 40
0.0935
100
AcDbArc
 50
90.0
 51
180.3063960032
  0
ARC
  5
353
100
AcDbEntity
  8
0
100
AcDbCircle
 62
7
  6
CONTINUOUS
 10
6.5423875779
 20
2.935777848
 40
0.0857622668
100
AcDbArc
 50
314.9173576842
 51
33.0478355064
  0
ARC
  5
354
100
AcDbEntity
  8
0
100
AcDbCircle
 62
7
  6
CONTINUOUS
 10
6.9040715419
 20
3.2665608762
 40
0.6561376383
100
AcDbArc
 50
96.2161845712
 51
96.9435818357
  0
ARC
  5
355
100
AcDbEntity
  8
0
100
AcDbCircle
 62
7
  6
CONTINUOUS
 10
6.3972553937
 20
3.3287990245
 40
0.3125
100
AcDbArc
 50
325.0110095298
 51
355.1903004544
  0
ARC
  5
356
100
AcDbEntity
  8
0
100
AcDbCircle
 62
7
  6
CONTINUOUS
 10
6.5685868652
 20
3.4930473602
 40
0.125
100
AcDbArc
 50
47.7220574426
 51
136.9739483152
  0
ARC
  5
357
100
AcDbEntity
  8
0
100
AcDbCircle
 62
7
  6
CONTINUOUS
 10
6.6997624053
 20
3.0381651586
 40
0.1019875605
100
AcDbArc
 50
145.0110095298
 51
213.0478355064
  0
ARC
  5
358
100
AcDbEntity
  8
0
100
AcDbCircle
 62
7
  6
CONTINUOUS
 10
6.7241004005
 20
3.3012973602
 40
0.0155
100
AcDbArc
 50
90.0
 51
175.1903004543
  0
ARC
  5
359
100
AcDbEntity
  8
0
100
AcDbCircle
 62
7
  6
CONTINUOUS
 10
7.4199567892
 20
2.4732973602
 40
0.0935680556
100
AcDbArc
 50
0.0
 51
87.8145949287
  0
ARC
  5
35A
100
AcDbEntity
  8
0
100
AcDbCircle
 62
7
  6
CONTINUOUS
 10
7.3300261816
 20
2.5672973602
 40
0.0935
100
AcDbArc
 50
359.6936039968
 51
90.0
  0
ARC
  5
35B
100
AcDbEntity
  8
0
100
AcDbCircle
 62
7
  6
CONTINUOUS
 10
7.3046621115
 20
2.935777848
 40
0.0857622668
100
AcDbArc
 50
146.9521644936
 51
225.0826423158
  0
ARC
  5
35C
100
AcDbEntity
  8
0
100
AcDbCircle
 62
7
  6
CONTINUOUS
 10
7.0922748447
 20
3.4709197842
 40
2.0
100
AcDbArc
 50
161.5857191743
 51
192.3457930752
  0
ARC
  5
35D
100
AcDbEntity
  8
0
100
AcDbCircle
 62
7
  6
CONTINUOUS
 10
6.9235248447
 20
3.1489623525
 40
0.7753350077
100
AcDbArc
 50
78.0669933483
 51
81.2354682492
  0
ARC
  5
35E
100
AcDbEntity
  8
0
100
AcDbCircle
 62
7
  6
CONTINUOUS
 10
6.9235248447
 20
3.1489623525
 40
0.7753350077
100
AcDbArc
 50
91.4300766046
 51
94.5754586167
  0
ARC
  5
35F
100
AcDbEntity
  8
0
100
AcDbCircle
 62
7
  6
CONTINUOUS
 10
6.9235248447
 20
3.1489623525
 40
0.7753350077
100
AcDbArc
 50
95.9223880643
 51
101.456409806
  0
ARC
  5
360
100
AcDbEntity
  8
0
100
AcDbCircle
 62
7
  6
CONTINUOUS
 10
6.9235248447
 20
3.1489623525
 40
0.7753350077
100
AcDbArc
 50
88.836024953
 51
90.1108472106
  0
ARC
  5
361
100
AcDbEntity
  8
0
100
AcDbCircle
 62
7
  6
CONTINUOUS
 10
6.9235248447
 20
3.1489623525
 40
0.7753350077
100
AcDbArc
 50
82.589547494
 51
87.505151011
  0
ARC
  5
362
100
AcDbEntity
  8
0
100
AcDbCircle
 62
7
  6
CONTINUOUS
 10
6.9235248447
 20
3.1489623525
 40
0.7753350077
100
AcDbArc
 50
75.2369687319
 51
76.6139015814
  0
ARC
  5
363
100
AcDbEntity
  8
0
100
AcDbCircle
 62
7
  6
CONTINUOUS
 10
6.9235248447
 20
3.1489623525
 40
0.7753350077
100
AcDbArc
 50
103.0445666344
 51
104.7630312681
  0
ARC
  5
364
100
AcDbEntity
  8
0
100
AcDbCircle
 62
7
  6
CONTINUOUS
 10
6.9235248447
 20
3.1489623525
 40
0.7748350077
100
AcDbArc
 50
101.4639028364
 51
102.1588597307
  0
ARC
  5
365
100
AcDbEntity
  8
0
100
AcDbCircle
 62
7
  6
CONTINUOUS
 10
6.9235248447
 20
3.1489623525
 40
0.7748350077
100
AcDbArc
 50
94.5784174525
 51
95.2988140479
  0
ARC
  5
366
100
AcDbEntity
  8
0
100
AcDbCircle
 62
7
  6
CONTINUOUS
 10
6.9235248447
 20
3.1489623525
 40
0.7748350077
100
AcDbArc
 50
90.7468557554
 51
91.430999623
  0
ARC
  5
367
100
AcDbEntity
  8
0
100
AcDbCircle
 62
7
  6
CONTINUOUS
 10
6.9235248447
 20
3.1489623525
 40
0.7748350077
100
AcDbArc
 50
77.3977245437
 51
78.0591795779
  0
ARC
  5
368
100
AcDbEntity
  8
0
100
AcDbCircle
 62
7
  6
CONTINUOUS
 10
6.9235248447
 20
3.1489623525
 40
0.7748350077
100
AcDbArc
 50
81.2352442586
 51
82.5847386687
  0
ARC
  5
369
100
AcDbEntity
  8
0
100
AcDbCircle
 62
7
  6
CONTINUOUS
 10
6.9235248447
 20
3.1489623525
 40
0.7748350077
100
AcDbArc
 50
87.503540069
 51
88.835273738
  0
ARC
  5
36A
100
AcDbEntity
  8
0
100
AcDbCircle
 62
7
  6
CONTINUOUS
 10
6.9235248447
 20
3.1489623525
 40
0.7747348735
100
AcDbArc
 50
79.9593632588
 51
81.0040654587
  0
ARC
  5
36B
100
AcDbEntity
  8
0
100
AcDbCircle
 62
7
  6
CONTINUOUS
 10
6.9235248447
 20
3.1489623525
 40
0.7747104305
100
AcDbArc
 50
85.5024540677
 51
86.3921798126
  0
ARC
  5
36C
100
AcDbEntity
  8
0
100
AcDbCircle
 62
7
  6
CONTINUOUS
 10
6.9235248447
 20
3.1489623525
 40
0.7742344859
100
AcDbArc
 50
79.9528066769
 51
80.9982030894
  0
ARC
  5
36D
100
AcDbEntity
  8
0
100
AcDbCircle
 62
7
  6
CONTINUOUS
 10
6.9235248447
 20
3.1489623525
 40
0.7742100271
100
AcDbArc
 50
85.49954113
 51
86.3898448421
  0
ARC
  5
36E
100
AcDbEntity
  8
0
100
AcDbCircle
 62
7
  6
CONTINUOUS
 10
6.9235248447
 20
3.1489623525
 40
0.7741693124
100
AcDbArc
 50
84.0880697177
 51
89.6299506004
  0
ARC
  5
36F
100
AcDbEntity
  8
0
100
AcDbCircle
 62
7
  6
CONTINUOUS
 10
6.9235248447
 20
3.1489623525
 40
0.7741693124
100
AcDbArc
 50
79.7882367111
 51
82.9513441199
  0
ARC
  5
370
100
AcDbEntity
  8
0
100
AcDbCircle
 62
7
  6
CONTINUOUS
 10
6.9900422489
 20
3.3077440315
 40
0.6065892212
100
AcDbArc
 50
81.2093589875
 51
81.3411422854
  0
ARC
  5
371
100
AcDbEntity
  8
0
100
AcDbCircle
 62
7
  6
CONTINUOUS
 10
6.9390676707
 20
3.3535372597
 40
0.5701710881
100
AcDbArc
 50
83.0535751546
 51
83.4864024216
  0
ARC
  5
372
100
AcDbEntity
  8
0
100
AcDbCircle
 62
7
  6
CONTINUOUS
 10
7.4497942958
 20
3.3287990245
 40
0.3125
100
AcDbArc
 50
184.8096995456
 51
214.9889904702
  0
ARC
  5
373
100
AcDbEntity
  8
0
100
AcDbCircle
 62
7
  6
CONTINUOUS
 10
7.2784628242
 20
3.4930473602
 40
0.125
100
AcDbArc
 50
43.0260516848
 51
132.2779425785
  0
ARC
  5
374
100
AcDbEntity
  8
0
100
AcDbCircle
 62
7
  6
CONTINUOUS
 10
7.1472872842
 20
3.0381651586
 40
0.1019875605
100
AcDbArc
 50
326.9521644936
 51
34.9889904702
  0
ARC
  5
375
100
AcDbEntity
  8
0
100
AcDbCircle
 62
7
  6
CONTINUOUS
 10
7.122949289
 20
3.3012973602
 40
0.0155
100
AcDbArc
 50
4.8096995457
 51
90.0
  0
ARC
  5
376
100
AcDbEntity
  8
0
100
AcDbCircle
 62
7
  6
CONTINUOUS
 10
7.2886644902
 20
3.5576512432
 40
0.68
100
AcDbArc
 50
157.6438963444
 51
161.2440132164
  0
ARC
  5
377
100
AcDbEntity
  8
0
100
AcDbCircle
 62
7
  6
CONTINUOUS
 10
7.2876742351
 20
3.792838268
 40
0.68
100
AcDbArc
 50
199.0137742001
 51
202.5744557109
  0
ARC
  5
378
100
AcDbEntity
  8
0
100
AcDbCircle
 62
7
  6
CONTINUOUS
 10
6.5583851993
 20
3.5576512432
 40
0.68
100
AcDbArc
 50
18.7559867836
 51
22.3561036556
  0
ARC
  5
379
100
AcDbEntity
  8
0
100
AcDbCircle
 62
7
  6
CONTINUOUS
 10
6.5593754543
 20
3.792838268
 40
0.68
100
AcDbArc
 50
337.4255442891
 51
340.9862257999
  0
ARC
  5
37A
100
AcDbEntity
  8
0
100
AcDbCircle
 62
7
  6
CONTINUOUS
 10
7.04027622
 20
4.1271965555
 40
0.2104729316
100
AcDbArc
 50
264.0681629882
 51
264.2956558542
  0
ARC
  5
37B
100
AcDbEntity
  8
0
100
AcDbCircle
 62
7
  6
CONTINUOUS
 10
6.9879299161
 20
3.7129755308
 40
0.207655633
100
AcDbArc
 50
85.631475316
 51
87.4669374743
  0
ARC
  5
37C
100
AcDbEntity
  8
0
100
AcDbCircle
 62
7
  6
CONTINUOUS
 10
6.9879338537
 20
3.7126871113
 40
0.2074415785
100
AcDbArc
 50
86.0357858793
 51
87.465410597
  0
ARC
  5
37D
100
AcDbEntity
  8
0
100
AcDbCircle
 62
7
  6
CONTINUOUS
 10
7.0396606811
 20
4.1205180825
 40
0.2042681021
100
AcDbArc
 50
264.0609152566
 51
264.2953311117
  0
CIRCLE
  5
37E
100
AcDbEntity
  8
0
100
AcDbCircle
 62
7
  6
CONTINUOUS
 10
6.9235248447
 20
3.6737973602
 40
0.1375
  0
ARC
  5
37F
100
AcDbEntity
  8
0
100
AcDbCircle
 62
7
  6
CONTINUOUS
 10
6.3322748447
 20
3.6737973602
 40
0.1375
100
AcDbArc
 50
55.0
 51
305.0
  0
ARC
  5
380
100
AcDbEntity
  8
0
100
AcDbCircle
 62
7
  6
CONTINUOUS
 10
7.5147748447
 20
3.6737973602
 40
0.1375
100
AcDbArc
 50
235.0
 51
125.0
  0
ARC
  5
381
100
AcDbEntity
  8
0
100
AcDbCircle
 62
7
  6
CONTINUOUS
 10
6.5685868652
 20
3.8545473602
 40
0.125
100
AcDbArc
 50
223.0260516848
 51
312.2779427428
  0
ARC
  5
382
100
AcDbEntity
  8
0
100
AcDbCircle
 62
7
  6
CONTINUOUS
 10
7.2784628242
 20
3.8545473602
 40
0.125
100
AcDbArc
 50
227.7220572377
 51
316.9739483152
  0
ARC
  5
383
100
AcDbEntity
  8
0
100
AcDbCircle
 62
7
  6
CONTINUOUS
 10
7.0081487076
 20
3.8958428056
 40
0.023680624
100
AcDbArc
 50
90.2996903336
 51
101.9040740022
  0
ARC
  5
384
100
AcDbEntity
  8
0
100
AcDbCircle
 62
7
  6
CONTINUOUS
 10
7.1172748447
 20
3.8841971868
 40
0.015
100
AcDbArc
 50
9.982355849
 51
75.2369687319
  0
ARC
  5
385
100
AcDbEntity
  8
0
100
AcDbCircle
 62
7
  6
CONTINUOUS
 10
6.7297748447
 20
3.8841971868
 40
0.015
100
AcDbArc
 50
104.7630312681
 51
170.017644151
  0
ARC
  5
386
100
AcDbEntity
  8
0
100
AcDbCircle
 62
7
  6
CONTINUOUS
 10
6.4567748447
 20
3.5833504961
 40
0.008
100
AcDbArc
 50
0.0
 51
125.0
  0
ARC
  5
387
100
AcDbEntity
  8
0
100
AcDbCircle
 62
7
  6
CONTINUOUS
 10
6.4567748447
 20
3.7642442244
 40
0.008
100
AcDbArc
 50
235.0
 51
360.0
  0
ARC
  5
388
100
AcDbEntity
  8
0
100
AcDbCircle
 62
7
  6
CONTINUOUS
 10
6.4713580758
 20
3.5837973602
 40
0.008
100
AcDbArc
 50
214.6234510997
 51
316.9739483151
  0
ARC
  5
389
100
AcDbEntity
  8
0
100
AcDbCircle
 62
7
  6
CONTINUOUS
 10
6.4713580758
 20
3.7637973602
 40
0.008
100
AcDbArc
 50
43.0260516848
 51
145.3765489003
  0
ARC
  5
38A
100
AcDbEntity
  8
0
100
AcDbCircle
 62
7
  6
CONTINUOUS
 10
7.3902748447
 20
3.5833504961
 40
0.008
100
AcDbArc
 50
55.0
 51
180.0
  0
ARC
  5
38B
100
AcDbEntity
  8
0
100
AcDbCircle
 62
7
  6
CONTINUOUS
 10
7.3902748447
 20
3.7642442244
 40
0.008
100
AcDbArc
 50
180.0
 51
305.0
  0
ARC
  5
38C
100
AcDbEntity
  8
0
100
AcDbCircle
 62
7
  6
CONTINUOUS
 10
7.3756916137
 20
3.5837973602
 40
0.008
100
AcDbArc
 50
223.0260516849
 51
325.3765489003
  0
ARC
  5
38D
100
AcDbEntity
  8
0
100
AcDbCircle
 62
7
  6
CONTINUOUS
 10
7.3756916137
 20
3.7637973602
 40
0.008
100
AcDbArc
 50
34.6234510997
 51
136.9739483152
  0
ARC
  5
38E
100
AcDbEntity
  8
0
100
AcDbCircle
 62
7
  6
CONTINUOUS
 10
7.0922748447
 20
5.1741749363
 40
2.0
100
AcDbArc
 50
167.6542069248
 51
198.4142808257
  0
ARC
  5
38F
100
AcDbEntity
  8
0
100
AcDbCircle
 62
7
  6
CONTINUOUS
 10
4.9235248447
 20
5.9671729791
 40
0.355
100
AcDbArc
 50
306.4982543829
 51
62.7582127656
  0
ARC
  5
390
100
AcDbEntity
  8
0
100
AcDbCircle
 62
7
  6
CONTINUOUS
 10
4.9235248447
 20
5.9671729791
 40
0.355
100
AcDbArc
 50
117.2417872344
 51
233.5017456171
  0
ARC
  5
391
100
AcDbEntity
  8
0
100
AcDbCircle
 62
7
  6
CONTINUOUS
 10
4.9235248447
 20
5.9671729791
 40
0.23475
100
AcDbArc
 50
321.5062368636
 51
48.268611666
  0
ARC
  5
392
100
AcDbEntity
  8
0
100
AcDbCircle
 62
7
  6
CONTINUOUS
 10
4.9235248447
 20
5.9671729791
 40
0.23475
100
AcDbArc
 50
131.731388334
 51
218.494102902
  0
ARC
  5
393
100
AcDbEntity
  8
0
100
AcDbCircle
 62
7
  6
CONTINUOUS
 10
4.9235248447
 20
5.9671729791
 40
0.2035
100
AcDbArc
 50
140.1586855164
 51
219.8413144836
  0
ARC
  5
394
100
AcDbEntity
  8
0
100
AcDbCircle
 62
7
  6
CONTINUOUS
 10
4.9235248447
 20
5.9671729791
 40
0.2035
100
AcDbArc
 50
320.1586855164
 51
39.8413144836
  0
ARC
  5
395
100
AcDbEntity
  8
0
100
AcDbCircle
 62
7
  6
CONTINUOUS
 10
4.9235248447
 20
6.4671729791
 40
0.15625
100
AcDbArc
 50
0.0
 51
180.0
  0
ARC
  5
396
100
AcDbEntity
  8
0
100
AcDbCircle
 62
7
  6
CONTINUOUS
 10
5.162443462
 20
6.5190608496
 40
0.1176686173
100
AcDbArc
 50
134.63231337
 51
161.0451169297
  0
ARC
  5
397
100
AcDbEntity
  8
0
100
AcDbCircle
 62
7
  6
CONTINUOUS
 10
5.0172748447
 20
6.7827973602
 40
0.0625
100
AcDbArc
 50
0.0
 51
90.0
  0
ARC
  5
398
100
AcDbEntity
  8
0
100
AcDbCircle
 62
7
  6
CONTINUOUS
 10
5.1102748447
 20
6.6792973602
 40
0.045
100
AcDbArc
 50
270.0
 51
360.0
  0
ARC
  5
399
100
AcDbEntity
  8
0
100
AcDbCircle
 62
7
  6
CONTINUOUS
 10
5.1102748447
 20
6.7062973602
 40
0.045
100
AcDbArc
 50
0.0
 51
90.0
  0
ARC
  5
39A
100
AcDbEntity
  8
0
100
AcDbCircle
 62
7
  6
CONTINUOUS
 10
5.1385248447
 20
5.6417973602
 40
0.04
100
AcDbArc
 50
270.0
 51
90.0
  0
ARC
  5
39B
100
AcDbEntity
  8
0
100
AcDbCircle
 62
7
  6
CONTINUOUS
 10
5.0952748447
 20
6.7667973602
 40
0.0155
100
AcDbArc
 50
180.0
 51
270.0
  0
SPLINE
  5
39C
100
AcDbEntity
  8
0
100
AcDbSpline
 62
7
  6
CONTINUOUS
 70
0
 71
3
 72
60
 73
56
 74
0
 42
0.0000001
 43
0.0000001
 44
0.0000000001
 40
0.0
 40
0.0
 40
0.0
 40
0.0
 40
0.0208389555
 40
0.0329020342
 40
0.0464435169
 40
0.0615380348
 40
0.0696267348
 40
0.07802252
 40
0.0866808573
 40
0.0955560519
 40
0.104604411
 40
0.1137860886
 40
0.1230653719
 40
0.1324109751
 40
0.1417941085
 40
0.1511874723
 40
0.1605645208
 40
0.1698978218
 40
0.1791577706
 40
0.1883114694
 40
0.1973222224
 40
0.2061501664
 40
0.2147516838
 40
0.2230786923
 40
0.2310870701
 40
0.238738358
 40
0.2460063065
 40
0.2528802879
 40
0.259364777
 40
0.2654831459
 40
0.2712670923
 40
0.2767590555
 40
0.2820019776
 40
0.2870396984
 40
0.2966618737
 40
0.3013177697
 40
0.3059120809
 40
0.3150110296
 40
0.3333822042
 40
0.3526529009
 40
0.3732977638
 40
0.3955707272
 40
0.4195986705
 40
0.4454300662
 40
0.4730641567
 40
0.5024656128
 40
0.5335738715
 40
0.5663092165
 40
0.600576798
 40
0.6362694738
 40
0.6732699075
 40
0.7506829247
 40
0.8317296167
 40
0.9152418712
 40
1.0
 40
1.0
 40
1.0
 40
1.0
 10
5.1317993005
 20
5.7493480188
 30
0.0
 10
5.1336952552
 20
5.7501337527
 30
0.0
 10
5.1366265101
 20
5.7515410617
 30
0.0
 10
5.1405072561
 20
5.7539713373
 30
0.0
 10
5.1436912665
 20
5.756418095
 30
0.0
 10
5.1462947643
 20
5.7589435116
 30
0.0
 10
5.1483073098
 20
5.7613173204
 30
0.0
 10
5.1497732895
 20
5.7633156826
 30
0.0
 10
5.1511291332
 20
5.7654824834
 30
0.0
 10
5.152345155
 20
5.7678038319
 30
0.0
 10
5.1533947107
 20
5.7702613952
 30
0.0
 10
5.15425524
 20
5.7728335202
 30
0.0
 10
5.1549088514
 20
5.7754961204
 30
0.0
 10
5.1553422566
 20
5.7782234718
 30
0.0
 10
5.155546935
 20
5.7809887625
 30
0.0
 10
5.1555187829
 20
5.7837645877
 30
0.0
 10
5.1552582764
 20
5.7865233559
 30
0.0
 10
5.1547705596
 20
5.7892377264
 30
0.0
 10
5.1540655584
 20
5.7918810824
 30
0.0
 10
5.1531573276
 20
5.7944278407
 30
0.0
 10
5.1520652307
 20
5.7968545676
 30
0.0
 10
5.1508125478
 20
5.7991403793
 30
0.0
 10
5.1494268553
 20
5.80126788
 30
0.0
 10
5.1479387691
 20
5.8032242316
 30
0.0
 10
5.1463803936
 20
5.8050020261
 30
0.0
 10
5.1447829469
 20
5.8066000309
 30
0.0
 10
5.1431751678
 20
5.8080237392
 30
0.0
 10
5.1415801022
 20
5.809283214
 30
0.0
 10
5.1400152366
 20
5.8103938573
 30
0.0
 10
5.1384905751
 20
5.8113719196
 30
0.0
 10
5.1370110496
 20
5.8122363139
 30
0.0
 10
5.1355757588
 20
5.8130029327
 30
0.0
 10
5.13418175
 20
5.8136888796
 30
0.0
 10
5.1323969058
 20
5.8144996372
 30
0.0
 10
5.1306341431
 20
5.8152172266
 30
0.0
 10
5.1288897305
 20
5.8158590138
 30
0.0
 10
5.1271817584
 20
5.816449691
 30
0.0
 10
5.124169489
 20
5.8173995039
 30
0.0
 10
5.1197191658
 20
5.8185849276
 30
0.0
 10
5.1141124122
 20
5.81982166
 30
0.0
 10
5.1080910978
 20
5.820946483
 30
0.0
 10
5.101580905
 20
5.8219925053
 30
0.0
 10
5.0945449214
 20
5.8229756983
 30
0.0
 10
5.0869692858
 20
5.8239034581
 30
0.0
 10
5.0788549979
 20
5.8247789164
 30
0.0
 10
5.0702131625
 20
5.8256028329
 30
0.0
 10
5.061062271
 20
5.8263746873
 30
0.0
 10
5.0514264256
 20
5.8270932551
 30
0.0
 10
5.0413341478
 20
5.8277569436
 30
0.0
 10
5.0308175432
 20
5.8283640338
 30
0.0
 10
5.0160529247
 20
5.8291067829
 30
0.0
 10
4.9968177143
 20
5.8298729629
 30
0.0
 10
4.9729956694
 20
5.8305298158
 30
0.0
 10
4.9484444572
 20
5.83092776
 30
0.0
 10
4.9318722355
 20
5.8310164152
 30
0.0
 10
4.9235248447
 20
5.8310164152
 30
0.0
  0
SPLINE
  5
39D
100
AcDbEntity
  8
0
100
AcDbSpline
 62
7
  6
CONTINUOUS
 70
0
 71
3
 72
39
 73
35
 74
0
 42
0.0000001
 43
0.0000001
 44
0.0000000001
 40
0.0
 40
0.0
 40
0.0
 40
0.0
 40
0.0877181971
 40
0.1745687001
 40
0.2596976334
 40
0.3422700496
 40
0.4214845693
 40
0.4965845599
 40
0.5668722854
 40
0.6317255882
 40
0.6619468571
 40
0.6906234623
 40
0.7177126689
 40
0.7431845109
 40
0.7670252605
 40
0.7892453726
 40
0.8098868845
 40
0.8290411373
 40
0.8468775723
 40
0.8636944672
 40
0.8800159346
 40
0.896768859
 40
0.9011951649
 40
0.9057777761
 40
0.910552147
 40
0.9155559675
 40
0.9264049364
 40
0.9385906537
 40
0.9522335614
 40
0.9672305802
 40
0.9751539923
 40
0.9832936566
 40
0.9915862197
 40
1.0
 40
1.0
 40
1.0
 40
1.0
 10
4.9235248447
 20
5.3751631994
 30
0.0
 10
4.9288835514
 20
5.3751631994
 30
0.0
 10
4.9395480175
 20
5.3752097997
 30
0.0
 10
4.9554117718
 20
5.3754191529
 30
0.0
 10
4.9709587138
 20
5.3757657616
 30
0.0
 10
4.9860354023
 20
5.3762462145
 30
0.0
 10
5.0004942599
 20
5.3768558435
 30
0.0
 10
5.0141959583
 20
5.3775888349
 30
0.0
 10
5.0270118178
 20
5.3784386072
 30
0.0
 10
5.0370811939
 20
5.3792559537
 30
0.0
 10
5.0446073877
 20
5.3799707988
 30
0.0
 10
5.0498316719
 20
5.3805198077
 30
0.0
 10
5.0547612829
 20
5.381093905
 30
0.0
 10
5.0593901924
 20
5.3816931244
 30
0.0
 10
5.063715394
 20
5.3823180768
 30
0.0
 10
5.0677379016
 20
5.3829706053
 30
0.0
 10
5.0714645309
 20
5.3836545604
 30
0.0
 10
5.0749107582
 20
5.3843773879
 30
0.0
 10
5.0781055715
 20
5.3851536654
 30
0.0
 10
5.0811001297
 20
5.3860123734
 30
0.0
 10
5.0839809664
 20
5.3870128885
 30
0.0
 10
5.0860837474
 20
5.3879321022
 30
0.0
 10
5.0874792539
 20
5.3886601196
 30
0.0
 10
5.0882130875
 20
5.3890733336
 30
0.0
 10
5.088962571
 20
5.3895297362
 30
0.0
 10
5.0900123197
 20
5.3902272969
 30
0.0
 10
5.0913752527
 20
5.3912693032
 30
0.0
 10
5.0930039656
 20
5.3928154656
 30
0.0
 10
5.0945841242
 20
5.3947550715
 30
0.0
 10
5.0957276181
 20
5.3966858543
 30
0.0
 10
5.0964885146
 20
5.3984261724
 30
0.0
 10
5.0969646842
 20
5.3998379524
 30
0.0
 10
5.0973204105
 20
5.4013155207
 30
0.0
 10
5.0974677701
 20
5.4023271604
 30
0.0
 10
5.0975183763
 20
5.4028386611
 30
0.0
  0
SPLINE
  5
39E
100
AcDbEntity
  8
0
100
AcDbSpline
 62
7
  6
CONTINUOUS
 70
0
 71
3
 72
48
 73
44
 74
0
 42
0.0000001
 43
0.0000001
 44
0.0000000001
 40
0.0
 40
0.0
 40
0.0
 40
0.0
 40
0.0847696103
 40
0.1682931619
 40
0.2493508578
 40
0.3267744306
 40
0.3637799278
 40
0.3994774986
 40
0.4337497944
 40
0.4664896634
 40
0.4976022477
 40
0.5270078218
 40
0.5546458338
 40
0.5804809157
 40
0.604512082
 40
0.6267879444
 40
0.6474356415
 40
0.6667090653
 40
0.6850826022
 40
0.6941830423
 40
0.7034335133
 40
0.7081826895
 40
0.7130573169
 40
0.7233378173
 40
0.7346126122
 40
0.7472118031
 40
0.7613472262
 40
0.7769972851
 40
0.7939125993
 40
0.8117370416
 40
0.8301350193
 40
0.8488301766
 40
0.8675927933
 40
0.8862053814
 40
0.9044263946
 40
0.9219530093
 40
0.9384334967
 40
0.9535338983
 40
0.9670797778
 40
0.9791455915
 40
0.9900042952
 40
0.9950889131
 40
1.0
 40
1.0
 40
1.0
 40
1.0
 10
4.9235248447
 20
5.8310164152
 30
0.0
 10
4.9151775023
 20
5.8310164152
 30
0.0
 10
4.898605378
 20
5.8309277611
 30
0.0
 10
4.874054307
 20
5.8305298214
 30
0.0
 10
4.8502323921
 20
5.8298729763
 30
0.0
 10
4.8309972785
 20
5.8291068054
 30
0.0
 10
4.8162327274
 20
5.8283640651
 30
0.0
 10
4.8057161653
 20
5.8277569818
 30
0.0
 10
4.7956239238
 20
5.827093301
 30
0.0
 10
4.7859881069
 20
5.8263747417
 30
0.0
 10
4.7768372347
 20
5.8256028964
 30
0.0
 10
4.7681954069
 20
5.8247789893
 30
0.0
 10
4.7600811158
 20
5.82390354
 30
0.0
 10
4.7525054911
 20
5.8229757867
 30
0.0
 10
4.7454695411
 20
5.8219926187
 30
0.0
 10
4.7389593971
 20
5.8209466213
 30
0.0
 10
4.7329380963
 20
5.8198218489
 30
0.0
 10
4.7273314178
 20
5.8185850472
 30
0.0
 10
4.7228809426
 20
5.8173999403
 30
0.0
 10
4.7194316385
 20
5.8163117899
 30
0.0
 10
4.7172879369
 20
5.8155489841
 30
0.0
 10
4.7155583975
 20
5.8148681285
 30
0.0
 10
4.713752364
 20
5.8141062521
 30
0.0
 10
4.7113973964
 20
5.8129943534
 30
0.0
 10
4.7084578466
 20
5.8113538079
 30
0.0
 10
4.7053505091
 20
5.8092576854
 30
0.0
 10
4.7021419591
 20
5.8065747467
 30
0.0
 10
4.6989900117
 20
5.8032080945
 30
0.0
 10
4.6961218189
 20
5.7991374297
 30
0.0
 10
4.6937790907
 20
5.7944345601
 30
0.0
 10
4.6921648417
 20
5.7892479254
 30
0.0
 10
4.6914147854
 20
5.7837731502
 30
0.0
 10
4.6915902866
 20
5.7782285335
 30
0.0
 10
4.6926769441
 20
5.7728370189
 30
0.0
 10
4.6945857501
 20
5.7678109838
 30
0.0
 10
4.697153732
 20
5.7633316999
 30
0.0
 10
4.7001583572
 20
5.7595223297
 30
0.0
 10
4.7033560144
 20
5.7564202025
 30
0.0
 10
4.7065404541
 20
5.7539726659
 30
0.0
 10
4.7095877691
 20
5.7520640915
 30
0.0
 10
4.7120343045
 20
5.7507856584
 30
0.0
 10
4.713897728
 20
5.7499221833
 30
0.0
 10
4.7148023288
 20
5.749533844
 30
0.0
 10
4.7152490569
 20
5.7493486351
 30
0.0
  0
SPLINE
  5
39F
100
AcDbEntity
  8
0
100
AcDbSpline
 62
7
  6
CONTINUOUS
 70
0
 71
3
 72
45
 73
41
 74
0
 42
0.0000001
 43
0.0000001
 44
0.0000000001
 40
0.0
 40
0.0
 40
0.0
 40
0.0
 40
0.0084163584
 40
0.0167051236
 40
0.0248455361
 40
0.0327699551
 40
0.040428443
 40
0.0477786387
 40
0.0547863518
 40
0.0614306091
 40
0.0677056659
 40
0.0736211929
 40
0.0844694813
 40
0.0894742468
 40
0.0942484243
 40
0.1032554226
 40
0.111769358
 40
0.1159126466
 40
0.1200132253
 40
0.1281581297
 40
0.1363361064
 40
0.1446428453
 40
0.1531535586
 40
0.1709894506
 40
0.1901431913
 40
0.2107844537
 40
0.2330040553
 40
0.2568441837
 40
0.2823152738
 40
0.3094036189
 40
0.3380792896
 40
0.3682995387
 40
0.4331505345
 40
0.5034356417
 40
0.5785327275
 40
0.6577440951
 40
0.740313158
 40
0.8254385808
 40
0.9122854728
 40
1.0
 40
1.0
 40
1.0
 40
1.0
 10
4.7495313132
 20
5.4028386611
 30
0.0
 10
4.7495819365
 20
5.402326987
 30
0.0
 10
4.749729208
 20
5.4013153761
 30
0.0
 10
4.7500851405
 20
5.399837816
 30
0.0
 10
4.7505611685
 20
5.398426153
 30
0.0
 10
4.7511425724
 20
5.3970966648
 30
0.0
 10
4.7518093155
 20
5.3958626954
 30
0.0
 10
4.7525412014
 20
5.3947326523
 30
0.0
 10
4.7533172117
 20
5.3937094646
 30
0.0
 10
4.7541191075
 20
5.3927923213
 30
0.0
 10
4.7549304861
 20
5.3919753805
 30
0.0
 10
4.7559796275
 20
5.3910362262
 30
0.0
 10
4.7570376335
 20
5.3902264474
 30
0.0
 10
4.7580879287
 20
5.3895297037
 30
0.0
 10
4.7590678396
 20
5.3889317778
 30
0.0
 10
4.7602670188
 20
5.3882838118
 30
0.0
 10
4.7614654153
 20
5.3877207334
 30
0.0
 10
4.7624071688
 20
5.3873190613
 30
0.0
 10
4.7633360691
 20
5.3869452719
 30
0.0
 10
4.7645070211
 20
5.3865135467
 30
0.0
 10
4.7659350578
 20
5.3860388063
 30
0.0
 10
4.7673970743
 20
5.3855974181
 30
0.0
 10
4.7694378161
 20
5.3850335846
 30
0.0
 10
4.7721396387
 20
5.3843772555
 30
0.0
 10
4.7755858517
 20
5.3836544199
 30
0.0
 10
4.7793125427
 20
5.382970472
 30
0.0
 10
4.7833350965
 20
5.3823179571
 30
0.0
 10
4.787660327
 20
5.3816930103
 30
0.0
 10
4.7922892526
 20
5.3810938013
 30
0.0
 10
4.79721887
 20
5.3805197137
 30
0.0
 10
4.8024431535
 20
5.3799707138
 30
0.0
 10
4.8099693333
 20
5.3792558812
 30
0.0
 10
4.8200386747
 20
5.3784385487
 30
0.0
 10
4.8328544731
 20
5.3775887912
 30
0.0
 10
4.846556087
 20
5.3768558126
 30
0.0
 10
4.8610148394
 20
5.3762461946
 30
0.0
 10
4.8760914054
 20
5.3757657504
 30
0.0
 10
4.8916382119
 20
5.3754191481
 30
0.0
 10
4.9075018214
 20
5.3752097988
 30
0.0
 10
4.9181661885
 20
5.3751631994
 30
0.0
 10
4.9235248447
 20
5.3751631994
 30
0.0
  0
SPLINE
  5
3A0
100
AcDbEntity
  8
0
100
AcDbSpline
 62
7
  6
CONTINUOUS
 70
0
 71
3
 72
97
 73
93
 74
0
 42
0.0000001
 43
0.0000001
 44
0.0000000001
 40
0.0
 40
0.0
 40
0.0
 40
0.0
 40
0.0000027069
 40
0.0000108237
 40
0.0000243482
 40
0.0000432784
 40
0.0000676121
 40
0.0000973473
 40
0.0001730133
 40
0.0002702597
 40
0.0003890694
 40
0.0005294257
 40
0.0006913115
 40
0.00087471
 40
0.0010796043
 40
0.0015538125
 40
0.0021137976
 40
0.0027593087
 40
0.0034899612
 40
0.0043053629
 40
0.0052051214
 40
0.0061888447
 40
0.0084065999
 40
0.0109547633
 40
0.0138285523
 40
0.0170231303
 40
0.0205334383
 40
0.024353602
 40
0.0284775753
 40
0.0328993011
 40
0.0426100083
 40
0.053432392
 40
0.0653121884
 40
0.0781947734
 40
0.0920265662
 40
0.1067552198
 40
0.1223307377
 40
0.1387050537
 40
0.1558328789
 40
0.1921772654
 40
0.231044769
 40
0.2721389719
 40
0.3151703104
 40
0.3598352783
 40
0.4057954504
 40
0.4526629288
 40
0.5000000003
 40
0.5473370716
 40
0.59420455
 40
0.6401647223
 40
0.6848296902
 40
0.7278610288
 40
0.7689552315
 40
0.8078227352
 40
0.8441671216
 40
0.8612949468
 40
0.8776692628
 40
0.8932447806
 40
0.9079734342
 40
0.921805227
 40
0.934687812
 40
0.9465676083
 40
0.9573899919
 40
0.9671006992
 40
0.971522425
 40
0.9756463982
 40
0.9794665619
 40
0.9829768699
 40
0.9861714479
 40
0.9890452368
 40
0.9915934002
 40
0.9938111555
 40
0.9947948788
 40
0.9956946374
 40
0.996510039
 40
0.9972406915
 40
0.9978862025
 40
0.9984461874
 40
0.9989203955
 40
0.9991252897
 40
0.9993086881
 40
0.9994705739
 40
0.9996109301
 40
0.9997297399
 40
0.9998269862
 40
0.9999026524
 40
0.9999323875
 40
0.9999567213
 40
0.9999756515
 40
0.9999891761
 40
0.999997293
 40
1.0
 40
1.0
 40
1.0
 40
1.0
 10
7.2022748447
 20
3.5712973602
 30
0.0
 10
7.2022746488
 20
3.5712973602
 30
0.0
 10
7.2022744838
 20
3.5712984451
 30
0.0
 10
7.2022733615
 20
3.5712995663
 30
0.0
 10
7.2022719966
 20
3.571302321
 30
0.0
 10
7.2022698496
 20
3.571305761
 30
0.0
 10
7.2022671852
 20
3.5713103501
 30
0.0
 10
7.202262401
 20
3.5713184194
 30
0.0
 10
7.2022549529
 20
3.5713310654
 30
0.0
 10
7.2022442208
 20
3.571349249
 30
0.0
 10
7.2022311168
 20
3.5713714752
 30
0.0
 10
7.2022156383
 20
3.5713977316
 30
0.0
 10
7.2021977903
 20
3.5714280192
 30
0.0
 10
7.2021775752
 20
3.5714623344
 30
0.0
 10
7.2021458921
 20
3.571516134
 30
0.0
 10
7.2021003927
 20
3.5715934338
 30
0.0
 10
7.2020387419
 20
3.5716982379
 30
0.0
 10
7.2019677201
 20
3.5718190668
 30
0.0
 10
7.2018873938
 20
3.5719558736
 30
0.0
 10
7.2017978321
 20
3.5721086005
 30
0.0
 10
7.2016991053
 20
3.5722771899
 30
0.0
 10
7.2015492467
 20
3.5725334771
 30
0.0
 10
7.2013395314
 20
3.5728929931
 30
0.0
 10
7.2010616277
 20
3.5733711291
 30
0.0
 10
7.2007492109
 20
3.5739109919
 30
0.0
 10
7.2004031614
 20
3.5745118605
 30
0.0
 10
7.2000244147
 20
3.5751729524
 30
0.0
 10
7.1996140657
 20
3.5758934734
 30
0.0
 10
7.1991732443
 20
3.5766725625
 30
0.0
 10
7.1985258706
 20
3.5778247115
 30
0.0
 10
7.1976488921
 20
3.5794040325
 30
0.0
 10
7.1965251133
 20
3.5814637778
 30
0.0
 10
7.195310434
 20
3.5837353963
 30
0.0
 10
7.1940162152
 20
3.5862113943
 30
0.0
 10
7.1926542455
 20
3.58888451
 30
0.0
 10
7.1912364016
 20
3.5917477263
 30
0.0
 10
7.1897749261
 20
3.5947944409
 30
0.0
 10
7.1882820061
 20
3.5980183665
 30
0.0
 10
7.1862252556
 20
3.6026374319
 30
0.0
 10
7.1836550459
 20
3.6088094492
 30
0.0
 10
7.1807051209
 20
3.6166973129
 30
0.0
 10
7.1779375549
 20
3.6251627182
 30
0.0
 10
7.1754614998
 20
3.6341549625
 30
0.0
 10
7.1733859192
 20
3.6436100174
 30
0.0
 10
7.1718134363
 20
3.6534439933
 30
0.0
 10
7.1708305398
 20
3.6635494849
 30
0.0
 10
7.1704959151
 20
3.6737973603
 30
0.0
 10
7.1708305398
 20
3.6840452356
 30
0.0
 10
7.1718134363
 20
3.6941507273
 30
0.0
 10
7.1733859192
 20
3.7039847032
 30
0.0
 10
7.1754614998
 20
3.7134397581
 30
0.0
 10
7.1779375549
 20
3.7224320024
 30
0.0
 10
7.1807051209
 20
3.7308974077
 30
0.0
 10
7.183655046
 20
3.7387852714
 30
0.0
 10
7.1862252556
 20
3.7449572887
 30
0.0
 10
7.1882820061
 20
3.7495763541
 30
0.0
 10
7.1897749262
 20
3.7528002797
 30
0.0
 10
7.1912364016
 20
3.7558469943
 30
0.0
 10
7.1926542456
 20
3.7587102106
 30
0.0
 10
7.1940162153
 20
3.7613833263
 30
0.0
 10
7.195310434
 20
3.7638593243
 30
0.0
 10
7.1965251134
 20
3.7661309428
 30
0.0
 10
7.1976488921
 20
3.7681906881
 30
0.0
 10
7.1985258706
 20
3.7697700091
 30
0.0
 10
7.1991732444
 20
3.770922158
 30
0.0
 10
7.1996140657
 20
3.7717012471
 30
0.0
 10
7.2000244147
 20
3.7724217681
 30
0.0
 10
7.2004031614
 20
3.7730828601
 30
0.0
 10
7.2007492109
 20
3.7736837286
 30
0.0
 10
7.2010616277
 20
3.7742235914
 30
0.0
 10
7.2013395314
 20
3.7747017274
 30
0.0
 10
7.2015492467
 20
3.7750612434
 30
0.0
 10
7.2016991053
 20
3.7753175306
 30
0.0
 10
7.2017978321
 20
3.77548612
 30
0.0
 10
7.2018873938
 20
3.7756388469
 30
0.0
 10
7.2019677201
 20
3.7757756537
 30
0.0
 10
7.2020387419
 20
3.7758964826
 30
0.0
 10
7.2021003927
 20
3.7760012867
 30
0.0
 10
7.202145892
 20
3.7760785865
 30
0.0
 10
7.2021775751
 20
3.7761323861
 30
0.0
 10
7.2021977902
 20
3.7761667013
 30
0.0
 10
7.2022156381
 20
3.7761969889
 30
0.0
 10
7.2022311166
 20
3.7762232453
 30
0.0
 10
7.2022442206
 20
3.7762454715
 30
0.0
 10
7.2022549527
 20
3.7762636551
 30
0.0
 10
7.2022624008
 20
3.7762763011
 30
0.0
 10
7.202267185
 20
3.7762843704
 30
0.0
 10
7.2022698494
 20
3.7762889595
 30
0.0
 10
7.2022719965
 20
3.7762923995
 30
0.0
 10
7.2022733614
 20
3.7762951542
 30
0.0
 10
7.2022744837
 20
3.7762962755
 30
0.0
 10
7.2022746488
 20
3.7762973602
 30
0.0
 10
7.2022748447
 20
3.7762973602
 30
0.0
  0
SPLINE
  5
3A1
100
AcDbEntity
  8
0
100
AcDbSpline
 62
7
  6
CONTINUOUS
 70
0
 71
3
 72
63
 73
59
 74
0
 42
0.0000001
 43
0.0000001
 44
0.0000000001
 40
0.0
 40
0.0
 40
0.0
 40
0.0
 40
0.0109549958
 40
0.0426103599
 40
0.0920253439
 40
0.1558257447
 40
0.2310267017
 40
0.27212187
 40
0.3151542196
 40
0.3598202368
 40
0.405781489
 40
0.4526500685
 40
0.499988252
 40
0.5473264357
 40
0.5941950153
 40
0.6401562672
 40
0.6848222845
 40
0.727854634
 40
0.7689498024
 40
0.8078182193
 40
0.8441634597
 40
0.8612916873
 40
0.877666388
 40
0.8932422719
 40
0.9079712716
 40
0.9218033893
 40
0.934686277
 40
0.9465663525
 40
0.9573889905
 40
0.9670999259
 40
0.9715217555
 40
0.9756458256
 40
0.9794660791
 40
0.9829764697
 40
0.9861711231
 40
0.9890449798
 40
0.9915932029
 40
0.9938110092
 40
0.9947947551
 40
0.9956945343
 40
0.9965099549
 40
0.9972406249
 40
0.9978861522
 40
0.9984461521
 40
0.9989203737
 40
0.9991252739
 40
0.9993086777
 40
0.9994705681
 40
0.9996109282
 40
0.9997297409
 40
0.9998269893
 40
0.9999026565
 40
0.9999323917
 40
0.9999567253
 40
0.999975655
 40
0.9999891788
 40
0.9999972945
 40
1.0
 40
1.0
 40
1.0
 40
1.0
 10
6.6447748447
 20
3.7762973602
 30
0.0
 10
6.6451777621
 20
3.7756143459
 30
0.0
 10
6.6467352795
 20
3.772951981
 30
0.0
 10
6.6500156095
 20
3.767153561
 30
0.0
 10
6.6549102278
 20
3.7578762465
 30
0.0
 10
6.6607241263
 20
3.7455316725
 30
0.0
 10
6.6655271846
 20
3.73339772
 30
0.0
 10
6.6691121043
 20
3.7224320728
 30
0.0
 10
6.6715881982
 20
3.7134397381
 30
0.0
 10
6.6736637678
 20
3.7039847089
 30
0.0
 10
6.6752362538
 20
3.6941507257
 30
0.0
 10
6.6762191494
 20
3.6840452361
 30
0.0
 10
6.6765537744
 20
3.6737973602
 30
0.0
 10
6.6762191496
 20
3.663549485
 30
0.0
 10
6.6752362532
 20
3.6534439934
 30
0.0
 10
6.6736637703
 20
3.6436100174
 30
0.0
 10
6.6715881897
 20
3.6341549626
 30
0.0
 10
6.6691121346
 20
3.6251627183
 30
0.0
 10
6.6663445686
 20
3.6166973129
 30
0.0
 10
6.6633946435
 20
3.6088094492
 30
0.0
 10
6.6608244339
 20
3.6026374319
 30
0.0
 10
6.6587676834
 20
3.5980183665
 30
0.0
 10
6.6572747633
 20
3.5947944409
 30
0.0
 10
6.6558132878
 20
3.5917477263
 30
0.0
 10
6.6543954439
 20
3.58888451
 30
0.0
 10
6.6530334742
 20
3.5862113943
 30
0.0
 10
6.6517392555
 20
3.5837353963
 30
0.0
 10
6.6505245761
 20
3.5814637778
 30
0.0
 10
6.6494007974
 20
3.5794040325
 30
0.0
 10
6.6485238188
 20
3.5778247115
 30
0.0
 10
6.6478764451
 20
3.5766725626
 30
0.0
 10
6.6474356238
 20
3.5758934734
 30
0.0
 10
6.6470252748
 20
3.5751729524
 30
0.0
 10
6.6466465281
 20
3.5745118605
 30
0.0
 10
6.6463004784
 20
3.573910992
 30
0.0
 10
6.6459880615
 20
3.5733711292
 30
0.0
 10
6.6457101579
 20
3.5728929932
 30
0.0
 10
6.6455004429
 20
3.5725334772
 30
0.0
 10
6.6453505847
 20
3.5722771899
 30
0.0
 10
6.6452518581
 20
3.5721086005
 30
0.0
 10
6.6451622965
 20
3.5719558735
 30
0.0
 10
6.6450819701
 20
3.5718190668
 30
0.0
 10
6.6450109478
 20
3.5716982378
 30
0.0
 10
6.6449492964
 20
3.5715934337
 30
0.0
 10
6.6449037962
 20
3.571516134
 30
0.0
 10
6.6448721124
 20
3.5714623344
 30
0.0
 10
6.6448518969
 20
3.5714280192
 30
0.0
 10
6.6448340481
 20
3.5713977316
 30
0.0
 10
6.6448185709
 20
3.5713714752
 30
0.0
 10
6.6448054624
 20
3.5713492491
 30
0.0
 10
6.6447947426
 20
3.5713310655
 30
0.0
 10
6.6447872667
 20
3.5713184194
 30
0.0
 10
6.6447825257
 20
3.5713103502
 30
0.0
 10
6.6447797717
 20
3.571305761
 30
0.0
 10
6.644777857
 20
3.571302321
 30
0.0
 10
6.6447759677
 20
3.5712995663
 30
0.0
 10
6.6447757665
 20
3.5712984452
 30
0.0
 10
6.6447746489
 20
3.5712973604
 30
0.0
 10
6.6447748447
 20
3.5712973602
 30
0.0
  0
LINE
  5
3A2
100
AcDbEntity
  8
0
100
AcDbLine
 62
7
  6
CONTINUOUS
 10
6.8330248447
 20
3.918840699
 11
6.7603361819
 21
3.9063718616
  0
LINE
  5
3A3
100
AcDbEntity
  8
0
100
AcDbLine
 62
7
  6
CONTINUOUS
 10
6.9209580044
 20
3.9242181196
 11
6.9045191158
 21
3.9232301349
  0
LINE
  5
3A4
100
AcDbEntity
  8
0
100
AcDbLine
 62
7
  6
CONTINUOUS
 10
6.9045191158
 20
3.9232301349
 11
6.9032811382
 21
3.9231633911
  0
LINE
  5
3A5
100
AcDbEntity
  8
0
100
AcDbLine
 62
7
  6
CONTINUOUS
 10
6.8616899589
 20
3.920965468
 11
6.8610590318
 21
3.9209328333
  0
LINE
  5
3A6
100
AcDbEntity
  8
0
100
AcDbLine
 62
7
  6
CONTINUOUS
 10
6.8610590318
 20
3.9209328333
 11
6.8443324504
 21
3.920183051
  0
SPLINE
  5
3A7
100
AcDbEntity
  8
0
100
AcDbSpline
 62
7
  6
CONTINUOUS
 70
0
 71
3
 72
97
 73
93
 74
0
 42
0.0000001
 43
0.0000001
 44
0.0000000001
 40
0.0
 40
0.0
 40
0.0
 40
0.0
 40
0.0000027067
 40
0.0000108227
 40
0.0000243461
 40
0.0000432749
 40
0.0000676068
 40
0.00009734
 40
0.0001730016
 40
0.0002702434
 40
0.0003890488
 40
0.0005294013
 40
0.0006912847
 40
0.0008746824
 40
0.0010795779
 40
0.0015537969
 40
0.0021138006
 40
0.0027593114
 40
0.0034899491
 40
0.0043053311
 40
0.0052050749
 40
0.0061887985
 40
0.008406601
 40
0.010954735
 40
0.0138284811
 40
0.0170231
 40
0.0205334153
 40
0.0243535315
 40
0.028477498
 40
0.0328992637
 40
0.0426099176
 40
0.0534323308
 40
0.0653121072
 40
0.0781947083
 40
0.0920264878
 40
0.1067551771
 40
0.1223306865
 40
0.1387050394
 40
0.155832869
 40
0.1921773366
 40
0.2310449216
 40
0.2721391906
 40
0.315170526
 40
0.3598353841
 40
0.4057954706
 40
0.4526629622
 40
0.5000000003
 40
0.5473370382
 40
0.5942045297
 40
0.6401646165
 40
0.6848294747
 40
0.72786081
 40
0.7689550789
 40
0.8078226639
 40
0.8441671314
 40
0.861294961
 40
0.877669314
 40
0.8932448233
 40
0.9079735125
 40
0.921805292
 40
0.9346878931
 40
0.9465676695
 40
0.9573900826
 40
0.9671007366
 40
0.9715225022
 40
0.9756464688
 40
0.9794665849
 40
0.9829769002
 40
0.9861715191
 40
0.9890452651
 40
0.9915933991
 40
0.9938112016
 40
0.9947949253
 40
0.9956946692
 40
0.9965100511
 40
0.9972406887
 40
0.9978861995
 40
0.9984462031
 40
0.9989204219
 40
0.9991253174
 40
0.999308715
 40
0.9994705983
 40
0.9996109508
 40
0.9997297562
 40
0.9998269979
 40
0.9999026596
 40
0.9999323928
 40
0.9999567248
 40
0.9999756536
 40
0.9999891771
 40
0.9999972933
 40
1.0
 40
1.0
 40
1.0
 40
1.0
 10
3.2022748447
 20
3.5712973602
 30
0.0
 10
3.2022746488
 20
3.5712973602
 30
0.0
 10
3.2022744839
 20
3.571298445
 30
0.0
 10
3.2022733617
 20
3.5712995661
 30
0.0
 10
3.202271997
 20
3.5713023206
 30
0.0
 10
3.2022698502
 20
3.5713057604
 30
0.0
 10
3.2022671861
 20
3.5713103494
 30
0.0
 10
3.2022624024
 20
3.5713184182
 30
0.0
 10
3.202254955
 20
3.5713310637
 30
0.0
 10
3.2022442237
 20
3.5713492467
 30
0.0
 10
3.2022311204
 20
3.5713714722
 30
0.0
 10
3.2022156426
 20
3.5713977281
 30
0.0
 10
3.202197795
 20
3.5714280153
 30
0.0
 10
3.2021775799
 20
3.5714623304
 30
0.0
 10
3.2021458962
 20
3.5715161306
 30
0.0
 10
3.202100395
 20
3.5715934319
 30
0.0
 10
3.2020387413
 20
3.5716982367
 30
0.0
 10
3.2019677196
 20
3.571819066
 30
0.0
 10
3.2018873956
 20
3.5719558712
 30
0.0
 10
3.2017978371
 20
3.5721085959
 30
0.0
 10
3.2016991125
 20
3.5722771837
 30
0.0
 10
3.2015492525
 20
3.5725334729
 30
0.0
 10
3.2013395303
 20
3.5728929864
 30
0.0
 10
3.2010616321
 20
3.5733711235
 30
0.0
 10
3.2007492211
 20
3.5739109871
 30
0.0
 10
3.2004031632
 20
3.5745118512
 30
0.0
 10
3.2000244166
 20
3.5751729433
 30
0.0
 10
3.1996140765
 20
3.5758934655
 30
0.0
 10
3.1991732541
 20
3.5766725528
 30
0.0
 10
3.1985258692
 20
3.5778246938
 30
0.0
 10
3.1976489108
 20
3.5794040274
 30
0.0
 10
3.1965251129
 20
3.5814637586
 30
0.0
 10
3.1953104482
 20
3.5837353872
 30
0.0
 10
3.1940162207
 20
3.5862113792
 30
0.0
 10
3.1926542505
 20
3.588884498
 30
0.0
 10
3.1912364118
 20
3.5917477179
 30
0.0
 10
3.1897749219
 20
3.5947944308
 30
0.0
 10
3.1882820168
 20
3.5980183661
 30
0.0
 10
3.186225242
 20
3.6026374304
 30
0.0
 10
3.1836550386
 20
3.6088094639
 30
0.0
 10
3.1807051077
 20
3.616697343
 30
0.0
 10
3.1779375453
 20
3.6251627608
 30
0.0
 10
3.1754614942
 20
3.6341550027
 30
0.0
 10
3.1733859013
 20
3.6436100396
 30
0.0
 10
3.1718133834
 20
3.6534439974
 30
0.0
 10
3.1708305354
 20
3.6635494883
 30
0.0
 10
3.170495982
 20
3.6737973603
 30
0.0
 10
3.1708305355
 20
3.6840452323
 30
0.0
 10
3.1718133834
 20
3.6941507232
 30
0.0
 10
3.1733859013
 20
3.703984681
 30
0.0
 10
3.1754614942
 20
3.7134397179
 30
0.0
 10
3.1779375453
 20
3.7224319598
 30
0.0
 10
3.1807051078
 20
3.7308973776
 30
0.0
 10
3.1836550386
 20
3.7387852567
 30
0.0
 10
3.1862252421
 20
3.7449572902
 30
0.0
 10
3.1882820168
 20
3.7495763545
 30
0.0
 10
3.1897749219
 20
3.7528002898
 30
0.0
 10
3.1912364118
 20
3.7558470027
 30
0.0
 10
3.1926542506
 20
3.7587102226
 30
0.0
 10
3.1940162207
 20
3.7613833414
 30
0.0
 10
3.1953104482
 20
3.7638593334
 30
0.0
 10
3.1965251129
 20
3.7661309619
 30
0.0
 10
3.1976489108
 20
3.7681906932
 30
0.0
 10
3.1985258692
 20
3.7697700267
 30
0.0
 10
3.1991732541
 20
3.7709221677
 30
0.0
 10
3.1996140765
 20
3.7717012551
 30
0.0
 10
3.2000244167
 20
3.7724217772
 30
0.0
 10
3.2004031632
 20
3.7730828693
 30
0.0
 10
3.2007492211
 20
3.7736837335
 30
0.0
 10
3.2010616321
 20
3.774223597
 30
0.0
 10
3.2013395303
 20
3.7747017342
 30
0.0
 10
3.2015492525
 20
3.7750612477
 30
0.0
 10
3.2016991125
 20
3.7753175368
 30
0.0
 10
3.2017978372
 20
3.7754861246
 30
0.0
 10
3.2018873957
 20
3.7756388493
 30
0.0
 10
3.2019677197
 20
3.7757756545
 30
0.0
 10
3.2020387413
 20
3.7758964838
 30
0.0
 10
3.202100395
 20
3.7760012886
 30
0.0
 10
3.2021458962
 20
3.7760785899
 30
0.0
 10
3.2021775798
 20
3.7761323901
 30
0.0
 10
3.2021977949
 20
3.7761667052
 30
0.0
 10
3.2022156424
 20
3.7761969924
 30
0.0
 10
3.2022311203
 20
3.7762232483
 30
0.0
 10
3.2022442235
 20
3.7762454738
 30
0.0
 10
3.2022549548
 20
3.7762636568
 30
0.0
 10
3.2022624023
 20
3.7762763023
 30
0.0
 10
3.202267186
 20
3.7762843711
 30
0.0
 10
3.2022698501
 20
3.7762889601
 30
0.0
 10
3.2022719969
 20
3.7762923999
 30
0.0
 10
3.2022733616
 20
3.7762951544
 30
0.0
 10
3.2022744838
 20
3.7762962755
 30
0.0
 10
3.2022746488
 20
3.7762973602
 30
0.0
 10
3.2022748447
 20
3.7762973602
 30
0.0
  0
SPLINE
  5
3A8
100
AcDbEntity
  8
0
100
AcDbSpline
 62
7
  6
CONTINUOUS
 70
0
 71
3
 72
63
 73
59
 74
0
 42
0.0000001
 43
0.0000001
 44
0.0000000001
 40
0.0
 40
0.0
 40
0.0
 40
0.0
 40
0.0109549676
 40
0.042610269
 40
0.0920252651
 40
0.155825735
 40
0.2310268542
 40
0.2721220887
 40
0.315154435
 40
0.3598203426
 40
0.4057815091
 40
0.4526501019
 40
0.499988252
 40
0.5473264022
 40
0.594194995
 40
0.6401561613
 40
0.6848220689
 40
0.7278544153
 40
0.7689496498
 40
0.807818148
 40
0.8441634695
 40
0.8612917016
 40
0.8776664392
 40
0.8932423145
 40
0.9079713499
 40
0.9218034544
 40
0.9346863582
 40
0.9465664138
 40
0.9573890812
 40
0.9670999633
 40
0.9715218328
 40
0.9756458962
 40
0.9794661021
 40
0.9829765
 40
0.9861711942
 40
0.9890450081
 40
0.9915932018
 40
0.9938110556
 40
0.9947948017
 40
0.9956945662
 40
0.9965099671
 40
0.9972406221
 40
0.9978861489
 40
0.9984461674
 40
0.9989203997
 40
0.9991253012
 40
0.9993087042
 40
0.9994705921
 40
0.9996109486
 40
0.999729757
 40
0.9998270009
 40
0.9999026636
 40
0.9999323969
 40
0.9999567288
 40
0.999975657
 40
0.9999891797
 40
0.9999972947
 40
1.0
 40
1.0
 40
1.0
 40
1.0
 10
2.6447748447
 20
3.7762973602
 30
0.0
 10
2.6451777611
 20
3.7756143477
 30
0.0
 10
2.6467352744
 20
3.7729519879
 30
0.0
 10
2.6500155951
 20
3.7671535691
 30
0.0
 10
2.6549102248
 20
3.757876259
 30
0.0
 10
2.6607241338
 20
3.7455316699
 30
0.0
 10
2.665527197
 20
3.7333976958
 30
0.0
 10
2.6691121141
 20
3.7224320303
 30
0.0
 10
2.6715882038
 20
3.7134396979
 30
0.0
 10
2.6736637857
 20
3.7039846867
 30
0.0
 10
2.6752363067
 20
3.6941507216
 30
0.0
 10
2.6762191538
 20
3.6840452328
 30
0.0
 10
2.6765537075
 20
3.6737973602
 30
0.0
 10
2.676219154
 20
3.6635494884
 30
0.0
 10
2.6752363061
 20
3.6534439975
 30
0.0
 10
2.6736637881
 20
3.6436100396
 30
0.0
 10
2.6715881953
 20
3.6341550027
 30
0.0
 10
2.6691121441
 20
3.6251627608
 30
0.0
 10
2.6663445817
 20
3.616697343
 30
0.0
 10
2.6633946509
 20
3.6088094639
 30
0.0
 10
2.6608244474
 20
3.6026374304
 30
0.0
 10
2.6587676726
 20
3.5980183661
 30
0.0
 10
2.6572747676
 20
3.5947944308
 30
0.0
 10
2.6558132777
 20
3.5917477179
 30
0.0
 10
2.6543954389
 20
3.588884498
 30
0.0
 10
2.6530334688
 20
3.5862113792
 30
0.0
 10
2.6517392413
 20
3.5837353872
 30
0.0
 10
2.6505245765
 20
3.5814637587
 30
0.0
 10
2.6494007787
 20
3.5794040274
 30
0.0
 10
2.6485238202
 20
3.5778246939
 30
0.0
 10
2.6478764354
 20
3.5766725528
 30
0.0
 10
2.647435613
 20
3.5758934655
 30
0.0
 10
2.6470252729
 20
3.5751729433
 30
0.0
 10
2.6466465263
 20
3.5745118512
 30
0.0
 10
2.6463004683
 20
3.5739109871
 30
0.0
 10
2.6459880572
 20
3.5733711235
 30
0.0
 10
2.645710159
 20
3.5728929864
 30
0.0
 10
2.6455004371
 20
3.5725334729
 30
0.0
 10
2.6453505774
 20
3.5722771837
 30
0.0
 10
2.645251853
 20
3.5721085959
 30
0.0
 10
2.6451622946
 20
3.5719558712
 30
0.0
 10
2.6450819706
 20
3.571819066
 30
0.0
 10
2.6450109485
 20
3.5716982366
 30
0.0
 10
2.6449492942
 20
3.5715934318
 30
0.0
 10
2.6449037922
 20
3.5715161306
 30
0.0
 10
2.6448721078
 20
3.5714623304
 30
0.0
 10
2.6448518924
 20
3.5714280153
 30
0.0
 10
2.644834044
 20
3.5713977281
 30
0.0
 10
2.6448185674
 20
3.5713714722
 30
0.0
 10
2.6448054596
 20
3.5713492467
 30
0.0
 10
2.6447947405
 20
3.5713310638
 30
0.0
 10
2.6447872653
 20
3.5713184182
 30
0.0
 10
2.6447825247
 20
3.5713103494
 30
0.0
 10
2.6447797711
 20
3.5713057604
 30
0.0
 10
2.6447778566
 20
3.5713023207
 30
0.0
 10
2.6447759676
 20
3.5712995662
 30
0.0
 10
2.6447757663
 20
3.5712984451
 30
0.0
 10
2.6447746489
 20
3.5712973604
 30
0.0
 10
2.6447748447
 20
3.5712973602
 30
0.0
  0
LINE
  5
3A9
100
AcDbEntity
  8
0
100
AcDbLine
 62
7
  6
CONTINUOUS
 10
2.9612268316
 20
3.9233235103
 11
2.9443412888
 21
3.9231783495
  0
LINE
  5
3AA
100
AcDbEntity
  8
0
100
AcDbLine
 62
7
  6
CONTINUOUS
 10
2.9443412888
 20
3.9231783495
 11
2.9016714144
 21
3.9231300384
  0
LINE
  5
3AB
100
AcDbEntity
  8
0
100
AcDbLine
 62
7
  6
CONTINUOUS
 10
2.9016714144
 20
3.9231300384
 11
2.9010456849
 21
3.9231300963
  0
LINE
  5
3AC
100
AcDbEntity
  8
0
100
AcDbLine
 62
7
  6
CONTINUOUS
 10
2.9010456849
 20
3.9231300963
 11
2.8843303154
 21
3.923247073
  0
LINE
  5
3AD
100
AcDbEntity
  8
0
100
AcDbLine
 62
7
  6
CONTINUOUS
 10
2.8442748447
 20
3.9202203025
 11
2.843775038
 21
3.9201777489
  0
LINE
  5
3AE
100
AcDbEntity
  8
0
100
AcDbLine
 62
7
  6
CONTINUOUS
 10
2.843775038
 20
3.9201777489
 11
2.8412748447
 21
3.9199197615
  0
LINE
  5
3AF
100
AcDbEntity
  8
0
100
AcDbLine
 62
7
  6
CONTINUOUS
 10
2.8222748447
 20
3.9176552913
 11
2.8192748447
 21
3.9172405154
  0
SPLINE
  5
3B0
100
AcDbEntity
  8
0
100
AcDbSpline
 62
7
  6
CONTINUOUS
 70
0
 71
3
 72
23
 73
19
 74
0
 42
0.0000001
 43
0.0000001
 44
0.0000000001
 40
0.0
 40
0.0
 40
0.0
 40
0.0
 40
0.0180896788
 40
0.0507213216
 40
0.1020856931
 40
0.1734351568
 40
0.2608032655
 40
0.3597248728
 40
0.4661666209
 40
0.574151092
 40
0.6767439694
 40
0.7694211424
 40
0.8486224186
 40
0.9103128251
 40
0.9533594979
 40
0.9802564348
 40
0.9946592888
 40
1.0
 40
1.0
 40
1.0
 40
1.0
 10
2.9020789086
 20
3.9239543428
 30
0.0
 10
2.9023321291
 20
3.9239370935
 30
0.0
 10
2.903042913
 20
3.9239006547
 30
0.0
 10
2.9044744179
 20
3.9238515674
 30
0.0
 10
2.9066535412
 20
3.9238046732
 30
0.0
 10
2.9096008699
 20
3.9237669027
 30
0.0
 10
2.9132155503
 20
3.9237357463
 30
0.0
 10
2.9173226611
 20
3.9237125634
 30
0.0
 10
2.9217190918
 20
3.9237022581
 30
0.0
 10
2.9261670328
 20
3.9237139287
 30
0.0
 10
2.9304217609
 20
3.9237423027
 30
0.0
 10
2.9342725578
 20
3.9237795476
 30
0.0
 10
2.9375493902
 20
3.9238211079
 30
0.0
 10
2.9401297361
 20
3.9238681589
 30
0.0
 10
2.9419759788
 20
3.9239179399
 30
0.0
 10
2.943158602
 20
3.9239626307
 30
0.0
 10
2.9438121139
 20
3.9239966594
 30
0.0
 10
2.9440885476
 20
3.9240149509
 30
0.0
 10
2.9441632111
 20
3.9240212982
 30
0.0
  0
LINE
  5
3B1
100
AcDbEntity
  8
0
100
AcDbLine
 62
7
  6
CONTINUOUS
 10
2.8642748447
 20
3.9217941405
 11
2.8714832697
 21
3.9219629194
  0
SPLINE
  5
3B2
100
AcDbEntity
  8
0
100
AcDbSpline
 62
7
  6
CONTINUOUS
 70
0
 71
3
 72
39
 73
35
 74
0
 42
0.0000001
 43
0.0000001
 44
0.0000000001
 40
0.0
 40
0.0
 40
0.0
 40
0.0
 40
0.0352249384
 40
0.0699583162
 40
0.1041765515
 40
0.13785342
 40
0.1709667047
 40
0.2034995706
 40
0.2354403254
 40
0.2667855615
 40
0.2975420565
 40
0.3277292452
 40
0.3573816275
 40
0.3865502503
 40
0.4153036641
 40
0.443727478
 40
0.4719221403
 40
0.499999224
 40
0.5280763093
 40
0.556270976
 40
0.584694797
 40
0.6134482201
 40
0.6426168543
 40
0.6722692494
 40
0.7024564518
 40
0.733212962
 40
0.7645582138
 40
0.7964989758
 40
0.8290318687
 40
0.8621451954
 40
0.8958219511
 40
0.9300402109
 40
0.9647743927
 40
1.0
 40
1.0
 40
1.0
 40
1.0
 10
6.7340096189
 20
2.8167693883
 30
0.0
 10
6.7321766477
 20
2.8185970765
 30
0.0
 10
6.7284961566
 20
2.8221870225
 30
0.0
 10
6.7228880068
 20
2.8273990059
 30
0.0
 10
6.7172295053
 20
2.8323861464
 30
0.0
 10
6.7115183637
 20
2.8371289668
 30
0.0
 10
6.7057536395
 20
2.8416077379
 30
0.0
 10
6.6999352417
 20
2.8458024156
 30
0.0
 10
6.6940632099
 20
2.8496916425
 30
0.0
 10
6.6881383477
 20
2.8532534503
 30
0.0
 10
6.6821622547
 20
2.8564655745
 30
0.0
 10
6.6761375096
 20
2.8593059714
 30
0.0
 10
6.6700677147
 20
2.8617532307
 30
0.0
 10
6.6639576152
 20
2.8637872048
 30
0.0
 10
6.6578132547
 20
2.8653900088
 30
0.0
 10
6.6516418498
 20
2.8665465617
 30
0.0
 10
6.6454516854
 20
2.8672452345
 30
0.0
 10
6.6392519281
 20
2.8674789099
 30
0.0
 10
6.633052171
 20
2.8672452228
 30
0.0
 10
6.626862007
 20
2.8665465384
 30
0.0
 10
6.6206906026
 20
2.8653899741
 30
0.0
 10
6.6145462429
 20
2.8637871591
 30
0.0
 10
6.6084361443
 20
2.8617531744
 30
0.0
 10
6.6023663506
 20
2.8593059048
 30
0.0
 10
6.5963416064
 20
2.8564654989
 30
0.0
 10
6.5903655148
 20
2.8532533653
 30
0.0
 10
6.5844406557
 20
2.8496915468
 30
0.0
 10
6.5785686204
 20
2.8458023189
 30
0.0
 10
6.5727502232
 20
2.8416076299
 30
0.0
 10
6.5669855293
 20
2.8371288257
 30
0.0
 10
6.5612743452
 20
2.832386064
 30
0.0
 10
6.5556157599
 20
2.8273989349
 30
0.0
 10
6.5500078003
 20
2.8221865807
 30
0.0
 10
6.5463273976
 20
2.8185963931
 30
0.0
 10
6.544494393
 20
2.8167686687
 30
0.0
  0
LINE
  5
3B3
100
AcDbEntity
  8
0
100
AcDbLine
 62
7
  6
CONTINUOUS
 10
2.8360248447
 20
3.918740173
 11
2.8442748447
 21
3.9199999512
  0
LINE
  5
3B4
100
AcDbEntity
  8
0
100
AcDbLine
 62
7
  6
CONTINUOUS
 10
2.9441748447
 20
3.9235221421
 11
2.9431304606
 21
3.9234633407
  0
SPLINE
  5
3B5
100
AcDbEntity
  8
0
100
AcDbSpline
 62
7
  6
CONTINUOUS
 70
0
 71
3
 72
27
 73
23
 74
0
 42
0.0000001
 43
0.0000001
 44
0.0000000001
 40
0.0
 40
0.0
 40
0.0
 40
0.0
 40
0.0297979422
 40
0.0758971844
 40
0.1402147984
 40
0.2209625745
 40
0.3142768319
 40
0.4168096161
 40
0.524076946
 40
0.6293923715
 40
0.7272274447
 40
0.8137978563
 40
0.884868509
 40
0.936589891
 40
0.9553666538
 40
0.9699871385
 40
0.9810043117
 40
0.9889647941
 40
0.9943950128
 40
0.9977628268
 40
0.9995021406
 40
1.0
 40
1.0
 40
1.0
 40
1.0
 10
2.9431304606
 20
3.9234633407
 30
0.0
 10
2.9427190182
 20
3.9234453573
 30
0.0
 10
2.9416706764
 20
3.9234081933
 30
0.0
 10
2.9397333683
 20
3.9233594421
 30
0.0
 10
2.9370916607
 20
3.9233142733
 30
0.0
 10
2.9337972722
 20
3.9232740921
 30
0.0
 10
2.9299746366
 20
3.9232384219
 30
0.0
 10
2.9257853906
 20
3.9232118434
 30
0.0
 10
2.9214301954
 20
3.923202125
 30
0.0
 10
2.9171399343
 20
3.9232130612
 30
0.0
 10
2.9131357835
 20
3.9232360392
 30
0.0
 10
2.9096049919
 20
3.9232666104
 30
0.0
 10
2.9067116325
 20
3.9233035797
 30
0.0
 10
2.904755412
 20
3.9233449551
 30
0.0
 10
2.903579566
 20
3.9233819684
 30
0.0
 10
2.9029661808
 20
3.9234059723
 30
0.0
 10
2.9025023459
 20
3.9234281707
 30
0.0
 10
2.9021655765
 20
3.923447852
 30
0.0
 10
2.9019345156
 20
3.9234640717
 30
0.0
 10
2.9017894172
 20
3.9234765727
 30
0.0
 10
2.9017123311
 20
3.923484352
 30
0.0
 10
2.9016816633
 20
3.9234882923
 30
0.0
 10
2.9016748447
 20
3.9234892195
 30
0.0
  0
SPLINE
  5
3B6
100
AcDbEntity
  8
0
100
AcDbSpline
 62
7
  6
CONTINUOUS
 70
0
 71
3
 72
33
 73
29
 74
0
 42
0.0000001
 43
0.0000001
 44
0.0000000001
 40
0.0
 40
0.0
 40
0.0
 40
0.0
 40
0.0624986917
 40
0.0937494909
 40
0.1250001737
 40
0.1562510231
 40
0.1875020004
 40
0.2499978623
 40
0.3124925232
 40
0.3437436734
 40
0.3749949141
 40
0.4062461404
 40
0.4374973939
 40
0.4687487061
 40
0.5
 40
0.531251294
 40
0.5625026062
 40
0.5937538597
 40
0.625005086
 40
0.6562563266
 40
0.6875074769
 40
0.7500021378
 40
0.8124979996
 40
0.8437489769
 40
0.8749998263
 40
0.906250509
 40
0.9375013083
 40
1.0
 40
1.0
 40
1.0
 40
1.0
 10
7.1130400706
 20
2.8167696314
 30
0.0
 10
7.1056585788
 20
2.8204497516
 30
0.0
 10
7.0944866206
 20
2.8257746698
 30
0.0
 10
7.0793891511
 20
2.8324249945
 30
0.0
 10
7.0679606206
 20
2.8371679784
 30
0.0
 10
7.0564255588
 20
2.8416461769
 30
0.0
 10
7.0409043515
 20
2.847237046
 30
0.0
 10
7.0212352714
 20
2.8534608969
 30
0.0
 10
7.0012301836
 20
2.8585159334
 30
0.0
 10
6.9850559529
 20
2.861771595
 30
0.0
 10
6.9728480421
 20
2.8638001563
 30
0.0
 10
6.9605762228
 20
2.8653978215
 30
0.0
 10
6.9482544336
 20
2.8665501331
 30
0.0
 10
6.935898362
 20
2.8672459943
 30
0.0
 10
6.9235248447
 20
2.8674786903
 30
0.0
 10
6.9111513273
 20
2.8672459943
 30
0.0
 10
6.8987952557
 20
2.8665501331
 30
0.0
 10
6.8864734665
 20
2.8653978215
 30
0.0
 10
6.8742016472
 20
2.8638001563
 30
0.0
 10
6.8619937365
 20
2.861771595
 30
0.0
 10
6.8458195058
 20
2.8585159333
 30
0.0
 10
6.825814418
 20
2.8534608969
 30
0.0
 10
6.8061453378
 20
2.847237046
 30
0.0
 10
6.7906241305
 20
2.8416461769
 30
0.0
 10
6.7790890688
 20
2.8371679784
 30
0.0
 10
6.7676605383
 20
2.8324249945
 30
0.0
 10
6.7525630688
 20
2.8257746698
 30
0.0
 10
6.7413911106
 20
2.8204497514
 30
0.0
 10
6.7340096189
 20
2.8167696313
 30
0.0
  0
SPLINE
  5
3B7
100
AcDbEntity
  8
0
100
AcDbSpline
 62
7
  6
CONTINUOUS
 70
0
 71
3
 72
10
 73
6
 74
0
 42
0.0000001
 43
0.0000001
 44
0.0000000001
 40
0.0
 40
0.0
 40
0.0
 40
0.0
 40
0.1267286048
 40
0.3267147723
 40
1.0
 40
1.0
 40
1.0
 40
1.0
 10
2.7992748447
 20
3.9135317828
 30
0.0
 10
2.7992748447
 20
3.9135291002
 30
0.0
 10
2.7992711209
 20
3.9135225698
 30
0.0
 10
2.7992546055
 20
3.9135094802
 30
0.0
 10
2.7992376945
 20
3.9135013324
 30
0.0
 10
2.7992247019
 20
3.9134954753
 30
0.0
  0
LINE
  5
3B8
100
AcDbEntity
  8
0
100
AcDbLine
 62
7
  6
CONTINUOUS
 10
2.7992247019
 20
3.9134954753
 11
2.7921251183
 21
3.9119818875
  0
SPLINE
  5
3B9
100
AcDbEntity
  8
0
100
AcDbSpline
 62
7
  6
CONTINUOUS
 70
0
 71
3
 72
8
 73
4
 74
0
 42
0.0000001
 43
0.0000001
 44
0.0000000001
 40
0.0
 40
0.0
 40
0.0
 40
0.0
 40
1.0
 40
1.0
 40
1.0
 40
1.0
 10
2.791117779
 20
3.9117921752
 30
0.0
 10
2.7910868016
 20
3.9117863801
 30
0.0
 10
2.7910558234
 20
3.9117805883
 30
0.0
 10
2.7910248447
 20
3.9117747998
 30
0.0
  0
LINE
  5
3BA
100
AcDbEntity
  8
0
100
AcDbLine
 62
7
  6
CONTINUOUS
 10
2.8192748447
 20
3.9170193091
 11
2.8264800181
 21
3.9176109091
  0
LINE
  5
3BB
100
AcDbEntity
  8
0
100
AcDbLine
 62
7
  6
CONTINUOUS
 10
2.8275248447
 20
3.9172221142
 11
2.8269976216
 21
3.9171634591
  0
LINE
  5
3BC
100
AcDbEntity
  8
0
100
AcDbLine
 62
7
  6
CONTINUOUS
 10
2.8269976216
 20
3.9171634591
 11
2.826480042
 21
3.9171065594
  0
LINE
  5
3BD
100
AcDbEntity
  8
0
100
AcDbLine
 62
7
  6
CONTINUOUS
 10
2.826480042
 20
3.9171065594
 11
2.8192748447
 21
3.9165145681
  0
LINE
  5
3BE
100
AcDbEntity
  8
0
100
AcDbLine
 62
7
  6
CONTINUOUS
 10
2.7910248447
 20
3.912282675
 11
2.7992748447
 21
3.9140384916
  0
LINE
  5
3BF
100
AcDbEntity
  8
0
100
AcDbLine
 62
7
  6
CONTINUOUS
 10
6.7725093535
 20
3.9092935523
 11
6.7891687274
 21
3.9119848459
  0
LINE
  5
3C0
100
AcDbEntity
  8
0
100
AcDbLine
 62
7
  6
CONTINUOUS
 10
2.8442748447
 20
3.9194971626
 11
2.8441642783
 21
3.9194437789
  0
LINE
  5
3C1
100
AcDbEntity
  8
0
100
AcDbLine
 62
7
  6
CONTINUOUS
 10
2.8441642783
 20
3.9194437789
 11
2.8371468734
 21
3.9183803814
  0
LINE
  5
3C2
100
AcDbEntity
  8
0
100
AcDbLine
 62
7
  6
CONTINUOUS
 10
3.0197748447
 20
3.9181581558
 11
3.0290248447
 21
3.9164803657
  0
LINE
  5
3C3
100
AcDbEntity
  8
0
100
AcDbLine
 62
7
  6
CONTINUOUS
 10
2.8725248447
 20
3.9215152937
 11
2.8719994042
 21
3.9214877683
  0
LINE
  5
3C4
100
AcDbEntity
  8
0
100
AcDbLine
 62
7
  6
CONTINUOUS
 10
2.8719994042
 20
3.9214877683
 11
2.8714833625
 21
3.9214614132
  0
LINE
  5
3C5
100
AcDbEntity
  8
0
100
AcDbLine
 62
7
  6
CONTINUOUS
 10
2.8714833625
 20
3.9214614132
 11
2.8642748447
 21
3.9212925199
  0
SPLINE
  5
3C6
100
AcDbEntity
  8
0
100
AcDbSpline
 62
7
  6
CONTINUOUS
 70
0
 71
3
 72
30
 73
26
 74
0
 42
0.0000001
 43
0.0000001
 44
0.0000000001
 40
0.0
 40
0.0
 40
0.0
 40
0.0
 40
0.2084417472
 40
0.3071700807
 40
0.4013772282
 40
0.4904718665
 40
0.5738731731
 40
0.6510462111
 40
0.7214942251
 40
0.7847701882
 40
0.8404644144
 40
0.8882255978
 40
0.9090329003
 40
0.9277488464
 40
0.9443430741
 40
0.9587884857
 40
0.9710668135
 40
0.981162702
 40
0.989064308
 40
0.9921925328
 40
0.9947753534
 40
0.9968183502
 40
0.9983339652
 40
0.999355436
 40
1.0
 40
1.0
 40
1.0
 40
1.0
 10
6.9285248447
 20
3.9236810913
 30
0.0
 10
6.9292727833
 20
3.9236849636
 30
0.0
 10
6.9303749748
 20
3.9236925887
 30
0.0
 10
6.9318151597
 20
3.9237070216
 30
0.0
 10
6.9328270895
 20
3.9237194167
 30
0.0
 10
6.9337839942
 20
3.9237334908
 30
0.0
 10
6.9346797423
 20
3.9237491526
 30
0.0
 10
6.9355085412
 20
3.9237662907
 30
0.0
 10
6.9362650759
 20
3.923784791
 30
0.0
 10
6.9369444797
 20
3.9238045097
 30
0.0
 10
6.9375424013
 20
3.9238253142
 30
0.0
 10
6.9379879004
 20
3.9238441532
 30
0.0
 10
6.938300703
 20
3.9238599918
 30
0.0
 10
6.9385017412
 20
3.9238714996
 30
0.0
 10
6.9386799
 20
3.923883161
 30
0.0
 10
6.9388348924
 20
3.9238949538
 30
0.0
 10
6.9389664844
 20
3.9239068296
 30
0.0
 10
6.939074472
 20
3.9239187575
 30
0.0
 10
6.9391495663
 20
3.9239293
 30
0.0
 10
6.9391976186
 20
3.9239381186
 30
0.0
 10
6.9392247739
 20
3.9239442232
 30
0.0
 10
6.9392460016
 20
3.9239501966
 30
0.0
 10
6.9392613206
 20
3.9239563136
 30
0.0
 10
6.9392712536
 20
3.9239619455
 30
0.0
 10
6.9392748447
 20
3.9239675421
 30
0.0
 10
6.9392748447
 20
3.923969855
 30
0.0
  0
LINE
  5
3C7
100
AcDbEntity
  8
0
100
AcDbLine
 62
7
  6
CONTINUOUS
 10
2.9925248447
 20
3.9206184525
 11
2.9932140571
 21
3.9205723651
  0
LINE
  5
3C8
100
AcDbEntity
  8
0
100
AcDbLine
 62
7
  6
CONTINUOUS
 10
2.9932140571
 20
3.9205723651
 11
3.0017748447
 21
3.9201971916
  0
LINE
  5
3C9
100
AcDbEntity
  8
0
100
AcDbLine
 62
7
  6
CONTINUOUS
 10
7.0827438899
 20
3.907207866
 11
7.0838243202
 21
3.9070343363
  0
LINE
  5
3CA
100
AcDbEntity
  8
0
100
AcDbLine
 62
7
  6
CONTINUOUS
 10
7.0416657849
 20
3.9147500793
 11
7.0446657849
 21
3.9141675517
  0
LINE
  5
3CB
100
AcDbEntity
  8
0
100
AcDbLine
 62
7
  6
CONTINUOUS
 10
7.0585972388
 20
3.9118316549
 11
7.0606058481
 21
3.9114766489
  0
LINE
  5
3CC
100
AcDbEntity
  8
0
100
AcDbLine
 62
7
  6
CONTINUOUS
 10
7.0606058481
 20
3.9114766489
 11
7.0616055154
 21
3.9113004422
  0
LINE
  5
3CD
100
AcDbEntity
  8
0
100
AcDbLine
 62
7
  6
CONTINUOUS
 10
7.0616055154
 20
3.9113004422
 11
7.0813648477
 21
3.9079302885
  0
LINE
  5
3CE
100
AcDbEntity
  8
0
100
AcDbLine
 62
7
  6
CONTINUOUS
 10
6.9842748447
 20
3.921287212
 11
6.9971074397
 21
3.9204282603
  0
SPLINE
  5
3CF
100
AcDbEntity
  8
0
100
AcDbSpline
 62
7
  6
CONTINUOUS
 70
0
 71
3
 72
28
 73
24
 74
0
 42
0.0000001
 43
0.0000001
 44
0.0000000001
 40
0.0
 40
0.0
 40
0.0
 40
0.0
 40
0.0006075084
 40
0.001671922
 40
0.0054827518
 40
0.0116358777
 40
0.0201454022
 40
0.031000362
 40
0.044179609
 40
0.0596520894
 40
0.0773829353
 40
0.09732844
 40
0.1194418524
 40
0.1699524132
 40
0.2284290852
 40
0.2943100232
 40
0.3669602208
 40
0.4456799227
 40
0.5297127105
 40
0.618251014
 40
0.7104415968
 40
0.8054001863
 40
1.0
 40
1.0
 40
1.0
 40
1.0
 10
6.9572748447
 20
3.9233948085
 30
0.0
 10
6.9572748447
 20
3.923391758
 30
0.0
 10
6.9572808346
 20
3.9233843589
 30
0.0
 10
6.957304908
 20
3.9233719343
 30
0.0
 10
6.9573586125
 20
3.9233555451
 30
0.0
 10
6.9574488829
 20
3.9233356958
 30
0.0
 10
6.9575751975
 20
3.9233131393
 30
0.0
 10
6.9577366711
 20
3.9232883848
 30
0.0
 10
6.9579332411
 20
3.9232614741
 30
0.0
 10
6.9581643356
 20
3.9232325502
 30
0.0
 10
6.9584294282
 20
3.923201698
 30
0.0
 10
6.9587278668
 20
3.9231690036
 30
0.0
 10
6.9591901943
 20
3.9231209082
 30
0.0
 10
6.9598454207
 20
3.9230573225
 30
0.0
 10
6.9607199051
 20
3.9229780334
 30
0.0
 10
6.9617055333
 20
3.9228935638
 30
0.0
 10
6.9627927979
 20
3.922804742
 30
0.0
 10
6.9639712212
 20
3.9227124431
 30
0.0
 10
6.9652294603
 20
3.9226175662
 30
0.0
 10
6.9665554032
 20
3.92252103
 30
0.0
 10
6.9679362962
 20
3.9224237654
 30
0.0
 10
6.969848733
 20
3.9222932976
 30
0.0
 10
6.9712996348
 20
3.922198911
 30
0.0
 10
6.9722748447
 20
3.9221374223
 30
0.0
  0
LINE
  5
3D0
100
AcDbEntity
  8
0
100
AcDbLine
 62
7
  6
CONTINUOUS
 10
7.019356222
 20
3.9177658782
 11
7.0235248447
 21
3.9174940187
  0
SPLINE
  5
3D1
100
AcDbEntity
  8
0
100
AcDbSpline
 62
7
  6
CONTINUOUS
 70
0
 71
3
 72
39
 73
35
 74
0
 42
0.0000001
 43
0.0000001
 44
0.0000000001
 40
0.0
 40
0.0
 40
0.0
 40
0.0
 40
0.0352256072
 40
0.0699597889
 40
0.1041780487
 40
0.1378548044
 40
0.1709681311
 40
0.2035010241
 40
0.235441786
 40
0.2667870378
 40
0.297543548
 40
0.3277307504
 40
0.3573831456
 40
0.3865517797
 40
0.4153052029
 40
0.4437290239
 40
0.4719236905
 40
0.5000007758
 40
0.5280778595
 40
0.5562725218
 40
0.5846963358
 40
0.6134497495
 40
0.6426183723
 40
0.6722707546
 40
0.7024579433
 40
0.7332144383
 40
0.7645596743
 40
0.7965004292
 40
0.8290332951
 40
0.8621465797
 40
0.8958234482
 40
0.9300416836
 40
0.9647750615
 40
1.0
 40
1.0
 40
1.0
 40
1.0
 10
7.3025552964
 20
2.8167686688
 30
0.0
 10
7.3007222919
 20
2.8185963932
 30
0.0
 10
7.2970418891
 20
2.8221865808
 30
0.0
 10
7.2914339295
 20
2.8273989349
 30
0.0
 10
7.2857753442
 20
2.832386064
 30
0.0
 10
7.2800641602
 20
2.8371288257
 30
0.0
 10
7.2742994662
 20
2.8416076299
 30
0.0
 10
7.268481069
 20
2.8458023189
 30
0.0
 10
7.2626090337
 20
2.8496915468
 30
0.0
 10
7.2566841747
 20
2.8532533653
 30
0.0
 10
7.250708083
 20
2.8564654989
 30
0.0
 10
7.2446833388
 20
2.8593059048
 30
0.0
 10
7.2386135451
 20
2.8617531744
 30
0.0
 10
7.2325034465
 20
2.8637871591
 30
0.0
 10
7.2263590868
 20
2.8653899741
 30
0.0
 10
7.2201876824
 20
2.8665465384
 30
0.0
 10
7.2139975184
 20
2.8672452228
 30
0.0
 10
7.2077977613
 20
2.8674789099
 30
0.0
 10
7.201598004
 20
2.8672452345
 30
0.0
 10
7.1954078397
 20
2.8665465617
 30
0.0
 10
7.1892364347
 20
2.8653900088
 30
0.0
 10
7.1830920742
 20
2.8637872048
 30
0.0
 10
7.1769819747
 20
2.8617532307
 30
0.0
 10
7.1709121798
 20
2.8593059714
 30
0.0
 10
7.1648874347
 20
2.8564655745
 30
0.0
 10
7.1589113418
 20
2.8532534503
 30
0.0
 10
7.1529864795
 20
2.8496916425
 30
0.0
 10
7.1471144477
 20
2.8458024156
 30
0.0
 10
7.14129605
 20
2.8416077379
 30
0.0
 10
7.1355313257
 20
2.8371289668
 30
0.0
 10
7.1298201841
 20
2.8323861464
 30
0.0
 10
7.1241616826
 20
2.8273990059
 30
0.0
 10
7.1185535328
 20
2.8221870224
 30
0.0
 10
7.1148730418
 20
2.8185970764
 30
0.0
 10
7.1130400706
 20
2.8167693882
 30
0.0
  0
LINE
  5
3D2
100
AcDbEntity
  8
0
100
AcDbLine
 62
7
  6
CONTINUOUS
 10
3.0017748447
 20
3.9196945317
 11
3.0013356856
 21
3.9196531305
  0
LINE
  5
3D3
100
AcDbEntity
  8
0
100
AcDbLine
 62
7
  6
CONTINUOUS
 10
3.0013356856
 20
3.9196531305
 11
2.9932140597
 21
3.9200699496
  0
LINE
  5
3D4
100
AcDbEntity
  8
0
100
AcDbLine
 62
7
  6
CONTINUOUS
 10
2.9932140597
 20
3.9200699496
 11
2.9925248447
 21
3.9201160672
  0
LINE
  5
3D5
100
AcDbEntity
  8
0
100
AcDbLine
 62
7
  6
CONTINUOUS
 10
3.0289449928
 20
3.9159880247
 11
3.0283495572
 21
3.9160834577
  0
LINE
  5
3D6
100
AcDbEntity
  8
0
100
AcDbLine
 62
7
  6
CONTINUOUS
 10
3.0283495572
 20
3.9160834577
 11
3.0197748447
 21
3.9176541626
  0
SPLINE
  5
3D7
100
AcDbEntity
  8
0
100
AcDbSpline
 62
7
  6
CONTINUOUS
 70
0
 71
3
 72
23
 73
19
 74
0
 42
0.0000001
 43
0.0000001
 44
0.0000000001
 40
0.0
 40
0.0
 40
0.0
 40
0.0
 40
0.0199034185
 40
0.0549050245
 40
0.1089298972
 40
0.1824814977
 40
0.2712017967
 40
0.3708539636
 40
0.477353306
 40
0.5845373765
 40
0.6857929867
 40
0.7769015612
 40
0.8543351783
 40
0.9141651377
 40
0.9556767108
 40
0.9814650016
 40
0.9951283866
 40
1.0
 40
1.0
 40
1.0
 40
1.0
 10
6.8621653671
 20
3.9218109669
 30
0.0
 10
6.8624444498
 20
3.9218075001
 30
0.0
 10
6.8632144441
 20
3.9218100349
 30
0.0
 10
6.8647417018
 20
3.921839863
 30
0.0
 10
6.8670204273
 20
3.9219120397
 30
0.0
 10
6.8700511645
 20
3.9220323947
 30
0.0
 10
6.8737206446
 20
3.9221919689
 30
0.0
 10
6.8778511621
 20
3.9223838486
 30
0.0
 10
6.8822396063
 20
3.9226026838
 30
0.0
 10
6.8866493516
 20
3.9228447445
 30
0.0
 10
6.8908426867
 20
3.9230908453
 30
0.0
 10
6.8946188819
 20
3.9233235764
 30
0.0
 10
6.8978146555
 20
3.9235303126
 30
0.0
 10
6.900315417
 20
3.923706756
 30
0.0
 10
6.9020925748
 20
3.9238478848
 30
0.0
 10
6.9032233566
 20
3.9239500246
 30
0.0
 10
6.9038415165
 20
3.9240148327
 30
0.0
 10
6.9040996452
 20
3.9240454623
 30
0.0
 10
6.9041673172
 20
3.9240548075
 30
0.0
  0
LINE
  5
3D8
100
AcDbEntity
  8
0
100
AcDbLine
 62
7
  6
CONTINUOUS
 10
7.0838391823
 20
3.9075423986
 11
7.0835766794
 21
3.90758759
  0
LINE
  5
3D9
100
AcDbEntity
  8
0
100
AcDbLine
 62
7
  6
CONTINUOUS
 10
7.0835766794
 20
3.90758759
 11
7.0813648477
 21
3.9079302885
  0
SPLINE
  5
3DA
100
AcDbEntity
  8
0
100
AcDbSpline
 62
7
  6
CONTINUOUS
 70
0
 71
3
 72
41
 73
37
 74
0
 42
0.0000001
 43
0.0000001
 44
0.0000000001
 40
0.0
 40
0.0
 40
0.0
 40
0.0
 40
0.0972524449
 40
0.1935640552
 40
0.2880063566
 40
0.3796671213
 40
0.4676625263
 40
0.5511456283
 40
0.6293151182
 40
0.6661716826
 40
0.7014244083
 40
0.7349898774
 40
0.7667890798
 40
0.7967477407
 40
0.824796843
 40
0.8508728506
 40
0.8749180947
 40
0.8968815252
 40
0.9167196533
 40
0.9343976507
 40
0.9424189244
 40
0.949892376
 40
0.9568172816
 40
0.9631943264
 40
0.9690260689
 40
0.9743170944
 40
0.9790753276
 40
0.9833132139
 40
0.9870496983
 40
0.9903142746
 40
0.9931524407
 40
0.9956344785
 40
0.9967754785
 40
0.9978703996
 40
0.9989383694
 40
1.0
 40
1.0
 40
1.0
 40
1.0
 10
4.9235248447
 20
5.7698624025
 30
0.0
 10
4.9303744136
 20
5.7698624025
 30
0.0
 10
4.9440073616
 20
5.7698039922
 30
0.0
 10
4.9642904333
 20
5.7695415985
 30
0.0
 10
4.9841766634
 20
5.7691072004
 30
0.0
 10
5.0034725491
 20
5.7685051545
 30
0.0
 10
5.0219902692
 20
5.7677415498
 30
0.0
 10
5.039549599
 20
5.7668240494
 30
0.0
 10
5.0535021232
 20
5.7659224186
 30
0.0
 10
5.0640563432
 20
5.7651244051
 30
0.0
 10
5.0714733842
 20
5.7645051881
 30
0.0
 10
5.0785301612
 20
5.7638550688
 30
0.0
 10
5.0852095081
 20
5.7631756551
 30
0.0
 10
5.0914951846
 20
5.7624686605
 30
0.0
 10
5.0973719265
 20
5.7617358839
 30
0.0
 10
5.1028254886
 20
5.7609792139
 30
0.0
 10
5.1078426686
 20
5.7602006127
 30
0.0
 10
5.1124114184
 20
5.7594021812
 30
0.0
 10
5.1165207548
 20
5.7585860216
 30
0.0
 10
5.1196481509
 20
5.75787194
 30
0.0
 10
5.1219104211
 20
5.7572875773
 30
0.0
 10
5.1234307079
 20
5.7568603732
 30
0.0
 10
5.1248294519
 20
5.756430204
 30
0.0
 10
5.1261058638
 20
5.7559973258
 30
0.0
 10
5.1272592714
 20
5.7555620531
 30
0.0
 10
5.1282891134
 20
5.755124638
 30
0.0
 10
5.1291949783
 20
5.7546853394
 30
0.0
 10
5.1299766504
 20
5.754244341
 30
0.0
 10
5.1306340918
 20
5.7538016459
 30
0.0
 10
5.1311675293
 20
5.7533567702
 30
0.0
 10
5.1315770487
 20
5.752908922
 30
0.0
 10
5.1318208326
 20
5.7525202828
 30
0.0
 10
5.1319445931
 20
5.7522110436
 30
0.0
 10
5.1320027943
 20
5.751985012
 30
0.0
 10
5.1320287406
 20
5.7517586737
 30
0.0
 10
5.132024455
 20
5.751608149
 30
0.0
 10
5.1320170914
 20
5.751533741
 30
0.0
  0
SPLINE
  5
3DB
100
AcDbEntity
  8
0
100
AcDbSpline
 62
7
  6
CONTINUOUS
 70
0
 71
3
 72
67
 73
63
 74
0
 42
0.0000001
 43
0.0000001
 44
0.0000000001
 40
0.0
 40
0.0
 40
0.0
 40
0.0
 40
0.0483979061
 40
0.0963326141
 40
0.1433473359
 40
0.188992587
 40
0.2328331289
 40
0.2744515695
 40
0.3134526794
 40
0.3494677655
 40
0.3662487122
 40
0.3821590397
 40
0.3971619246
 40
0.4112231287
 40
0.4243111043
 40
0.4363970824
 40
0.4474555742
 40
0.4574647028
 40
0.4664066501
 40
0.4742688546
 40
0.477793246
 40
0.4810463124
 40
0.4840289666
 40
0.4867432368
 40
0.4891924059
 40
0.4913817814
 40
0.4933196383
 40
0.4950185072
 40
0.4964978046
 40
0.4977876123
 40
0.4989334708
 40
0.5
 40
0.5010665292
 40
0.5022123877
 40
0.5035021954
 40
0.5049814928
 40
0.5066803617
 40
0.5086182186
 40
0.5108075941
 40
0.5132567632
 40
0.5159710334
 40
0.5189536876
 40
0.522206754
 40
0.5257311454
 40
0.5335933499
 40
0.5425352972
 40
0.5525444258
 40
0.5636029176
 40
0.5756888957
 40
0.5887768713
 40
0.6028380754
 40
0.6178409603
 40
0.6337512878
 40
0.6505322345
 40
0.6865473206
 40
0.7255484305
 40
0.7671668711
 40
0.811007413
 40
0.8566526641
 40
0.9036673859
 40
0.9516020939
 40
1.0
 40
1.0
 40
1.0
 40
1.0
 10
4.9235248447
 20
5.4028635792
 30
0.0
 10
4.9287059318
 20
5.4028635792
 30
0.0
 10
4.9390185751
 20
5.4028196347
 30
0.0
 10
4.9543630925
 20
5.4026222158
 30
0.0
 10
4.9694106764
 20
5.4022953664
 30
0.0
 10
4.9840165132
 20
5.4018423211
 30
0.0
 10
4.9980399465
 20
5.4012675961
 30
0.0
 10
5.0113460236
 20
5.4005769755
 30
0.0
 10
5.0238066818
 20
5.3997773434
 30
0.0
 10
5.0336041899
 20
5.399010159
 30
0.0
 10
5.0409289555
 20
5.3983413707
 30
0.0
 10
5.0460090659
 20
5.3978294929
 30
0.0
 10
5.0507941955
 20
5.3972967502
 30
0.0
 10
5.0552728486
 20
5.3967444613
 30
0.0
 10
5.05943428
 20
5.3961740379
 30
0.0
 10
5.0632685322
 20
5.3955869414
 30
0.0
 10
5.0667664595
 20
5.3949847061
 30
0.0
 10
5.069919832
 20
5.3943689958
 30
0.0
 10
5.072721211
 20
5.3937414297
 30
0.0
 10
5.0748276412
 20
5.3931920532
 30
0.0
 10
5.0763291367
 20
5.3927424662
 30
0.0
 10
5.0773216875
 20
5.392415592
 30
0.0
 10
5.078221843
 20
5.3920868496
 30
0.0
 10
5.0790291593
 20
5.3917564472
 30
0.0
 10
5.0797432895
 20
5.3914245716
 30
0.0
 10
5.0803640094
 20
5.3910913686
 30
0.0
 10
5.0808912667
 20
5.390756918
 30
0.0
 10
5.0813251512
 20
5.3904210319
 30
0.0
 10
5.0816658088
 20
5.3900830669
 30
0.0
 10
5.0819130092
 20
5.3897416557
 30
0.0
 10
5.0820647547
 20
5.3893948492
 30
0.0
 10
5.0821163499
 20
5.3890428804
 30
0.0
 10
5.0820647547
 20
5.3886909115
 30
0.0
 10
5.0819130092
 20
5.388344105
 30
0.0
 10
5.0816658088
 20
5.3880026938
 30
0.0
 10
5.0813251512
 20
5.3876647288
 30
0.0
 10
5.0808912667
 20
5.3873288427
 30
0.0
 10
5.0803640094
 20
5.3869943921
 30
0.0
 10
5.0797432895
 20
5.3866611892
 30
0.0
 10
5.0790291593
 20
5.3863293136
 30
0.0
 10
5.078221843
 20
5.3859989111
 30
0.0
 10
5.0773216875
 20
5.3856701688
 30
0.0
 10
5.0763291367
 20
5.3853432946
 30
0.0
 10
5.0748276412
 20
5.3848937075
 30
0.0
 10
5.072721211
 20
5.384344331
 30
0.0
 10
5.069919832
 20
5.383716765
 30
0.0
 10
5.0667664595
 20
5.3831010547
 30
0.0
 10
5.0632685322
 20
5.3824988194
 30
0.0
 10
5.05943428
 20
5.3819117228
 30
0.0
 10
5.0552728486
 20
5.3813412994
 30
0.0
 10
5.0507941955
 20
5.3807890106
 30
0.0
 10
5.0460090659
 20
5.3802562678
 30
0.0
 10
5.0409289555
 20
5.37974439
 30
0.0
 10
5.0336041899
 20
5.3790756018
 30
0.0
 10
5.0238066818
 20
5.3783084174
 30
0.0
 10
5.0113460236
 20
5.3775087853
 30
0.0
 10
4.9980399465
 20
5.3768181646
 30
0.0
 10
4.9840165132
 20
5.3762434397
 30
0.0
 10
4.9694106764
 20
5.3757903944
 30
0.0
 10
4.9543630925
 20
5.375463545
 30
0.0
 10
4.9390185751
 20
5.3752661261
 30
0.0
 10
4.9287059318
 20
5.3752221816
 30
0.0
 10
4.9235248447
 20
5.3752221816
 30
0.0
  0
SPLINE
  5
3DC
100
AcDbEntity
  8
0
100
AcDbSpline
 62
7
  6
CONTINUOUS
 70
0
 71
3
 72
41
 73
37
 74
0
 42
0.0000001
 43
0.0000001
 44
0.0000000001
 40
0.0
 40
0.0
 40
0.0
 40
0.0
 40
0.0972524449
 40
0.1935640552
 40
0.2880063566
 40
0.3796671213
 40
0.4676625263
 40
0.5511456283
 40
0.6293151182
 40
0.6661716826
 40
0.7014244083
 40
0.7349898774
 40
0.7667890798
 40
0.7967477407
 40
0.824796843
 40
0.8508728506
 40
0.8749180947
 40
0.8968815252
 40
0.9167196533
 40
0.9343976507
 40
0.9424189244
 40
0.949892376
 40
0.9568172816
 40
0.9631943264
 40
0.9690260689
 40
0.9743170944
 40
0.9790753276
 40
0.9833132139
 40
0.9870496983
 40
0.9903142746
 40
0.9931524407
 40
0.9956344785
 40
0.9967754785
 40
0.9978703996
 40
0.9989383694
 40
1.0
 40
1.0
 40
1.0
 40
1.0
 10
4.9235248447
 20
5.7698624025
 30
0.0
 10
4.9166752758
 20
5.7698624025
 30
0.0
 10
4.9030423279
 20
5.7698039922
 30
0.0
 10
4.8827592561
 20
5.7695415985
 30
0.0
 10
4.862873026
 20
5.7691072004
 30
0.0
 10
4.8435771403
 20
5.7685051545
 30
0.0
 10
4.8250594203
 20
5.7677415498
 30
0.0
 10
4.8075000904
 20
5.7668240494
 30
0.0
 10
4.7935475662
 20
5.7659224186
 30
0.0
 10
4.7829933463
 20
5.7651244051
 30
0.0
 10
4.7755763053
 20
5.7645051881
 30
0.0
 10
4.7685195282
 20
5.7638550688
 30
0.0
 10
4.7618401814
 20
5.7631756551
 30
0.0
 10
4.7555545048
 20
5.7624686605
 30
0.0
 10
4.749677763
 20
5.7617358839
 30
0.0
 10
4.7442242009
 20
5.7609792139
 30
0.0
 10
4.7392070208
 20
5.7602006127
 30
0.0
 10
4.734638271
 20
5.7594021812
 30
0.0
 10
4.7305289346
 20
5.7585860216
 30
0.0
 10
4.7274015386
 20
5.75787194
 30
0.0
 10
4.7251392684
 20
5.7572875773
 30
0.0
 10
4.7236189816
 20
5.7568603732
 30
0.0
 10
4.7222202375
 20
5.756430204
 30
0.0
 10
4.7209438256
 20
5.7559973258
 30
0.0
 10
4.719790418
 20
5.7555620531
 30
0.0
 10
4.7187605761
 20
5.755124638
 30
0.0
 10
4.7178547111
 20
5.7546853394
 30
0.0
 10
4.717073039
 20
5.754244341
 30
0.0
 10
4.7164155976
 20
5.7538016459
 30
0.0
 10
4.7158821601
 20
5.7533567702
 30
0.0
 10
4.7154726407
 20
5.752908922
 30
0.0
 10
4.7152288568
 20
5.7525202828
 30
0.0
 10
4.7151050963
 20
5.7522110436
 30
0.0
 10
4.7150468952
 20
5.751985012
 30
0.0
 10
4.7150209489
 20
5.7517586737
 30
0.0
 10
4.7150252345
 20
5.751608149
 30
0.0
 10
4.715032598
 20
5.751533741
 30
0.0
  0
SPLINE
  5
3DD
100
AcDbEntity
  8
0
100
AcDbSpline
 62
7
  6
CONTINUOUS
 70
0
 71
3
 72
67
 73
63
 74
0
 42
0.0000001
 43
0.0000001
 44
0.0000000001
 40
0.0
 40
0.0
 40
0.0
 40
0.0
 40
0.0483979061
 40
0.0963326141
 40
0.1433473359
 40
0.188992587
 40
0.2328331289
 40
0.2744515695
 40
0.3134526794
 40
0.3494677655
 40
0.3662487122
 40
0.3821590397
 40
0.3971619246
 40
0.4112231287
 40
0.4243111043
 40
0.4363970824
 40
0.4474555742
 40
0.4574647028
 40
0.4664066501
 40
0.4742688546
 40
0.477793246
 40
0.4810463124
 40
0.4840289666
 40
0.4867432368
 40
0.4891924059
 40
0.4913817814
 40
0.4933196383
 40
0.4950185072
 40
0.4964978046
 40
0.4977876123
 40
0.4989334708
 40
0.5
 40
0.5010665292
 40
0.5022123877
 40
0.5035021954
 40
0.5049814928
 40
0.5066803617
 40
0.5086182186
 40
0.5108075941
 40
0.5132567632
 40
0.5159710334
 40
0.5189536876
 40
0.522206754
 40
0.5257311454
 40
0.5335933499
 40
0.5425352972
 40
0.5525444258
 40
0.5636029176
 40
0.5756888957
 40
0.5887768713
 40
0.6028380754
 40
0.6178409603
 40
0.6337512878
 40
0.6505322345
 40
0.6865473206
 40
0.7255484305
 40
0.7671668711
 40
0.811007413
 40
0.8566526641
 40
0.9036673859
 40
0.9516020939
 40
1.0
 40
1.0
 40
1.0
 40
1.0
 10
4.9235248447
 20
5.4028635792
 30
0.0
 10
4.9183437576
 20
5.4028635792
 30
0.0
 10
4.9080311143
 20
5.4028196347
 30
0.0
 10
4.892686597
 20
5.4026222158
 30
0.0
 10
4.877639013
 20
5.4022953664
 30
0.0
 10
4.8630331763
 20
5.4018423211
 30
0.0
 10
4.849009743
 20
5.4012675961
 30
0.0
 10
4.8357036658
 20
5.4005769755
 30
0.0
 10
4.8232430076
 20
5.3997773434
 30
0.0
 10
4.8134454996
 20
5.399010159
 30
0.0
 10
4.8061207339
 20
5.3983413707
 30
0.0
 10
4.8010406235
 20
5.3978294929
 30
0.0
 10
4.7962554939
 20
5.3972967502
 30
0.0
 10
4.7917768409
 20
5.3967444613
 30
0.0
 10
4.7876154095
 20
5.3961740379
 30
0.0
 10
4.7837811572
 20
5.3955869414
 30
0.0
 10
4.7802832299
 20
5.3949847061
 30
0.0
 10
4.7771298574
 20
5.3943689958
 30
0.0
 10
4.7743284785
 20
5.3937414297
 30
0.0
 10
4.7722220482
 20
5.3931920532
 30
0.0
 10
4.7707205528
 20
5.3927424662
 30
0.0
 10
4.7697280019
 20
5.392415592
 30
0.0
 10
4.7688278465
 20
5.3920868496
 30
0.0
 10
4.7680205301
 20
5.3917564472
 30
0.0
 10
4.7673063999
 20
5.3914245716
 30
0.0
 10
4.7666856801
 20
5.3910913686
 30
0.0
 10
4.7661584228
 20
5.390756918
 30
0.0
 10
4.7657245382
 20
5.3904210319
 30
0.0
 10
4.7653838807
 20
5.3900830669
 30
0.0
 10
4.7651366802
 20
5.3897416557
 30
0.0
 10
4.7649849348
 20
5.3893948492
 30
0.0
 10
4.7649333395
 20
5.3890428804
 30
0.0
 10
4.7649849348
 20
5.3886909115
 30
0.0
 10
4.7651366802
 20
5.388344105
 30
0.0
 10
4.7653838807
 20
5.3880026938
 30
0.0
 10
4.7657245382
 20
5.3876647288
 30
0.0
 10
4.7661584228
 20
5.3873288427
 30
0.0
 10
4.7666856801
 20
5.3869943921
 30
0.0
 10
4.7673063999
 20
5.3866611892
 30
0.0
 10
4.7680205301
 20
5.3863293136
 30
0.0
 10
4.7688278465
 20
5.3859989111
 30
0.0
 10
4.7697280019
 20
5.3856701688
 30
0.0
 10
4.7707205528
 20
5.3853432946
 30
0.0
 10
4.7722220482
 20
5.3848937075
 30
0.0
 10
4.7743284785
 20
5.384344331
 30
0.0
 10
4.7771298574
 20
5.383716765
 30
0.0
 10
4.7802832299
 20
5.3831010547
 30
0.0
 10
4.7837811572
 20
5.3824988194
 30
0.0
 10
4.7876154095
 20
5.3819117228
 30
0.0
 10
4.7917768409
 20
5.3813412994
 30
0.0
 10
4.7962554939
 20
5.3807890106
 30
0.0
 10
4.8010406235
 20
5.3802562678
 30
0.0
 10
4.8061207339
 20
5.37974439
 30
0.0
 10
4.8134454996
 20
5.3790756018
 30
0.0
 10
4.8232430076
 20
5.3783084174
 30
0.0
 10
4.8357036658
 20
5.3775087853
 30
0.0
 10
4.849009743
 20
5.3768181646
 30
0.0
 10
4.8630331763
 20
5.3762434397
 30
0.0
 10
4.877639013
 20
5.3757903944
 30
0.0
 10
4.892686597
 20
5.375463545
 30
0.0
 10
4.9080311143
 20
5.3752661261
 30
0.0
 10
4.9183437576
 20
5.3752221816
 30
0.0
 10
4.9235248447
 20
5.3752221816
 30
0.0
  0
SPLINE
  5
3DE
100
AcDbEntity
  8
0
100
AcDbSpline
 62
7
  6
CONTINUOUS
 70
0
 71
3
 72
39
 73
35
 74
0
 42
0.0000001
 43
0.0000001
 44
0.0000000001
 40
0.0
 40
0.0
 40
0.0
 40
0.0
 40
0.0972530406
 40
0.1935649913
 40
0.2880078453
 40
0.3796690557
 40
0.4676649379
 40
0.5511484536
 40
0.6293183239
 40
0.7014274885
 40
0.7349930968
 40
0.7667924105
 40
0.7967512897
 40
0.8248005493
 40
0.8508766232
 40
0.8749220104
 40
0.8968856097
 40
0.9167237891
 40
0.9344018546
 40
0.9424232024
 40
0.9498967178
 40
0.9568216048
 40
0.9631987174
 40
0.9690304966
 40
0.9743215156
 40
0.9790798014
 40
0.9833177044
 40
0.9870541937
 40
0.9903188024
 40
0.9931569783
 40
0.9956390249
 40
0.9978703883
 40
0.9989383639
 40
1.0
 40
1.0
 40
1.0
 40
1.0
 10
4.9235248447
 20
5.4181345225
 30
0.0
 10
4.9292410374
 20
5.4181345225
 30
0.0
 10
4.9406181704
 20
5.4180857776
 30
0.0
 10
4.9575450512
 20
5.4178668
 30
0.0
 10
4.9741407469
 20
5.4175042823
 30
0.0
 10
4.9902437945
 20
5.4170018572
 30
0.0
 10
5.0056974223
 20
5.4163645903
 30
0.0
 10
5.0203512797
 20
5.4155989628
 30
0.0
 10
5.0340627823
 20
5.4147127066
 30
0.0
 10
5.0448355197
 20
5.4138624171
 30
0.0
 10
5.0528817987
 20
5.4131212208
 30
0.0
 10
5.0584559284
 20
5.4125542098
 30
0.0
 10
5.0637015309
 20
5.4119642071
 30
0.0
 10
5.068605863
 20
5.4113526812
 30
0.0
 10
5.0731570346
 20
5.4107212122
 30
0.0
 10
5.0773440343
 20
5.410071445
 30
0.0
 10
5.0811568061
 20
5.4094051318
 30
0.0
 10
5.0845861787
 20
5.408724017
 30
0.0
 10
5.0871960893
 20
5.4081280916
 30
0.0
 10
5.0890840294
 20
5.4076404234
 30
0.0
 10
5.0903527593
 20
5.4072839113
 30
0.0
 10
5.0915200548
 20
5.4069249144
 30
0.0
 10
5.0925852625
 20
5.4065636681
 30
0.0
 10
5.0935478197
 20
5.40620042
 30
0.0
 10
5.0944072538
 20
5.4058353782
 30
0.0
 10
5.0951632292
 20
5.4054687718
 30
0.0
 10
5.0958155597
 20
5.4051007514
 30
0.0
 10
5.096364215
 20
5.4047312805
 30
0.0
 10
5.0968093834
 20
5.4043600955
 30
0.0
 10
5.0971511564
 20
5.4039861244
 30
0.0
 10
5.0973888806
 20
5.4036077544
 30
0.0
 10
5.0974988877
 20
5.4032817911
 30
0.0
 10
5.0975280812
 20
5.4030263825
 30
0.0
 10
5.0975245194
 20
5.402900757
 30
0.0
 10
5.0975183741
 20
5.4028386611
 30
0.0
  0
LINE
  5
3DF
100
AcDbEntity
  8
0
100
AcDbLine
 62
7
  6
CONTINUOUS
 10
7.0042081024
 20
3.9194722661
 11
7.0052770869
 21
3.9193482295
  0
SPLINE
  5
3E0
100
AcDbEntity
  8
0
100
AcDbSpline
 62
7
  6
CONTINUOUS
 70
0
 71
3
 72
39
 73
35
 74
0
 42
0.0000001
 43
0.0000001
 44
0.0000000001
 40
0.0
 40
0.0
 40
0.0
 40
0.0
 40
0.0352249384
 40
0.0699583162
 40
0.1041765515
 40
0.13785342
 40
0.1709667047
 40
0.2034995706
 40
0.2354403254
 40
0.2667855615
 40
0.2975420565
 40
0.3277292452
 40
0.3573816275
 40
0.3865502503
 40
0.4153036641
 40
0.443727478
 40
0.4719221403
 40
0.499999224
 40
0.5280763093
 40
0.556270976
 40
0.584694797
 40
0.6134482201
 40
0.6426168543
 40
0.6722692494
 40
0.7024564518
 40
0.733212962
 40
0.7645582138
 40
0.7964989758
 40
0.8290318687
 40
0.8621451954
 40
0.8958219511
 40
0.9300402109
 40
0.9647743927
 40
1.0
 40
1.0
 40
1.0
 40
1.0
 10
2.7340096189
 20
2.8167693883
 30
0.0
 10
2.7321766477
 20
2.8185970765
 30
0.0
 10
2.7284961566
 20
2.8221870225
 30
0.0
 10
2.7228880068
 20
2.8273990059
 30
0.0
 10
2.7172295053
 20
2.8323861464
 30
0.0
 10
2.7115183637
 20
2.8371289668
 30
0.0
 10
2.7057536395
 20
2.8416077379
 30
0.0
 10
2.6999352417
 20
2.8458024156
 30
0.0
 10
2.6940632099
 20
2.8496916425
 30
0.0
 10
2.6881383477
 20
2.8532534503
 30
0.0
 10
2.6821622547
 20
2.8564655745
 30
0.0
 10
2.6761375096
 20
2.8593059714
 30
0.0
 10
2.6700677147
 20
2.8617532307
 30
0.0
 10
2.6639576152
 20
2.8637872048
 30
0.0
 10
2.6578132547
 20
2.8653900088
 30
0.0
 10
2.6516418498
 20
2.8665465617
 30
0.0
 10
2.6454516854
 20
2.8672452345
 30
0.0
 10
2.6392519281
 20
2.8674789099
 30
0.0
 10
2.633052171
 20
2.8672452228
 30
0.0
 10
2.626862007
 20
2.8665465384
 30
0.0
 10
2.6206906026
 20
2.8653899741
 30
0.0
 10
2.6145462429
 20
2.8637871591
 30
0.0
 10
2.6084361443
 20
2.8617531744
 30
0.0
 10
2.6023663506
 20
2.8593059048
 30
0.0
 10
2.5963416064
 20
2.8564654989
 30
0.0
 10
2.5903655148
 20
2.8532533653
 30
0.0
 10
2.5844406557
 20
2.8496915468
 30
0.0
 10
2.5785686204
 20
2.8458023189
 30
0.0
 10
2.5727502232
 20
2.8416076299
 30
0.0
 10
2.5669855293
 20
2.8371288257
 30
0.0
 10
2.5612743452
 20
2.832386064
 30
0.0
 10
2.5556157599
 20
2.8273989349
 30
0.0
 10
2.5500078003
 20
2.8221865807
 30
0.0
 10
2.5463273976
 20
2.8185963931
 30
0.0
 10
2.544494393
 20
2.8167686687
 30
0.0
  0
SPLINE
  5
3E1
100
AcDbEntity
  8
0
100
AcDbSpline
 62
7
  6
CONTINUOUS
 70
0
 71
3
 72
39
 73
35
 74
0
 42
0.0000001
 43
0.0000001
 44
0.0000000001
 40
0.0
 40
0.0
 40
0.0
 40
0.0
 40
0.0972530406
 40
0.1935649913
 40
0.2880078453
 40
0.3796690557
 40
0.4676649379
 40
0.5511484536
 40
0.6293183239
 40
0.7014274885
 40
0.7349930968
 40
0.7667924105
 40
0.7967512897
 40
0.8248005493
 40
0.8508766232
 40
0.8749220104
 40
0.8968856097
 40
0.9167237891
 40
0.9344018546
 40
0.9424232024
 40
0.9498967178
 40
0.9568216048
 40
0.9631987174
 40
0.9690304966
 40
0.9743215156
 40
0.9790798014
 40
0.9833177044
 40
0.9870541937
 40
0.9903188024
 40
0.9931569783
 40
0.9956390249
 40
0.9978703883
 40
0.9989383639
 40
1.0
 40
1.0
 40
1.0
 40
1.0
 10
4.9235248447
 20
5.4181345225
 30
0.0
 10
4.9178086521
 20
5.4181345225
 30
0.0
 10
4.9064315191
 20
5.4180857776
 30
0.0
 10
4.8895046382
 20
5.4178668
 30
0.0
 10
4.8729089426
 20
5.4175042823
 30
0.0
 10
4.8568058949
 20
5.4170018572
 30
0.0
 10
4.8413522672
 20
5.4163645903
 30
0.0
 10
4.8266984097
 20
5.4155989628
 30
0.0
 10
4.8129869071
 20
5.4147127066
 30
0.0
 10
4.8022141698
 20
5.4138624171
 30
0.0
 10
4.7941678908
 20
5.4131212208
 30
0.0
 10
4.788593761
 20
5.4125542098
 30
0.0
 10
4.7833481585
 20
5.4119642071
 30
0.0
 10
4.7784438264
 20
5.4113526812
 30
0.0
 10
4.7738926549
 20
5.4107212122
 30
0.0
 10
4.7697056551
 20
5.410071445
 30
0.0
 10
4.7658928833
 20
5.4094051318
 30
0.0
 10
4.7624635107
 20
5.408724017
 30
0.0
 10
4.7598536002
 20
5.4081280916
 30
0.0
 10
4.75796566
 20
5.4076404234
 30
0.0
 10
4.7566969301
 20
5.4072839113
 30
0.0
 10
4.7555296346
 20
5.4069249144
 30
0.0
 10
4.7544644269
 20
5.4065636681
 30
0.0
 10
4.7535018698
 20
5.40620042
 30
0.0
 10
4.7526424357
 20
5.4058353782
 30
0.0
 10
4.7518864602
 20
5.4054687718
 30
0.0
 10
4.7512341297
 20
5.4051007514
 30
0.0
 10
4.7506854745
 20
5.4047312805
 30
0.0
 10
4.7502403061
 20
5.4043600955
 30
0.0
 10
4.749898533
 20
5.4039861244
 30
0.0
 10
4.7496608089
 20
5.4036077544
 30
0.0
 10
4.7495508017
 20
5.4032817911
 30
0.0
 10
4.7495216083
 20
5.4030263825
 30
0.0
 10
4.74952517
 20
5.402900757
 30
0.0
 10
4.7495313153
 20
5.4028386611
 30
0.0
  0
LINE
  5
3E2
100
AcDbEntity
  8
0
100
AcDbLine
 62
7
  6
CONTINUOUS
 10
6.9041748447
 20
3.9235557082
 11
6.9030431028
 21
3.9234346983
  0
SPLINE
  5
3E3
100
AcDbEntity
  8
0
100
AcDbSpline
 62
7
  6
CONTINUOUS
 70
0
 71
3
 72
21
 73
17
 74
0
 42
0.0000001
 43
0.0000001
 44
0.0000000001
 40
0.0
 40
0.0
 40
0.0
 40
0.0
 40
0.0253807955
 40
0.0620862312
 40
0.1114988009
 40
0.1734578268
 40
0.2458195833
 40
0.3264398618
 40
0.5041472752
 40
0.6818658887
 40
0.7624991179
 40
0.8346887233
 40
0.8958591835
 40
0.9434736069
 40
0.9775431734
 40
1.0
 40
1.0
 40
1.0
 40
1.0
 10
6.9030431028
 20
3.9234346983
 30
0.0
 10
6.902701772
 20
3.9234025625
 30
0.0
 10
6.9018663025
 20
3.9233293755
 30
0.0
 10
6.900364826
 20
3.9232111473
 30
0.0
 10
6.8983697075
 20
3.9230684061
 30
0.0
 10
6.8958932611
 20
3.9229047017
 30
0.0
 10
6.8929956127
 20
3.9227220835
 30
0.0
 10
6.8885368888
 20
3.9224518115
 30
0.0
 10
6.8826562609
 20
3.9221178377
 30
0.0
 10
6.8767730174
 20
3.9218300517
 30
0.0
 10
6.8723126533
 20
3.9216286494
 30
0.0
 10
6.8694246782
 20
3.9215055938
 30
0.0
 10
6.8669819502
 20
3.9214102697
 30
0.0
 10
6.8650532765
 20
3.9213479204
 30
0.0
 10
6.8636469057
 20
3.9213156461
 30
0.0
 10
6.8628833664
 20
3.9213074322
 30
0.0
 10
6.8625800228
 20
3.9213072018
 30
0.0
  0
LINE
  5
3E4
100
AcDbEntity
  8
0
100
AcDbLine
 62
7
  6
CONTINUOUS
 10
6.8625800228
 20
3.9213072018
 11
6.8616748447
 21
3.9213248754
  0
LINE
  5
3E5
100
AcDbEntity
  8
0
100
AcDbLine
 62
7
  6
CONTINUOUS
 10
6.9392748447
 20
3.9234696436
 11
6.9390043931
 21
3.9234109052
  0
LINE
  5
3E6
100
AcDbEntity
  8
0
100
AcDbLine
 62
7
  6
CONTINUOUS
 10
6.9390043931
 20
3.9234109052
 11
6.9292038317
 21
3.9231845795
  0
LINE
  5
3E7
100
AcDbEntity
  8
0
100
AcDbLine
 62
7
  6
CONTINUOUS
 10
6.9292038317
 20
3.9231845795
 11
6.9285248447
 21
3.9231806933
  0
SPLINE
  5
3E8
100
AcDbEntity
  8
0
100
AcDbSpline
 62
7
  6
CONTINUOUS
 70
0
 71
3
 72
33
 73
29
 74
0
 42
0.0000001
 43
0.0000001
 44
0.0000000001
 40
0.0
 40
0.0
 40
0.0
 40
0.0
 40
0.0624986917
 40
0.0937494909
 40
0.1250001737
 40
0.1562510231
 40
0.1875020004
 40
0.2499978623
 40
0.3124925232
 40
0.3437436734
 40
0.3749949141
 40
0.4062461404
 40
0.4374973939
 40
0.4687487061
 40
0.5
 40
0.531251294
 40
0.5625026062
 40
0.5937538597
 40
0.625005086
 40
0.6562563266
 40
0.6875074769
 40
0.7500021378
 40
0.8124979996
 40
0.8437489769
 40
0.8749998263
 40
0.906250509
 40
0.9375013083
 40
1.0
 40
1.0
 40
1.0
 40
1.0
 10
3.1130400706
 20
2.8167696314
 30
0.0
 10
3.1056585788
 20
2.8204497516
 30
0.0
 10
3.0944866206
 20
2.8257746698
 30
0.0
 10
3.0793891511
 20
2.8324249945
 30
0.0
 10
3.0679606206
 20
2.8371679784
 30
0.0
 10
3.0564255588
 20
2.8416461769
 30
0.0
 10
3.0409043515
 20
2.847237046
 30
0.0
 10
3.0212352714
 20
2.8534608969
 30
0.0
 10
3.0012301836
 20
2.8585159334
 30
0.0
 10
2.9850559529
 20
2.861771595
 30
0.0
 10
2.9728480421
 20
2.8638001563
 30
0.0
 10
2.9605762228
 20
2.8653978215
 30
0.0
 10
2.9482544336
 20
2.8665501331
 30
0.0
 10
2.935898362
 20
2.8672459943
 30
0.0
 10
2.9235248447
 20
2.8674786903
 30
0.0
 10
2.9111513273
 20
2.8672459943
 30
0.0
 10
2.8987952557
 20
2.8665501331
 30
0.0
 10
2.8864734665
 20
2.8653978215
 30
0.0
 10
2.8742016472
 20
2.8638001563
 30
0.0
 10
2.8619937365
 20
2.861771595
 30
0.0
 10
2.8458195058
 20
2.8585159333
 30
0.0
 10
2.825814418
 20
2.8534608969
 30
0.0
 10
2.8061453378
 20
2.847237046
 30
0.0
 10
2.7906241305
 20
2.8416461769
 30
0.0
 10
2.7790890688
 20
2.8371679784
 30
0.0
 10
2.7676605383
 20
2.8324249945
 30
0.0
 10
2.7525630688
 20
2.8257746698
 30
0.0
 10
2.7413911106
 20
2.8204497514
 30
0.0
 10
2.7340096189
 20
2.8167696313
 30
0.0
  0
LINE
  5
3E9
100
AcDbEntity
  8
0
100
AcDbLine
 62
7
  6
CONTINUOUS
 10
6.9971074397
 20
3.9199257511
 11
6.9842748447
 21
3.920785262
  0
SPLINE
  5
3EA
100
AcDbEntity
  8
0
100
AcDbSpline
 62
7
  6
CONTINUOUS
 70
0
 71
3
 72
28
 73
24
 74
0
 42
0.0000001
 43
0.0000001
 44
0.0000000001
 40
0.0
 40
0.0
 40
0.0
 40
0.0
 40
0.1945968203
 40
0.2895538824
 40
0.3817432762
 40
0.4702800521
 40
0.5543121487
 40
0.6330329052
 40
0.7056846763
 40
0.7715675606
 40
0.8300462191
 40
0.8805577198
 40
0.9026713372
 40
0.922616819
 40
0.9403476332
 40
0.9558200719
 40
0.9689992043
 40
0.9798541555
 40
0.988363557
 40
0.9945167217
 40
0.9983276609
 40
0.9993922117
 40
1.0
 40
1.0
 40
1.0
 40
1.0
 10
6.9722748447
 20
3.9216360246
 30
0.0
 10
6.9712996471
 20
3.9216975524
 30
0.0
 10
6.9698487641
 20
3.921791999
 30
0.0
 10
6.9679363513
 20
3.9219225497
 30
0.0
 10
6.9665554766
 20
3.9220198758
 30
0.0
 10
6.9652295482
 20
3.9221164734
 30
0.0
 10
6.9639713127
 20
3.9222114113
 30
0.0
 10
6.962792878
 20
3.9223037705
 30
0.0
 10
6.9617055893
 20
3.9223926516
 30
0.0
 10
6.9607199329
 20
3.9224771781
 30
0.0
 10
6.959845424
 20
3.9225565207
 30
0.0
 10
6.9591901824
 20
3.9226201492
 30
0.0
 10
6.95872785
 20
3.9226682761
 30
0.0
 10
6.9584294114
 20
3.9227009919
 30
0.0
 10
6.9581643201
 20
3.922731864
 30
0.0
 10
6.9579332276
 20
3.9227608064
 30
0.0
 10
6.9577366598
 20
3.9227877346
 30
0.0
 10
6.9575751888
 20
3.9228125048
 30
0.0
 10
6.9574488768
 20
3.9228350757
 30
0.0
 10
6.9573586079
 20
3.9228549378
 30
0.0
 10
6.9573049054
 20
3.9228713364
 30
0.0
 10
6.9572808321
 20
3.9228837706
 30
0.0
 10
6.9572748447
 20
3.9228911735
 30
0.0
 10
6.9572748447
 20
3.9228942254
 30
0.0
  0
SPLINE
  5
3EB
100
AcDbEntity
  8
0
100
AcDbSpline
 62
7
  6
CONTINUOUS
 70
0
 71
3
 72
39
 73
35
 74
0
 42
0.0000001
 43
0.0000001
 44
0.0000000001
 40
0.0
 40
0.0
 40
0.0
 40
0.0
 40
0.0352256072
 40
0.0699597889
 40
0.1041780487
 40
0.1378548044
 40
0.1709681311
 40
0.2035010241
 40
0.235441786
 40
0.2667870378
 40
0.297543548
 40
0.3277307504
 40
0.3573831456
 40
0.3865517797
 40
0.4153052029
 40
0.4437290239
 40
0.4719236905
 40
0.5000007758
 40
0.5280778595
 40
0.5562725218
 40
0.5846963358
 40
0.6134497495
 40
0.6426183723
 40
0.6722707546
 40
0.7024579433
 40
0.7332144383
 40
0.7645596743
 40
0.7965004292
 40
0.8290332951
 40
0.8621465797
 40
0.8958234482
 40
0.9300416836
 40
0.9647750615
 40
1.0
 40
1.0
 40
1.0
 40
1.0
 10
3.3025552964
 20
2.8167686688
 30
0.0
 10
3.3007222919
 20
2.8185963932
 30
0.0
 10
3.2970418891
 20
2.8221865808
 30
0.0
 10
3.2914339295
 20
2.8273989349
 30
0.0
 10
3.2857753442
 20
2.832386064
 30
0.0
 10
3.2800641602
 20
2.8371288257
 30
0.0
 10
3.2742994662
 20
2.8416076299
 30
0.0
 10
3.268481069
 20
2.8458023189
 30
0.0
 10
3.2626090337
 20
2.8496915468
 30
0.0
 10
3.2566841747
 20
2.8532533653
 30
0.0
 10
3.250708083
 20
2.8564654989
 30
0.0
 10
3.2446833388
 20
2.8593059048
 30
0.0
 10
3.2386135451
 20
2.8617531744
 30
0.0
 10
3.2325034465
 20
2.8637871591
 30
0.0
 10
3.2263590868
 20
2.8653899741
 30
0.0
 10
3.2201876824
 20
2.8665465384
 30
0.0
 10
3.2139975184
 20
2.8672452228
 30
0.0
 10
3.2077977613
 20
2.8674789099
 30
0.0
 10
3.201598004
 20
2.8672452345
 30
0.0
 10
3.1954078397
 20
2.8665465617
 30
0.0
 10
3.1892364347
 20
2.8653900088
 30
0.0
 10
3.1830920742
 20
2.8637872048
 30
0.0
 10
3.1769819747
 20
2.8617532307
 30
0.0
 10
3.1709121798
 20
2.8593059714
 30
0.0
 10
3.1648874347
 20
2.8564655745
 30
0.0
 10
3.1589113418
 20
2.8532534503
 30
0.0
 10
3.1529864795
 20
2.8496916425
 30
0.0
 10
3.1471144477
 20
2.8458024156
 30
0.0
 10
3.14129605
 20
2.8416077379
 30
0.0
 10
3.1355313257
 20
2.8371289668
 30
0.0
 10
3.1298201841
 20
2.8323861464
 30
0.0
 10
3.1241616826
 20
2.8273990059
 30
0.0
 10
3.1185535328
 20
2.8221870224
 30
0.0
 10
3.1148730418
 20
2.8185970764
 30
0.0
 10
3.1130400706
 20
2.8167693882
 30
0.0
  0
LINE
  5
3EC
100
AcDbEntity
  8
0
100
AcDbLine
 62
7
  6
CONTINUOUS
 10
7.0235248447
 20
3.9169895896
 11
7.0230771165
 21
3.9169607397
  0
LINE
  5
3ED
100
AcDbEntity
  8
0
100
AcDbLine
 62
7
  6
CONTINUOUS
 10
7.0230771165
 20
3.9169607397
 11
7.0193562614
 21
3.9172616236
  0
LINE
  5
3EE
100
AcDbEntity
  8
0
100
AcDbLine
 62
7
  6
CONTINUOUS
 10
7.0813648477
 20
3.9074194988
 11
7.0616055532
 21
3.9107919055
  0
LINE
  5
3EF
100
AcDbEntity
  8
0
100
AcDbLine
 62
7
  6
CONTINUOUS
 10
7.0616055532
 20
3.9107919055
 11
7.0606058744
 21
3.9109682318
  0
LINE
  5
3F0
100
AcDbEntity
  8
0
100
AcDbLine
 62
7
  6
CONTINUOUS
 10
7.0606058744
 20
3.9109682318
 11
7.0585972388
 21
3.9113234793
  0
LINE
  5
3F1
100
AcDbEntity
  8
0
100
AcDbLine
 62
7
  6
CONTINUOUS
 10
7.0446657849
 20
3.9136609283
 11
7.0416657849
 21
3.9142438416
  0
LINE
  5
3F2
100
AcDbEntity
  8
0
100
AcDbLine
 62
7
  6
CONTINUOUS
 10
6.7891687274
 20
3.9114767723
 11
6.7725093535
 21
3.9087836791
  0
ENDSEC
  0
SECTION
  2
OBJECTS
  0
DICTIONARY
  5
C
100
AcDbDictionary
280
0
281
1
  3
ACAD_GROUP
350
D
  3
ACAD_MLINESTYLE
350
17
  3
ACAD_LAYOUT
350
1A
  3
ACAD_PLOTSETTINGS
350
19
  3
ACAD_PLOTSTYLENAME
350
E
  0
DICTIONARY
  5
D
102
{ACAD_REACTORS
330
C
102
}
100
AcDbDictionary
280
0
281
1
  0
ACDBDICTIONARYWDFLT
  5
E
102
{ACAD_REACTORS
330
C
102
}
100
AcDbDictionary
281
1
  3
Normal
350
F
100
AcDbDictionaryWithDefault
340
F
  0
DICTIONARY
  5
17
102
{ACAD_REACTORS
330
C
102
}
100
AcDbDictionary
280
0
281
1
  3
Standard
350
18
  0
DICTIONARY
  5
19
102
{ACAD_REACTORS
330
C
102
}
100
AcDbDictionary
281
1
  0
DICTIONARY
  5
1A
102
{ACAD_REACTORS
330
C
102
}
100
AcDbDictionary
281
1
  3
Model
350
3F3
  3
Layout1
350
3F4
  0
ACDBPLACEHOLDER
  5
F
102
{ACAD_REACTORS
330
E
102
}
  0
MLINESTYLE
  5
18
102
{ACAD_REACTORS
330
17
102
}
100
AcDbMlineStyle
  2
STANDARD
 70
0
  3

 62
256
 51
90.0
 52
90.0
 71
2
 49
0.5
 62
256
  6
BYLAYER
 49
-0.5
 62
256
  6
BYLAYER
  0
LAYOUT
  5
3F3
102
{ACAD_REACTORS
330
1A
102
}
100
AcDbPlotSettings
  1

  2
none_device
  4
ANSI_A_(11.00_x_8.50_Inches)
  6

 40
0.0
 41
0.0
 42
0.0
 43
0.0
 44
279.4
 45
215.9
 46
0.0
 47
0.0
 48
0.0
 49
0.0
140
0.0
141
0.0
142
1.0
143
1.0
 70
1024
 72
0
 73
0
 74
0
  7

 75
0
147
1.0
148
0.0
149
0.0
100
AcDbLayout
  1
Model
 70
0
 71
0
 10
0.0
 20
0.0
 11
11.0
 21
8.5
 12
0.0
 22
0.0
 32
0.0
 14
0.0
 24
0.0
 34
0.0
 15
0.0
 25
0.0
 35
0.0
146
0.0
 13
0.0
 23
0.0
 33
0.0
 16
1.0
 26
0.0
 36
0.0
 17
0.0
 27
1.0
 37
0.0
 76
0
330
202
345
0
346
0
  0
LAYOUT
  5
3F4
102
{ACAD_REACTORS
330
1A
102
}
100
AcDbPlotSettings
  1

  2
none_device
  4
ANSI_A_(11.00_x_8.50_Inches)
  6

 40
0.0
 41
0.0
 42
0.0
 43
0.0
 44
279.4
 45
215.9
 46
0.0
 47
0.0
 48
0.0
 49
0.0
140
0.0
141
0.0
142
1.0
143
1.0
 70
0
 72
0
 73
0
 74
0
  7

 75
0
147
1.0
148
0.0
149
0.0
100
AcDbLayout
  1
Layout1
 70
0
 71
1
 10
0.0
 20
0.0
 11
11.0
 21
8.5
 12
0.0
 22
0.0
 32
0.0
 14
0.0
 24
0.0
 34
0.0
 15
0.0
 25
0.0
 35
0.0
146
0.0
 13
0.0
 23
0.0
 33
0.0
 16
1.0
 26
0.0
 36
0.0
 17
0.0
 27
1.0
 37
0.0
 76
0
330
203
345
0
346
0
  0
ENDSEC
  0
EOF
