999
DXF file: 942_top.dxf
999
Pro/ENGINEER 2018400 by Parametric Technology Corporation
  0
SECTION
  2
HEADER
  9
$ACADVER
  1
AC1027
  9
$DWGCODEPAGE
  3
ANSI_1252
  9
$EXTMAX
 10
11.0
 20
8.5
 30
0.0
  9
$EXTMIN
 10
0.0
 20
0.0
 30
0.0
  9
$LIMMIN
 10
0.0
 20
0.0
  9
$LIMMAX
 10
11.0
 20
8.5
  9
$VIEWCTR
 10
5.5
 20
4.25
  9
$VIEWSIZE
 40
8.5
  9
$CLAYER
  8
0
  9
$LTSCALE
 40
0.605
  9
$CELTYPE
  6
BYLAYER
  9
$DIMSCALE
 40
1.0
  9
$DIMASZ
 40
0.1
  9
$DIMEXO
 40
0.0625
  9
$DIMDLI
 40
0.418
  9
$DIMEXE
 40
0.125
  9
$DIMCEN
 40
0.099
  9
$DIMLFAC
 40
1.0
  9
$DIMBLK
  1
_FILLED
  9
$DIMALT
 70
1
  9
$DIMALTD
 70
1
  9
$DIMALTTD
 70
2
  9
$DIMALTF
 40
25.4
  9
$DIMTXT
 40
0.08
  9
$DIMTOL
 70
1
  9
$DIMLIM
 70
0
  9
$DIMTFAC
 40
1.0
  9
$DIMTP
 40
0.01
  9
$DIMTM
 40
0.01
  9
$DIMGAP
 40
0.09
  9
$DIMDSEP
 70
46
  9
$AUNITS
 70
0
  9
$PDMODE
 70
3
  9
$PDSIZE
 40
0.3125
  9
$HANDSEED
  5
39A
  9
$TILEMODE
 70
1
  9
$MEASUREMENT
 70
0
  9
$INSUNITS
 70
1
  0
ENDSEC
  0
SECTION
  2
CLASSES
  0
CLASS
  1
ACDBDICTIONARYWDFLT
  2
AcDbDictionaryWithDefault
  3
AutoCAD 2000
 90
0
 91
1
280
0
281
0
  0
CLASS
  1
ACDBPLACEHOLDER
  2
AcDbPlaceHolder
  3
AutoCAD 2000
 90
0
 91
1
280
0
281
0
  0
CLASS
  1
LAYOUT
  2
AcDbLayout
  3
AutoCAD 2000
 90
0
 91
0
280
0
281
0
  0
ENDSEC
  0
SECTION
  2
TABLES
  0
TABLE
  2
VPORT
  5
8
100
AcDbSymbolTable
 70
2
  0
VPORT
  5
1F4
100
AcDbSymbolTableRecord
100
AcDbViewportTableRecord
  2
*ACTIVE
 70
0
 10
0.0
 20
0.0
 11
1.0
 21
1.0
 12
5.5
 22
4.25
 13
0.0
 23
0.0
 14
1.0
 24
1.0
 15
0.0
 25
0.0
 16
0.0
 26
0.0
 36
1.0
 17
0.0
 27
0.0
 37
0.0
 40
8.5
 41
1.2941176471
 42
50.0
 43
0.0
 44
0.0
 50
0.0
 51
0.0
 71
0
 72
100
 73
1
 74
1
 75
0
 76
0
 77
0
 78
0
  0
ENDTAB
  0
TABLE
  2
LTYPE
  5
5
100
AcDbSymbolTable
 70
6
  0
LTYPE
  5
14
100
AcDbSymbolTableRecord
100
AcDbLinetypeTableRecord
  2
BYBLOCK
 70
0
  3

 72
65
 73
0
 40
0.0
  0
LTYPE
  5
15
100
AcDbSymbolTableRecord
100
AcDbLinetypeTableRecord
  2
BYLAYER
 70
0
  3

 72
65
 73
0
 40
0.0
  0
LTYPE
  5
16
100
AcDbSymbolTableRecord
100
AcDbLinetypeTableRecord
  2
CONTINUOUS
 70
64
  3
Solid line
 72
65
 73
0
 40
0.0
  0
LTYPE
  5
1F5
100
AcDbSymbolTableRecord
100
AcDbLinetypeTableRecord
  2
CENTER
 70
64
  3
____ _ ____ _ ____ _ ____ _ ____ _ ____ _ ____
 72
65
 73
4
 40
0.6
 49
0.375
 74
0
 49
-0.075
 74
0
 49
0.075
 74
0
 49
-0.075
 74
0
  0
LTYPE
  5
1F6
100
AcDbSymbolTableRecord
100
AcDbLinetypeTableRecord
  2
HIDDEN
 70
64
  3
- - - - - - - - - - - - - - - - - - - -
 72
65
 73
2
 40
0.2
 49
0.1
 74
0
 49
-0.1
 74
0
  0
LTYPE
  5
1F7
100
AcDbSymbolTableRecord
100
AcDbLinetypeTableRecord
  2
PHANTOM
 70
64
  3
_____ _ _ _____ _ _ _____ _ _ _____
 72
65
 73
6
 40
0.8
 49
0.45
 74
0
 49
-0.05
 74
0
 49
0.1
 74
0
 49
-0.05
 74
0
 49
0.1
 74
0
 49
-0.05
 74
0
  0
LTYPE
  5
1F8
100
AcDbSymbolTableRecord
100
AcDbLinetypeTableRecord
  2
DOT
 70
64
  3
. . . . . . . . . . . . . . . . . . . .
 72
65
 73
2
 40
0.2
 49
0.1
 74
0
 49
-0.1
 74
0
  0
LTYPE
  5
1F9
100
AcDbSymbolTableRecord
100
AcDbLinetypeTableRecord
  2
DASHED
 70
64
  3
- - - - - - - - - - - - - - - - - - - -
 72
65
 73
2
 40
0.2
 49
0.1
 74
0
 49
-0.1
 74
0
  0
ENDTAB
  0
TABLE
  2
LAYER
  5
2
100
AcDbSymbolTable
 70
36
  0
LAYER
  5
10
100
AcDbSymbolTableRecord
100
AcDbLayerTableRecord
  2
0
 70
0
 62
7
  6
CONTINUOUS
370
-3
390
F
  0
LAYER
  5
1FA
100
AcDbSymbolTableRecord
100
AcDbLayerTableRecord
  2
DEFAULT_1
 70
0
 62
7
  6
CENTER
370
-3
390
F
  0
LAYER
  5
1FB
100
AcDbSymbolTableRecord
100
AcDbLayerTableRecord
  2
DEFAULT_2
 70
0
 62
8
  6
HIDDEN
370
-3
390
F
  0
LAYER
  5
1FC
100
AcDbSymbolTableRecord
100
AcDbLayerTableRecord
  2
DEFAULT_3
 70
0
 62
7
  6
PHANTOM
370
-3
390
F
  0
LAYER
  5
1FD
100
AcDbSymbolTableRecord
100
AcDbLayerTableRecord
  2
DEFAULT_COORDINATE_SYSTEM
 70
0
 62
7
  6
CONTINUOUS
370
-3
390
F
  0
LAYER
  5
1FE
100
AcDbSymbolTableRecord
100
AcDbLayerTableRecord
  2
DEFAULT_DATUM_AXES
 70
0
 62
7
  6
CONTINUOUS
370
-3
390
F
  0
LAYER
  5
1FF
100
AcDbSymbolTableRecord
100
AcDbLayerTableRecord
  2
DEFAULT_DATUM_PLANES
 70
0
 62
7
  6
CONTINUOUS
370
-3
390
F
  0
ENDTAB
  0
TABLE
  2
STYLE
  5
3
100
AcDbSymbolTable
 70
1
  0
STYLE
  5
11
100
AcDbSymbolTableRecord
100
AcDbTextStyleTableRecord
  2
STANDARD
 70
0
 40
0.0
 41
0.8
 50
0.0
 71
0
 42
0.2
  3
txt
  4

  0
STYLE
  5
200
100
AcDbSymbolTableRecord
100
AcDbTextStyleTableRecord
  2
TEXTSTYLE_1
 70
0
 40
0.0
 41
0.8
 50
0.0
 71
0
 42
0.2
  3
gdt
  4

  0
ENDTAB
  0
TABLE
  2
VIEW
  5
6
100
AcDbSymbolTable
 70
0
  0
ENDTAB
  0
TABLE
  2
UCS
  5
7
100
AcDbSymbolTable
 70
0
  0
ENDTAB
  0
TABLE
  2
APPID
  5
9
100
AcDbSymbolTable
 70
1
  0
APPID
  5
201
100
AcDbSymbolTableRecord
100
AcDbRegAppTableRecord
  2
ACAD
 70
0
  0
ENDTAB
  0
TABLE
  2
BLOCK_RECORD
  5
1
100
AcDbSymbolTable
 70
0
  0
BLOCK_RECORD
  5
202
100
AcDbSymbolTableRecord
100
AcDbBlockTableRecord
  2
*Model_Space
  0
BLOCK_RECORD
  5
203
100
AcDbSymbolTableRecord
100
AcDbBlockTableRecord
  2
*Paper_Space
  0
BLOCK_RECORD
  5
204
100
AcDbSymbolTableRecord
100
AcDbBlockTableRecord
  2
_FILLED
  0
ENDTAB
  0
TABLE
  2
DIMSTYLE
  5
A
100
AcDbSymbolTable
 70
1
100
AcDbDimStyleTable
 71
0
  0
DIMSTYLE
105
205
100
AcDbSymbolTableRecord
100
AcDbDimStyleTableRecord
  2
STANDARD
 70
0
  3

  4

 40
1.0
 41
0.1
 42
0.0625
 43
0.38
 44
0.125
 45
0.0
 46
0.0
 47
0.01
 48
0.01
140
0.08
141
0.09
142
0.0
143
25.4
144
1.0
145
0.0
146
1.0
147
0.09
 71
1.0
 72
0.0
 73
1
 74
1
 75
0
 76
0
 77
0
 78
4
 79
1
170
1
171
1
172
0
173
0
174
0
175
0
176
0
177
0
178
0
270
2
179
2
271
2
272
2
273
2
274
2
275
0
280
0
281
0
282
0
283
1
284
4
285
0
286
0
287
3
288
0
340
11
278
46
341
204
342
204
343
204
344
204
  0
ENDTAB
  0
ENDSEC
  0
SECTION
  2
BLOCKS
  0
BLOCK
  5
20
100
AcDbEntity
  8
0
100
AcDbBlockBegin
  2
*Model_Space
 70
0
 10
0.0
 20
0.0
 30
0.0
  3
*Model_Space
  1

  0
ENDBLK
  5
21
100
AcDbEntity
  8
0
100
AcDbBlockEnd
  0
BLOCK
  5
1C
100
AcDbEntity
  8
0
100
AcDbBlockBegin
  2
*Paper_Space
 70
0
 10
0.0
 20
0.0
 30
0.0
  3
*Paper_Space
  1

  0
ENDBLK
  5
1D
100
AcDbEntity
  8
0
100
AcDbBlockEnd
  0
BLOCK
  5
206
100
AcDbEntity
  8
0
100
AcDbBlockBegin
  2
_FILLED
 70
64
 10
0.0
 20
0.0
  3
_FILLED
  1

  0
SOLID
  5
207
100
AcDbEntity
  8
0
  6
BYBLOCK
 62
0
100
AcDbTrace
 10
0.0
 20
0.0
 11
-1.0
 21
0.2
 12
-1.0
 22
-0.2
 13
-1.0
 23
-0.2
  0
ENDBLK
  5
208
100
AcDbEntity
  8
0
  6
BYBLOCK
 62
0
100
AcDbBlockEnd
  0
ENDSEC
  0
SECTION
  2
ENTITIES
  0
MTEXT
  5
209
100
AcDbEntity
  8
0
100
AcDbMText
 62
2
  6
CONTINUOUS
  7
STANDARD
 71
3
 72
1
 10
5.280939441
 20
0.9168980556
 30
0.0
 11
1.0
 21
0.0
 31
0.0
 73
2
 44
0.9
  1
SCALE  .500
 40
0.08
 41
0.704
  0
LINE
  5
20A
100
AcDbEntity
  8
0
100
AcDbLine
 62
7
  6
CONTINUOUS
 10
0.0
 20
0.0
 11
0.0
 21
8.5
  0
LINE
  5
20B
100
AcDbEntity
  8
0
100
AcDbLine
 62
7
  6
CONTINUOUS
 10
0.0
 20
0.0
 11
11.0
 21
0.0
  0
LINE
  5
20C
100
AcDbEntity
  8
0
100
AcDbLine
 62
7
  6
CONTINUOUS
 10
0.0
 20
8.5
 11
11.0
 21
8.5
  0
LINE
  5
20D
100
AcDbEntity
  8
0
100
AcDbLine
 62
7
  6
CONTINUOUS
 10
11.0
 20
0.0
 11
11.0
 21
8.5
  0
LINE
  5
20E
100
AcDbEntity
  8
0
100
AcDbLine
 62
7
  6
CONTINUOUS
 10
2.576844708
 20
6.8153843337
 11
2.7340096189
 21
7.0876019444
  0
LINE
  5
20F
100
AcDbEntity
  8
0
100
AcDbLine
 62
7
  6
CONTINUOUS
 10
3.0074184925
 20
7.2306905559
 11
3.0361582508
 21
7.2717351844
  0
LINE
  5
210
100
AcDbEntity
  8
0
100
AcDbLine
 62
7
  6
CONTINUOUS
 10
2.4111416047
 20
6.6467185383
 11
2.4521862332
 21
6.6754582966
  0
LINE
  5
211
100
AcDbEntity
  8
0
100
AcDbLine
 62
7
  6
CONTINUOUS
 10
2.9685248447
 20
6.7905945851
 11
2.9730248447
 21
6.8013519444
  0
LINE
  5
212
100
AcDbEntity
  8
0
100
AcDbLine
 62
7
  6
CONTINUOUS
 10
2.8396311969
 20
6.2880133329
 11
2.8108914386
 21
6.2469687044
  0
LINE
  5
213
100
AcDbEntity
  8
0
100
AcDbLine
 62
7
  6
CONTINUOUS
 10
3.0530248447
 20
6.7905945851
 11
3.048782204
 21
6.7863519444
  0
LINE
  5
214
100
AcDbEntity
  8
0
100
AcDbLine
 62
7
  6
CONTINUOUS
 10
3.4359080847
 20
6.8719853505
 11
3.3948634562
 21
6.8432455922
  0
LINE
  5
215
100
AcDbEntity
  8
0
100
AcDbLine
 62
7
  6
CONTINUOUS
 10
2.4111416047
 20
6.6467185383
 11
2.4111416047
 21
6.8719853505
  0
LINE
  5
216
100
AcDbEntity
  8
0
100
AcDbLine
 62
7
  6
CONTINUOUS
 10
2.4521862332
 20
6.6754582966
 11
2.4521862332
 21
6.8432455922
  0
LINE
  5
217
100
AcDbEntity
  8
0
100
AcDbLine
 62
7
  6
CONTINUOUS
 10
2.4647748447
 20
6.6648064996
 11
2.4647748447
 21
6.8538973893
  0
LINE
  5
218
100
AcDbEntity
  8
0
100
AcDbLine
 62
7
  6
CONTINUOUS
 10
2.477206424
 20
6.6638932978
 11
2.477206424
 21
6.854810591
  0
LINE
  5
219
100
AcDbEntity
  8
0
100
AcDbLine
 62
7
  6
CONTINUOUS
 10
3.2702049814
 20
6.7033195551
 11
3.1130400706
 21
6.4311019444
  0
LINE
  5
21A
100
AcDbEntity
  8
0
100
AcDbLine
 62
7
  6
CONTINUOUS
 10
2.6579418398
 20
6.8526909124
 11
2.6579418398
 21
6.8439524458
  0
LINE
  5
21B
100
AcDbEntity
  8
0
100
AcDbLine
 62
7
  6
CONTINUOUS
 10
2.6579418398
 20
6.6747513797
 11
2.6579418398
 21
6.6660129765
  0
LINE
  5
21C
100
AcDbEntity
  8
0
100
AcDbLine
 62
7
  6
CONTINUOUS
 10
2.7910248447
 20
6.7168519444
 11
2.7910248447
 21
6.7288519444
  0
LINE
  5
21D
100
AcDbEntity
  8
0
100
AcDbLine
 62
7
  6
CONTINUOUS
 10
2.7910248447
 20
6.7923519444
 11
2.7910248447
 21
6.8013519444
  0
LINE
  5
21E
100
AcDbEntity
  8
0
100
AcDbLine
 62
7
  6
CONTINUOUS
 10
2.7992748447
 20
6.7402509575
 11
2.7992748447
 21
6.7809529313
  0
LINE
  5
21F
100
AcDbEntity
  8
0
100
AcDbLine
 62
7
  6
CONTINUOUS
 10
2.8192748447
 20
6.7543519444
 11
2.8192748447
 21
6.7402509575
  0
LINE
  5
220
100
AcDbEntity
  8
0
100
AcDbLine
 62
7
  6
CONTINUOUS
 10
2.8197748447
 20
6.7811297566
 11
2.8197748447
 21
6.7691297566
  0
LINE
  5
221
100
AcDbEntity
  8
0
100
AcDbLine
 62
7
  6
CONTINUOUS
 10
2.8275248447
 20
6.8013519444
 11
2.8275248447
 21
6.7923519444
  0
LINE
  5
222
100
AcDbEntity
  8
0
100
AcDbLine
 62
7
  6
CONTINUOUS
 10
2.8275248447
 20
6.7288519444
 11
2.8275248447
 21
6.7168519444
  0
LINE
  5
223
100
AcDbEntity
  8
0
100
AcDbLine
 62
7
  6
CONTINUOUS
 10
2.8360248447
 20
6.7168519444
 11
2.8360248447
 21
6.7288519444
  0
LINE
  5
224
100
AcDbEntity
  8
0
100
AcDbLine
 62
7
  6
CONTINUOUS
 10
2.8360248447
 20
6.7923519444
 11
2.8360248447
 21
6.8013519444
  0
LINE
  5
225
100
AcDbEntity
  8
0
100
AcDbLine
 62
7
  6
CONTINUOUS
 10
2.8437748447
 20
6.7691297566
 11
2.8437748447
 21
6.7811297566
  0
LINE
  5
226
100
AcDbEntity
  8
0
100
AcDbLine
 62
7
  6
CONTINUOUS
 10
2.8442748447
 20
6.7402509575
 11
2.8442748447
 21
6.7543519444
  0
LINE
  5
227
100
AcDbEntity
  8
0
100
AcDbLine
 62
7
  6
CONTINUOUS
 10
2.8642748447
 20
6.7809529313
 11
2.8642748447
 21
6.7402509575
  0
LINE
  5
228
100
AcDbEntity
  8
0
100
AcDbLine
 62
7
  6
CONTINUOUS
 10
2.8725248447
 20
6.8013519444
 11
2.8725248447
 21
6.7923519444
  0
LINE
  5
229
100
AcDbEntity
  8
0
100
AcDbLine
 62
7
  6
CONTINUOUS
 10
2.8725248447
 20
6.7288519444
 11
2.8725248447
 21
6.7168519444
  0
LINE
  5
22A
100
AcDbEntity
  8
0
100
AcDbLine
 62
7
  6
CONTINUOUS
 10
2.9925248447
 20
6.7168519444
 11
2.9925248447
 21
6.7288519444
  0
LINE
  5
22B
100
AcDbEntity
  8
0
100
AcDbLine
 62
7
  6
CONTINUOUS
 10
3.0017748447
 20
6.7445820906
 11
3.0017748447
 21
6.7909019444
  0
LINE
  5
22C
100
AcDbEntity
  8
0
100
AcDbLine
 62
7
  6
CONTINUOUS
 10
3.0197748447
 20
6.7909019444
 11
3.0197748447
 21
6.7445820906
  0
LINE
  5
22D
100
AcDbEntity
  8
0
100
AcDbLine
 62
7
  6
CONTINUOUS
 10
3.0290248447
 20
6.7288519444
 11
3.0290248447
 21
6.7168519444
  0
LINE
  5
22E
100
AcDbEntity
  8
0
100
AcDbLine
 62
7
  6
CONTINUOUS
 10
3.1891078496
 20
6.6660129765
 11
3.1891078496
 21
6.6747513807
  0
LINE
  5
22F
100
AcDbEntity
  8
0
100
AcDbLine
 62
7
  6
CONTINUOUS
 10
3.1891078496
 20
6.8439525094
 11
3.1891078496
 21
6.8526909124
  0
LINE
  5
230
100
AcDbEntity
  8
0
100
AcDbLine
 62
7
  6
CONTINUOUS
 10
3.3698432654
 20
6.854810591
 11
3.3698432654
 21
6.6638932978
  0
LINE
  5
231
100
AcDbEntity
  8
0
100
AcDbLine
 62
7
  6
CONTINUOUS
 10
3.3822748447
 20
6.8538973893
 11
3.3822748447
 21
6.6648064996
  0
LINE
  5
232
100
AcDbEntity
  8
0
100
AcDbLine
 62
7
  6
CONTINUOUS
 10
3.3948634562
 20
6.8432455922
 11
3.3948634562
 21
6.6754582966
  0
LINE
  5
233
100
AcDbEntity
  8
0
100
AcDbLine
 62
7
  6
CONTINUOUS
 10
3.4359080847
 20
6.8719853505
 11
3.4359080847
 21
6.6467185383
  0
LINE
  5
234
100
AcDbEntity
  8
0
100
AcDbLine
 62
7
  6
CONTINUOUS
 10
6.8330248447
 20
6.7733219916
 11
6.8243704316
 21
6.7708519444
  0
LINE
  5
235
100
AcDbEntity
  8
0
100
AcDbLine
 62
7
  6
CONTINUOUS
 10
6.4111416047
 20
6.6467185383
 11
6.4521862332
 21
6.6754582966
  0
LINE
  5
236
100
AcDbEntity
  8
0
100
AcDbLine
 62
7
  6
CONTINUOUS
 10
2.7340096189
 20
6.4311019444
 11
2.576844708
 21
6.7033195551
  0
LINE
  5
237
100
AcDbEntity
  8
0
100
AcDbLine
 62
7
  6
CONTINUOUS
 10
3.0485248447
 20
6.8013519444
 11
3.0530248447
 21
6.7905945851
  0
LINE
  5
238
100
AcDbEntity
  8
0
100
AcDbLine
 62
7
  6
CONTINUOUS
 10
3.0074184925
 20
6.2880133329
 11
3.0361582508
 21
6.2469687044
  0
LINE
  5
239
100
AcDbEntity
  8
0
100
AcDbLine
 62
7
  6
CONTINUOUS
 10
7.4359080847
 20
6.8719853505
 11
7.3948634562
 21
6.8432455922
  0
LINE
  5
23A
100
AcDbEntity
  8
0
100
AcDbLine
 62
7
  6
CONTINUOUS
 10
2.8396311969
 20
7.2306905559
 11
2.8108914386
 21
7.2717351844
  0
LINE
  5
23B
100
AcDbEntity
  8
0
100
AcDbLine
 62
7
  6
CONTINUOUS
 10
3.1130400706
 20
7.0876019444
 11
3.2702049814
 21
6.8153843337
  0
LINE
  5
23C
100
AcDbEntity
  8
0
100
AcDbLine
 62
7
  6
CONTINUOUS
 10
4.7200248447
 20
6.3799272129
 11
4.7200248447
 21
6.184606904
  0
LINE
  5
23D
100
AcDbEntity
  8
0
100
AcDbLine
 62
7
  6
CONTINUOUS
 10
4.7672748447
 20
6.122106904
 11
4.7672748447
 21
2.0650720292
  0
LINE
  5
23E
100
AcDbEntity
  8
0
100
AcDbLine
 62
7
  6
CONTINUOUS
 10
4.7830248447
 20
7.333106904
 11
4.7830248447
 21
7.351106904
  0
LINE
  5
23F
100
AcDbEntity
  8
0
100
AcDbLine
 62
7
  6
CONTINUOUS
 10
4.8222748447
 20
7.099606904
 11
4.8222748447
 21
7.176606904
  0
LINE
  5
240
100
AcDbEntity
  8
0
100
AcDbLine
 62
7
  6
CONTINUOUS
 10
4.8342748447
 20
7.287606904
 11
4.8342748447
 21
7.303106904
  0
LINE
  5
241
100
AcDbEntity
  8
0
100
AcDbLine
 62
7
  6
CONTINUOUS
 10
5.0797748447
 20
4.447106904
 11
4.7672748447
 21
4.447106904
  0
LINE
  5
242
100
AcDbEntity
  8
0
100
AcDbLine
 62
7
  6
CONTINUOUS
 10
5.0127748447
 20
7.287606904
 11
5.0127748447
 21
7.303106904
  0
LINE
  5
243
100
AcDbEntity
  8
0
100
AcDbLine
 62
7
  6
CONTINUOUS
 10
5.0247748447
 20
7.099606904
 11
5.0247748447
 21
7.176606904
  0
LINE
  5
244
100
AcDbEntity
  8
0
100
AcDbLine
 62
7
  6
CONTINUOUS
 10
5.0640248447
 20
7.333106904
 11
5.0640248447
 21
7.351106904
  0
LINE
  5
245
100
AcDbEntity
  8
0
100
AcDbLine
 62
7
  6
CONTINUOUS
 10
5.0797748447
 20
6.122106904
 11
5.0797748447
 21
2.0650720292
  0
LINE
  5
246
100
AcDbEntity
  8
0
100
AcDbLine
 62
7
  6
CONTINUOUS
 10
5.1270248447
 20
6.3799272129
 11
5.1270248447
 21
6.184606904
  0
LINE
  5
247
100
AcDbEntity
  8
0
100
AcDbLine
 62
7
  6
CONTINUOUS
 10
7.0074184925
 20
7.2306905559
 11
7.0361582508
 21
7.2717351844
  0
LINE
  5
248
100
AcDbEntity
  8
0
100
AcDbLine
 62
7
  6
CONTINUOUS
 10
2.9727674854
 20
6.7863519444
 11
2.9685248447
 21
6.7905945851
  0
LINE
  5
249
100
AcDbEntity
  8
0
100
AcDbLine
 62
7
  6
CONTINUOUS
 10
6.576844708
 20
6.8153843337
 11
6.7340096189
 21
7.0876019444
  0
LINE
  5
24A
100
AcDbEntity
  8
0
100
AcDbLine
 62
7
  6
CONTINUOUS
 10
2.4111416047
 20
6.8719853505
 11
2.4521862332
 21
6.8432455922
  0
LINE
  5
24B
100
AcDbEntity
  8
0
100
AcDbLine
 62
7
  6
CONTINUOUS
 10
6.9971074397
 20
6.7354703816
 11
7.0037473131
 21
6.7464409062
  0
LINE
  5
24C
100
AcDbEntity
  8
0
100
AcDbLine
 62
7
  6
CONTINUOUS
 10
6.8396311969
 20
6.2880133329
 11
6.8108914386
 21
6.2469687044
  0
LINE
  5
24D
100
AcDbEntity
  8
0
100
AcDbLine
 62
7
  6
CONTINUOUS
 10
3.4359080847
 20
6.6467185383
 11
3.3948634562
 21
6.6754582966
  0
LINE
  5
24E
100
AcDbEntity
  8
0
100
AcDbLine
 62
7
  6
CONTINUOUS
 10
7.2702049814
 20
6.7033195551
 11
7.1130400706
 21
6.4311019444
  0
LINE
  5
24F
100
AcDbEntity
  8
0
100
AcDbLine
 62
7
  6
CONTINUOUS
 10
6.4111416047
 20
6.6467185383
 11
6.4111416047
 21
6.8719853505
  0
LINE
  5
250
100
AcDbEntity
  8
0
100
AcDbLine
 62
7
  6
CONTINUOUS
 10
6.4521862332
 20
6.6754582966
 11
6.4521862332
 21
6.8432455922
  0
LINE
  5
251
100
AcDbEntity
  8
0
100
AcDbLine
 62
7
  6
CONTINUOUS
 10
6.4647748447
 20
6.6648064996
 11
6.4647748447
 21
6.8538973893
  0
LINE
  5
252
100
AcDbEntity
  8
0
100
AcDbLine
 62
7
  6
CONTINUOUS
 10
6.477206424
 20
6.6638932978
 11
6.477206424
 21
6.854810591
  0
LINE
  5
253
100
AcDbEntity
  8
0
100
AcDbLine
 62
7
  6
CONTINUOUS
 10
4.7200249815
 20
6.122106904
 11
5.127024708
 21
6.122106904
  0
LINE
  5
254
100
AcDbEntity
  8
0
100
AcDbLine
 62
7
  6
CONTINUOUS
 10
4.7200248447
 20
6.184606904
 11
5.1270248447
 21
6.184606904
  0
LINE
  5
255
100
AcDbEntity
  8
0
100
AcDbLine
 62
7
  6
CONTINUOUS
 10
2.8108914386
 20
6.2469687044
 11
3.0361582508
 21
6.2469687044
  0
LINE
  5
256
100
AcDbEntity
  8
0
100
AcDbLine
 62
7
  6
CONTINUOUS
 10
6.8108914386
 20
6.2469687044
 11
7.0361582508
 21
6.2469687044
  0
LINE
  5
257
100
AcDbEntity
  8
0
100
AcDbLine
 62
7
  6
CONTINUOUS
 10
6.6579418398
 20
6.8526909124
 11
6.6579418398
 21
6.8440025816
  0
LINE
  5
258
100
AcDbEntity
  8
0
100
AcDbLine
 62
7
  6
CONTINUOUS
 10
6.6579418398
 20
6.6747013395
 11
6.6579418398
 21
6.6660129765
  0
LINE
  5
259
100
AcDbEntity
  8
0
100
AcDbLine
 62
7
  6
CONTINUOUS
 10
7.0080248447
 20
6.7438519444
 11
7.0032640162
 21
6.7168519444
  0
LINE
  5
25A
100
AcDbEntity
  8
0
100
AcDbLine
 62
7
  6
CONTINUOUS
 10
2.8396311969
 20
6.2880133329
 11
3.0074184925
 21
6.2880133329
  0
LINE
  5
25B
100
AcDbEntity
  8
0
100
AcDbLine
 62
7
  6
CONTINUOUS
 10
6.8396311969
 20
6.2880133329
 11
7.0074184925
 21
6.2880133329
  0
LINE
  5
25C
100
AcDbEntity
  8
0
100
AcDbLine
 62
7
  6
CONTINUOUS
 10
2.8289793999
 20
6.3006019444
 11
3.0180702896
 21
6.3006019444
  0
LINE
  5
25D
100
AcDbEntity
  8
0
100
AcDbLine
 62
7
  6
CONTINUOUS
 10
6.8289793999
 20
6.3006019444
 11
7.0180702896
 21
6.3006019444
  0
LINE
  5
25E
100
AcDbEntity
  8
0
100
AcDbLine
 62
7
  6
CONTINUOUS
 10
2.8280661981
 20
6.3130335237
 11
3.0189834913
 21
6.3130335237
  0
LINE
  5
25F
100
AcDbEntity
  8
0
100
AcDbLine
 62
7
  6
CONTINUOUS
 10
6.8280661981
 20
6.3130335237
 11
7.0189834913
 21
6.3130335237
  0
LINE
  5
260
100
AcDbEntity
  8
0
100
AcDbLine
 62
7
  6
CONTINUOUS
 10
4.7200248447
 20
6.3799272129
 11
5.1270248447
 21
6.3799272129
  0
LINE
  5
261
100
AcDbEntity
  8
0
100
AcDbLine
 62
7
  6
CONTINUOUS
 10
4.7342748447
 20
6.406284138
 11
5.1127748447
 21
6.406284138
  0
LINE
  5
262
100
AcDbEntity
  8
0
100
AcDbLine
 62
7
  6
CONTINUOUS
 10
7.1130400706
 20
6.4311019444
 11
6.9821665754
 21
6.4311019444
  0
LINE
  5
263
100
AcDbEntity
  8
0
100
AcDbLine
 62
7
  6
CONTINUOUS
 10
6.8648831141
 20
6.4311019444
 11
6.7340096189
 21
6.4311019444
  0
LINE
  5
264
100
AcDbEntity
  8
0
100
AcDbLine
 62
7
  6
CONTINUOUS
 10
3.1130400706
 20
6.4311019444
 11
2.9821665754
 21
6.4311019444
  0
LINE
  5
265
100
AcDbEntity
  8
0
100
AcDbLine
 62
7
  6
CONTINUOUS
 10
2.8648831141
 20
6.4311019444
 11
2.7340096189
 21
6.4311019444
  0
LINE
  5
266
100
AcDbEntity
  8
0
100
AcDbLine
 62
7
  6
CONTINUOUS
 10
4.7338547283
 20
6.4592682112
 11
5.1131949611
 21
6.4592682112
  0
LINE
  5
267
100
AcDbEntity
  8
0
100
AcDbLine
 62
7
  6
CONTINUOUS
 10
2.8301858767
 20
6.4937689395
 11
2.8389242805
 21
6.4937689395
  0
LINE
  5
268
100
AcDbEntity
  8
0
100
AcDbLine
 62
7
  6
CONTINUOUS
 10
3.0081254093
 20
6.4937689395
 11
3.0168638127
 21
6.4937689395
  0
LINE
  5
269
100
AcDbEntity
  8
0
100
AcDbLine
 62
7
  6
CONTINUOUS
 10
6.8301858767
 20
6.4937689395
 11
6.8388742461
 21
6.4937689395
  0
LINE
  5
26A
100
AcDbEntity
  8
0
100
AcDbLine
 62
7
  6
CONTINUOUS
 10
7.0081754465
 20
6.4937689395
 11
7.0168638127
 21
6.4937689395
  0
LINE
  5
26B
100
AcDbEntity
  8
0
100
AcDbLine
 62
7
  6
CONTINUOUS
 10
6.9285248447
 20
6.7168519444
 11
6.9285248447
 21
6.7288519444
  0
LINE
  5
26C
100
AcDbEntity
  8
0
100
AcDbLine
 62
7
  6
CONTINUOUS
 10
6.9285248447
 20
6.7923519444
 11
6.9285248447
 21
6.8013519444
  0
LINE
  5
26D
100
AcDbEntity
  8
0
100
AcDbLine
 62
7
  6
CONTINUOUS
 10
6.9392748447
 20
6.7432372668
 11
6.9392748447
 21
6.777966622
  0
LINE
  5
26E
100
AcDbEntity
  8
0
100
AcDbLine
 62
7
  6
CONTINUOUS
 10
6.9572748447
 20
6.777966622
 11
6.9572748447
 21
6.7432372668
  0
LINE
  5
26F
100
AcDbEntity
  8
0
100
AcDbLine
 62
7
  6
CONTINUOUS
 10
6.9680248447
 20
6.8013519444
 11
6.9680248447
 21
6.7923519444
  0
LINE
  5
270
100
AcDbEntity
  8
0
100
AcDbLine
 62
7
  6
CONTINUOUS
 10
7.0185248447
 20
6.7168519444
 11
7.0185248447
 21
6.7288519444
  0
LINE
  5
271
100
AcDbEntity
  8
0
100
AcDbLine
 62
7
  6
CONTINUOUS
 10
7.0185248447
 20
6.7923519444
 11
7.0185248447
 21
6.8013519444
  0
LINE
  5
272
100
AcDbEntity
  8
0
100
AcDbLine
 62
7
  6
CONTINUOUS
 10
7.0235248447
 20
6.7369142022
 11
7.0235248447
 21
6.7842896867
  0
LINE
  5
273
100
AcDbEntity
  8
0
100
AcDbLine
 62
7
  6
CONTINUOUS
 10
7.0416657849
 20
6.7318519444
 11
7.0416657849
 21
6.7893519444
  0
LINE
  5
274
100
AcDbEntity
  8
0
100
AcDbLine
 62
7
  6
CONTINUOUS
 10
7.0607748447
 20
6.7168519444
 11
7.0185248447
 21
6.7168519444
  0
LINE
  5
275
100
AcDbEntity
  8
0
100
AcDbLine
 62
7
  6
CONTINUOUS
 10
7.0032640162
 20
6.7168519444
 11
6.9285248447
 21
6.7168519444
  0
LINE
  5
276
100
AcDbEntity
  8
0
100
AcDbLine
 62
7
  6
CONTINUOUS
 10
3.0290248447
 20
6.7168519444
 11
2.9925248447
 21
6.7168519444
  0
LINE
  5
277
100
AcDbEntity
  8
0
100
AcDbLine
 62
7
  6
CONTINUOUS
 10
2.8725248447
 20
6.7168519444
 11
2.8360248447
 21
6.7168519444
  0
LINE
  5
278
100
AcDbEntity
  8
0
100
AcDbLine
 62
7
  6
CONTINUOUS
 10
2.8275248447
 20
6.7168519444
 11
2.7910248447
 21
6.7168519444
  0
LINE
  5
279
100
AcDbEntity
  8
0
100
AcDbLine
 62
7
  6
CONTINUOUS
 10
6.9722748447
 20
6.7282372668
 11
6.9842748447
 21
6.7282372668
  0
LINE
  5
27A
100
AcDbEntity
  8
0
100
AcDbLine
 62
7
  6
CONTINUOUS
 10
7.0446657849
 20
6.7288519444
 11
7.0585972388
 21
6.7288519444
  0
LINE
  5
27B
100
AcDbEntity
  8
0
100
AcDbLine
 62
7
  6
CONTINUOUS
 10
2.8412748447
 20
6.7573519444
 11
2.8222748447
 21
6.7573519444
  0
LINE
  5
27C
100
AcDbEntity
  8
0
100
AcDbLine
 62
7
  6
CONTINUOUS
 10
2.8227748447
 20
6.7661297566
 11
2.8407748447
 21
6.7661297566
  0
LINE
  5
27D
100
AcDbEntity
  8
0
100
AcDbLine
 62
7
  6
CONTINUOUS
 10
7.1891078496
 20
6.6660129765
 11
7.1891078496
 21
6.674701352
  0
LINE
  5
27E
100
AcDbEntity
  8
0
100
AcDbLine
 62
7
  6
CONTINUOUS
 10
7.1891078496
 20
6.8440025518
 11
7.1891078496
 21
6.8526909124
  0
LINE
  5
27F
100
AcDbEntity
  8
0
100
AcDbLine
 62
7
  6
CONTINUOUS
 10
7.0585972388
 20
6.7923519444
 11
7.0446657849
 21
6.7923519444
  0
LINE
  5
280
100
AcDbEntity
  8
0
100
AcDbLine
 62
7
  6
CONTINUOUS
 10
3.034176212
 20
6.7924019444
 11
3.0212748447
 21
6.7924019444
  0
LINE
  5
281
100
AcDbEntity
  8
0
100
AcDbLine
 62
7
  6
CONTINUOUS
 10
3.0002748447
 20
6.7924019444
 11
2.9873734775
 21
6.7924019444
  0
LINE
  5
282
100
AcDbEntity
  8
0
100
AcDbLine
 62
7
  6
CONTINUOUS
 10
2.7910248447
 20
6.8013519444
 11
2.8275248447
 21
6.8013519444
  0
LINE
  5
283
100
AcDbEntity
  8
0
100
AcDbLine
 62
7
  6
CONTINUOUS
 10
2.8360248447
 20
6.8013519444
 11
2.8725248447
 21
6.8013519444
  0
LINE
  5
284
100
AcDbEntity
  8
0
100
AcDbLine
 62
7
  6
CONTINUOUS
 10
2.9730248447
 20
6.8013519444
 11
3.0485248447
 21
6.8013519444
  0
LINE
  5
285
100
AcDbEntity
  8
0
100
AcDbLine
 62
7
  6
CONTINUOUS
 10
6.8160248447
 20
6.8013519444
 11
6.8250248447
 21
6.8013519444
  0
LINE
  5
286
100
AcDbEntity
  8
0
100
AcDbLine
 62
7
  6
CONTINUOUS
 10
6.9285248447
 20
6.8013519444
 11
6.9680248447
 21
6.8013519444
  0
LINE
  5
287
100
AcDbEntity
  8
0
100
AcDbLine
 62
7
  6
CONTINUOUS
 10
7.0185248447
 20
6.8013519444
 11
7.0607748447
 21
6.8013519444
  0
LINE
  5
288
100
AcDbEntity
  8
0
100
AcDbLine
 62
7
  6
CONTINUOUS
 10
7.0168638127
 20
7.0249349493
 11
7.0081754428
 21
7.0249349493
  0
LINE
  5
289
100
AcDbEntity
  8
0
100
AcDbLine
 62
7
  6
CONTINUOUS
 10
6.8388742013
 20
7.0249349493
 11
6.8301858767
 21
7.0249349493
  0
LINE
  5
28A
100
AcDbEntity
  8
0
100
AcDbLine
 62
7
  6
CONTINUOUS
 10
3.0168638127
 20
7.0249349493
 11
3.0081254088
 21
7.0249349493
  0
LINE
  5
28B
100
AcDbEntity
  8
0
100
AcDbLine
 62
7
  6
CONTINUOUS
 10
2.8389243428
 20
7.0249349493
 11
2.8301858767
 21
7.0249349493
  0
LINE
  5
28C
100
AcDbEntity
  8
0
100
AcDbLine
 62
7
  6
CONTINUOUS
 10
7.3698432654
 20
6.854810591
 11
7.3698432654
 21
6.6638932978
  0
LINE
  5
28D
100
AcDbEntity
  8
0
100
AcDbLine
 62
7
  6
CONTINUOUS
 10
7.3822748447
 20
6.8538973893
 11
7.3822748447
 21
6.6648064996
  0
LINE
  5
28E
100
AcDbEntity
  8
0
100
AcDbLine
 62
7
  6
CONTINUOUS
 10
7.3948634562
 20
6.8432455922
 11
7.3948634562
 21
6.6754582966
  0
LINE
  5
28F
100
AcDbEntity
  8
0
100
AcDbLine
 62
7
  6
CONTINUOUS
 10
7.4359080847
 20
6.8719853505
 11
7.4359080847
 21
6.6467185383
  0
LINE
  5
290
100
AcDbEntity
  8
0
100
AcDbLine
 62
7
  6
CONTINUOUS
 10
2.7340096189
 20
7.0876019444
 11
2.8648831141
 21
7.0876019444
  0
LINE
  5
291
100
AcDbEntity
  8
0
100
AcDbLine
 62
7
  6
CONTINUOUS
 10
2.9821665754
 20
7.0876019444
 11
3.1130400706
 21
7.0876019444
  0
LINE
  5
292
100
AcDbEntity
  8
0
100
AcDbLine
 62
7
  6
CONTINUOUS
 10
6.7340096189
 20
7.0876019444
 11
6.8648831141
 21
7.0876019444
  0
LINE
  5
293
100
AcDbEntity
  8
0
100
AcDbLine
 62
7
  6
CONTINUOUS
 10
6.9821665754
 20
7.0876019444
 11
7.1130400706
 21
7.0876019444
  0
LINE
  5
294
100
AcDbEntity
  8
0
100
AcDbLine
 62
7
  6
CONTINUOUS
 10
5.0247748447
 20
7.099606904
 11
4.8222748447
 21
7.099606904
  0
LINE
  5
295
100
AcDbEntity
  8
0
100
AcDbLine
 62
7
  6
CONTINUOUS
 10
5.0247748447
 20
7.176606904
 11
4.8222748447
 21
7.176606904
  0
LINE
  5
296
100
AcDbEntity
  8
0
100
AcDbLine
 62
7
  6
CONTINUOUS
 10
5.0145857796
 20
7.195708735
 11
4.8324639098
 21
7.195708735
  0
LINE
  5
297
100
AcDbEntity
  8
0
100
AcDbLine
 62
7
  6
CONTINUOUS
 10
2.8280661981
 20
7.2056703651
 11
3.0189834913
 21
7.2056703651
  0
LINE
  5
298
100
AcDbEntity
  8
0
100
AcDbLine
 62
7
  6
CONTINUOUS
 10
6.8280661981
 20
7.2056703651
 11
7.0189834913
 21
7.2056703651
  0
LINE
  5
299
100
AcDbEntity
  8
0
100
AcDbLine
 62
7
  6
CONTINUOUS
 10
2.8289793999
 20
7.2181019444
 11
3.0180702896
 21
7.2181019444
  0
LINE
  5
29A
100
AcDbEntity
  8
0
100
AcDbLine
 62
7
  6
CONTINUOUS
 10
6.8289793999
 20
7.2181019444
 11
7.0180702896
 21
7.2181019444
  0
LINE
  5
29B
100
AcDbEntity
  8
0
100
AcDbLine
 62
7
  6
CONTINUOUS
 10
2.8396311969
 20
7.2306905559
 11
3.0074184925
 21
7.2306905559
  0
LINE
  5
29C
100
AcDbEntity
  8
0
100
AcDbLine
 62
7
  6
CONTINUOUS
 10
6.8396311969
 20
7.2306905559
 11
7.0074184925
 21
7.2306905559
  0
LINE
  5
29D
100
AcDbEntity
  8
0
100
AcDbLine
 62
7
  6
CONTINUOUS
 10
2.8108914386
 20
7.2717351844
 11
3.0361582508
 21
7.2717351844
  0
LINE
  5
29E
100
AcDbEntity
  8
0
100
AcDbLine
 62
7
  6
CONTINUOUS
 10
6.8108914386
 20
7.2717351844
 11
7.0361582508
 21
7.2717351844
  0
LINE
  5
29F
100
AcDbEntity
  8
0
100
AcDbLine
 62
7
  6
CONTINUOUS
 10
5.0093323106
 20
7.2800570933
 11
4.8377173788
 21
7.2800570933
  0
LINE
  5
2A0
100
AcDbEntity
  8
0
100
AcDbLine
 62
7
  6
CONTINUOUS
 10
5.0127748447
 20
7.287606904
 11
4.8342748447
 21
7.287606904
  0
LINE
  5
2A1
100
AcDbEntity
  8
0
100
AcDbLine
 62
7
  6
CONTINUOUS
 10
5.0340248447
 20
7.303106904
 11
4.8130248447
 21
7.303106904
  0
LINE
  5
2A2
100
AcDbEntity
  8
0
100
AcDbLine
 62
7
  6
CONTINUOUS
 10
7.0074184925
 20
6.2880133329
 11
7.0361582508
 21
6.2469687044
  0
LINE
  5
2A3
100
AcDbEntity
  8
0
100
AcDbLine
 62
7
  6
CONTINUOUS
 10
6.7340096189
 20
6.4311019444
 11
6.576844708
 21
6.7033195551
  0
LINE
  5
2A4
100
AcDbEntity
  8
0
100
AcDbLine
 62
7
  6
CONTINUOUS
 10
6.8250248447
 20
6.8013519444
 11
6.8330248447
 21
6.7733219916
  0
LINE
  5
2A5
100
AcDbEntity
  8
0
100
AcDbLine
 62
7
  6
CONTINUOUS
 10
5.0640248447
 20
7.333106904
 11
4.7830248447
 21
7.333106904
  0
LINE
  5
2A6
100
AcDbEntity
  8
0
100
AcDbLine
 62
7
  6
CONTINUOUS
 10
5.0640248447
 20
7.351106904
 11
4.7830248447
 21
7.351106904
  0
LINE
  5
2A7
100
AcDbEntity
  8
0
100
AcDbLine
 62
7
  6
CONTINUOUS
 10
5.0340248447
 20
7.381106904
 11
4.8130248447
 21
7.381106904
  0
LINE
  5
2A8
100
AcDbEntity
  8
0
100
AcDbLine
 62
7
  6
CONTINUOUS
 10
4.9800465633
 20
7.424606904
 11
4.8670031261
 21
7.424606904
  0
LINE
  5
2A9
100
AcDbEntity
  8
0
100
AcDbLine
 62
7
  6
CONTINUOUS
 10
6.8247497889
 20
6.7473519444
 11
6.8330248447
 21
6.7438130955
  0
LINE
  5
2AA
100
AcDbEntity
  8
0
100
AcDbLine
 62
7
  6
CONTINUOUS
 10
7.0037473131
 20
6.7464409062
 11
7.0080248447
 21
6.7438519444
  0
LINE
  5
2AB
100
AcDbEntity
  8
0
100
AcDbLine
 62
7
  6
CONTINUOUS
 10
6.4111416047
 20
6.8719853505
 11
6.4521862332
 21
6.8432455922
  0
LINE
  5
2AC
100
AcDbEntity
  8
0
100
AcDbLine
 62
7
  6
CONTINUOUS
 10
7.4359080847
 20
6.6467185383
 11
7.3948634562
 21
6.6754582966
  0
LINE
  5
2AD
100
AcDbEntity
  8
0
100
AcDbLine
 62
7
  6
CONTINUOUS
 10
6.8396311969
 20
7.2306905559
 11
6.8108914386
 21
7.2717351844
  0
LINE
  5
2AE
100
AcDbEntity
  8
0
100
AcDbLine
 62
7
  6
CONTINUOUS
 10
7.1130400706
 20
7.0876019444
 11
7.2702049814
 21
6.8153843337
  0
ARC
  5
2AF
100
AcDbEntity
  8
0
100
AcDbCircle
 62
7
  6
CONTINUOUS
 10
2.9235248447
 20
6.1681019444
 40
0.1375
100
AcDbArc
 50
145.0
 51
35.0
  0
ARC
  5
2B0
100
AcDbEntity
  8
0
100
AcDbCircle
 62
7
  6
CONTINUOUS
 10
2.7427748447
 20
6.4044139649
 40
0.125
100
AcDbArc
 50
313.0260516848
 51
45.6300714454
  0
ARC
  5
2B1
100
AcDbEntity
  8
0
100
AcDbCircle
 62
7
  6
CONTINUOUS
 10
3.1042748447
 20
6.4044139649
 40
0.125
100
AcDbArc
 50
134.3699285546
 51
226.9739483152
  0
ARC
  5
2B2
100
AcDbEntity
  8
0
100
AcDbCircle
 62
7
  6
CONTINUOUS
 10
2.8330779806
 20
6.2926019444
 40
0.008
100
AcDbArc
 50
325.0
 51
90.0
  0
ARC
  5
2B3
100
AcDbEntity
  8
0
100
AcDbCircle
 62
7
  6
CONTINUOUS
 10
3.0139717089
 20
6.2926019444
 40
0.008
100
AcDbArc
 50
90.0
 51
215.0
  0
ARC
  5
2B4
100
AcDbEntity
  8
0
100
AcDbCircle
 62
7
  6
CONTINUOUS
 10
2.8335248447
 20
6.3071851755
 40
0.008
100
AcDbArc
 50
133.0260516848
 51
235.3765489003
  0
ARC
  5
2B5
100
AcDbEntity
  8
0
100
AcDbCircle
 62
7
  6
CONTINUOUS
 10
3.0135248447
 20
6.3071851755
 40
0.008
100
AcDbArc
 50
304.6234510997
 51
46.9739483151
  0
ARC
  5
2B6
100
AcDbEntity
  8
0
100
AcDbCircle
 62
7
  6
CONTINUOUS
 10
2.5685868652
 20
6.5786019444
 40
0.125
100
AcDbArc
 50
44.3699285546
 51
136.9739483152
  0
ARC
  5
2B7
100
AcDbEntity
  8
0
100
AcDbCircle
 62
7
  6
CONTINUOUS
 10
2.8410248447
 20
6.5048489563
 40
0.0155
100
AcDbArc
 50
207.1350338111
 51
225.6300714454
  0
ARC
  5
2B8
100
AcDbEntity
  8
0
100
AcDbCircle
 62
7
  6
CONTINUOUS
 10
2.3322748447
 20
6.7593519444
 40
0.1375
100
AcDbArc
 50
55.0
 51
305.0
  0
ARC
  5
2B9
100
AcDbEntity
  8
0
100
AcDbCircle
 62
7
  6
CONTINUOUS
 10
2.6690218566
 20
6.6768519444
 40
0.0155
100
AcDbArc
 50
224.3699285546
 51
242.8635466074
  0
ARC
  5
2BA
100
AcDbEntity
  8
0
100
AcDbCircle
 62
7
  6
CONTINUOUS
 10
2.8762748447
 20
6.7402509575
 40
0.012
100
AcDbArc
 50
180.0
 51
251.7900431357
  0
ARC
  5
2BB
100
AcDbEntity
  8
0
100
AcDbCircle
 62
7
  6
CONTINUOUS
 10
2.8322748447
 20
6.7402509575
 40
0.012
100
AcDbArc
 50
288.2099568643
 51
360.0
  0
ARC
  5
2BC
100
AcDbEntity
  8
0
100
AcDbCircle
 62
7
  6
CONTINUOUS
 10
2.8312748447
 20
6.7402509575
 40
0.012
100
AcDbArc
 50
180.0
 51
251.7900431357
  0
ARC
  5
2BD
100
AcDbEntity
  8
0
100
AcDbCircle
 62
7
  6
CONTINUOUS
 10
2.7872748447
 20
6.7402509575
 40
0.012
100
AcDbArc
 50
288.2099568643
 51
360.0
  0
ARC
  5
2BE
100
AcDbEntity
  8
0
100
AcDbCircle
 62
7
  6
CONTINUOUS
 10
2.4713580758
 20
6.6693519444
 40
0.008
100
AcDbArc
 50
214.6234510997
 51
316.9739483152
  0
ARC
  5
2BF
100
AcDbEntity
  8
0
100
AcDbCircle
 62
7
  6
CONTINUOUS
 10
2.4567748447
 20
6.6689050803
 40
0.008
100
AcDbArc
 50
0.0
 51
125.0
  0
ARC
  5
2C0
100
AcDbEntity
  8
0
100
AcDbCircle
 62
7
  6
CONTINUOUS
 10
2.8412748447
 20
6.7543519444
 40
0.003
100
AcDbArc
 50
0.0
 51
90.0
  0
ARC
  5
2C1
100
AcDbEntity
  8
0
100
AcDbCircle
 62
7
  6
CONTINUOUS
 10
2.8222748447
 20
6.7543519444
 40
0.003
100
AcDbArc
 50
90.0
 51
180.0
  0
ARC
  5
2C2
100
AcDbEntity
  8
0
100
AcDbCircle
 62
7
  6
CONTINUOUS
 10
3.2784628242
 20
6.5786019444
 40
0.125
100
AcDbArc
 50
43.0260516848
 51
135.6300714454
  0
ARC
  5
2C3
100
AcDbEntity
  8
0
100
AcDbCircle
 62
7
  6
CONTINUOUS
 10
3.0060248447
 20
6.5048489563
 40
0.0155
100
AcDbArc
 50
314.3699285546
 51
332.8649660645
  0
ARC
  5
2C4
100
AcDbEntity
  8
0
100
AcDbCircle
 62
7
  6
CONTINUOUS
 10
3.1780278328
 20
6.6768519444
 40
0.0155
100
AcDbArc
 50
297.1364537931
 51
315.6300714454
  0
ARC
  5
2C5
100
AcDbEntity
  8
0
100
AcDbCircle
 62
7
  6
CONTINUOUS
 10
2.9235248447
 20
6.7593519444
 40
0.59
100
AcDbArc
 50
283.3677690027
 51
346.6324651291
  0
ARC
  5
2C6
100
AcDbEntity
  8
0
100
AcDbCircle
 62
7
  6
CONTINUOUS
 10
2.9235248447
 20
6.7593519444
 40
0.59
100
AcDbArc
 50
193.3675348709
 51
256.6322309973
  0
ARC
  5
2C7
100
AcDbEntity
  8
0
100
AcDbCircle
 62
7
  6
CONTINUOUS
 10
2.9235248447
 20
6.7593519444
 40
0.59
100
AcDbArc
 50
13.3675348709
 51
76.6322309973
  0
ARC
  5
2C8
100
AcDbEntity
  8
0
100
AcDbCircle
 62
7
  6
CONTINUOUS
 10
2.9235248447
 20
6.7593519444
 40
0.59
100
AcDbArc
 50
103.3677690027
 51
166.6324651291
  0
ARC
  5
2C9
100
AcDbEntity
  8
0
100
AcDbCircle
 62
7
  6
CONTINUOUS
 10
2.9235248447
 20
6.7593519444
 40
0.5000013369
100
AcDbArc
 50
101.2177515793
 51
168.7822484207
  0
ARC
  5
2CA
100
AcDbEntity
  8
0
100
AcDbCircle
 62
7
  6
CONTINUOUS
 10
2.9235248447
 20
6.7593519444
 40
0.5000013369
100
AcDbArc
 50
11.2177515793
 51
78.7822484207
  0
ARC
  5
2CB
100
AcDbEntity
  8
0
100
AcDbCircle
 62
7
  6
CONTINUOUS
 10
2.9235248447
 20
6.7593519444
 40
0.5000013369
100
AcDbArc
 50
281.2177515793
 51
348.7822484207
  0
ARC
  5
2CC
100
AcDbEntity
  8
0
100
AcDbCircle
 62
7
  6
CONTINUOUS
 10
2.9235248447
 20
6.7593519444
 40
0.5000013369
100
AcDbArc
 50
191.2177515793
 51
258.7822484207
  0
ARC
  5
2CD
100
AcDbEntity
  8
0
100
AcDbCircle
 62
7
  6
CONTINUOUS
 10
2.9235248447
 20
6.7593519444
 40
0.4065013369
100
AcDbArc
 50
9.1558593642
 51
80.8451774318
  0
ARC
  5
2CE
100
AcDbEntity
  8
0
100
AcDbCircle
 62
7
  6
CONTINUOUS
 10
2.9235248447
 20
6.7593519444
 40
0.4065013369
100
AcDbArc
 50
99.1548225682
 51
170.8441406358
  0
ARC
  5
2CF
100
AcDbEntity
  8
0
100
AcDbCircle
 62
7
  6
CONTINUOUS
 10
2.9235248447
 20
6.7593519444
 40
0.4065013369
100
AcDbArc
 50
279.1548225682
 51
350.8441406358
  0
ARC
  5
2D0
100
AcDbEntity
  8
0
100
AcDbCircle
 62
7
  6
CONTINUOUS
 10
2.9235248447
 20
6.7593519444
 40
0.4065013369
100
AcDbArc
 50
189.1558593642
 51
260.8451774318
  0
ARC
  5
2D1
100
AcDbEntity
  8
0
100
AcDbCircle
 62
7
  6
CONTINUOUS
 10
2.9235248447
 20
6.7593519444
 40
0.3705
100
AcDbArc
 50
302.3704986062
 51
351.2643818019
  0
ARC
  5
2D2
100
AcDbEntity
  8
0
100
AcDbCircle
 62
7
  6
CONTINUOUS
 10
2.9235248447
 20
6.7593519444
 40
0.3705
100
AcDbArc
 50
122.3704986062
 51
171.2643818019
  0
ARC
  5
2D3
100
AcDbEntity
  8
0
100
AcDbCircle
 62
7
  6
CONTINUOUS
 10
2.9235248447
 20
6.7593519444
 40
0.3705
100
AcDbArc
 50
188.7356181981
 51
237.6295013938
  0
ARC
  5
2D4
100
AcDbEntity
  8
0
100
AcDbCircle
 62
7
  6
CONTINUOUS
 10
2.9235248447
 20
6.7593519444
 40
0.3705
100
AcDbArc
 50
62.3704986062
 51
81.2641951556
  0
ARC
  5
2D5
100
AcDbEntity
  8
0
100
AcDbCircle
 62
7
  6
CONTINUOUS
 10
2.9235248447
 20
6.7593519444
 40
0.3705
100
AcDbArc
 50
98.7358048444
 51
117.6295013938
  0
ARC
  5
2D6
100
AcDbEntity
  8
0
100
AcDbCircle
 62
7
  6
CONTINUOUS
 10
2.9235248447
 20
6.7593519444
 40
0.3705
100
AcDbArc
 50
278.7358048444
 51
297.6295013938
  0
ARC
  5
2D7
100
AcDbEntity
  8
0
100
AcDbCircle
 62
7
  6
CONTINUOUS
 10
2.9235248447
 20
6.7593519444
 40
0.3705
100
AcDbArc
 50
242.3704986062
 51
261.2641951556
  0
ARC
  5
2D8
100
AcDbEntity
  8
0
100
AcDbCircle
 62
7
  6
CONTINUOUS
 10
2.9235248447
 20
6.7593519444
 40
0.3705
100
AcDbArc
 50
8.7356181981
 51
57.6295013938
  0
ARC
  5
2D9
100
AcDbEntity
  8
0
100
AcDbCircle
 62
7
  6
CONTINUOUS
 10
2.9235248447
 20
6.7593519444
 40
0.32575
100
AcDbArc
 50
100.7441583934
 51
169.254998153
  0
ARC
  5
2DA
100
AcDbEntity
  8
0
100
AcDbCircle
 62
7
  6
CONTINUOUS
 10
2.9235248447
 20
6.7593519444
 40
0.32575
100
AcDbArc
 50
10.7450018471
 51
79.2558416066
  0
ARC
  5
2DB
100
AcDbEntity
  8
0
100
AcDbCircle
 62
7
  6
CONTINUOUS
 10
2.9235248447
 20
6.7593519444
 40
0.32575
100
AcDbArc
 50
280.7441583934
 51
349.254998153
  0
ARC
  5
2DC
100
AcDbEntity
  8
0
100
AcDbCircle
 62
7
  6
CONTINUOUS
 10
2.9235248447
 20
6.7593519444
 40
0.32575
100
AcDbArc
 50
190.7450018471
 51
259.2558416066
  0
ARC
  5
2DD
100
AcDbEntity
  8
0
100
AcDbCircle
 62
7
  6
CONTINUOUS
 10
2.9235248447
 20
6.7593519444
 40
0.3073169971
100
AcDbArc
 50
282.9198393357
 51
347.0793921506
  0
ARC
  5
2DE
100
AcDbEntity
  8
0
100
AcDbCircle
 62
7
  6
CONTINUOUS
 10
2.9235248447
 20
6.7593519444
 40
0.3073169971
100
AcDbArc
 50
192.9206078494
 51
257.0801606643
  0
ARC
  5
2DF
100
AcDbEntity
  8
0
100
AcDbCircle
 62
7
  6
CONTINUOUS
 10
2.9235248447
 20
6.7593519444
 40
0.3073169971
100
AcDbArc
 50
12.9206078494
 51
77.0801606643
  0
ARC
  5
2E0
100
AcDbEntity
  8
0
100
AcDbCircle
 62
7
  6
CONTINUOUS
 10
2.9235248447
 20
6.7593519444
 40
0.3073169971
100
AcDbArc
 50
102.9198393357
 51
167.0793921506
  0
CIRCLE
  5
2E1
100
AcDbEntity
  8
0
100
AcDbCircle
 62
7
  6
CONTINUOUS
 10
2.9235248447
 20
6.7593519444
 40
0.27875
  0
CIRCLE
  5
2E2
100
AcDbEntity
  8
0
100
AcDbCircle
 62
7
  6
CONTINUOUS
 10
2.9235248447
 20
6.7593519444
 40
0.26375
  0
CIRCLE
  5
2E3
100
AcDbEntity
  8
0
100
AcDbCircle
 62
7
  6
CONTINUOUS
 10
2.9235248447
 20
6.7593519444
 40
0.2566170761
  0
CIRCLE
  5
2E4
100
AcDbEntity
  8
0
100
AcDbCircle
 62
7
  6
CONTINUOUS
 10
2.9235248447
 20
6.7593519444
 40
0.2272549781
  0
CIRCLE
  5
2E5
100
AcDbEntity
  8
0
100
AcDbCircle
 62
7
  6
CONTINUOUS
 10
2.9235248447
 20
6.7593519444
 40
0.2085229279
  0
CIRCLE
  5
2E6
100
AcDbEntity
  8
0
100
AcDbCircle
 62
7
  6
CONTINUOUS
 10
2.9235248447
 20
6.7593519444
 40
0.1975723198
  0
ARC
  5
2E7
100
AcDbEntity
  8
0
100
AcDbCircle
 62
7
  6
CONTINUOUS
 10
3.0377748447
 20
6.7445820906
 40
0.018
100
AcDbArc
 50
180.0
 51
240.9147049393
  0
ARC
  5
2E8
100
AcDbEntity
  8
0
100
AcDbCircle
 62
7
  6
CONTINUOUS
 10
2.9837748447
 20
6.7445820906
 40
0.018
100
AcDbArc
 50
299.0852950607
 51
360.0
  0
ARC
  5
2E9
100
AcDbEntity
  8
0
100
AcDbCircle
 62
7
  6
CONTINUOUS
 10
3.3756916137
 20
6.6693519444
 40
0.008
100
AcDbArc
 50
223.0260516848
 51
325.3765489003
  0
ARC
  5
2EA
100
AcDbEntity
  8
0
100
AcDbCircle
 62
7
  6
CONTINUOUS
 10
3.3902748447
 20
6.6689050803
 40
0.008
100
AcDbArc
 50
55.0
 51
180.0
  0
ARC
  5
2EB
100
AcDbEntity
  8
0
100
AcDbCircle
 62
7
  6
CONTINUOUS
 10
3.5147748447
 20
6.7593519444
 40
0.1375
100
AcDbArc
 50
235.0
 51
125.0
  0
ARC
  5
2EC
100
AcDbEntity
  8
0
100
AcDbCircle
 62
7
  6
CONTINUOUS
 10
4.7170248447
 20
6.4326410631
 40
0.0315
100
AcDbArc
 50
303.20382253
 51
57.7047672559
  0
ARC
  5
2ED
100
AcDbEntity
  8
0
100
AcDbCircle
 62
7
  6
CONTINUOUS
 10
4.7515248447
 20
6.3799272129
 40
0.0315
100
AcDbArc
 50
123.20382253
 51
180.0
  0
ARC
  5
2EE
100
AcDbEntity
  8
0
100
AcDbCircle
 62
7
  6
CONTINUOUS
 10
4.7200248447
 20
6.153356904
 40
0.03125
100
AcDbArc
 50
90.0
 51
270.0
  0
ARC
  5
2EF
100
AcDbEntity
  8
0
100
AcDbCircle
 62
7
  6
CONTINUOUS
 10
2.9235248447
 20
7.3506019444
 40
0.1375
100
AcDbArc
 50
325.0
 51
215.0
  0
ARC
  5
2F0
100
AcDbEntity
  8
0
100
AcDbCircle
 62
7
  6
CONTINUOUS
 10
2.7427748447
 20
7.1142899239
 40
0.125
100
AcDbArc
 50
314.3699285546
 51
46.9739483152
  0
ARC
  5
2F1
100
AcDbEntity
  8
0
100
AcDbCircle
 62
7
  6
CONTINUOUS
 10
3.1042748447
 20
7.1142899239
 40
0.125
100
AcDbArc
 50
133.0260516848
 51
225.6300714454
  0
ARC
  5
2F2
100
AcDbEntity
  8
0
100
AcDbCircle
 62
7
  6
CONTINUOUS
 10
3.2784628242
 20
6.9401019444
 40
0.125
100
AcDbArc
 50
224.3699285546
 51
316.9739483152
  0
ARC
  5
2F3
100
AcDbEntity
  8
0
100
AcDbCircle
 62
7
  6
CONTINUOUS
 10
2.5685868652
 20
6.9401019444
 40
0.125
100
AcDbArc
 50
223.0260516848
 51
315.6300714454
  0
ARC
  5
2F4
100
AcDbEntity
  8
0
100
AcDbCircle
 62
7
  6
CONTINUOUS
 10
4.8028316604
 20
7.2398921005
 40
0.0532
100
AcDbArc
 50
303.8483853713
 51
49.0237155137
  0
ARC
  5
2F5
100
AcDbEntity
  8
0
100
AcDbCircle
 62
7
  6
CONTINUOUS
 10
4.8785248447
 20
7.381106904
 40
0.045
100
AcDbArc
 50
104.835111582
 51
180.0
  0
ARC
  5
2F6
100
AcDbEntity
  8
0
100
AcDbCircle
 62
7
  6
CONTINUOUS
 10
4.8130248447
 20
7.351106904
 40
0.03
100
AcDbArc
 50
90.0
 51
180.0
  0
ARC
  5
2F7
100
AcDbEntity
  8
0
100
AcDbCircle
 62
7
  6
CONTINUOUS
 10
4.8130248447
 20
7.333106904
 40
0.03
100
AcDbArc
 50
180.0
 51
270.0
  0
ARC
  5
2F8
100
AcDbEntity
  8
0
100
AcDbCircle
 62
7
  6
CONTINUOUS
 10
4.8452748447
 20
7.176606904
 40
0.023
100
AcDbArc
 50
123.8483853713
 51
180.0
  0
ARC
  5
2F9
100
AcDbEntity
  8
0
100
AcDbCircle
 62
7
  6
CONTINUOUS
 10
2.9873734775
 20
6.7717459524
 40
0.0206559921
100
AcDbArc
 50
90.0
 51
135.0
  0
ARC
  5
2FA
100
AcDbEntity
  8
0
100
AcDbCircle
 62
7
  6
CONTINUOUS
 10
3.034176212
 20
6.7717459524
 40
0.0206559921
100
AcDbArc
 50
45.0
 51
90.0
  0
ARC
  5
2FB
100
AcDbEntity
  8
0
100
AcDbCircle
 62
7
  6
CONTINUOUS
 10
3.0060248447
 20
7.0138549325
 40
0.0155
100
AcDbArc
 50
27.1350337874
 51
45.6300714454
  0
ARC
  5
2FC
100
AcDbEntity
  8
0
100
AcDbCircle
 62
7
  6
CONTINUOUS
 10
2.8410248447
 20
7.0138549325
 40
0.0155
100
AcDbArc
 50
134.3699285546
 51
152.8648956147
  0
ARC
  5
2FD
100
AcDbEntity
  8
0
100
AcDbCircle
 62
7
  6
CONTINUOUS
 10
3.1780278328
 20
6.8418519444
 40
0.0155
100
AcDbArc
 50
44.3699285546
 51
62.8635466857
  0
ARC
  5
2FE
100
AcDbEntity
  8
0
100
AcDbCircle
 62
7
  6
CONTINUOUS
 10
2.6690218566
 20
6.8418519444
 40
0.0155
100
AcDbArc
 50
117.1365235023
 51
135.6300714454
  0
ARC
  5
2FF
100
AcDbEntity
  8
0
100
AcDbCircle
 62
7
  6
CONTINUOUS
 10
2.7872748447
 20
6.7809529313
 40
0.012
100
AcDbArc
 50
0.0
 51
71.7900431357
  0
ARC
  5
300
100
AcDbEntity
  8
0
100
AcDbCircle
 62
7
  6
CONTINUOUS
 10
2.8317748447
 20
6.7811297566
 40
0.012
100
AcDbArc
 50
110.7423799545
 51
180.0
  0
ARC
  5
301
100
AcDbEntity
  8
0
100
AcDbCircle
 62
7
  6
CONTINUOUS
 10
2.8317748447
 20
6.7811297566
 40
0.012
100
AcDbArc
 50
0.0
 51
69.2576200455
  0
ARC
  5
302
100
AcDbEntity
  8
0
100
AcDbCircle
 62
7
  6
CONTINUOUS
 10
2.8762748447
 20
6.7809529313
 40
0.012
100
AcDbArc
 50
108.2099568643
 51
180.0
  0
ARC
  5
303
100
AcDbEntity
  8
0
100
AcDbCircle
 62
7
  6
CONTINUOUS
 10
4.8442748447
 20
7.287606904
 40
0.01
100
AcDbArc
 50
180.0
 51
229.0237155137
  0
ARC
  5
304
100
AcDbEntity
  8
0
100
AcDbCircle
 62
7
  6
CONTINUOUS
 10
2.8330779806
 20
7.2261019444
 40
0.008
100
AcDbArc
 50
270.0
 51
35.0
  0
ARC
  5
305
100
AcDbEntity
  8
0
100
AcDbCircle
 62
7
  6
CONTINUOUS
 10
3.0139717089
 20
7.2261019444
 40
0.008
100
AcDbArc
 50
145.0
 51
270.0
  0
ARC
  5
306
100
AcDbEntity
  8
0
100
AcDbCircle
 62
7
  6
CONTINUOUS
 10
2.8335248447
 20
7.2115187134
 40
0.008
100
AcDbArc
 50
124.6234510997
 51
226.9739483152
  0
ARC
  5
307
100
AcDbEntity
  8
0
100
AcDbCircle
 62
7
  6
CONTINUOUS
 10
3.0135248447
 20
7.2115187134
 40
0.008
100
AcDbArc
 50
313.0260516848
 51
55.3765489003
  0
ARC
  5
308
100
AcDbEntity
  8
0
100
AcDbCircle
 62
7
  6
CONTINUOUS
 10
3.3756916137
 20
6.8493519444
 40
0.008
100
AcDbArc
 50
34.6234510997
 51
136.9739483152
  0
ARC
  5
309
100
AcDbEntity
  8
0
100
AcDbCircle
 62
7
  6
CONTINUOUS
 10
3.3902748447
 20
6.8497988086
 40
0.008
100
AcDbArc
 50
180.0
 51
305.0
  0
ARC
  5
30A
100
AcDbEntity
  8
0
100
AcDbCircle
 62
7
  6
CONTINUOUS
 10
2.4713580758
 20
6.8493519444
 40
0.008
100
AcDbArc
 50
43.0260516848
 51
145.3765489003
  0
ARC
  5
30B
100
AcDbEntity
  8
0
100
AcDbCircle
 62
7
  6
CONTINUOUS
 10
2.4567748447
 20
6.8497988086
 40
0.008
100
AcDbArc
 50
235.0
 51
360.0
  0
ARC
  5
30C
100
AcDbEntity
  8
0
100
AcDbCircle
 62
7
  6
CONTINUOUS
 10
2.8227748447
 20
6.7691297566
 40
0.003
100
AcDbArc
 50
180.0
 51
270.0
  0
ARC
  5
30D
100
AcDbEntity
  8
0
100
AcDbCircle
 62
7
  6
CONTINUOUS
 10
2.8407748447
 20
6.7691297566
 40
0.003
100
AcDbArc
 50
270.0
 51
360.0
  0
ARC
  5
30E
100
AcDbEntity
  8
0
100
AcDbCircle
 62
7
  6
CONTINUOUS
 10
3.0002748447
 20
6.7909019444
 40
0.0015
100
AcDbArc
 50
0.0
 51
90.0
  0
ARC
  5
30F
100
AcDbEntity
  8
0
100
AcDbCircle
 62
7
  6
CONTINUOUS
 10
3.0212748447
 20
6.7909019444
 40
0.0015
100
AcDbArc
 50
90.0
 51
180.0
  0
ARC
  5
310
100
AcDbEntity
  8
0
100
AcDbCircle
 62
7
  6
CONTINUOUS
 10
5.1300248447
 20
6.4326410631
 40
0.0315
100
AcDbArc
 50
122.2952327441
 51
236.79617747
  0
ARC
  5
311
100
AcDbEntity
  8
0
100
AcDbCircle
 62
7
  6
CONTINUOUS
 10
5.0955248447
 20
6.3799272129
 40
0.0315
100
AcDbArc
 50
0.0
 51
56.79617747
  0
ARC
  5
312
100
AcDbEntity
  8
0
100
AcDbCircle
 62
7
  6
CONTINUOUS
 10
5.1270248447
 20
6.153356904
 40
0.03125
100
AcDbArc
 50
270.0
 51
90.0
  0
ARC
  5
313
100
AcDbEntity
  8
0
100
AcDbCircle
 62
7
  6
CONTINUOUS
 10
4.9235248447
 20
6.7593519444
 40
0.6375
100
AcDbArc
 50
291.3628732549
 51
81.9760795183
  0
ARC
  5
314
100
AcDbEntity
  8
0
100
AcDbCircle
 62
7
  6
CONTINUOUS
 10
4.9235248447
 20
6.7593519444
 40
0.6375
100
AcDbArc
 50
98.0239204817
 51
248.6371267452
  0
ARC
  5
315
100
AcDbEntity
  8
0
100
AcDbCircle
 62
7
  6
CONTINUOUS
 10
4.9235248447
 20
6.7593519444
 40
0.6225
100
AcDbArc
 50
290.9572042186
 51
77.3738180989
  0
ARC
  5
316
100
AcDbEntity
  8
0
100
AcDbCircle
 62
7
  6
CONTINUOUS
 10
4.9235248447
 20
6.7593519444
 40
0.6225
100
AcDbArc
 50
102.6261819011
 51
249.0427957815
  0
ARC
  5
317
100
AcDbEntity
  8
0
100
AcDbCircle
 62
7
  6
CONTINUOUS
 10
4.9235248447
 20
6.7593519444
 40
0.4675
100
AcDbArc
 50
295.8055601305
 51
81.2894074568
  0
ARC
  5
318
100
AcDbEntity
  8
0
100
AcDbCircle
 62
7
  6
CONTINUOUS
 10
4.9235248447
 20
6.7593519444
 40
0.4675
100
AcDbArc
 50
98.7105925432
 51
244.1944398695
  0
ARC
  5
319
100
AcDbEntity
  8
0
100
AcDbCircle
 62
7
  6
CONTINUOUS
 10
4.9235248447
 20
6.7593519444
 40
0.4425
100
AcDbArc
 50
297.380786935
 51
77.4770556627
  0
ARC
  5
31A
100
AcDbEntity
  8
0
100
AcDbCircle
 62
7
  6
CONTINUOUS
 10
4.9235248447
 20
6.7593519444
 40
0.4425
100
AcDbArc
 50
102.5229443373
 51
242.619213065
  0
ARC
  5
31B
100
AcDbEntity
  8
0
100
AcDbCircle
 62
7
  6
CONTINUOUS
 10
4.9235248447
 20
6.7593519444
 40
0.355
100
AcDbArc
 50
302.2952327441
 51
73.4285225232
  0
ARC
  5
31C
100
AcDbEntity
  8
0
100
AcDbCircle
 62
7
  6
CONTINUOUS
 10
4.9235248447
 20
6.7593519444
 40
0.355
100
AcDbArc
 50
106.5714774769
 51
237.7047672559
  0
CIRCLE
  5
31D
100
AcDbEntity
  8
0
100
AcDbCircle
 62
7
  6
CONTINUOUS
 10
4.9235248447
 20
6.7593519444
 40
0.23175
  0
CIRCLE
  5
31E
100
AcDbEntity
  8
0
100
AcDbCircle
 62
7
  6
CONTINUOUS
 10
4.9235248447
 20
6.7593519444
 40
0.18675
  0
CIRCLE
  5
31F
100
AcDbEntity
  8
0
100
AcDbCircle
 62
7
  6
CONTINUOUS
 10
4.9235248447
 20
6.7593519444
 40
0.17175
  0
CIRCLE
  5
320
100
AcDbEntity
  8
0
100
AcDbCircle
 62
7
  6
CONTINUOUS
 10
4.9235248447
 20
6.7593519444
 40
0.15625
  0
CIRCLE
  5
321
100
AcDbEntity
  8
0
100
AcDbCircle
 62
7
  6
CONTINUOUS
 10
4.9235248447
 20
6.7593519444
 40
0.09375
  0
ARC
  5
322
100
AcDbEntity
  8
0
100
AcDbCircle
 62
7
  6
CONTINUOUS
 10
6.9235248447
 20
6.1681019444
 40
0.1375
100
AcDbArc
 50
145.0
 51
35.0
  0
ARC
  5
323
100
AcDbEntity
  8
0
100
AcDbCircle
 62
7
  6
CONTINUOUS
 10
6.7427748447
 20
6.4044139649
 40
0.125
100
AcDbArc
 50
313.0260516848
 51
45.6300714454
  0
ARC
  5
324
100
AcDbEntity
  8
0
100
AcDbCircle
 62
7
  6
CONTINUOUS
 10
7.1042748447
 20
6.4044139649
 40
0.125
100
AcDbArc
 50
134.3699285546
 51
226.9739483152
  0
ARC
  5
325
100
AcDbEntity
  8
0
100
AcDbCircle
 62
7
  6
CONTINUOUS
 10
6.8330779806
 20
6.2926019444
 40
0.008
100
AcDbArc
 50
325.0
 51
90.0
  0
ARC
  5
326
100
AcDbEntity
  8
0
100
AcDbCircle
 62
7
  6
CONTINUOUS
 10
7.0139717089
 20
6.2926019444
 40
0.008
100
AcDbArc
 50
90.0
 51
215.0
  0
ARC
  5
327
100
AcDbEntity
  8
0
100
AcDbCircle
 62
7
  6
CONTINUOUS
 10
6.8335248447
 20
6.3071851755
 40
0.008
100
AcDbArc
 50
133.0260516848
 51
235.3765489003
  0
ARC
  5
328
100
AcDbEntity
  8
0
100
AcDbCircle
 62
7
  6
CONTINUOUS
 10
7.0135248447
 20
6.3071851755
 40
0.008
100
AcDbArc
 50
304.6234510997
 51
46.9739483151
  0
ARC
  5
329
100
AcDbEntity
  8
0
100
AcDbCircle
 62
7
  6
CONTINUOUS
 10
6.5685868652
 20
6.5786019444
 40
0.125
100
AcDbArc
 50
44.3699285546
 51
136.9739483152
  0
ARC
  5
32A
100
AcDbEntity
  8
0
100
AcDbCircle
 62
7
  6
CONTINUOUS
 10
6.8410248447
 20
6.5048489563
 40
0.0155
100
AcDbArc
 50
207.1699243809
 51
225.6300714454
  0
ARC
  5
32B
100
AcDbEntity
  8
0
100
AcDbCircle
 62
7
  6
CONTINUOUS
 10
6.3322748447
 20
6.7593519444
 40
0.1375
100
AcDbArc
 50
55.0
 51
305.0
  0
ARC
  5
32C
100
AcDbEntity
  8
0
100
AcDbCircle
 62
7
  6
CONTINUOUS
 10
6.7937375432
 20
6.7408519444
 40
0.0605
100
AcDbArc
 50
72.3178031512
 51
100.863388708
  0
ARC
  5
32D
100
AcDbEntity
  8
0
100
AcDbCircle
 62
7
  6
CONTINUOUS
 10
6.9016357322
 20
6.7593395659
 40
0.0581108888
100
AcDbArc
 50
179.9877951091
 51
183.9105500486
  0
ARC
  5
32E
100
AcDbEntity
  8
0
100
AcDbCircle
 62
7
  6
CONTINUOUS
 10
6.8653064612
 20
6.7593515783
 40
0.0567183835
100
AcDbArc
 50
0.0003698575
 51
1.5662688609
  0
ARC
  5
32F
100
AcDbEntity
  8
0
100
AcDbCircle
 62
7
  6
CONTINUOUS
 10
6.7921717304
 20
6.761284035
 40
0.0444320906
100
AcDbArc
 50
224.2338173193
 51
336.8459014309
  0
ARC
  5
330
100
AcDbEntity
  8
0
100
AcDbCircle
 62
7
  6
CONTINUOUS
 10
6.8120248447
 20
6.759662259
 40
0.0425
100
AcDbArc
 50
158.3999655658
 51
201.6000344342
  0
ARC
  5
331
100
AcDbEntity
  8
0
100
AcDbCircle
 62
7
  6
CONTINUOUS
 10
6.7901872629
 20
6.7593519444
 40
0.0416624181
100
AcDbArc
 50
100.863388708
 51
224.2338173193
  0
ARC
  5
332
100
AcDbEntity
  8
0
100
AcDbCircle
 62
7
  6
CONTINUOUS
 10
6.7908469255
 20
6.761284035
 40
0.0348621622
100
AcDbArc
 50
15.9292215989
 51
31.2636680057
  0
ARC
  5
333
100
AcDbEntity
  8
0
100
AcDbCircle
 62
7
  6
CONTINUOUS
 10
6.7964272046
 20
6.7594641705
 40
0.0308038115
100
AcDbArc
 50
256.3709027892
 51
336.8459014309
  0
ARC
  5
334
100
AcDbEntity
  8
0
100
AcDbCircle
 62
7
  6
CONTINUOUS
 10
6.7975893959
 20
6.7653776675
 40
0.0269742769
100
AcDbArc
 50
31.2636680057
 51
158.3999655658
  0
ARC
  5
335
100
AcDbEntity
  8
0
100
AcDbCircle
 62
7
  6
CONTINUOUS
 10
6.7948239838
 20
6.7528519444
 40
0.024
100
AcDbArc
 50
201.6000344342
 51
256.3709027892
  0
ARC
  5
336
100
AcDbEntity
  8
0
100
AcDbCircle
 62
7
  6
CONTINUOUS
 10
6.6690218566
 20
6.6768519444
 40
0.0155
100
AcDbArc
 50
224.3699285546
 51
242.8290200257
  0
ARC
  5
337
100
AcDbEntity
  8
0
100
AcDbCircle
 62
7
  6
CONTINUOUS
 10
6.4713580758
 20
6.6693519444
 40
0.008
100
AcDbArc
 50
214.6234510997
 51
316.9739483152
  0
ARC
  5
338
100
AcDbEntity
  8
0
100
AcDbCircle
 62
7
  6
CONTINUOUS
 10
6.4567748447
 20
6.6689050803
 40
0.008
100
AcDbArc
 50
0.0
 51
125.0
  0
ARC
  5
339
100
AcDbEntity
  8
0
100
AcDbCircle
 62
7
  6
CONTINUOUS
 10
7.2784628242
 20
6.5786019444
 40
0.125
100
AcDbArc
 50
43.0260516848
 51
135.6300714454
  0
ARC
  5
33A
100
AcDbEntity
  8
0
100
AcDbCircle
 62
7
  6
CONTINUOUS
 10
7.0060248447
 20
6.5048489563
 40
0.0155
100
AcDbArc
 50
314.3699285546
 51
332.8300716596
  0
ARC
  5
33B
100
AcDbEntity
  8
0
100
AcDbCircle
 62
7
  6
CONTINUOUS
 10
7.1780278328
 20
6.6768519444
 40
0.0155
100
AcDbArc
 50
297.1709670461
 51
315.6300714454
  0
ARC
  5
33C
100
AcDbEntity
  8
0
100
AcDbCircle
 62
7
  6
CONTINUOUS
 10
6.9242748447
 20
6.7432372668
 40
0.015
100
AcDbArc
 50
286.4592496283
 51
360.0
  0
ARC
  5
33D
100
AcDbEntity
  8
0
100
AcDbCircle
 62
7
  6
CONTINUOUS
 10
6.9842748447
 20
6.7432372668
 40
0.015
100
AcDbArc
 50
270.0
 51
328.815717175
  0
ARC
  5
33E
100
AcDbEntity
  8
0
100
AcDbCircle
 62
7
  6
CONTINUOUS
 10
6.9722748447
 20
6.7432372668
 40
0.015
100
AcDbArc
 50
180.0
 51
270.0
  0
ARC
  5
33F
100
AcDbEntity
  8
0
100
AcDbCircle
 62
7
  6
CONTINUOUS
 10
6.9235248447
 20
6.7593519444
 40
0.59
100
AcDbArc
 50
283.3677612139
 51
346.6324691456
  0
ARC
  5
340
100
AcDbEntity
  8
0
100
AcDbCircle
 62
7
  6
CONTINUOUS
 10
6.9235248447
 20
6.7593519444
 40
0.59
100
AcDbArc
 50
193.3675308545
 51
256.6322387861
  0
ARC
  5
341
100
AcDbEntity
  8
0
100
AcDbCircle
 62
7
  6
CONTINUOUS
 10
6.9235248447
 20
6.7593519444
 40
0.59
100
AcDbArc
 50
13.3675308545
 51
76.6322387861
  0
ARC
  5
342
100
AcDbEntity
  8
0
100
AcDbCircle
 62
7
  6
CONTINUOUS
 10
6.9235248447
 20
6.7593519444
 40
0.59
100
AcDbArc
 50
103.3677612139
 51
166.6324691455
  0
ARC
  5
343
100
AcDbEntity
  8
0
100
AcDbCircle
 62
7
  6
CONTINUOUS
 10
6.9235248447
 20
6.7593519444
 40
0.5000013369
100
AcDbArc
 50
101.2177515793
 51
168.7822484207
  0
ARC
  5
344
100
AcDbEntity
  8
0
100
AcDbCircle
 62
7
  6
CONTINUOUS
 10
6.9235248447
 20
6.7593519444
 40
0.5000013369
100
AcDbArc
 50
11.2177515793
 51
78.7822484207
  0
ARC
  5
345
100
AcDbEntity
  8
0
100
AcDbCircle
 62
7
  6
CONTINUOUS
 10
6.9235248447
 20
6.7593519444
 40
0.5000013369
100
AcDbArc
 50
281.2177515793
 51
348.7822484207
  0
ARC
  5
346
100
AcDbEntity
  8
0
100
AcDbCircle
 62
7
  6
CONTINUOUS
 10
6.9235248447
 20
6.7593519444
 40
0.5000013369
100
AcDbArc
 50
191.2177515793
 51
258.7822484207
  0
ARC
  5
347
100
AcDbEntity
  8
0
100
AcDbCircle
 62
7
  6
CONTINUOUS
 10
6.9235248447
 20
6.7593519444
 40
0.4065013369
100
AcDbArc
 50
9.155617536
 51
80.8454865161
  0
ARC
  5
348
100
AcDbEntity
  8
0
100
AcDbCircle
 62
7
  6
CONTINUOUS
 10
6.9235248447
 20
6.7593519444
 40
0.4065013369
100
AcDbArc
 50
99.1545134839
 51
170.844382464
  0
ARC
  5
349
100
AcDbEntity
  8
0
100
AcDbCircle
 62
7
  6
CONTINUOUS
 10
6.9235248447
 20
6.7593519444
 40
0.4065013369
100
AcDbArc
 50
279.154513484
 51
350.844382464
  0
ARC
  5
34A
100
AcDbEntity
  8
0
100
AcDbCircle
 62
7
  6
CONTINUOUS
 10
6.9235248447
 20
6.7593519444
 40
0.4065013369
100
AcDbArc
 50
189.155617536
 51
260.8454865161
  0
ARC
  5
34B
100
AcDbEntity
  8
0
100
AcDbCircle
 62
7
  6
CONTINUOUS
 10
6.9235248447
 20
6.7593519444
 40
0.3705
100
AcDbArc
 50
302.3704986062
 51
351.2646205103
  0
ARC
  5
34C
100
AcDbEntity
  8
0
100
AcDbCircle
 62
7
  6
CONTINUOUS
 10
6.9235248447
 20
6.7593519444
 40
0.3705
100
AcDbArc
 50
122.3704986062
 51
171.2646205103
  0
ARC
  5
34D
100
AcDbEntity
  8
0
100
AcDbCircle
 62
7
  6
CONTINUOUS
 10
6.9235248447
 20
6.7593519444
 40
0.3705
100
AcDbArc
 50
188.7353794897
 51
237.6295013938
  0
ARC
  5
34E
100
AcDbEntity
  8
0
100
AcDbCircle
 62
7
  6
CONTINUOUS
 10
6.9235248447
 20
6.7593519444
 40
0.3705
100
AcDbArc
 50
62.3704986062
 51
81.2645100461
  0
ARC
  5
34F
100
AcDbEntity
  8
0
100
AcDbCircle
 62
7
  6
CONTINUOUS
 10
6.9235248447
 20
6.7593519444
 40
0.3705
100
AcDbArc
 50
98.7354899539
 51
117.6295013938
  0
ARC
  5
350
100
AcDbEntity
  8
0
100
AcDbCircle
 62
7
  6
CONTINUOUS
 10
6.9235248447
 20
6.7593519444
 40
0.3705
100
AcDbArc
 50
278.7354899539
 51
297.6295013938
  0
ARC
  5
351
100
AcDbEntity
  8
0
100
AcDbCircle
 62
7
  6
CONTINUOUS
 10
6.9235248447
 20
6.7593519444
 40
0.3705
100
AcDbArc
 50
242.3704986062
 51
261.2645100461
  0
ARC
  5
352
100
AcDbEntity
  8
0
100
AcDbCircle
 62
7
  6
CONTINUOUS
 10
6.9235248447
 20
6.7593519444
 40
0.3705
100
AcDbArc
 50
8.7353794897
 51
57.6295013938
  0
ARC
  5
353
100
AcDbEntity
  8
0
100
AcDbCircle
 62
7
  6
CONTINUOUS
 10
6.9235248447
 20
6.7593519444
 40
0.32575
100
AcDbArc
 50
100.7441583934
 51
169.254998153
  0
ARC
  5
354
100
AcDbEntity
  8
0
100
AcDbCircle
 62
7
  6
CONTINUOUS
 10
6.9235248447
 20
6.7593519444
 40
0.32575
100
AcDbArc
 50
10.7450018471
 51
79.2558416066
  0
ARC
  5
355
100
AcDbEntity
  8
0
100
AcDbCircle
 62
7
  6
CONTINUOUS
 10
6.9235248447
 20
6.7593519444
 40
0.32575
100
AcDbArc
 50
280.7441583934
 51
349.254998153
  0
ARC
  5
356
100
AcDbEntity
  8
0
100
AcDbCircle
 62
7
  6
CONTINUOUS
 10
6.9235248447
 20
6.7593519444
 40
0.32575
100
AcDbArc
 50
190.7450018471
 51
259.2558416066
  0
ARC
  5
357
100
AcDbEntity
  8
0
100
AcDbCircle
 62
7
  6
CONTINUOUS
 10
6.9235248447
 20
6.7593519444
 40
0.3073169971
100
AcDbArc
 50
282.9198393357
 51
347.0793921506
  0
ARC
  5
358
100
AcDbEntity
  8
0
100
AcDbCircle
 62
7
  6
CONTINUOUS
 10
6.9235248447
 20
6.7593519444
 40
0.3073169971
100
AcDbArc
 50
192.9206078494
 51
257.0801606643
  0
ARC
  5
359
100
AcDbEntity
  8
0
100
AcDbCircle
 62
7
  6
CONTINUOUS
 10
6.9235248447
 20
6.7593519444
 40
0.3073169971
100
AcDbArc
 50
12.9206078494
 51
77.0801606643
  0
ARC
  5
35A
100
AcDbEntity
  8
0
100
AcDbCircle
 62
7
  6
CONTINUOUS
 10
6.9235248447
 20
6.7593519444
 40
0.3073169971
100
AcDbArc
 50
102.9198393357
 51
167.0793921506
  0
CIRCLE
  5
35B
100
AcDbEntity
  8
0
100
AcDbCircle
 62
7
  6
CONTINUOUS
 10
6.9235248447
 20
6.7593519444
 40
0.27875
  0
CIRCLE
  5
35C
100
AcDbEntity
  8
0
100
AcDbCircle
 62
7
  6
CONTINUOUS
 10
6.9235248447
 20
6.7593519444
 40
0.26375
  0
CIRCLE
  5
35D
100
AcDbEntity
  8
0
100
AcDbCircle
 62
7
  6
CONTINUOUS
 10
6.9235248447
 20
6.7593519444
 40
0.2566170761
  0
CIRCLE
  5
35E
100
AcDbEntity
  8
0
100
AcDbCircle
 62
7
  6
CONTINUOUS
 10
6.9235248447
 20
6.7593519444
 40
0.2272549781
  0
CIRCLE
  5
35F
100
AcDbEntity
  8
0
100
AcDbCircle
 62
7
  6
CONTINUOUS
 10
6.9235248447
 20
6.7593519444
 40
0.2085229177
  0
CIRCLE
  5
360
100
AcDbEntity
  8
0
100
AcDbCircle
 62
7
  6
CONTINUOUS
 10
6.9235248447
 20
6.7593519444
 40
0.1975723283
  0
ARC
  5
361
100
AcDbEntity
  8
0
100
AcDbCircle
 62
7
  6
CONTINUOUS
 10
7.0145248447
 20
6.7369142022
 40
0.009
100
AcDbArc
 50
296.3877999613
 51
360.0
  0
ARC
  5
362
100
AcDbEntity
  8
0
100
AcDbCircle
 62
7
  6
CONTINUOUS
 10
7.0446657849
 20
6.7318519444
 40
0.003
100
AcDbArc
 50
180.0
 51
270.0
  0
ARC
  5
363
100
AcDbEntity
  8
0
100
AcDbCircle
 62
7
  6
CONTINUOUS
 10
7.0353553047
 20
6.7606019444
 40
0.0485
100
AcDbArc
 50
341.5590861804
 51
18.4409138196
  0
ARC
  5
364
100
AcDbEntity
  8
0
100
AcDbCircle
 62
7
  6
CONTINUOUS
 10
7.0607748447
 20
6.7591019444
 40
0.04225
100
AcDbArc
 50
270.0
 51
90.0
  0
ARC
  5
365
100
AcDbEntity
  8
0
100
AcDbCircle
 62
7
  6
CONTINUOUS
 10
7.0585972388
 20
6.7528519444
 40
0.024
100
AcDbArc
 50
270.0
 51
341.5590861804
  0
ARC
  5
366
100
AcDbEntity
  8
0
100
AcDbCircle
 62
7
  6
CONTINUOUS
 10
7.3756916137
 20
6.6693519444
 40
0.008
100
AcDbArc
 50
223.0260516849
 51
325.3765489003
  0
ARC
  5
367
100
AcDbEntity
  8
0
100
AcDbCircle
 62
7
  6
CONTINUOUS
 10
7.3902748447
 20
6.6689050803
 40
0.008
100
AcDbArc
 50
55.0
 51
180.0
  0
ARC
  5
368
100
AcDbEntity
  8
0
100
AcDbCircle
 62
7
  6
CONTINUOUS
 10
7.5147748447
 20
6.7593519444
 40
0.1375
100
AcDbArc
 50
235.0
 51
125.0
  0
ARC
  5
369
100
AcDbEntity
  8
0
100
AcDbCircle
 62
7
  6
CONTINUOUS
 10
6.9235248447
 20
7.3506019444
 40
0.1375
100
AcDbArc
 50
325.0
 51
215.0
  0
ARC
  5
36A
100
AcDbEntity
  8
0
100
AcDbCircle
 62
7
  6
CONTINUOUS
 10
7.2784628242
 20
6.9401019444
 40
0.125
100
AcDbArc
 50
224.3699285546
 51
316.9739483152
  0
ARC
  5
36B
100
AcDbEntity
  8
0
100
AcDbCircle
 62
7
  6
CONTINUOUS
 10
6.5685868652
 20
6.9401019444
 40
0.125
100
AcDbArc
 50
223.0260516848
 51
315.6300714454
  0
ARC
  5
36C
100
AcDbEntity
  8
0
100
AcDbCircle
 62
7
  6
CONTINUOUS
 10
6.7427748447
 20
7.1142899239
 40
0.125
100
AcDbArc
 50
314.3699285546
 51
46.9739483152
  0
ARC
  5
36D
100
AcDbEntity
  8
0
100
AcDbCircle
 62
7
  6
CONTINUOUS
 10
7.1042748447
 20
7.1142899239
 40
0.125
100
AcDbArc
 50
133.0260516848
 51
225.6300714454
  0
ARC
  5
36E
100
AcDbEntity
  8
0
100
AcDbCircle
 62
7
  6
CONTINUOUS
 10
5.0442180291
 20
7.2398921005
 40
0.0532
100
AcDbArc
 50
130.9762844863
 51
236.1516146287
  0
ARC
  5
36F
100
AcDbEntity
  8
0
100
AcDbCircle
 62
7
  6
CONTINUOUS
 10
4.9685248447
 20
7.381106904
 40
0.045
100
AcDbArc
 50
0.0
 51
75.164888418
  0
ARC
  5
370
100
AcDbEntity
  8
0
100
AcDbCircle
 62
7
  6
CONTINUOUS
 10
5.0340248447
 20
7.351106904
 40
0.03
100
AcDbArc
 50
0.0
 51
90.0
  0
ARC
  5
371
100
AcDbEntity
  8
0
100
AcDbCircle
 62
7
  6
CONTINUOUS
 10
5.0340248447
 20
7.333106904
 40
0.03
100
AcDbArc
 50
270.0
 51
360.0
  0
ARC
  5
372
100
AcDbEntity
  8
0
100
AcDbCircle
 62
7
  6
CONTINUOUS
 10
7.0585972388
 20
6.7683519444
 40
0.024
100
AcDbArc
 50
18.4409138196
 51
90.0
  0
ARC
  5
373
100
AcDbEntity
  8
0
100
AcDbCircle
 62
7
  6
CONTINUOUS
 10
5.0017748447
 20
7.176606904
 40
0.023
100
AcDbArc
 50
0.0
 51
56.1516146287
  0
ARC
  5
374
100
AcDbEntity
  8
0
100
AcDbCircle
 62
7
  6
CONTINUOUS
 10
7.1780278328
 20
6.8418519444
 40
0.0155
100
AcDbArc
 50
44.3699285546
 51
62.8290175126
  0
ARC
  5
375
100
AcDbEntity
  8
0
100
AcDbCircle
 62
7
  6
CONTINUOUS
 10
6.6690218566
 20
6.8418519444
 40
0.0155
100
AcDbArc
 50
117.1708597107
 51
135.6300714454
  0
ARC
  5
376
100
AcDbEntity
  8
0
100
AcDbCircle
 62
7
  6
CONTINUOUS
 10
7.0060248447
 20
7.0138549325
 40
0.0155
100
AcDbArc
 50
27.1699236169
 51
45.6300714454
  0
ARC
  5
377
100
AcDbEntity
  8
0
100
AcDbCircle
 62
7
  6
CONTINUOUS
 10
6.8410248447
 20
7.0138549325
 40
0.0155
100
AcDbArc
 50
134.3699285546
 51
152.8301834077
  0
ARC
  5
378
100
AcDbEntity
  8
0
100
AcDbCircle
 62
7
  6
CONTINUOUS
 10
6.9242748447
 20
6.777966622
 40
0.015
100
AcDbArc
 50
0.0
 51
73.5407503717
  0
ARC
  5
379
100
AcDbEntity
  8
0
100
AcDbCircle
 62
7
  6
CONTINUOUS
 10
6.9722748447
 20
6.777966622
 40
0.015
100
AcDbArc
 50
106.4592496282
 51
180.0
  0
ARC
  5
37A
100
AcDbEntity
  8
0
100
AcDbCircle
 62
7
  6
CONTINUOUS
 10
5.0027748447
 20
7.287606904
 40
0.01
100
AcDbArc
 50
310.9762844863
 51
360.0
  0
ARC
  5
37B
100
AcDbEntity
  8
0
100
AcDbCircle
 62
7
  6
CONTINUOUS
 10
7.0145248447
 20
6.7842896867
 40
0.009
100
AcDbArc
 50
0.0
 51
63.6122000388
  0
ARC
  5
37C
100
AcDbEntity
  8
0
100
AcDbCircle
 62
7
  6
CONTINUOUS
 10
7.3756916137
 20
6.8493519444
 40
0.008
100
AcDbArc
 50
34.6234510997
 51
136.9739483152
  0
ARC
  5
37D
100
AcDbEntity
  8
0
100
AcDbCircle
 62
7
  6
CONTINUOUS
 10
7.3902748447
 20
6.8497988086
 40
0.008
100
AcDbArc
 50
180.0
 51
305.0
  0
ARC
  5
37E
100
AcDbEntity
  8
0
100
AcDbCircle
 62
7
  6
CONTINUOUS
 10
6.4713580758
 20
6.8493519444
 40
0.008
100
AcDbArc
 50
43.0260516849
 51
145.3765489003
  0
ARC
  5
37F
100
AcDbEntity
  8
0
100
AcDbCircle
 62
7
  6
CONTINUOUS
 10
6.4567748447
 20
6.8497988086
 40
0.008
100
AcDbArc
 50
235.0
 51
360.0
  0
ARC
  5
380
100
AcDbEntity
  8
0
100
AcDbCircle
 62
7
  6
CONTINUOUS
 10
6.8330779806
 20
7.2261019444
 40
0.008
100
AcDbArc
 50
270.0
 51
35.0
  0
ARC
  5
381
100
AcDbEntity
  8
0
100
AcDbCircle
 62
7
  6
CONTINUOUS
 10
7.0139717089
 20
7.2261019444
 40
0.008
100
AcDbArc
 50
145.0
 51
270.0
  0
ARC
  5
382
100
AcDbEntity
  8
0
100
AcDbCircle
 62
7
  6
CONTINUOUS
 10
6.8335248447
 20
7.2115187134
 40
0.008
100
AcDbArc
 50
124.6234510997
 51
226.9739483152
  0
ARC
  5
383
100
AcDbEntity
  8
0
100
AcDbCircle
 62
7
  6
CONTINUOUS
 10
7.0135248447
 20
7.2115187134
 40
0.008
100
AcDbArc
 50
313.0260516848
 51
55.3765489003
  0
ARC
  5
384
100
AcDbEntity
  8
0
100
AcDbCircle
 62
7
  6
CONTINUOUS
 10
7.0446657849
 20
6.7893519444
 40
0.003
100
AcDbArc
 50
90.0
 51
180.0
  0
ARC
  5
385
100
AcDbEntity
  8
0
100
AcDbCircle
 62
7
  6
CONTINUOUS
 10
6.8130248447
 20
6.8013519444
 40
0.003
100
AcDbArc
 50
252.3178031512
 51
360.0
  0
SPLINE
  5
386
100
AcDbEntity
  8
0
100
AcDbSpline
 62
7
  6
CONTINUOUS
 70
0
 71
3
 72
43
 73
39
 74
0
 42
0.0000001
 43
0.0000001
 44
0.0000000001
 40
0.0
 40
0.0
 40
0.0
 40
0.0
 40
0.0312593131
 40
0.0468892226
 40
0.0625174783
 40
0.093763606
 40
0.1250034861
 40
0.1406239705
 40
0.1562430629
 40
0.1874718405
 40
0.218696011
 40
0.2499163486
 40
0.2811337126
 40
0.3123490296
 40
0.3435632722
 40
0.3747774369
 40
0.4059925215
 40
0.4372095037
 40
0.4684293187
 40
0.4996528373
 40
0.5308808486
 40
0.562114039
 40
0.5933529786
 40
0.6245981094
 40
0.6558497318
 40
0.6871080025
 40
0.7183729282
 40
0.7496443643
 40
0.7809220221
 40
0.8122054703
 40
0.8434941474
 40
0.8591429824
 40
0.8747928642
 40
0.9060898456
 40
0.937389822
 40
0.9530431329
 40
0.968696977
 40
1.0
 40
1.0
 40
1.0
 40
1.0
 10
5.0797791609
 20
2.2326135375
 30
0.0
 10
5.0840693543
 20
2.2287173238
 30
0.0
 10
5.090288596
 20
2.222628149
 30
0.0
 10
5.0981021296
 20
2.2140646464
 30
0.0
 10
5.1055874836
 20
2.205215317
 30
0.0
 10
5.1143114499
 20
2.1936376657
 30
0.0
 10
5.1221403247
 20
2.1814385286
 30
0.0
 10
5.1278382028
 20
2.1713505937
 30
0.0
 10
5.1331519027
 20
2.161057493
 30
0.0
 10
5.1390616207
 20
2.1478283499
 30
0.0
 10
5.1449378322
 20
2.1314689751
 30
0.0
 10
5.149566397
 20
2.114715504
 30
0.0
 10
5.1529208474
 20
2.0976629726
 30
0.0
 10
5.1549822814
 20
2.080407432
 30
0.0
 10
5.1557390115
 20
2.0630462765
 30
0.0
 10
5.155186755
 20
2.0456774549
 30
0.0
 10
5.1533286343
 20
2.0283989741
 30
0.0
 10
5.1501751707
 20
2.0113083202
 30
0.0
 10
5.1457442085
 20
1.9945019077
 30
0.0
 10
5.1400608135
 20
1.9780745293
 30
0.0
 10
5.1331571262
 20
1.9621188177
 30
0.0
 10
5.1250721753
 20
1.94672472
 30
0.0
 10
5.115851649
 20
1.9319789903
 30
0.0
 10
5.1055476417
 20
1.9179646943
 30
0.0
 10
5.0942183467
 20
1.9047607414
 30
0.0
 10
5.0819277202
 20
1.8924414494
 30
0.0
 10
5.0687450998
 20
1.8810761229
 30
0.0
 10
5.0547448743
 20
1.8707286913
 30
0.0
 10
5.0400058139
 20
1.8614572702
 30
0.0
 10
5.0246115533
 20
1.85331416
 30
0.0
 10
5.0113074996
 20
1.8475060042
 30
0.0
 10
5.0004272553
 20
1.8434668213
 30
0.0
 10
4.9894019745
 20
1.8398371044
 30
0.0
 10
4.975376062
 20
1.8360773329
 30
0.0
 10
4.9611076777
 20
1.8333770113
 30
0.0
 10
4.9495974284
 20
1.8318613279
 30
0.0
 10
4.9380385484
 20
1.8307770676
 30
0.0
 10
4.929328312
 20
1.8304510848
 30
0.0
 10
4.9235248447
 20
1.8304510848
 30
0.0
  0
SPLINE
  5
387
100
AcDbEntity
  8
0
100
AcDbSpline
 62
7
  6
CONTINUOUS
 70
0
 71
3
 72
43
 73
39
 74
0
 42
0.0000001
 43
0.0000001
 44
0.0000000001
 40
0.0
 40
0.0
 40
0.0
 40
0.0
 40
0.0313030231
 40
0.0469568672
 40
0.0626101781
 40
0.0939101543
 40
0.1252071353
 40
0.1408570168
 40
0.1565058516
 40
0.187794528
 40
0.2190779754
 40
0.2503556324
 40
0.2816270675
 40
0.3128919922
 40
0.344150262
 40
0.3754018834
 40
0.4066470132
 40
0.4378859519
 40
0.4691191416
 40
0.5003471522
 40
0.5315706703
 40
0.5627904849
 40
0.5940074669
 40
0.6252225516
 40
0.6564367164
 40
0.6876509593
 40
0.7188662768
 40
0.7500836415
 40
0.78130398
 40
0.8125281515
 40
0.8437569303
 40
0.8593760232
 40
0.8749965083
 40
0.9062363898
 40
0.9374825188
 40
0.9531107752
 40
0.9687406854
 40
1.0
 40
1.0
 40
1.0
 40
1.0
 10
4.9235248447
 20
1.8304510848
 30
0.0
 10
4.9177213783
 20
1.8304510848
 30
0.0
 10
4.9090111432
 20
1.8307770675
 30
0.0
 10
4.8974522649
 20
1.8318613275
 30
0.0
 10
4.8859420174
 20
1.8333770104
 30
0.0
 10
4.8716736354
 20
1.8360773311
 30
0.0
 10
4.8576477249
 20
1.8398371015
 30
0.0
 10
4.8466224459
 20
1.8434668172
 30
0.0
 10
4.8357422032
 20
1.8475059988
 30
0.0
 10
4.8224381515
 20
1.8533141527
 30
0.0
 10
4.8070438929
 20
1.8614572602
 30
0.0
 10
4.7923048344
 20
1.8707286783
 30
0.0
 10
4.7783046104
 20
1.8810761065
 30
0.0
 10
4.7651219909
 20
1.8924414293
 30
0.0
 10
4.7528313651
 20
1.9047607174
 30
0.0
 10
4.7415020701
 20
1.9179646662
 30
0.0
 10
4.7311980625
 20
1.931978958
 30
0.0
 10
4.7219775353
 20
1.9467246834
 30
0.0
 10
4.713892583
 20
1.9621187768
 30
0.0
 10
4.7069888936
 20
1.9780744842
 30
0.0
 10
4.701305496
 20
1.9945018586
 30
0.0
 10
4.6968745306
 20
2.0113082673
 30
0.0
 10
4.6937210633
 20
2.0283989177
 30
0.0
 10
4.6918629386
 20
2.0456773954
 30
0.0
 10
4.6913106777
 20
2.0630462143
 30
0.0
 10
4.6920674029
 20
2.0804073675
 30
0.0
 10
4.6941288316
 20
2.0976629064
 30
0.0
 10
4.6974832766
 20
2.1147154365
 30
0.0
 10
4.7021118356
 20
2.131468907
 30
0.0
 10
4.7079880413
 20
2.1478282816
 30
0.0
 10
4.7138977543
 20
2.161057425
 30
0.0
 10
4.7192114502
 20
2.1713505264
 30
0.0
 10
4.7249093244
 20
2.1814384619
 30
0.0
 10
4.7327381941
 20
2.1936376004
 30
0.0
 10
4.7414621555
 20
2.2052152534
 30
0.0
 10
4.7489475056
 20
2.2140645846
 30
0.0
 10
4.7567610352
 20
2.2226280891
 30
0.0
 10
4.7629802741
 20
2.2287172655
 30
0.0
 10
4.7672704655
 20
2.2326134803
 30
0.0
  0
SPLINE
  5
388
100
AcDbEntity
  8
0
100
AcDbSpline
 62
7
  6
CONTINUOUS
 70
0
 71
3
 72
11
 73
7
 74
0
 42
0.0000001
 43
0.0000001
 44
0.0000000001
 40
0.0
 40
0.0
 40
0.0
 40
0.0
 40
0.2822044682
 40
0.5159959795
 40
0.7497984696
 40
1.0
 40
1.0
 40
1.0
 40
1.0
 10
6.9220248447
 20
6.7593519444
 30
0.0
 10
6.9220252458
 20
6.7474586155
 30
0.0
 10
6.9152261292
 20
6.7257123375
 30
0.0
 10
6.882691366
 20
6.7132044973
 30
0.0
 10
6.8514408772
 20
6.7251621336
 30
0.0
 10
6.8443824664
 20
6.7448515874
 30
0.0
 10
6.8436601408
 20
6.7553764616
 30
0.0
  0
SPLINE
  5
389
100
AcDbEntity
  8
0
100
AcDbSpline
 62
7
  6
CONTINUOUS
 70
0
 71
3
 72
11
 73
7
 74
0
 42
0.0000001
 43
0.0000001
 44
0.0000000001
 40
0.0
 40
0.0
 40
0.0
 40
0.0
 40
0.2895273334
 40
0.4992134133
 40
0.7088994931
 40
1.0
 40
1.0
 40
1.0
 40
1.0
 10
6.8616748447
 20
6.7593519444
 30
0.0
 10
6.8616748447
 20
6.7509900631
 30
0.0
 10
6.8629820909
 20
6.7365722075
 30
0.0
 10
6.882711934
 20
6.7259588651
 30
0.0
 10
6.9022342244
 20
6.7366211612
 30
0.0
 10
6.9041748447
 20
6.7509960278
 30
0.0
 10
6.9041748447
 20
6.7593519444
 30
0.0
  0
SPLINE
  5
38A
100
AcDbEntity
  8
0
100
AcDbSpline
 62
7
  6
CONTINUOUS
 70
0
 71
3
 72
11
 73
7
 74
0
 42
0.0000001
 43
0.0000001
 44
0.0000000001
 40
0.0
 40
0.0
 40
0.0
 40
0.0
 40
0.2911005069
 40
0.5007865867
 40
0.7104726666
 40
1.0
 40
1.0
 40
1.0
 40
1.0
 10
6.9041748447
 20
6.7593519444
 30
0.0
 10
6.9041748447
 20
6.767707861
 30
0.0
 10
6.9022342244
 20
6.7820827277
 30
0.0
 10
6.882711934
 20
6.7927450238
 30
0.0
 10
6.8629820909
 20
6.7821316813
 30
0.0
 10
6.8616748447
 20
6.7677138257
 30
0.0
 10
6.8616748447
 20
6.7593519444
 30
0.0
  0
SPLINE
  5
38B
100
AcDbEntity
  8
0
100
AcDbSpline
 62
7
  6
CONTINUOUS
 70
0
 71
3
 72
11
 73
7
 74
0
 42
0.0000001
 43
0.0000001
 44
0.0000000001
 40
0.0
 40
0.0
 40
0.0
 40
0.0
 40
0.2730385444
 40
0.4996896654
 40
0.7263920674
 40
1.0
 40
1.0
 40
1.0
 40
1.0
 10
2.8835248447
 20
6.7593519444
 30
0.0
 10
2.883524476
 20
6.7712473184
 30
0.0
 10
2.8900706443
 20
6.7930171113
 30
0.0
 10
2.9226965816
 20
6.8054993577
 30
0.0
 10
2.9552234162
 20
6.7929930643
 30
0.0
 10
2.9620244436
 20
6.7712452734
 30
0.0
 10
2.9620248447
 20
6.7593519444
 30
0.0
  0
SPLINE
  5
38C
100
AcDbEntity
  8
0
100
AcDbSpline
 62
7
  6
CONTINUOUS
 70
0
 71
3
 72
11
 73
7
 74
0
 42
0.0000001
 43
0.0000001
 44
0.0000000001
 40
0.0
 40
0.0
 40
0.0
 40
0.0
 40
0.2736088651
 40
0.5002793729
 40
0.726960525
 40
1.0
 40
1.0
 40
1.0
 40
1.0
 10
2.9620248447
 20
6.7593519444
 30
0.0
 10
2.9620252458
 20
6.7474586155
 30
0.0
 10
2.9552261292
 20
6.7257123375
 30
0.0
 10
2.922691366
 20
6.7132044973
 30
0.0
 10
2.8900731413
 20
6.7256854818
 30
0.0
 10
2.8835252134
 20
6.7474565705
 30
0.0
 10
2.8835248447
 20
6.7593519444
 30
0.0
  0
SPLINE
  5
38D
100
AcDbEntity
  8
0
100
AcDbSpline
 62
7
  6
CONTINUOUS
 70
0
 71
3
 72
11
 73
7
 74
0
 42
0.0000001
 43
0.0000001
 44
0.0000000001
 40
0.0
 40
0.0
 40
0.0
 40
0.0
 40
0.2895273334
 40
0.4992134133
 40
0.7088994931
 40
1.0
 40
1.0
 40
1.0
 40
1.0
 10
2.9016748447
 20
6.7593519444
 30
0.0
 10
2.9016748447
 20
6.7509900631
 30
0.0
 10
2.9029820909
 20
6.7365722075
 30
0.0
 10
2.922711934
 20
6.7259588651
 30
0.0
 10
2.9422342244
 20
6.7366211612
 30
0.0
 10
2.9441748447
 20
6.7509960278
 30
0.0
 10
2.9441748447
 20
6.7593519444
 30
0.0
  0
SPLINE
  5
38E
100
AcDbEntity
  8
0
100
AcDbSpline
 62
7
  6
CONTINUOUS
 70
0
 71
3
 72
11
 73
7
 74
0
 42
0.0000001
 43
0.0000001
 44
0.0000000001
 40
0.0
 40
0.0
 40
0.0
 40
0.0
 40
0.2911005069
 40
0.5007865867
 40
0.7104726666
 40
1.0
 40
1.0
 40
1.0
 40
1.0
 10
2.9441748447
 20
6.7593519444
 30
0.0
 10
2.9441748447
 20
6.767707861
 30
0.0
 10
2.9422342244
 20
6.7820827277
 30
0.0
 10
2.922711934
 20
6.7927450238
 30
0.0
 10
2.9029820909
 20
6.7821316813
 30
0.0
 10
2.9016748447
 20
6.7677138257
 30
0.0
 10
2.9016748447
 20
6.7593519444
 30
0.0
  0
SPLINE
  5
38F
100
AcDbEntity
  8
0
100
AcDbSpline
 62
7
  6
CONTINUOUS
 70
0
 71
3
 72
11
 73
7
 74
0
 42
0.0000001
 43
0.0000001
 44
0.0000000001
 40
0.0
 40
0.0
 40
0.0
 40
0.0
 40
0.2763234498
 40
0.5057013928
 40
0.7351312337
 40
1.0
 40
1.0
 40
1.0
 40
1.0
 10
6.8435248447
 20
6.7593519444
 30
0.0
 10
6.843524476
 20
6.7712473184
 30
0.0
 10
6.8500706443
 20
6.7930171113
 30
0.0
 10
6.8826965816
 20
6.8054993577
 30
0.0
 10
6.9146915094
 20
6.7931975779
 30
0.0
 10
6.9216924456
 20
6.7722713551
 30
0.0
 10
6.9220036536
 20
6.76090187
 30
0.0
  0
SPLINE
  5
390
100
AcDbEntity
  8
0
100
AcDbSpline
 62
7
  6
CONTINUOUS
 70
0
 71
3
 72
41
 73
37
 74
0
 42
0.0000001
 43
0.0000001
 44
0.0000000001
 40
0.0
 40
0.0
 40
0.0
 40
0.0
 40
0.031322064
 40
0.0626428783
 40
0.093961506
 40
0.1252766776
 40
0.156587405
 40
0.1878927282
 40
0.2191918184
 40
0.2504839522
 40
0.2817685456
 40
0.3130451663
 40
0.3443135386
 40
0.3755735478
 40
0.4068252443
 40
0.4380688425
 40
0.469304717
 40
0.5005333944
 40
0.531755544
 40
0.5629719638
 40
0.5941835655
 40
0.6253913562
 40
0.6565964181
 40
0.6877998879
 40
0.7190029337
 40
0.7502067319
 40
0.7814124441
 40
0.812621194
 40
0.843834045
 40
0.8594447396
 40
0.8750568218
 40
0.9062807212
 40
0.9375113491
 40
0.953131805
 40
0.9687541688
 40
1.0
 40
1.0
 40
1.0
 40
1.0
 10
4.9235248447
 20
1.8646964907
 30
0.0
 10
4.9188308356
 20
1.8646964907
 30
0.0
 10
4.9094396878
 20
1.8650251727
 30
0.0
 10
4.8954250036
 20
1.8665018441
 30
0.0
 10
4.881548202
 20
1.8689548523
 30
0.0
 10
4.8678786261
 20
1.8723721292
 30
0.0
 10
4.8544834754
 20
1.8767368025
 30
0.0
 10
4.8414288836
 20
1.8820273575
 30
0.0
 10
4.8287792272
 20
1.8882176992
 30
0.0
 10
4.8165969094
 20
1.8952773006
 30
0.0
 10
4.8049420242
 20
1.9031713438
 30
0.0
 10
4.7938720664
 20
1.9118608957
 30
0.0
 10
4.7834416465
 20
1.9213030984
 30
0.0
 10
4.7737022215
 20
1.9314513804
 30
0.0
 10
4.7647018416
 20
1.9422556858
 30
0.0
 10
4.7564849117
 20
1.9536627217
 30
0.0
 10
4.749091973
 20
1.9656162199
 30
0.0
 10
4.7425595021
 20
1.9780572155
 30
0.0
 10
4.7369197313
 20
1.9909243368
 30
0.0
 10
4.7322004886
 20
2.0041541084
 30
0.0
 10
4.7284250604
 20
2.0176812648
 30
0.0
 10
4.7256120765
 20
2.0314390716
 30
0.0
 10
4.7237754178
 20
2.0453596565
 30
0.0
 10
4.7229241468
 20
2.0593743407
 30
0.0
 10
4.723062467
 20
2.0734139908
 30
0.0
 10
4.724189685
 20
2.0874093126
 30
0.0
 10
4.7263002796
 20
2.10129137
 30
0.0
 10
4.729383682
 20
2.1149912679
 30
0.0
 10
4.7327516283
 20
2.1262009047
 30
0.0
 10
4.7359141201
 20
2.1350087953
 30
0.0
 10
4.7393853827
 20
2.1437014544
 30
0.0
 10
4.7442961108
 20
2.1543315325
 30
0.0
 10
4.7499432329
 20
2.1645907695
 30
0.0
 10
4.7548853054
 20
2.1725446548
 30
0.0
 10
4.7601049989
 20
2.1803214427
 30
0.0
 10
4.7643260871
 20
2.1859449044
 30
0.0
 10
4.7672669806
 20
2.1895887683
 30
0.0
  0
SPLINE
  5
391
100
AcDbEntity
  8
0
100
AcDbSpline
 62
7
  6
CONTINUOUS
 70
0
 71
3
 72
41
 73
37
 74
0
 42
0.0000001
 43
0.0000001
 44
0.0000000001
 40
0.0
 40
0.0
 40
0.0
 40
0.0
 40
0.031322064
 40
0.0626428783
 40
0.093961506
 40
0.1252766776
 40
0.156587405
 40
0.1878927282
 40
0.2191918184
 40
0.2504839522
 40
0.2817685456
 40
0.3130451663
 40
0.3443135386
 40
0.3755735478
 40
0.4068252443
 40
0.4380688425
 40
0.469304717
 40
0.5005333944
 40
0.531755544
 40
0.5629719638
 40
0.5941835655
 40
0.6253913562
 40
0.6565964181
 40
0.6877998879
 40
0.7190029337
 40
0.7502067319
 40
0.7814124441
 40
0.812621194
 40
0.843834045
 40
0.8594447396
 40
0.8750568218
 40
0.9062807212
 40
0.9375113491
 40
0.953131805
 40
0.9687541688
 40
1.0
 40
1.0
 40
1.0
 40
1.0
 10
4.9235248447
 20
1.8646964907
 30
0.0
 10
4.9282188538
 20
1.8646964907
 30
0.0
 10
4.9376100017
 20
1.8650251727
 30
0.0
 10
4.9516246858
 20
1.8665018441
 30
0.0
 10
4.9655014874
 20
1.8689548523
 30
0.0
 10
4.9791710633
 20
1.8723721292
 30
0.0
 10
4.992566214
 20
1.8767368025
 30
0.0
 10
5.0056208059
 20
1.8820273575
 30
0.0
 10
5.0182704622
 20
1.8882176992
 30
0.0
 10
5.03045278
 20
1.8952773006
 30
0.0
 10
5.0421076653
 20
1.9031713438
 30
0.0
 10
5.053177623
 20
1.9118608957
 30
0.0
 10
5.063608043
 20
1.9213030984
 30
0.0
 10
5.0733474679
 20
1.9314513804
 30
0.0
 10
5.0823478479
 20
1.9422556858
 30
0.0
 10
5.0905647778
 20
1.9536627217
 30
0.0
 10
5.0979577165
 20
1.9656162199
 30
0.0
 10
5.1044901873
 20
1.9780572155
 30
0.0
 10
5.1101299581
 20
1.9909243368
 30
0.0
 10
5.1148492009
 20
2.0041541084
 30
0.0
 10
5.1186246291
 20
2.0176812648
 30
0.0
 10
5.121437613
 20
2.0314390716
 30
0.0
 10
5.1232742716
 20
2.0453596565
 30
0.0
 10
5.1241255427
 20
2.0593743407
 30
0.0
 10
5.1239872224
 20
2.0734139908
 30
0.0
 10
5.1228600044
 20
2.0874093126
 30
0.0
 10
5.1207494099
 20
2.10129137
 30
0.0
 10
5.1176660074
 20
2.1149912679
 30
0.0
 10
5.1142980611
 20
2.1262009047
 30
0.0
 10
5.1111355694
 20
2.1350087953
 30
0.0
 10
5.1076643068
 20
2.1437014544
 30
0.0
 10
5.1027535786
 20
2.1543315325
 30
0.0
 10
5.0971064565
 20
2.1645907695
 30
0.0
 10
5.092164384
 20
2.1725446548
 30
0.0
 10
5.0869446906
 20
2.1803214427
 30
0.0
 10
5.0827236024
 20
2.1859449044
 30
0.0
 10
5.0797827089
 20
2.1895887683
 30
0.0
  0
SPLINE
  5
392
100
AcDbEntity
  8
0
100
AcDbSpline
 62
7
  6
CONTINUOUS
 70
0
 71
3
 72
34
 73
30
 74
0
 42
0.0000001
 43
0.0000001
 44
0.0000000001
 40
0.0
 40
0.0
 40
0.0
 40
0.0
 40
0.0150461527
 40
0.0303617852
 40
0.0462001482
 40
0.0627857929
 40
0.0803079997
 40
0.0989192225
 40
0.1187371614
 40
0.1398489086
 40
0.1623151468
 40
0.1861742032
 40
0.2114459301
 40
0.2381344875
 40
0.2662306581
 40
0.2957141044
 40
0.3265547509
 40
0.358713934
 40
0.3921457436
 40
0.4267977275
 40
0.4626114918
 40
0.4995236036
 40
0.5374660068
 40
0.5763663881
 40
0.6567301913
 40
0.7399748854
 40
0.8254151048
 40
0.9123344094
 40
1.0
 40
1.0
 40
1.0
 40
1.0
 10
5.0797748331
 20
3.0653928307
 30
0.0
 10
5.0797748331
 20
3.0662691485
 30
0.0
 10
5.0796466413
 20
3.0680400202
 30
0.0
 10
5.0790726969
 20
3.0706772756
 30
0.0
 10
5.0781198946
 20
3.0732977517
 30
0.0
 10
5.0767928645
 20
3.0758938933
 30
0.0
 10
5.075096654
 20
3.078460102
 30
0.0
 10
5.0730365624
 20
3.0809910884
 30
0.0
 10
5.0706181777
 20
3.0834818398
 30
0.0
 10
5.0678474695
 20
3.0859272361
 30
0.0
 10
5.0647310358
 20
3.0883220826
 30
0.0
 10
5.061276213
 20
3.0906611438
 30
0.0
 10
5.0574910783
 20
3.092939115
 30
0.0
 10
5.0533845197
 20
3.0951507317
 30
0.0
 10
5.0489662378
 20
3.0972908422
 30
0.0
 10
5.0442466877
 20
3.0993543672
 30
0.0
 10
5.0392370836
 20
3.1013363798
 30
0.0
 10
5.0339493768
 20
3.10323216
 30
0.0
 10
5.0283961947
 20
3.1050371415
 30
0.0
 10
5.0225908244
 20
3.1067469664
 30
0.0
 10
5.0165471845
 20
3.1083575379
 30
0.0
 10
5.0102797767
 20
3.1098649524
 30
0.0
 10
5.0038036229
 20
3.111265583
 30
0.0
 10
4.994813719
 20
3.113004969
 30
0.0
 10
4.9831655931
 20
3.1148795845
 30
0.0
 10
4.9687637451
 20
3.1166337987
 30
0.0
 10
4.9539275478
 20
3.117899141
 30
0.0
 10
4.9387996738
 20
3.1186633479
 30
0.0
 10
4.9286306626
 20
3.1188334781
 30
0.0
 10
4.9235248447
 20
3.1188334781
 30
0.0
  0
SPLINE
  5
393
100
AcDbEntity
  8
0
100
AcDbSpline
 62
7
  6
CONTINUOUS
 70
0
 71
3
 72
31
 73
27
 74
0
 42
0.0000001
 43
0.0000001
 44
0.0000000001
 40
0.0
 40
0.0
 40
0.0
 40
0.0
 40
0.0311952002
 40
0.0623909876
 40
0.0935879011
 40
0.1247865096
 40
0.1871720846
 40
0.2495706178
 40
0.2807853112
 40
0.3120045199
 40
0.3432285966
 40
0.3744578289
 40
0.4369138325
 40
0.4993927408
 40
0.5618949931
 40
0.624420138
 40
0.6557003244
 40
0.6869856612
 40
0.718275855
 40
0.7495705777
 40
0.8121532206
 40
0.8747489153
 40
0.9060596523
 40
0.9373716804
 40
0.9686869434
 40
1.0
 40
1.0
 40
1.0
 40
1.0
 10
5.0797748333
 20
2.0650720292
 30
0.0
 10
5.0797748333
 20
2.0625244471
 30
0.0
 10
5.0796494378
 20
2.0574283367
 30
0.0
 10
5.0790855691
 20
2.0498033247
 30
0.0
 10
5.0781471844
 20
2.0422146492
 30
0.0
 10
5.0764002074
 20
2.0321716891
 30
0.0
 10
5.0732923303
 20
2.0197955543
 30
0.0
 10
5.0689826527
 20
2.0077835969
 30
0.0
 10
5.0648406989
 20
1.9984646299
 30
0.0
 10
5.0613930226
 20
1.991633515
 30
0.0
 10
5.0576131183
 20
1.9849790931
 30
0.0
 10
5.0521433835
 20
1.9763647036
 30
0.0
 10
5.0445195749
 20
1.9661131353
 30
0.0
 10
5.0342077381
 20
1.9547677382
 30
0.0
 10
5.0228294429
 20
1.9444838167
 30
0.0
 10
5.0125481597
 20
1.9368805088
 30
0.0
 10
5.0039075695
 20
1.9314244948
 30
0.0
 10
4.9972311917
 20
1.927653021
 30
0.0
 10
4.9903769811
 20
1.9242127035
 30
0.0
 10
4.9810245411
 20
1.920078767
 30
0.0
 10
4.9689686899
 20
1.9157771526
 30
0.0
 10
4.9565485454
 20
1.9126753947
 30
0.0
 10
4.9464688313
 20
1.9109314662
 30
0.0
 10
4.9388514586
 20
1.9099946103
 30
0.0
 10
4.9311975361
 20
1.9094316993
 30
0.0
 10
4.9260820516
 20
1.90930645
 30
0.0
 10
4.9235248447
 20
1.90930645
 30
0.0
  0
SPLINE
  5
394
100
AcDbEntity
  8
0
100
AcDbSpline
 62
7
  6
CONTINUOUS
 70
0
 71
3
 72
34
 73
30
 74
0
 42
0.0000001
 43
0.0000001
 44
0.0000000001
 40
0.0
 40
0.0
 40
0.0
 40
0.0
 40
0.0150461527
 40
0.0303617852
 40
0.0462001482
 40
0.0627857929
 40
0.0803079997
 40
0.0989192225
 40
0.1187371614
 40
0.1398489086
 40
0.1623151468
 40
0.1861742032
 40
0.2114459301
 40
0.2381344875
 40
0.2662306581
 40
0.2957141044
 40
0.3265547509
 40
0.358713934
 40
0.3921457436
 40
0.4267977275
 40
0.4626114918
 40
0.4995236036
 40
0.5374660068
 40
0.5763663881
 40
0.6567301913
 40
0.7399748854
 40
0.8254151048
 40
0.9123344094
 40
1.0
 40
1.0
 40
1.0
 40
1.0
 10
5.0797748331
 20
4.1905917965
 30
0.0
 10
5.0797748331
 20
4.1914681143
 30
0.0
 10
5.0796466413
 20
4.193238986
 30
0.0
 10
5.0790726969
 20
4.1958762414
 30
0.0
 10
5.0781198946
 20
4.1984967175
 30
0.0
 10
5.0767928645
 20
4.2010928591
 30
0.0
 10
5.075096654
 20
4.2036590678
 30
0.0
 10
5.0730365624
 20
4.2061900542
 30
0.0
 10
5.0706181777
 20
4.2086808056
 30
0.0
 10
5.0678474695
 20
4.2111262019
 30
0.0
 10
5.0647310358
 20
4.2135210484
 30
0.0
 10
5.061276213
 20
4.2158601096
 30
0.0
 10
5.0574910783
 20
4.2181380808
 30
0.0
 10
5.0533845197
 20
4.2203496975
 30
0.0
 10
5.0489662378
 20
4.222489808
 30
0.0
 10
5.0442466877
 20
4.224553333
 30
0.0
 10
5.0392370836
 20
4.2265353456
 30
0.0
 10
5.0339493768
 20
4.2284311258
 30
0.0
 10
5.0283961947
 20
4.2302361073
 30
0.0
 10
5.0225908244
 20
4.2319459322
 30
0.0
 10
5.0165471845
 20
4.2335565037
 30
0.0
 10
5.0102797767
 20
4.2350639182
 30
0.0
 10
5.0038036229
 20
4.2364645488
 30
0.0
 10
4.994813719
 20
4.2382039348
 30
0.0
 10
4.9831655931
 20
4.2400785503
 30
0.0
 10
4.9687637451
 20
4.2418327645
 30
0.0
 10
4.9539275478
 20
4.2430981068
 30
0.0
 10
4.9387996738
 20
4.2438623137
 30
0.0
 10
4.9286306626
 20
4.2440324439
 30
0.0
 10
4.9235248447
 20
4.2440324439
 30
0.0
  0
SPLINE
  5
395
100
AcDbEntity
  8
0
100
AcDbSpline
 62
7
  6
CONTINUOUS
 70
0
 71
3
 72
34
 73
30
 74
0
 42
0.0000001
 43
0.0000001
 44
0.0000000001
 40
0.0
 40
0.0
 40
0.0
 40
0.0
 40
0.0876655906
 40
0.1745848952
 40
0.2600251146
 40
0.3432698087
 40
0.4236336119
 40
0.4625339932
 40
0.5004763964
 40
0.5373885082
 40
0.5732022725
 40
0.6078542564
 40
0.641286066
 40
0.6734452491
 40
0.7042858956
 40
0.7337693419
 40
0.7618655125
 40
0.7885540699
 40
0.8138257968
 40
0.8376848532
 40
0.8601510914
 40
0.8812628386
 40
0.9010807775
 40
0.9196920003
 40
0.9372142071
 40
0.9537998518
 40
0.9696382148
 40
0.9849538473
 40
1.0
 40
1.0
 40
1.0
 40
1.0
 10
4.9235248447
 20
3.1188334781
 30
0.0
 10
4.9184190269
 20
3.1188334781
 30
0.0
 10
4.9082500157
 20
3.1186633479
 30
0.0
 10
4.8931221417
 20
3.117899141
 30
0.0
 10
4.8782859444
 20
3.1166337987
 30
0.0
 10
4.8638840964
 20
3.1148795845
 30
0.0
 10
4.8522359704
 20
3.113004969
 30
0.0
 10
4.8432460666
 20
3.111265583
 30
0.0
 10
4.8367699128
 20
3.1098649524
 30
0.0
 10
4.8305025049
 20
3.1083575379
 30
0.0
 10
4.824458865
 20
3.1067469664
 30
0.0
 10
4.8186534947
 20
3.1050371415
 30
0.0
 10
4.8131003126
 20
3.10323216
 30
0.0
 10
4.8078126059
 20
3.1013363798
 30
0.0
 10
4.8028030017
 20
3.0993543672
 30
0.0
 10
4.7980834517
 20
3.0972908422
 30
0.0
 10
4.7936651697
 20
3.0951507317
 30
0.0
 10
4.7895586112
 20
3.092939115
 30
0.0
 10
4.7857734765
 20
3.0906611438
 30
0.0
 10
4.7823186536
 20
3.0883220826
 30
0.0
 10
4.7792022199
 20
3.0859272361
 30
0.0
 10
4.7764315117
 20
3.0834818398
 30
0.0
 10
4.774013127
 20
3.0809910884
 30
0.0
 10
4.7719530354
 20
3.078460102
 30
0.0
 10
4.7702568249
 20
3.0758938933
 30
0.0
 10
4.7689297948
 20
3.0732977517
 30
0.0
 10
4.7679769925
 20
3.0706772756
 30
0.0
 10
4.7674030481
 20
3.0680400202
 30
0.0
 10
4.7672748563
 20
3.0662691485
 30
0.0
 10
4.7672748563
 20
3.0653928307
 30
0.0
  0
SPLINE
  5
396
100
AcDbEntity
  8
0
100
AcDbSpline
 62
7
  6
CONTINUOUS
 70
0
 71
3
 72
31
 73
27
 74
0
 42
0.0000001
 43
0.0000001
 44
0.0000000001
 40
0.0
 40
0.0
 40
0.0
 40
0.0
 40
0.0313130566
 40
0.0626283195
 40
0.0939403476
 40
0.1252510846
 40
0.1878467793
 40
0.2504294223
 40
0.2817241449
 40
0.3130143387
 40
0.3442996755
 40
0.3755798619
 40
0.4381050069
 40
0.5006072591
 40
0.5630861674
 40
0.6255421711
 40
0.6567714033
 40
0.6879954801
 40
0.7192146888
 40
0.7504293821
 40
0.8128279153
 40
0.8752134903
 40
0.9064120989
 40
0.9376090124
 40
0.9688047998
 40
1.0
 40
1.0
 40
1.0
 40
1.0
 10
4.9235248447
 20
1.90930645
 30
0.0
 10
4.9209676378
 20
1.90930645
 30
0.0
 10
4.9158521534
 20
1.9094316993
 30
0.0
 10
4.9081982309
 20
1.9099946103
 30
0.0
 10
4.9005808582
 20
1.9109314662
 30
0.0
 10
4.8905011441
 20
1.9126753947
 30
0.0
 10
4.8780809995
 20
1.9157771526
 30
0.0
 10
4.8660251484
 20
1.920078767
 30
0.0
 10
4.8566727083
 20
1.9242127035
 30
0.0
 10
4.8498184978
 20
1.927653021
 30
0.0
 10
4.84314212
 20
1.9314244948
 30
0.0
 10
4.8345015297
 20
1.9368805088
 30
0.0
 10
4.8242202465
 20
1.9444838167
 30
0.0
 10
4.8128419514
 20
1.9547677382
 30
0.0
 10
4.8025301145
 20
1.9661131353
 30
0.0
 10
4.794906306
 20
1.9763647036
 30
0.0
 10
4.7894365711
 20
1.9849790931
 30
0.0
 10
4.7856566668
 20
1.991633515
 30
0.0
 10
4.7822089905
 20
1.9984646299
 30
0.0
 10
4.7780670368
 20
2.0077835969
 30
0.0
 10
4.7737573591
 20
2.0197955543
 30
0.0
 10
4.7706494821
 20
2.0321716891
 30
0.0
 10
4.768902505
 20
2.0422146492
 30
0.0
 10
4.7679641204
 20
2.0498033247
 30
0.0
 10
4.7674002516
 20
2.0574283367
 30
0.0
 10
4.7672748561
 20
2.0625244471
 30
0.0
 10
4.7672748561
 20
2.0650720292
 30
0.0
  0
SPLINE
  5
397
100
AcDbEntity
  8
0
100
AcDbSpline
 62
7
  6
CONTINUOUS
 70
0
 71
3
 72
34
 73
30
 74
0
 42
0.0000001
 43
0.0000001
 44
0.0000000001
 40
0.0
 40
0.0
 40
0.0
 40
0.0
 40
0.0876655906
 40
0.1745848952
 40
0.2600251146
 40
0.3432698087
 40
0.4236336119
 40
0.4625339932
 40
0.5004763964
 40
0.5373885082
 40
0.5732022725
 40
0.6078542564
 40
0.641286066
 40
0.6734452491
 40
0.7042858956
 40
0.7337693419
 40
0.7618655125
 40
0.7885540699
 40
0.8138257968
 40
0.8376848532
 40
0.8601510914
 40
0.8812628386
 40
0.9010807775
 40
0.9196920003
 40
0.9372142071
 40
0.9537998518
 40
0.9696382148
 40
0.9849538473
 40
1.0
 40
1.0
 40
1.0
 40
1.0
 10
4.9235248447
 20
4.2440324439
 30
0.0
 10
4.9184190269
 20
4.2440324439
 30
0.0
 10
4.9082500157
 20
4.2438623137
 30
0.0
 10
4.8931221417
 20
4.2430981068
 30
0.0
 10
4.8782859444
 20
4.2418327645
 30
0.0
 10
4.8638840964
 20
4.2400785503
 30
0.0
 10
4.8522359704
 20
4.2382039348
 30
0.0
 10
4.8432460666
 20
4.2364645488
 30
0.0
 10
4.8367699128
 20
4.2350639182
 30
0.0
 10
4.8305025049
 20
4.2335565037
 30
0.0
 10
4.824458865
 20
4.2319459322
 30
0.0
 10
4.8186534947
 20
4.2302361073
 30
0.0
 10
4.8131003126
 20
4.2284311258
 30
0.0
 10
4.8078126059
 20
4.2265353456
 30
0.0
 10
4.8028030017
 20
4.224553333
 30
0.0
 10
4.7980834517
 20
4.222489808
 30
0.0
 10
4.7936651697
 20
4.2203496975
 30
0.0
 10
4.7895586112
 20
4.2181380808
 30
0.0
 10
4.7857734765
 20
4.2158601096
 30
0.0
 10
4.7823186536
 20
4.2135210484
 30
0.0
 10
4.7792022199
 20
4.2111262019
 30
0.0
 10
4.7764315117
 20
4.2086808056
 30
0.0
 10
4.774013127
 20
4.2061900542
 30
0.0
 10
4.7719530354
 20
4.2036590678
 30
0.0
 10
4.7702568249
 20
4.2010928591
 30
0.0
 10
4.7689297948
 20
4.1984967175
 30
0.0
 10
4.7679769925
 20
4.1958762414
 30
0.0
 10
4.7674030481
 20
4.193238986
 30
0.0
 10
4.7672748563
 20
4.1914681143
 30
0.0
 10
4.7672748563
 20
4.1905917965
 30
0.0
  0
ENDSEC
  0
SECTION
  2
OBJECTS
  0
DICTIONARY
  5
C
100
AcDbDictionary
280
0
281
1
  3
ACAD_GROUP
350
D
  3
ACAD_MLINESTYLE
350
17
  3
ACAD_LAYOUT
350
1A
  3
ACAD_PLOTSETTINGS
350
19
  3
ACAD_PLOTSTYLENAME
350
E
  0
DICTIONARY
  5
D
102
{ACAD_REACTORS
330
C
102
}
100
AcDbDictionary
280
0
281
1
  0
ACDBDICTIONARYWDFLT
  5
E
102
{ACAD_REACTORS
330
C
102
}
100
AcDbDictionary
281
1
  3
Normal
350
F
100
AcDbDictionaryWithDefault
340
F
  0
DICTIONARY
  5
17
102
{ACAD_REACTORS
330
C
102
}
100
AcDbDictionary
280
0
281
1
  3
Standard
350
18
  0
DICTIONARY
  5
19
102
{ACAD_REACTORS
330
C
102
}
100
AcDbDictionary
281
1
  0
DICTIONARY
  5
1A
102
{ACAD_REACTORS
330
C
102
}
100
AcDbDictionary
281
1
  3
Model
350
398
  3
Layout1
350
399
  0
ACDBPLACEHOLDER
  5
F
102
{ACAD_REACTORS
330
E
102
}
  0
MLINESTYLE
  5
18
102
{ACAD_REACTORS
330
17
102
}
100
AcDbMlineStyle
  2
STANDARD
 70
0
  3

 62
256
 51
90.0
 52
90.0
 71
2
 49
0.5
 62
256
  6
BYLAYER
 49
-0.5
 62
256
  6
BYLAYER
  0
LAYOUT
  5
398
102
{ACAD_REACTORS
330
1A
102
}
100
AcDbPlotSettings
  1

  2
none_device
  4
ANSI_A_(11.00_x_8.50_Inches)
  6

 40
0.0
 41
0.0
 42
0.0
 43
0.0
 44
279.4
 45
215.9
 46
0.0
 47
0.0
 48
0.0
 49
0.0
140
0.0
141
0.0
142
1.0
143
1.0
 70
1024
 72
0
 73
0
 74
0
  7

 75
0
147
1.0
148
0.0
149
0.0
100
AcDbLayout
  1
Model
 70
0
 71
0
 10
0.0
 20
0.0
 11
11.0
 21
8.5
 12
0.0
 22
0.0
 32
0.0
 14
0.0
 24
0.0
 34
0.0
 15
0.0
 25
0.0
 35
0.0
146
0.0
 13
0.0
 23
0.0
 33
0.0
 16
1.0
 26
0.0
 36
0.0
 17
0.0
 27
1.0
 37
0.0
 76
0
330
202
345
0
346
0
  0
LAYOUT
  5
399
102
{ACAD_REACTORS
330
1A
102
}
100
AcDbPlotSettings
  1

  2
none_device
  4
ANSI_A_(11.00_x_8.50_Inches)
  6

 40
0.0
 41
0.0
 42
0.0
 43
0.0
 44
279.4
 45
215.9
 46
0.0
 47
0.0
 48
0.0
 49
0.0
140
0.0
141
0.0
142
1.0
143
1.0
 70
0
 72
0
 73
0
 74
0
  7

 75
0
147
1.0
148
0.0
149
0.0
100
AcDbLayout
  1
Layout1
 70
0
 71
1
 10
0.0
 20
0.0
 11
11.0
 21
8.5
 12
0.0
 22
0.0
 32
0.0
 14
0.0
 24
0.0
 34
0.0
 15
0.0
 25
0.0
 35
0.0
146
0.0
 13
0.0
 23
0.0
 33
0.0
 16
1.0
 26
0.0
 36
0.0
 17
0.0
 27
1.0
 37
0.0
 76
0
330
203
345
0
346
0
  0
ENDSEC
  0
EOF
