999
DXF file: 9453-1_right.dxf
999
Pro/ENGINEER 2018400 by Parametric Technology Corporation
  0
SECTION
  2
HEADER
  9
$ACADVER
  1
AC1027
  9
$DWGCODEPAGE
  3
ANSI_1252
  9
$EXTMAX
 10
11.0
 20
8.5
 30
0.0
  9
$EXTMIN
 10
0.0
 20
0.0
 30
0.0
  9
$LIMMIN
 10
0.0
 20
0.0
  9
$LIMMAX
 10
11.0
 20
8.5
  9
$VIEWCTR
 10
5.5
 20
4.25
  9
$VIEWSIZE
 40
8.5
  9
$CLAYER
  8
0
  9
$LTSCALE
 40
0.605
  9
$CELTYPE
  6
BYLAYER
  9
$DIMSCALE
 40
1.0
  9
$DIMASZ
 40
0.1
  9
$DIMEXO
 40
0.0625
  9
$DIMDLI
 40
0.418
  9
$DIMEXE
 40
0.125
  9
$DIMCEN
 40
0.099
  9
$DIMLFAC
 40
1.0
  9
$DIMBLK
  1
_FILLED
  9
$DIMALT
 70
1
  9
$DIMALTD
 70
1
  9
$DIMALTTD
 70
2
  9
$DIMALTF
 40
25.4
  9
$DIMTXT
 40
0.08
  9
$DIMTOL
 70
1
  9
$DIMLIM
 70
0
  9
$DIMTFAC
 40
1.0
  9
$DIMTP
 40
0.01
  9
$DIMTM
 40
0.01
  9
$DIMGAP
 40
0.09
  9
$DIMDSEP
 70
46
  9
$AUNITS
 70
0
  9
$PDMODE
 70
3
  9
$PDSIZE
 40
0.3125
  9
$HANDSEED
  5
510
  9
$TILEMODE
 70
1
  9
$MEASUREMENT
 70
0
  9
$INSUNITS
 70
1
  0
ENDSEC
  0
SECTION
  2
CLASSES
  0
CLASS
  1
ACDBDICTIONARYWDFLT
  2
AcDbDictionaryWithDefault
  3
AutoCAD 2000
 90
0
 91
1
280
0
281
0
  0
CLASS
  1
ACDBPLACEHOLDER
  2
AcDbPlaceHolder
  3
AutoCAD 2000
 90
0
 91
1
280
0
281
0
  0
CLASS
  1
LAYOUT
  2
AcDbLayout
  3
AutoCAD 2000
 90
0
 91
0
280
0
281
0
  0
ENDSEC
  0
SECTION
  2
TABLES
  0
TABLE
  2
VPORT
  5
8
100
AcDbSymbolTable
 70
2
  0
VPORT
  5
1F4
100
AcDbSymbolTableRecord
100
AcDbViewportTableRecord
  2
*ACTIVE
 70
0
 10
0.0
 20
0.0
 11
1.0
 21
1.0
 12
5.5
 22
4.25
 13
0.0
 23
0.0
 14
1.0
 24
1.0
 15
0.0
 25
0.0
 16
0.0
 26
0.0
 36
1.0
 17
0.0
 27
0.0
 37
0.0
 40
8.5
 41
1.2941176471
 42
50.0
 43
0.0
 44
0.0
 50
0.0
 51
0.0
 71
0
 72
100
 73
1
 74
1
 75
0
 76
0
 77
0
 78
0
  0
ENDTAB
  0
TABLE
  2
LTYPE
  5
5
100
AcDbSymbolTable
 70
6
  0
LTYPE
  5
14
100
AcDbSymbolTableRecord
100
AcDbLinetypeTableRecord
  2
BYBLOCK
 70
0
  3

 72
65
 73
0
 40
0.0
  0
LTYPE
  5
15
100
AcDbSymbolTableRecord
100
AcDbLinetypeTableRecord
  2
BYLAYER
 70
0
  3

 72
65
 73
0
 40
0.0
  0
LTYPE
  5
16
100
AcDbSymbolTableRecord
100
AcDbLinetypeTableRecord
  2
CONTINUOUS
 70
64
  3
Solid line
 72
65
 73
0
 40
0.0
  0
LTYPE
  5
1F5
100
AcDbSymbolTableRecord
100
AcDbLinetypeTableRecord
  2
CENTER
 70
64
  3
____ _ ____ _ ____ _ ____ _ ____ _ ____ _ ____
 72
65
 73
4
 40
0.6
 49
0.375
 74
0
 49
-0.075
 74
0
 49
0.075
 74
0
 49
-0.075
 74
0
  0
LTYPE
  5
1F6
100
AcDbSymbolTableRecord
100
AcDbLinetypeTableRecord
  2
HIDDEN
 70
64
  3
- - - - - - - - - - - - - - - - - - - -
 72
65
 73
2
 40
0.2
 49
0.1
 74
0
 49
-0.1
 74
0
  0
LTYPE
  5
1F7
100
AcDbSymbolTableRecord
100
AcDbLinetypeTableRecord
  2
PHANTOM
 70
64
  3
_____ _ _ _____ _ _ _____ _ _ _____
 72
65
 73
6
 40
0.8
 49
0.45
 74
0
 49
-0.05
 74
0
 49
0.1
 74
0
 49
-0.05
 74
0
 49
0.1
 74
0
 49
-0.05
 74
0
  0
LTYPE
  5
1F8
100
AcDbSymbolTableRecord
100
AcDbLinetypeTableRecord
  2
DOT
 70
64
  3
. . . . . . . . . . . . . . . . . . . .
 72
65
 73
2
 40
0.2
 49
0.1
 74
0
 49
-0.1
 74
0
  0
LTYPE
  5
1F9
100
AcDbSymbolTableRecord
100
AcDbLinetypeTableRecord
  2
DASHED
 70
64
  3
- - - - - - - - - - - - - - - - - - - -
 72
65
 73
2
 40
0.2
 49
0.1
 74
0
 49
-0.1
 74
0
  0
ENDTAB
  0
TABLE
  2
LAYER
  5
2
100
AcDbSymbolTable
 70
36
  0
LAYER
  5
10
100
AcDbSymbolTableRecord
100
AcDbLayerTableRecord
  2
0
 70
0
 62
7
  6
CONTINUOUS
370
-3
390
F
  0
LAYER
  5
1FA
100
AcDbSymbolTableRecord
100
AcDbLayerTableRecord
  2
DEFAULT_1
 70
0
 62
7
  6
CENTER
370
-3
390
F
  0
LAYER
  5
1FB
100
AcDbSymbolTableRecord
100
AcDbLayerTableRecord
  2
DEFAULT_2
 70
0
 62
8
  6
HIDDEN
370
-3
390
F
  0
LAYER
  5
1FC
100
AcDbSymbolTableRecord
100
AcDbLayerTableRecord
  2
DEFAULT_3
 70
0
 62
7
  6
PHANTOM
370
-3
390
F
  0
LAYER
  5
1FD
100
AcDbSymbolTableRecord
100
AcDbLayerTableRecord
  2
DEFAULT_COORDINATE_SYSTEM
 70
0
 62
7
  6
CONTINUOUS
370
-3
390
F
  0
LAYER
  5
1FE
100
AcDbSymbolTableRecord
100
AcDbLayerTableRecord
  2
DEFAULT_DATUM_AXES
 70
0
 62
7
  6
CONTINUOUS
370
-3
390
F
  0
LAYER
  5
1FF
100
AcDbSymbolTableRecord
100
AcDbLayerTableRecord
  2
DEFAULT_DATUM_PLANES
 70
0
 62
7
  6
CONTINUOUS
370
-3
390
F
  0
ENDTAB
  0
TABLE
  2
STYLE
  5
3
100
AcDbSymbolTable
 70
1
  0
STYLE
  5
11
100
AcDbSymbolTableRecord
100
AcDbTextStyleTableRecord
  2
STANDARD
 70
0
 40
0.0
 41
0.8
 50
0.0
 71
0
 42
0.2
  3
txt
  4

  0
STYLE
  5
200
100
AcDbSymbolTableRecord
100
AcDbTextStyleTableRecord
  2
TEXTSTYLE_1
 70
0
 40
0.0
 41
0.8
 50
0.0
 71
0
 42
0.2
  3
gdt
  4

  0
ENDTAB
  0
TABLE
  2
VIEW
  5
6
100
AcDbSymbolTable
 70
0
  0
ENDTAB
  0
TABLE
  2
UCS
  5
7
100
AcDbSymbolTable
 70
0
  0
ENDTAB
  0
TABLE
  2
APPID
  5
9
100
AcDbSymbolTable
 70
1
  0
APPID
  5
201
100
AcDbSymbolTableRecord
100
AcDbRegAppTableRecord
  2
ACAD
 70
0
  0
ENDTAB
  0
TABLE
  2
BLOCK_RECORD
  5
1
100
AcDbSymbolTable
 70
0
  0
BLOCK_RECORD
  5
202
100
AcDbSymbolTableRecord
100
AcDbBlockTableRecord
  2
*Model_Space
  0
BLOCK_RECORD
  5
203
100
AcDbSymbolTableRecord
100
AcDbBlockTableRecord
  2
*Paper_Space
  0
BLOCK_RECORD
  5
204
100
AcDbSymbolTableRecord
100
AcDbBlockTableRecord
  2
_FILLED
  0
ENDTAB
  0
TABLE
  2
DIMSTYLE
  5
A
100
AcDbSymbolTable
 70
1
100
AcDbDimStyleTable
 71
0
  0
DIMSTYLE
105
205
100
AcDbSymbolTableRecord
100
AcDbDimStyleTableRecord
  2
STANDARD
 70
0
  3

  4

 40
1.0
 41
0.1
 42
0.0625
 43
0.38
 44
0.125
 45
0.0
 46
0.0
 47
0.01
 48
0.01
140
0.08
141
0.09
142
0.0
143
25.4
144
1.0
145
0.0
146
1.0
147
0.09
 71
1.0
 72
0.0
 73
1
 74
1
 75
0
 76
0
 77
0
 78
4
 79
1
170
1
171
1
172
0
173
0
174
0
175
0
176
0
177
0
178
0
270
2
179
2
271
2
272
2
273
2
274
2
275
0
280
0
281
0
282
0
283
1
284
4
285
0
286
0
287
3
288
0
340
11
278
46
341
204
342
204
343
204
344
204
  0
ENDTAB
  0
ENDSEC
  0
SECTION
  2
BLOCKS
  0
BLOCK
  5
20
100
AcDbEntity
  8
0
100
AcDbBlockBegin
  2
*Model_Space
 70
0
 10
0.0
 20
0.0
 30
0.0
  3
*Model_Space
  1

  0
ENDBLK
  5
21
100
AcDbEntity
  8
0
100
AcDbBlockEnd
  0
BLOCK
  5
1C
100
AcDbEntity
  8
0
100
AcDbBlockBegin
  2
*Paper_Space
 70
0
 10
0.0
 20
0.0
 30
0.0
  3
*Paper_Space
  1

  0
ENDBLK
  5
1D
100
AcDbEntity
  8
0
100
AcDbBlockEnd
  0
BLOCK
  5
206
100
AcDbEntity
  8
0
100
AcDbBlockBegin
  2
_FILLED
 70
64
 10
0.0
 20
0.0
  3
_FILLED
  1

  0
SOLID
  5
207
100
AcDbEntity
  8
0
  6
BYBLOCK
 62
0
100
AcDbTrace
 10
0.0
 20
0.0
 11
-1.0
 21
0.2
 12
-1.0
 22
-0.2
 13
-1.0
 23
-0.2
  0
ENDBLK
  5
208
100
AcDbEntity
  8
0
  6
BYBLOCK
 62
0
100
AcDbBlockEnd
  0
ENDSEC
  0
SECTION
  2
ENTITIES
  0
MTEXT
  5
209
100
AcDbEntity
  8
0
100
AcDbMText
 62
2
  6
CONTINUOUS
  7
STANDARD
 71
3
 72
1
 10
5.3270574534
 20
1.7263527686
 30
0.0
 11
1.0
 21
0.0
 31
0.0
 73
2
 44
0.9
  1
SCALE  .500
 40
0.08
 41
0.704
  0
LINE
  5
20A
100
AcDbEntity
  8
0
100
AcDbLine
 62
7
  6
CONTINUOUS
 10
0.0
 20
0.0
 11
0.0
 21
8.5
  0
LINE
  5
20B
100
AcDbEntity
  8
0
100
AcDbLine
 62
7
  6
CONTINUOUS
 10
0.0
 20
0.0
 11
11.0
 21
0.0
  0
LINE
  5
20C
100
AcDbEntity
  8
0
100
AcDbLine
 62
7
  6
CONTINUOUS
 10
0.0
 20
8.5
 11
11.0
 21
8.5
  0
LINE
  5
20D
100
AcDbEntity
  8
0
100
AcDbLine
 62
7
  6
CONTINUOUS
 10
11.0
 20
0.0
 11
11.0
 21
8.5
  0
LINE
  5
20E
100
AcDbEntity
  8
0
100
AcDbLine
 62
7
  6
CONTINUOUS
 10
2.4230541843
 20
5.1040926033
 11
2.4189027991
 21
5.3647246783
  0
LINE
  5
20F
100
AcDbEntity
  8
0
100
AcDbLine
 62
7
  6
CONTINUOUS
 10
2.4718554557
 20
5.7589104032
 11
2.4560281815
 21
5.45690802
  0
LINE
  5
210
100
AcDbEntity
  8
0
100
AcDbLine
 62
7
  6
CONTINUOUS
 10
2.8463415313
 20
5.7392844196
 11
2.830514257
 21
5.4372820364
  0
LINE
  5
211
100
AcDbEntity
  8
0
100
AcDbLine
 62
7
  6
CONTINUOUS
 10
2.8264283659
 20
5.0829526582
 11
2.8578004796
 21
5.3417230255
  0
LINE
  5
212
100
AcDbEntity
  8
0
100
AcDbLine
 62
7
  6
CONTINUOUS
 10
3.4541868214
 20
6.1191083121
 11
3.6007109946
 21
6.4642976321
  0
LINE
  5
213
100
AcDbEntity
  8
0
100
AcDbLine
 62
7
  6
CONTINUOUS
 10
6.3013380323
 20
1.8213527686
 11
7.4563380323
 21
1.8213527686
  0
LINE
  5
214
100
AcDbEntity
  8
0
100
AcDbLine
 62
7
  6
CONTINUOUS
 10
6.2913380323
 20
1.8313527686
 11
7.4663380323
 21
1.8313527686
  0
LINE
  5
215
100
AcDbEntity
  8
0
100
AcDbLine
 62
7
  6
CONTINUOUS
 10
6.2913380323
 20
1.8738527686
 11
7.4663380323
 21
1.8738527686
  0
LINE
  5
216
100
AcDbEntity
  8
0
100
AcDbLine
 62
7
  6
CONTINUOUS
 10
7.4513380323
 20
1.8888527686
 11
6.3063380323
 21
1.8888527686
  0
LINE
  5
217
100
AcDbEntity
  8
0
100
AcDbLine
 62
7
  6
CONTINUOUS
 10
6.4438380323
 20
2.0088527686
 11
7.3138380323
 21
2.0088527686
  0
LINE
  5
218
100
AcDbEntity
  8
0
100
AcDbLine
 62
7
  6
CONTINUOUS
 10
6.6133382403
 20
2.1763527686
 11
7.1443378243
 21
2.1763527686
  0
LINE
  5
219
100
AcDbEntity
  8
0
100
AcDbLine
 62
7
  6
CONTINUOUS
 10
6.6182478623
 20
2.1868527686
 11
7.1394282022
 21
2.1868527686
  0
LINE
  5
21A
100
AcDbEntity
  8
0
100
AcDbLine
 62
7
  6
CONTINUOUS
 10
7.1623606318
 20
2.1981774596
 11
7.1584318077
 21
2.1981774596
  0
LINE
  5
21B
100
AcDbEntity
  8
0
100
AcDbLine
 62
7
  6
CONTINUOUS
 10
6.5953154328
 20
2.1981774596
 11
6.5992442569
 21
2.1981774596
  0
LINE
  5
21C
100
AcDbEntity
  8
0
100
AcDbLine
 62
7
  6
CONTINUOUS
 10
6.6238380323
 20
2.2493527686
 11
7.1338380323
 21
2.2493527686
  0
LINE
  5
21D
100
AcDbEntity
  8
0
100
AcDbLine
 62
7
  6
CONTINUOUS
 10
6.6238380323
 20
2.3118527686
 11
7.1338380323
 21
2.3118527686
  0
LINE
  5
21E
100
AcDbEntity
  8
0
100
AcDbLine
 62
7
  6
CONTINUOUS
 10
6.6182478623
 20
2.3743527686
 11
7.1394282022
 21
2.3743527686
  0
LINE
  5
21F
100
AcDbEntity
  8
0
100
AcDbLine
 62
7
  6
CONTINUOUS
 10
7.2117212632
 20
2.3838930061
 11
7.4954840046
 21
2.3838930061
  0
LINE
  5
220
100
AcDbEntity
  8
0
100
AcDbLine
 62
7
  6
CONTINUOUS
 10
6.6458864853
 20
2.4843527686
 11
7.1117895793
 21
2.4843527686
  0
LINE
  5
221
100
AcDbEntity
  8
0
100
AcDbLine
 62
7
  6
CONTINUOUS
 10
7.2431680061
 20
2.5022089368
 11
7.1158687511
 21
2.5022089368
  0
LINE
  5
222
100
AcDbEntity
  8
0
100
AcDbLine
 62
7
  6
CONTINUOUS
 10
6.5145080584
 20
2.5022089368
 11
6.6418073135
 21
2.5022089368
  0
LINE
  5
223
100
AcDbEntity
  8
0
100
AcDbLine
 62
7
  6
CONTINUOUS
 10
4.4407729108
 20
5.7003273631
 11
4.587297084
 21
6.0455166832
  0
LINE
  5
224
100
AcDbEntity
  8
0
100
AcDbLine
 62
7
  6
CONTINUOUS
 10
7.1913011777
 20
2.7732671895
 11
7.1511257444
 21
2.7732671895
  0
LINE
  5
225
100
AcDbEntity
  8
0
100
AcDbLine
 62
7
  6
CONTINUOUS
 10
6.6065503202
 20
2.7732671895
 11
6.5663748869
 21
2.7732671895
  0
LINE
  5
226
100
AcDbEntity
  8
0
100
AcDbLine
 62
7
  6
CONTINUOUS
 10
7.1839862257
 20
2.7838930061
 11
7.4954840046
 21
2.7838930061
  0
LINE
  5
227
100
AcDbEntity
  8
0
100
AcDbLine
 62
7
  6
CONTINUOUS
 10
7.1544280323
 20
2.8849264958
 11
7.1514538692
 21
2.8849264958
  0
LINE
  5
228
100
AcDbEntity
  8
0
100
AcDbLine
 62
7
  6
CONTINUOUS
 10
6.6062221953
 20
2.8849264958
 11
6.6032480323
 21
2.8849264958
  0
LINE
  5
229
100
AcDbEntity
  8
0
100
AcDbLine
 62
7
  6
CONTINUOUS
 10
7.1544277178
 20
3.0023527686
 11
7.1429805834
 21
3.0023527686
  0
LINE
  5
22A
100
AcDbEntity
  8
0
100
AcDbLine
 62
7
  6
CONTINUOUS
 10
6.6032483468
 20
3.0023527686
 11
6.6146954812
 21
3.0023527686
  0
LINE
  5
22B
100
AcDbEntity
  8
0
100
AcDbLine
 62
7
  6
CONTINUOUS
 10
6.6249983594
 20
3.077863078
 11
6.6073166617
 21
3.077863078
  0
LINE
  5
22C
100
AcDbEntity
  8
0
100
AcDbLine
 62
7
  6
CONTINUOUS
 10
7.1443356621
 20
3.077863078
 11
7.1879682476
 21
3.077863078
  0
LINE
  5
22D
100
AcDbEntity
  8
0
100
AcDbLine
 62
7
  6
CONTINUOUS
 10
7.537699999
 20
3.0793527686
 11
8.1047419527
 21
3.0793527686
  0
LINE
  5
22E
100
AcDbEntity
  8
0
100
AcDbLine
 62
7
  6
CONTINUOUS
 10
7.7040157133
 20
3.1378094834
 11
7.6203955275
 21
3.1378094834
  0
LINE
  5
22F
100
AcDbEntity
  8
0
100
AcDbLine
 62
7
  6
CONTINUOUS
 10
7.9354681922
 20
3.1378094834
 11
8.0190883779
 21
3.1378094834
  0
LINE
  5
230
100
AcDbEntity
  8
0
100
AcDbLine
 62
7
  6
CONTINUOUS
 10
8.1348146174
 20
3.1378094834
 11
8.1384919527
 21
3.1378094834
  0
LINE
  5
231
100
AcDbEntity
  8
0
100
AcDbLine
 62
7
  6
CONTINUOUS
 10
6.6457689727
 20
3.1828527686
 11
7.1119070919
 21
3.1828527686
  0
LINE
  5
232
100
AcDbEntity
  8
0
100
AcDbLine
 62
7
  6
CONTINUOUS
 10
6.6481864437
 20
3.1938527686
 11
6.6166466339
 21
3.1938527686
  0
LINE
  5
233
100
AcDbEntity
  8
0
100
AcDbLine
 62
7
  6
CONTINUOUS
 10
7.1094896208
 20
3.1938527686
 11
7.1410294307
 21
3.1938527686
  0
LINE
  5
234
100
AcDbEntity
  8
0
100
AcDbLine
 62
7
  6
CONTINUOUS
 10
7.5534551174
 20
2.9511548495
 11
7.526854725
 21
2.9516191611
  0
LINE
  5
235
100
AcDbEntity
  8
0
100
AcDbLine
 62
7
  6
CONTINUOUS
 10
7.5330152584
 20
3.0315271736
 11
7.5064148664
 21
3.0319914843
  0
LINE
  5
236
100
AcDbEntity
  8
0
100
AcDbLine
 62
7
  6
CONTINUOUS
 10
6.2913380323
 20
1.8313527686
 11
6.3013380323
 21
1.8213527686
  0
LINE
  5
237
100
AcDbEntity
  8
0
100
AcDbLine
 62
7
  6
CONTINUOUS
 10
7.7040157133
 20
3.3108960538
 11
7.6203955275
 21
3.3108960538
  0
LINE
  5
238
100
AcDbEntity
  8
0
100
AcDbLine
 62
7
  6
CONTINUOUS
 10
7.5046692881
 20
3.3108960538
 11
7.5009919527
 21
3.3108960538
  0
LINE
  5
239
100
AcDbEntity
  8
0
100
AcDbLine
 62
7
  6
CONTINUOUS
 10
7.9354681922
 20
3.3108960538
 11
8.0190883779
 21
3.3108960538
  0
LINE
  5
23A
100
AcDbEntity
  8
0
100
AcDbLine
 62
7
  6
CONTINUOUS
 10
8.1348146174
 20
3.3108960538
 11
8.1384919527
 21
3.3108960538
  0
LINE
  5
23B
100
AcDbEntity
  8
0
100
AcDbLine
 62
7
  6
CONTINUOUS
 10
7.5347419527
 20
3.3693527686
 11
8.1047419527
 21
3.3693527686
  0
LINE
  5
23C
100
AcDbEntity
  8
0
100
AcDbLine
 62
7
  6
CONTINUOUS
 10
8.0382454527
 20
3.3893527686
 11
7.6012384527
 21
3.3893527686
  0
LINE
  5
23D
100
AcDbEntity
  8
0
100
AcDbLine
 62
7
  6
CONTINUOUS
 10
6.6235880323
 20
3.4368527686
 11
7.1340880323
 21
3.4368527686
  0
LINE
  5
23E
100
AcDbEntity
  8
0
100
AcDbLine
 62
7
  6
CONTINUOUS
 10
4.7582419527
 20
5.6357375566
 11
4.7582419527
 21
6.0107375566
  0
LINE
  5
23F
100
AcDbEntity
  8
0
100
AcDbLine
 62
7
  6
CONTINUOUS
 10
7.2048380323
 20
3.8289540088
 11
7.2268879456
 21
3.8332400778
  0
LINE
  5
240
100
AcDbEntity
  8
0
100
AcDbLine
 62
7
  6
CONTINUOUS
 10
7.2048380323
 20
3.8646090932
 11
7.224428134
 21
3.8684170232
  0
LINE
  5
241
100
AcDbEntity
  8
0
100
AcDbLine
 62
7
  6
CONTINUOUS
 10
7.2048380323
 20
3.9270054907
 11
7.2201234636
 21
3.9299766776
  0
LINE
  5
242
100
AcDbEntity
  8
0
100
AcDbLine
 62
7
  6
CONTINUOUS
 10
7.2478594383
 20
3.8200455006
 11
7.2279081573
 21
3.8186503712
  0
LINE
  5
243
100
AcDbEntity
  8
0
100
AcDbLine
 62
7
  6
CONTINUOUS
 10
6.6235880323
 20
3.4993527686
 11
7.1340880323
 21
3.4993527686
  0
LINE
  5
244
100
AcDbEntity
  8
0
100
AcDbLine
 62
7
  6
CONTINUOUS
 10
8.0382454527
 20
3.5828527686
 11
7.6012384527
 21
3.5828527686
  0
LINE
  5
245
100
AcDbEntity
  8
0
100
AcDbLine
 62
7
  6
CONTINUOUS
 10
6.3669285835
 20
3.6306692655
 11
6.4944285835
 21
3.6306692655
  0
LINE
  5
246
100
AcDbEntity
  8
0
100
AcDbLine
 62
7
  6
CONTINUOUS
 10
6.3669285835
 20
3.6307443823
 11
6.4944285835
 21
3.6307443823
  0
LINE
  5
247
100
AcDbEntity
  8
0
100
AcDbLine
 62
7
  6
CONTINUOUS
 10
6.3669285835
 20
3.6313994796
 11
6.4944285835
 21
3.6313994796
  0
LINE
  5
248
100
AcDbEntity
  8
0
100
AcDbLine
 62
7
  6
CONTINUOUS
 10
6.3669285835
 20
3.6316240767
 11
6.4944285835
 21
3.6316240767
  0
LINE
  5
249
100
AcDbEntity
  8
0
100
AcDbLine
 62
7
  6
CONTINUOUS
 10
6.3669285835
 20
3.6329324756
 11
6.4944285835
 21
3.6329324756
  0
LINE
  5
24A
100
AcDbEntity
  8
0
100
AcDbLine
 62
7
  6
CONTINUOUS
 10
6.3669285835
 20
3.63330612
 11
6.4944285835
 21
3.63330612
  0
LINE
  5
24B
100
AcDbEntity
  8
0
100
AcDbLine
 62
7
  6
CONTINUOUS
 10
6.3669285835
 20
3.6352642343
 11
6.4944285835
 21
3.6352642343
  0
LINE
  5
24C
100
AcDbEntity
  8
0
100
AcDbLine
 62
7
  6
CONTINUOUS
 10
6.3669285835
 20
3.635785902
 11
6.4944285835
 21
3.635785902
  0
LINE
  5
24D
100
AcDbEntity
  8
0
100
AcDbLine
 62
7
  6
CONTINUOUS
 10
6.3669285835
 20
3.6383883647
 11
6.4944285835
 21
3.6383883647
  0
LINE
  5
24E
100
AcDbEntity
  8
0
100
AcDbLine
 62
7
  6
CONTINUOUS
 10
6.3669285835
 20
3.6390566257
 11
6.4944285835
 21
3.6390566257
  0
LINE
  5
24F
100
AcDbEntity
  8
0
100
AcDbLine
 62
7
  6
CONTINUOUS
 10
6.3669285835
 20
3.6422963036
 11
6.4944285835
 21
3.6422963036
  0
LINE
  5
250
100
AcDbEntity
  8
0
100
AcDbLine
 62
7
  6
CONTINUOUS
 10
6.3669285835
 20
3.643111803
 11
6.4944285835
 21
3.643111803
  0
LINE
  5
251
100
AcDbEntity
  8
0
100
AcDbLine
 62
7
  6
CONTINUOUS
 10
6.3669285835
 20
3.6468527686
 11
6.3234627002
 21
3.6468527686
  0
LINE
  5
252
100
AcDbEntity
  8
0
100
AcDbLine
 62
7
  6
CONTINUOUS
 10
6.3669285835
 20
3.6469745155
 11
6.4944285835
 21
3.6469745155
  0
LINE
  5
253
100
AcDbEntity
  8
0
100
AcDbLine
 62
7
  6
CONTINUOUS
 10
6.3669285835
 20
3.6479328956
 11
6.4944285835
 21
3.6479328956
  0
LINE
  5
254
100
AcDbEntity
  8
0
100
AcDbLine
 62
7
  6
CONTINUOUS
 10
6.3669285835
 20
3.6524186425
 11
6.4944285835
 21
3.6524186425
  0
LINE
  5
255
100
AcDbEntity
  8
0
100
AcDbLine
 62
7
  6
CONTINUOUS
 10
6.3669285835
 20
3.6535141126
 11
6.4944285835
 21
3.6535141126
  0
LINE
  5
256
100
AcDbEntity
  8
0
100
AcDbLine
 62
7
  6
CONTINUOUS
 10
6.3669285835
 20
3.6586052979
 11
6.4944285835
 21
3.6586052979
  0
LINE
  5
257
100
AcDbEntity
  8
0
100
AcDbLine
 62
7
  6
CONTINUOUS
 10
6.3669285835
 20
3.6598376795
 11
6.4944285835
 21
3.6598376795
  0
LINE
  5
258
100
AcDbEntity
  8
0
100
AcDbLine
 62
7
  6
CONTINUOUS
 10
6.3669285835
 20
3.6655203486
 11
6.4944285835
 21
3.6655203486
  0
LINE
  5
259
100
AcDbEntity
  8
0
100
AcDbLine
 62
7
  6
CONTINUOUS
 10
6.3669285835
 20
3.6668862638
 11
6.4944285835
 21
3.6668862638
  0
LINE
  5
25A
100
AcDbEntity
  8
0
100
AcDbLine
 62
7
  6
CONTINUOUS
 10
6.5663380323
 20
3.6686027686
 11
6.5044285835
 21
3.6686027686
  0
LINE
  5
25B
100
AcDbEntity
  8
0
100
AcDbLine
 62
7
  6
CONTINUOUS
 10
6.3669285835
 20
3.673144841
 11
6.4944285835
 21
3.673144841
  0
LINE
  5
25C
100
AcDbEntity
  8
0
100
AcDbLine
 62
7
  6
CONTINUOUS
 10
6.3669285835
 20
3.674640546
 11
6.4944285835
 21
3.674640546
  0
LINE
  5
25D
100
AcDbEntity
  8
0
100
AcDbLine
 62
7
  6
CONTINUOUS
 10
6.3669285835
 20
3.6814578769
 11
6.4944285835
 21
3.6814578769
  0
LINE
  5
25E
100
AcDbEntity
  8
0
100
AcDbLine
 62
7
  6
CONTINUOUS
 10
6.3669285835
 20
3.6830841658
 11
6.4944285835
 21
3.6830841658
  0
LINE
  5
25F
100
AcDbEntity
  8
0
100
AcDbLine
 62
7
  6
CONTINUOUS
 10
6.3669285835
 20
3.6904314814
 11
6.4944285835
 21
3.6904314814
  0
LINE
  5
260
100
AcDbEntity
  8
0
100
AcDbLine
 62
7
  6
CONTINUOUS
 10
6.3669285835
 20
3.6921793119
 11
6.4944285835
 21
3.6921793119
  0
LINE
  5
261
100
AcDbEntity
  8
0
100
AcDbLine
 62
7
  6
CONTINUOUS
 10
7.1898380323
 20
3.6936027686
 11
7.1698380323
 21
3.6936027686
  0
LINE
  5
262
100
AcDbEntity
  8
0
100
AcDbLine
 62
7
  6
CONTINUOUS
 10
6.3669285835
 20
3.7000566124
 11
6.4944285835
 21
3.7000566124
  0
LINE
  5
263
100
AcDbEntity
  8
0
100
AcDbLine
 62
7
  6
CONTINUOUS
 10
6.3669285835
 20
3.7019157231
 11
6.4944285835
 21
3.7019157231
  0
LINE
  5
264
100
AcDbEntity
  8
0
100
AcDbLine
 62
7
  6
CONTINUOUS
 10
7.2048380323
 20
4.0963671413
 11
7.2084393583
 21
4.0970671681
  0
LINE
  5
265
100
AcDbEntity
  8
0
100
AcDbLine
 62
7
  6
CONTINUOUS
 10
7.2661507114
 20
3.9133119538
 11
7.2861019924
 21
3.9147070833
  0
LINE
  5
266
100
AcDbEntity
  8
0
100
AcDbLine
 62
7
  6
CONTINUOUS
 10
7.2636716482
 20
3.9487642091
 11
7.2836229292
 21
3.9501593386
  0
LINE
  5
267
100
AcDbEntity
  8
0
100
AcDbLine
 62
7
  6
CONTINUOUS
 10
7.2388282261
 20
3.9491978527
 11
7.2188769451
 21
3.9478027232
  0
LINE
  5
268
100
AcDbEntity
  8
0
100
AcDbLine
 62
7
  6
CONTINUOUS
 10
6.3669285835
 20
3.7102913342
 11
6.4944285835
 21
3.7102913342
  0
LINE
  5
269
100
AcDbEntity
  8
0
100
AcDbLine
 62
7
  6
CONTINUOUS
 10
6.3669285835
 20
3.7122618188
 11
6.4944285835
 21
3.7122618188
  0
LINE
  5
26A
100
AcDbEntity
  8
0
100
AcDbLine
 62
7
  6
CONTINUOUS
 10
6.3669285835
 20
3.7211127835
 11
6.4944285835
 21
3.7211127835
  0
LINE
  5
26B
100
AcDbEntity
  8
0
100
AcDbLine
 62
7
  6
CONTINUOUS
 10
6.3669285835
 20
3.7231892411
 11
6.4944285835
 21
3.7231892411
  0
LINE
  5
26C
100
AcDbEntity
  8
0
100
AcDbLine
 62
7
  6
CONTINUOUS
 10
6.3669285835
 20
3.7324912995
 11
6.4944285835
 21
3.7324912995
  0
LINE
  5
26D
100
AcDbEntity
  8
0
100
AcDbLine
 62
7
  6
CONTINUOUS
 10
6.3669285835
 20
3.7346680386
 11
6.4944285835
 21
3.7346680386
  0
LINE
  5
26E
100
AcDbEntity
  8
0
100
AcDbLine
 62
7
  6
CONTINUOUS
 10
6.5041175547
 20
3.7442257671
 11
6.3669285835
 21
3.7442257671
  0
LINE
  5
26F
100
AcDbEntity
  8
0
100
AcDbLine
 62
7
  6
CONTINUOUS
 10
6.3669285835
 20
3.7443956945
 11
6.4944285835
 21
3.7443956945
  0
LINE
  5
270
100
AcDbEntity
  8
0
100
AcDbLine
 62
7
  6
CONTINUOUS
 10
6.3669285835
 20
3.7466735804
 11
6.4944285835
 21
3.7466735804
  0
LINE
  5
271
100
AcDbEntity
  8
0
100
AcDbLine
 62
7
  6
CONTINUOUS
 10
6.5041148914
 20
3.7561080315
 11
6.3669285835
 21
3.7561080315
  0
LINE
  5
272
100
AcDbEntity
  8
0
100
AcDbLine
 62
7
  6
CONTINUOUS
 10
6.3669285835
 20
3.7567862928
 11
6.4944285835
 21
3.7567862928
  0
LINE
  5
273
100
AcDbEntity
  8
0
100
AcDbLine
 62
7
  6
CONTINUOUS
 10
6.3669285835
 20
3.7591524839
 11
6.4944285835
 21
3.7591524839
  0
LINE
  5
274
100
AcDbEntity
  8
0
100
AcDbLine
 62
7
  6
CONTINUOUS
 10
6.5041175547
 20
3.7684636576
 11
6.3669285835
 21
3.7684636576
  0
LINE
  5
275
100
AcDbEntity
  8
0
100
AcDbLine
 62
7
  6
CONTINUOUS
 10
6.3669285835
 20
3.7696502528
 11
6.4944285835
 21
3.7696502528
  0
LINE
  5
276
100
AcDbEntity
  8
0
100
AcDbLine
 62
7
  6
CONTINUOUS
 10
6.3669285835
 20
3.7720910216
 11
6.4944285835
 21
3.7720910216
  0
LINE
  5
277
100
AcDbEntity
  8
0
100
AcDbLine
 62
7
  6
CONTINUOUS
 10
6.5041175547
 20
3.7812404493
 11
6.3669285835
 21
3.7812404493
  0
LINE
  5
278
100
AcDbEntity
  8
0
100
AcDbLine
 62
7
  6
CONTINUOUS
 10
6.3669285835
 20
3.7829311952
 11
6.4944285835
 21
3.7829311952
  0
LINE
  5
279
100
AcDbEntity
  8
0
100
AcDbLine
 62
7
  6
CONTINUOUS
 10
6.3669285835
 20
3.7854468981
 11
6.4944285835
 21
3.7854468981
  0
LINE
  5
27A
100
AcDbEntity
  8
0
100
AcDbLine
 62
7
  6
CONTINUOUS
 10
6.5041175547
 20
3.7944095019
 11
6.3669285835
 21
3.7944095019
  0
LINE
  5
27B
100
AcDbEntity
  8
0
100
AcDbLine
 62
7
  6
CONTINUOUS
 10
6.3669285835
 20
3.7965997643
 11
6.4944285835
 21
3.7965997643
  0
LINE
  5
27C
100
AcDbEntity
  8
0
100
AcDbLine
 62
7
  6
CONTINUOUS
 10
6.3669285835
 20
3.799183506
 11
6.4944285835
 21
3.799183506
  0
LINE
  5
27D
100
AcDbEntity
  8
0
100
AcDbLine
 62
7
  6
CONTINUOUS
 10
6.5041175547
 20
3.8079347199
 11
6.3669285835
 21
3.8079347199
  0
LINE
  5
27E
100
AcDbEntity
  8
0
100
AcDbLine
 62
7
  6
CONTINUOUS
 10
6.3669285835
 20
3.8106184955
 11
6.4944285835
 21
3.8106184955
  0
LINE
  5
27F
100
AcDbEntity
  8
0
100
AcDbLine
 62
7
  6
CONTINUOUS
 10
6.3669285835
 20
3.8132631941
 11
6.4944285835
 21
3.8132631941
  0
LINE
  5
280
100
AcDbEntity
  8
0
100
AcDbLine
 62
7
  6
CONTINUOUS
 10
6.5041175547
 20
3.8217790317
 11
6.3669285835
 21
3.8217790317
  0
LINE
  5
281
100
AcDbEntity
  8
0
100
AcDbLine
 62
7
  6
CONTINUOUS
 10
6.3669285835
 20
3.8249489644
 11
6.4944285835
 21
3.8249489644
  0
LINE
  5
282
100
AcDbEntity
  8
0
100
AcDbLine
 62
7
  6
CONTINUOUS
 10
6.3669285835
 20
3.8276554719
 11
6.4944285835
 21
3.8276554719
  0
LINE
  5
283
100
AcDbEntity
  8
0
100
AcDbLine
 62
7
  6
CONTINUOUS
 10
6.5041148914
 20
3.8359012759
 11
6.3669285835
 21
3.8359012759
  0
LINE
  5
284
100
AcDbEntity
  8
0
100
AcDbLine
 62
7
  6
CONTINUOUS
 10
6.3669285835
 20
3.8395436784
 11
6.4944285835
 21
3.8395436784
  0
LINE
  5
285
100
AcDbEntity
  8
0
100
AcDbLine
 62
7
  6
CONTINUOUS
 10
6.3669285835
 20
3.8422966107
 11
6.4944285835
 21
3.8422966107
  0
LINE
  5
286
100
AcDbEntity
  8
0
100
AcDbLine
 62
7
  6
CONTINUOUS
 10
6.5041175547
 20
3.8502723809
 11
6.3669285835
 21
3.8502723809
  0
LINE
  5
287
100
AcDbEntity
  8
0
100
AcDbLine
 62
7
  6
CONTINUOUS
 10
6.3669285835
 20
3.8543872534
 11
6.4944285835
 21
3.8543872534
  0
LINE
  5
288
100
AcDbEntity
  8
0
100
AcDbLine
 62
7
  6
CONTINUOUS
 10
6.3669285835
 20
3.8571707606
 11
6.4944285835
 21
3.8571707606
  0
LINE
  5
289
100
AcDbEntity
  8
0
100
AcDbLine
 62
7
  6
CONTINUOUS
 10
6.5041175547
 20
3.86484332
 11
6.3669285835
 21
3.86484332
  0
LINE
  5
28A
100
AcDbEntity
  8
0
100
AcDbLine
 62
7
  6
CONTINUOUS
 10
6.3669285835
 20
3.8694143851
 11
6.4944285835
 21
3.8694143851
  0
LINE
  5
28B
100
AcDbEntity
  8
0
100
AcDbLine
 62
7
  6
CONTINUOUS
 10
6.3669285835
 20
3.8722290518
 11
6.4944285835
 21
3.8722290518
  0
LINE
  5
28C
100
AcDbEntity
  8
0
100
AcDbLine
 62
7
  6
CONTINUOUS
 10
6.5041175547
 20
3.8795773704
 11
6.3669285835
 21
3.8795773704
  0
LINE
  5
28D
100
AcDbEntity
  8
0
100
AcDbLine
 62
7
  6
CONTINUOUS
 10
6.3669285835
 20
3.8845920992
 11
6.4944285835
 21
3.8845920992
  0
LINE
  5
28E
100
AcDbEntity
  8
0
100
AcDbLine
 62
7
  6
CONTINUOUS
 10
6.3669285835
 20
3.8874302104
 11
6.4944285835
 21
3.8874302104
  0
LINE
  5
28F
100
AcDbEntity
  8
0
100
AcDbLine
 62
7
  6
CONTINUOUS
 10
6.5041175547
 20
3.894434147
 11
6.3669285835
 21
3.894434147
  0
LINE
  5
290
100
AcDbEntity
  8
0
100
AcDbLine
 62
7
  6
CONTINUOUS
 10
6.3669285835
 20
3.8998787945
 11
6.4944285835
 21
3.8998787945
  0
LINE
  5
291
100
AcDbEntity
  8
0
100
AcDbLine
 62
7
  6
CONTINUOUS
 10
6.3669285835
 20
3.9027325712
 11
6.4944285835
 21
3.9027325712
  0
LINE
  5
292
100
AcDbEntity
  8
0
100
AcDbLine
 62
7
  6
CONTINUOUS
 10
6.5041175547
 20
3.9093729284
 11
6.3669285835
 21
3.9093729284
  0
LINE
  5
293
100
AcDbEntity
  8
0
100
AcDbLine
 62
7
  6
CONTINUOUS
 10
6.3669285835
 20
3.9152325712
 11
6.4944285835
 21
3.9152325712
  0
LINE
  5
294
100
AcDbEntity
  8
0
100
AcDbLine
 62
7
  6
CONTINUOUS
 10
6.3669285835
 20
3.9181027686
 11
6.4944285835
 21
3.9181027686
  0
LINE
  5
295
100
AcDbEntity
  8
0
100
AcDbLine
 62
7
  6
CONTINUOUS
 10
6.5041148914
 20
3.9243527686
 11
6.3669285835
 21
3.9243527686
  0
LINE
  5
296
100
AcDbEntity
  8
0
100
AcDbLine
 62
7
  6
CONTINUOUS
 10
6.3669285835
 20
3.9306027686
 11
6.4944285835
 21
3.9306027686
  0
LINE
  5
297
100
AcDbEntity
  8
0
100
AcDbLine
 62
7
  6
CONTINUOUS
 10
6.3669285835
 20
3.933472966
 11
6.4944285835
 21
3.933472966
  0
LINE
  5
298
100
AcDbEntity
  8
0
100
AcDbLine
 62
7
  6
CONTINUOUS
 10
6.5041175547
 20
3.9393326088
 11
6.3669285835
 21
3.9393326088
  0
LINE
  5
299
100
AcDbEntity
  8
0
100
AcDbLine
 62
7
  6
CONTINUOUS
 10
6.3669285835
 20
3.945972966
 11
6.4944285835
 21
3.945972966
  0
LINE
  5
29A
100
AcDbEntity
  8
0
100
AcDbLine
 62
7
  6
CONTINUOUS
 10
6.3669285835
 20
3.9488267428
 11
6.4944285835
 21
3.9488267428
  0
LINE
  5
29B
100
AcDbEntity
  8
0
100
AcDbLine
 62
7
  6
CONTINUOUS
 10
6.5041175547
 20
3.9542713902
 11
6.3669285835
 21
3.9542713902
  0
LINE
  5
29C
100
AcDbEntity
  8
0
100
AcDbLine
 62
7
  6
CONTINUOUS
 10
6.3669285835
 20
3.9612753268
 11
6.4944285835
 21
3.9612753268
  0
LINE
  5
29D
100
AcDbEntity
  8
0
100
AcDbLine
 62
7
  6
CONTINUOUS
 10
6.3669285835
 20
3.964113438
 11
6.4944285835
 21
3.964113438
  0
LINE
  5
29E
100
AcDbEntity
  8
0
100
AcDbLine
 62
7
  6
CONTINUOUS
 10
6.5041175547
 20
3.9691281668
 11
6.3669285835
 21
3.9691281668
  0
LINE
  5
29F
100
AcDbEntity
  8
0
100
AcDbLine
 62
7
  6
CONTINUOUS
 10
6.3669285835
 20
3.9764764854
 11
6.4944285835
 21
3.9764764854
  0
LINE
  5
2A0
100
AcDbEntity
  8
0
100
AcDbLine
 62
7
  6
CONTINUOUS
 10
6.3669285835
 20
3.9792911521
 11
6.4944285835
 21
3.9792911521
  0
LINE
  5
2A1
100
AcDbEntity
  8
0
100
AcDbLine
 62
7
  6
CONTINUOUS
 10
6.5041175547
 20
3.9838622172
 11
6.3669285835
 21
3.9838622172
  0
LINE
  5
2A2
100
AcDbEntity
  8
0
100
AcDbLine
 62
7
  6
CONTINUOUS
 10
6.3669285835
 20
3.9915347766
 11
6.4944285835
 21
3.9915347766
  0
LINE
  5
2A3
100
AcDbEntity
  8
0
100
AcDbLine
 62
7
  6
CONTINUOUS
 10
6.3669285835
 20
3.9943182838
 11
6.4944285835
 21
3.9943182838
  0
LINE
  5
2A4
100
AcDbEntity
  8
0
100
AcDbLine
 62
7
  6
CONTINUOUS
 10
6.5041175547
 20
3.9984331563
 11
6.3669285835
 21
3.9984331563
  0
LINE
  5
2A5
100
AcDbEntity
  8
0
100
AcDbLine
 62
7
  6
CONTINUOUS
 10
6.3669285835
 20
4.0064089265
 11
6.4944285835
 21
4.0064089265
  0
LINE
  5
2A6
100
AcDbEntity
  8
0
100
AcDbLine
 62
7
  6
CONTINUOUS
 10
6.3669285835
 20
4.0091618588
 11
6.4944285835
 21
4.0091618588
  0
LINE
  5
2A7
100
AcDbEntity
  8
0
100
AcDbLine
 62
7
  6
CONTINUOUS
 10
6.5041148914
 20
4.0128042613
 11
6.3669285835
 21
4.0128042613
  0
LINE
  5
2A8
100
AcDbEntity
  8
0
100
AcDbLine
 62
7
  6
CONTINUOUS
 10
6.3669285835
 20
4.0210500653
 11
6.4944285835
 21
4.0210500653
  0
LINE
  5
2A9
100
AcDbEntity
  8
0
100
AcDbLine
 62
7
  6
CONTINUOUS
 10
6.3669285835
 20
4.0237565728
 11
6.4944285835
 21
4.0237565728
  0
LINE
  5
2AA
100
AcDbEntity
  8
0
100
AcDbLine
 62
7
  6
CONTINUOUS
 10
6.5041175547
 20
4.0269265055
 11
6.3669285835
 21
4.0269265055
  0
LINE
  5
2AB
100
AcDbEntity
  8
0
100
AcDbLine
 62
7
  6
CONTINUOUS
 10
6.3669285835
 20
4.0354423431
 11
6.4944285835
 21
4.0354423431
  0
LINE
  5
2AC
100
AcDbEntity
  8
0
100
AcDbLine
 62
7
  6
CONTINUOUS
 10
6.3669285835
 20
4.0380870418
 11
6.4944285835
 21
4.0380870418
  0
LINE
  5
2AD
100
AcDbEntity
  8
0
100
AcDbLine
 62
7
  6
CONTINUOUS
 10
6.5041175547
 20
4.0407708173
 11
6.3669285835
 21
4.0407708173
  0
LINE
  5
2AE
100
AcDbEntity
  8
0
100
AcDbLine
 62
7
  6
CONTINUOUS
 10
6.3669285835
 20
4.0495220312
 11
6.4944285835
 21
4.0495220312
  0
LINE
  5
2AF
100
AcDbEntity
  8
0
100
AcDbLine
 62
7
  6
CONTINUOUS
 10
6.3669285835
 20
4.0521057729
 11
6.4944285835
 21
4.0521057729
  0
LINE
  5
2B0
100
AcDbEntity
  8
0
100
AcDbLine
 62
7
  6
CONTINUOUS
 10
6.5041175547
 20
4.0542960353
 11
6.3669285835
 21
4.0542960353
  0
LINE
  5
2B1
100
AcDbEntity
  8
0
100
AcDbLine
 62
7
  6
CONTINUOUS
 10
6.3669285835
 20
4.0632586391
 11
6.4944285835
 21
4.0632586391
  0
LINE
  5
2B2
100
AcDbEntity
  8
0
100
AcDbLine
 62
7
  6
CONTINUOUS
 10
6.3669285835
 20
4.065774342
 11
6.4944285835
 21
4.065774342
  0
LINE
  5
2B3
100
AcDbEntity
  8
0
100
AcDbLine
 62
7
  6
CONTINUOUS
 10
6.5041175547
 20
4.0674650879
 11
6.3669285835
 21
4.0674650879
  0
LINE
  5
2B4
100
AcDbEntity
  8
0
100
AcDbLine
 62
7
  6
CONTINUOUS
 10
6.3669285835
 20
4.0766145156
 11
6.4944285835
 21
4.0766145156
  0
LINE
  5
2B5
100
AcDbEntity
  8
0
100
AcDbLine
 62
7
  6
CONTINUOUS
 10
6.3669285835
 20
4.0790552844
 11
6.4944285835
 21
4.0790552844
  0
LINE
  5
2B6
100
AcDbEntity
  8
0
100
AcDbLine
 62
7
  6
CONTINUOUS
 10
6.5041175547
 20
4.0802418796
 11
6.3669285835
 21
4.0802418796
  0
LINE
  5
2B7
100
AcDbEntity
  8
0
100
AcDbLine
 62
7
  6
CONTINUOUS
 10
6.3669285835
 20
4.0895530533
 11
6.4944285835
 21
4.0895530533
  0
LINE
  5
2B8
100
AcDbEntity
  8
0
100
AcDbLine
 62
7
  6
CONTINUOUS
 10
6.3669285835
 20
4.0919192444
 11
6.4944285835
 21
4.0919192444
  0
LINE
  5
2B9
100
AcDbEntity
  8
0
100
AcDbLine
 62
7
  6
CONTINUOUS
 10
6.5041148914
 20
4.0925975057
 11
6.3669285835
 21
4.0925975057
  0
LINE
  5
2BA
100
AcDbEntity
  8
0
100
AcDbLine
 62
7
  6
CONTINUOUS
 10
6.3669285835
 20
4.1020319568
 11
6.4944285835
 21
4.1020319568
  0
LINE
  5
2BB
100
AcDbEntity
  8
0
100
AcDbLine
 62
7
  6
CONTINUOUS
 10
6.3669285835
 20
4.1043098427
 11
6.4944285835
 21
4.1043098427
  0
LINE
  5
2BC
100
AcDbEntity
  8
0
100
AcDbLine
 62
7
  6
CONTINUOUS
 10
6.5041175547
 20
4.1044797701
 11
6.3669285835
 21
4.1044797701
  0
LINE
  5
2BD
100
AcDbEntity
  8
0
100
AcDbLine
 62
7
  6
CONTINUOUS
 10
6.3669285835
 20
4.1140374986
 11
6.4944285835
 21
4.1140374986
  0
LINE
  5
2BE
100
AcDbEntity
  8
0
100
AcDbLine
 62
7
  6
CONTINUOUS
 10
6.3669285835
 20
4.1162142377
 11
6.4944285835
 21
4.1162142377
  0
LINE
  5
2BF
100
AcDbEntity
  8
0
100
AcDbLine
 62
7
  6
CONTINUOUS
 10
6.3669285835
 20
4.1255162961
 11
6.4944285835
 21
4.1255162961
  0
LINE
  5
2C0
100
AcDbEntity
  8
0
100
AcDbLine
 62
7
  6
CONTINUOUS
 10
6.3669285835
 20
4.1275927537
 11
6.4944285835
 21
4.1275927537
  0
LINE
  5
2C1
100
AcDbEntity
  8
0
100
AcDbLine
 62
7
  6
CONTINUOUS
 10
6.3669285835
 20
4.1364437184
 11
6.4944285835
 21
4.1364437184
  0
LINE
  5
2C2
100
AcDbEntity
  8
0
100
AcDbLine
 62
7
  6
CONTINUOUS
 10
6.3669285835
 20
4.138414203
 11
6.4944285835
 21
4.138414203
  0
LINE
  5
2C3
100
AcDbEntity
  8
0
100
AcDbLine
 62
7
  6
CONTINUOUS
 10
6.3669285835
 20
4.1467898141
 11
6.4944285835
 21
4.1467898141
  0
LINE
  5
2C4
100
AcDbEntity
  8
0
100
AcDbLine
 62
7
  6
CONTINUOUS
 10
6.3669285835
 20
4.1486489248
 11
6.4944285835
 21
4.1486489248
  0
LINE
  5
2C5
100
AcDbEntity
  8
0
100
AcDbLine
 62
7
  6
CONTINUOUS
 10
7.1898380323
 20
4.1551027686
 11
7.1698380323
 21
4.1551027686
  0
LINE
  5
2C6
100
AcDbEntity
  8
0
100
AcDbLine
 62
7
  6
CONTINUOUS
 10
6.3669285835
 20
4.1565262253
 11
6.4944285835
 21
4.1565262253
  0
LINE
  5
2C7
100
AcDbEntity
  8
0
100
AcDbLine
 62
7
  6
CONTINUOUS
 10
6.3669285835
 20
4.1582740558
 11
6.4944285835
 21
4.1582740558
  0
LINE
  5
2C8
100
AcDbEntity
  8
0
100
AcDbLine
 62
7
  6
CONTINUOUS
 10
6.3669285835
 20
4.1656213714
 11
6.4944285835
 21
4.1656213714
  0
LINE
  5
2C9
100
AcDbEntity
  8
0
100
AcDbLine
 62
7
  6
CONTINUOUS
 10
6.3669285835
 20
4.1672476603
 11
6.4944285835
 21
4.1672476603
  0
LINE
  5
2CA
100
AcDbEntity
  8
0
100
AcDbLine
 62
7
  6
CONTINUOUS
 10
6.3669285835
 20
4.1740649912
 11
6.4944285835
 21
4.1740649912
  0
LINE
  5
2CB
100
AcDbEntity
  8
0
100
AcDbLine
 62
7
  6
CONTINUOUS
 10
6.3669285835
 20
4.1755606962
 11
6.4944285835
 21
4.1755606962
  0
LINE
  5
2CC
100
AcDbEntity
  8
0
100
AcDbLine
 62
7
  6
CONTINUOUS
 10
7.1548380323
 20
4.1801027686
 11
6.5044285835
 21
4.1801027686
  0
LINE
  5
2CD
100
AcDbEntity
  8
0
100
AcDbLine
 62
7
  6
CONTINUOUS
 10
6.3669285835
 20
4.1818192734
 11
6.4944285835
 21
4.1818192734
  0
LINE
  5
2CE
100
AcDbEntity
  8
0
100
AcDbLine
 62
7
  6
CONTINUOUS
 10
6.3669285835
 20
4.1831851886
 11
6.4944285835
 21
4.1831851886
  0
LINE
  5
2CF
100
AcDbEntity
  8
0
100
AcDbLine
 62
7
  6
CONTINUOUS
 10
6.3669285835
 20
4.1888678577
 11
6.4944285835
 21
4.1888678577
  0
LINE
  5
2D0
100
AcDbEntity
  8
0
100
AcDbLine
 62
7
  6
CONTINUOUS
 10
6.3669285835
 20
4.1901002393
 11
6.4944285835
 21
4.1901002393
  0
LINE
  5
2D1
100
AcDbEntity
  8
0
100
AcDbLine
 62
7
  6
CONTINUOUS
 10
6.3669285835
 20
4.1951914247
 11
6.4944285835
 21
4.1951914247
  0
LINE
  5
2D2
100
AcDbEntity
  8
0
100
AcDbLine
 62
7
  6
CONTINUOUS
 10
6.3669285835
 20
4.1962868947
 11
6.4944285835
 21
4.1962868947
  0
LINE
  5
2D3
100
AcDbEntity
  8
0
100
AcDbLine
 62
7
  6
CONTINUOUS
 10
6.3669285835
 20
4.2007726416
 11
6.4944285835
 21
4.2007726416
  0
LINE
  5
2D4
100
AcDbEntity
  8
0
100
AcDbLine
 62
7
  6
CONTINUOUS
 10
6.3669285835
 20
4.2017310218
 11
6.4944285835
 21
4.2017310218
  0
LINE
  5
2D5
100
AcDbEntity
  8
0
100
AcDbLine
 62
7
  6
CONTINUOUS
 10
6.3669285835
 20
4.2018527686
 11
6.3234627002
 21
4.2018527686
  0
LINE
  5
2D6
100
AcDbEntity
  8
0
100
AcDbLine
 62
7
  6
CONTINUOUS
 10
6.3669285835
 20
4.2055937342
 11
6.4944285835
 21
4.2055937342
  0
LINE
  5
2D7
100
AcDbEntity
  8
0
100
AcDbLine
 62
7
  6
CONTINUOUS
 10
6.3669285835
 20
4.2064092336
 11
6.4944285835
 21
4.2064092336
  0
LINE
  5
2D8
100
AcDbEntity
  8
0
100
AcDbLine
 62
7
  6
CONTINUOUS
 10
6.6150880323
 20
4.2079948172
 11
6.7465998556
 21
4.2079948172
  0
LINE
  5
2D9
100
AcDbEntity
  8
0
100
AcDbLine
 62
7
  6
CONTINUOUS
 10
7.0110762554
 20
4.2079948172
 11
7.1425880323
 21
4.2079948172
  0
LINE
  5
2DA
100
AcDbEntity
  8
0
100
AcDbLine
 62
7
  6
CONTINUOUS
 10
7.2388283524
 20
3.9491960467
 11
7.2636717755
 21
3.948762389
  0
LINE
  5
2DB
100
AcDbEntity
  8
0
100
AcDbLine
 62
7
  6
CONTINUOUS
 10
7.2270983224
 20
4.1419319221
 11
7.2519417445
 21
4.1414982785
  0
LINE
  5
2DC
100
AcDbEntity
  8
0
100
AcDbLine
 62
7
  6
CONTINUOUS
 10
6.8559737134
 20
4.2638861576
 11
6.8544592044
 21
4.2638554898
  0
LINE
  5
2DD
100
AcDbEntity
  8
0
100
AcDbLine
 62
7
  6
CONTINUOUS
 10
6.8627233547
 20
4.2640250519
 11
6.8483380323
 21
4.2637361017
  0
LINE
  5
2DE
100
AcDbEntity
  8
0
100
AcDbLine
 62
7
  6
CONTINUOUS
 10
6.8544591985
 20
4.2643558106
 11
6.8559737062
 21
4.2643864586
  0
LINE
  5
2DF
100
AcDbEntity
  8
0
100
AcDbLine
 62
7
  6
CONTINUOUS
 10
6.8483380323
 20
4.2642364997
 11
6.8627233547
 21
4.2645252633
  0
LINE
  5
2E0
100
AcDbEntity
  8
0
100
AcDbLine
 62
7
  6
CONTINUOUS
 10
6.3669285835
 20
4.2096489115
 11
6.4944285835
 21
4.2096489115
  0
LINE
  5
2E1
100
AcDbEntity
  8
0
100
AcDbLine
 62
7
  6
CONTINUOUS
 10
6.3669285835
 20
4.2103171725
 11
6.4944285835
 21
4.2103171725
  0
LINE
  5
2E2
100
AcDbEntity
  8
0
100
AcDbLine
 62
7
  6
CONTINUOUS
 10
6.3669285835
 20
4.2129196352
 11
6.4944285835
 21
4.2129196352
  0
LINE
  5
2E3
100
AcDbEntity
  8
0
100
AcDbLine
 62
7
  6
CONTINUOUS
 10
6.3669285835
 20
4.2134413029
 11
6.4944285835
 21
4.2134413029
  0
LINE
  5
2E4
100
AcDbEntity
  8
0
100
AcDbLine
 62
7
  6
CONTINUOUS
 10
6.3669285835
 20
4.2153994172
 11
6.4944285835
 21
4.2153994172
  0
LINE
  5
2E5
100
AcDbEntity
  8
0
100
AcDbLine
 62
7
  6
CONTINUOUS
 10
6.3669285835
 20
4.2157730616
 11
6.4944285835
 21
4.2157730616
  0
LINE
  5
2E6
100
AcDbEntity
  8
0
100
AcDbLine
 62
7
  6
CONTINUOUS
 10
6.3669285835
 20
4.2170814606
 11
6.4944285835
 21
4.2170814606
  0
LINE
  5
2E7
100
AcDbEntity
  8
0
100
AcDbLine
 62
7
  6
CONTINUOUS
 10
6.3669285835
 20
4.2173060577
 11
6.4944285835
 21
4.2173060577
  0
LINE
  5
2E8
100
AcDbEntity
  8
0
100
AcDbLine
 62
7
  6
CONTINUOUS
 10
6.3669285835
 20
4.2179611549
 11
6.4944285835
 21
4.2179611549
  0
LINE
  5
2E9
100
AcDbEntity
  8
0
100
AcDbLine
 62
7
  6
CONTINUOUS
 10
6.3669285835
 20
4.2180362717
 11
6.4944286034
 21
4.2180362717
  0
LINE
  5
2EA
100
AcDbEntity
  8
0
100
AcDbLine
 62
7
  6
CONTINUOUS
 10
6.6261978217
 20
4.2191046066
 11
6.7645453388
 21
4.2191046066
  0
LINE
  5
2EB
100
AcDbEntity
  8
0
100
AcDbLine
 62
7
  6
CONTINUOUS
 10
6.9931294784
 20
4.2191046066
 11
7.1314782429
 21
4.2191046066
  0
LINE
  5
2EC
100
AcDbEntity
  8
0
100
AcDbLine
 62
7
  6
CONTINUOUS
 10
6.6515830542
 20
4.2273527686
 11
6.7807809689
 21
4.2273527686
  0
LINE
  5
2ED
100
AcDbEntity
  8
0
100
AcDbLine
 62
7
  6
CONTINUOUS
 10
6.9768952599
 20
4.2273527686
 11
7.1060930104
 21
4.2273527686
  0
LINE
  5
2EE
100
AcDbEntity
  8
0
100
AcDbLine
 62
7
  6
CONTINUOUS
 10
6.8124862431
 20
4.2392574152
 11
6.681265704
 21
4.2392574152
  0
LINE
  5
2EF
100
AcDbEntity
  8
0
100
AcDbLine
 62
7
  6
CONTINUOUS
 10
6.9451910414
 20
4.2392574152
 11
7.0764103606
 21
4.2392574152
  0
LINE
  5
2F0
100
AcDbEntity
  8
0
100
AcDbLine
 62
7
  6
CONTINUOUS
 10
7.501526621
 20
4.3935171334
 11
8.1379572845
 21
4.3935171334
  0
LINE
  5
2F1
100
AcDbEntity
  8
0
100
AcDbLine
 62
7
  6
CONTINUOUS
 10
7.5147419527
 20
4.4319524228
 11
8.1247419527
 21
4.4319524228
  0
LINE
  5
2F2
100
AcDbEntity
  8
0
100
AcDbLine
 62
7
  6
CONTINUOUS
 10
6.9118380323
 20
4.2636335721
 11
6.8974527099
 21
4.2639689992
  0
LINE
  5
2F3
100
AcDbEntity
  8
0
100
AcDbLine
 62
7
  6
CONTINUOUS
 10
6.8980361692
 20
4.263954951
 11
6.8974527099
 21
4.2639689992
  0
LINE
  5
2F4
100
AcDbEntity
  8
0
100
AcDbLine
 62
7
  6
CONTINUOUS
 10
6.8974527099
 20
4.2644692468
 11
6.9118380323
 21
4.2641340363
  0
LINE
  5
2F5
100
AcDbEntity
  8
0
100
AcDbLine
 62
7
  6
CONTINUOUS
 10
6.8974527099
 20
4.2644692468
 11
6.8980361709
 21
4.2644552077
  0
LINE
  5
2F6
100
AcDbEntity
  8
0
100
AcDbLine
 62
7
  6
CONTINUOUS
 10
6.8622769664
 20
4.2602375187
 11
6.8638153807
 21
4.2601742261
  0
LINE
  5
2F7
100
AcDbEntity
  8
0
100
AcDbLine
 62
7
  6
CONTINUOUS
 10
6.3206584595
 20
3.6477131752
 11
6.2466243427
 21
3.6978653188
  0
LINE
  5
2F8
100
AcDbEntity
  8
0
100
AcDbLine
 62
7
  6
CONTINUOUS
 10
6.3206584595
 20
4.2009923621
 11
6.2466243427
 21
4.1508402184
  0
LINE
  5
2F9
100
AcDbEntity
  8
0
100
AcDbLine
 62
7
  6
CONTINUOUS
 10
6.6261978217
 20
4.2191046066
 11
6.6515830542
 21
4.2273527686
  0
LINE
  5
2FA
100
AcDbEntity
  8
0
100
AcDbLine
 62
7
  6
CONTINUOUS
 10
7.5147419527
 20
4.6863527686
 11
8.1247419527
 21
4.6863527686
  0
LINE
  5
2FB
100
AcDbEntity
  8
0
100
AcDbLine
 62
7
  6
CONTINUOUS
 10
7.5247422431
 20
4.6963527686
 11
8.1147416624
 21
4.6963527686
  0
LINE
  5
2FC
100
AcDbEntity
  8
0
100
AcDbLine
 62
7
  6
CONTINUOUS
 10
7.5409917565
 20
4.759351775
 11
8.0984921489
 21
4.759351775
  0
LINE
  5
2FD
100
AcDbEntity
  8
0
100
AcDbLine
 62
7
  6
CONTINUOUS
 10
2.8102298276
 20
5.0693393888
 11
2.4377410112
 21
5.0888607005
  0
LINE
  5
2FE
100
AcDbEntity
  8
0
100
AcDbLine
 62
7
  6
CONTINUOUS
 10
2.8264283659
 20
5.0829526582
 11
2.4230541843
 21
5.1040926033
  0
LINE
  5
2FF
100
AcDbEntity
  8
0
100
AcDbLine
 62
7
  6
CONTINUOUS
 10
7.1314782429
 20
4.2191046066
 11
7.1060930104
 21
4.2273527686
  0
LINE
  5
300
100
AcDbEntity
  8
0
100
AcDbLine
 62
7
  6
CONTINUOUS
 10
6.5145080584
 20
2.5022089368
 11
6.5953154328
 21
2.1981774596
  0
LINE
  5
301
100
AcDbEntity
  8
0
100
AcDbLine
 62
7
  6
CONTINUOUS
 10
6.2263391477
 20
3.7763109832
 11
6.2314186416
 21
3.75558544
  0
LINE
  5
302
100
AcDbEntity
  8
0
100
AcDbLine
 62
7
  6
CONTINUOUS
 10
6.2416096202
 20
3.720637254
 11
6.2416096202
 21
4.1280682833
  0
LINE
  5
303
100
AcDbEntity
  8
0
100
AcDbLine
 62
7
  6
CONTINUOUS
 10
6.2444285835
 20
3.7020049122
 11
6.2444285835
 21
4.146700625
  0
LINE
  5
304
100
AcDbEntity
  8
0
100
AcDbLine
 62
7
  6
CONTINUOUS
 10
6.2466243427
 20
3.6978653188
 11
6.2466243427
 21
4.1508402184
  0
LINE
  5
305
100
AcDbEntity
  8
0
100
AcDbLine
 62
7
  6
CONTINUOUS
 10
6.2913380323
 20
1.8738527686
 11
6.2913380323
 21
1.8313527686
  0
LINE
  5
306
100
AcDbEntity
  8
0
100
AcDbLine
 62
7
  6
CONTINUOUS
 10
6.3206584595
 20
3.6477131752
 11
6.3206584595
 21
4.2009923621
  0
LINE
  5
307
100
AcDbEntity
  8
0
100
AcDbLine
 62
7
  6
CONTINUOUS
 10
6.3234627002
 20
3.6468527686
 11
6.3234627002
 21
4.2018527686
  0
LINE
  5
308
100
AcDbEntity
  8
0
100
AcDbLine
 62
7
  6
CONTINUOUS
 10
6.3669285835
 20
3.6306692655
 11
6.3669285835
 21
4.2179611549
  0
LINE
  5
309
100
AcDbEntity
  8
0
100
AcDbLine
 62
7
  6
CONTINUOUS
 10
6.2183850641
 20
4.0317359642
 11
6.2154810003
 21
4.0121473063
  0
LINE
  5
30A
100
AcDbEntity
  8
0
100
AcDbLine
 62
7
  6
CONTINUOUS
 10
6.2314189999
 20
4.0931215612
 11
6.2263391477
 21
4.072394554
  0
LINE
  5
30B
100
AcDbEntity
  8
0
100
AcDbLine
 62
7
  6
CONTINUOUS
 10
6.6150880323
 20
4.2079948172
 11
6.6261978217
 21
4.2191046066
  0
LINE
  5
30C
100
AcDbEntity
  8
0
100
AcDbLine
 62
7
  6
CONTINUOUS
 10
2.8578004796
 20
5.3417230255
 11
2.4189027991
 21
5.3647246783
  0
LINE
  5
30D
100
AcDbEntity
  8
0
100
AcDbLine
 62
7
  6
CONTINUOUS
 10
6.2154810077
 20
3.8365581746
 11
6.2183822893
 21
3.8169882701
  0
LINE
  5
30E
100
AcDbEntity
  8
0
100
AcDbLine
 62
7
  6
CONTINUOUS
 10
6.4944285835
 20
3.6306692655
 11
6.4944285835
 21
3.6307443823
  0
LINE
  5
30F
100
AcDbEntity
  8
0
100
AcDbLine
 62
7
  6
CONTINUOUS
 10
6.4944285835
 20
3.6313994796
 11
6.4944285835
 21
3.6316240767
  0
LINE
  5
310
100
AcDbEntity
  8
0
100
AcDbLine
 62
7
  6
CONTINUOUS
 10
6.4944285835
 20
3.6329324756
 11
6.4944285835
 21
3.63330612
  0
LINE
  5
311
100
AcDbEntity
  8
0
100
AcDbLine
 62
7
  6
CONTINUOUS
 10
6.4944285835
 20
3.6352642343
 11
6.4944285835
 21
3.635785902
  0
LINE
  5
312
100
AcDbEntity
  8
0
100
AcDbLine
 62
7
  6
CONTINUOUS
 10
6.4944285835
 20
3.6383883647
 11
6.4944285835
 21
3.6390566257
  0
LINE
  5
313
100
AcDbEntity
  8
0
100
AcDbLine
 62
7
  6
CONTINUOUS
 10
6.4944285835
 20
3.6422963036
 11
6.4944285835
 21
3.643111803
  0
LINE
  5
314
100
AcDbEntity
  8
0
100
AcDbLine
 62
7
  6
CONTINUOUS
 10
6.4944285835
 20
3.6469745155
 11
6.4944285835
 21
3.6479328956
  0
LINE
  5
315
100
AcDbEntity
  8
0
100
AcDbLine
 62
7
  6
CONTINUOUS
 10
6.4944285835
 20
3.6524186425
 11
6.4944285835
 21
3.6535141126
  0
LINE
  5
316
100
AcDbEntity
  8
0
100
AcDbLine
 62
7
  6
CONTINUOUS
 10
6.4944285835
 20
3.6586052979
 11
6.4944285835
 21
3.6598376795
  0
LINE
  5
317
100
AcDbEntity
  8
0
100
AcDbLine
 62
7
  6
CONTINUOUS
 10
6.4944285835
 20
3.6655203486
 11
6.4944285835
 21
3.6668862638
  0
LINE
  5
318
100
AcDbEntity
  8
0
100
AcDbLine
 62
7
  6
CONTINUOUS
 10
6.4944285835
 20
3.673144841
 11
6.4944285835
 21
3.674640546
  0
LINE
  5
319
100
AcDbEntity
  8
0
100
AcDbLine
 62
7
  6
CONTINUOUS
 10
6.4944285835
 20
3.6814578769
 11
6.4944285835
 21
3.6830841658
  0
LINE
  5
31A
100
AcDbEntity
  8
0
100
AcDbLine
 62
7
  6
CONTINUOUS
 10
6.4944285835
 20
3.6904314814
 11
6.4944285835
 21
3.6921793119
  0
LINE
  5
31B
100
AcDbEntity
  8
0
100
AcDbLine
 62
7
  6
CONTINUOUS
 10
6.4944285835
 20
3.7000566124
 11
6.4944285835
 21
3.7019157231
  0
LINE
  5
31C
100
AcDbEntity
  8
0
100
AcDbLine
 62
7
  6
CONTINUOUS
 10
6.4944285835
 20
3.7102913342
 11
6.4944285835
 21
3.7122618188
  0
LINE
  5
31D
100
AcDbEntity
  8
0
100
AcDbLine
 62
7
  6
CONTINUOUS
 10
6.4944285835
 20
3.7211127835
 11
6.4944285835
 21
3.7231892411
  0
LINE
  5
31E
100
AcDbEntity
  8
0
100
AcDbLine
 62
7
  6
CONTINUOUS
 10
6.4944285835
 20
3.7324912995
 11
6.4944285835
 21
3.7346680386
  0
LINE
  5
31F
100
AcDbEntity
  8
0
100
AcDbLine
 62
7
  6
CONTINUOUS
 10
6.4944285835
 20
3.7443956945
 11
6.4944285835
 21
3.7466735804
  0
LINE
  5
320
100
AcDbEntity
  8
0
100
AcDbLine
 62
7
  6
CONTINUOUS
 10
6.4944285835
 20
3.7567862928
 11
6.4944285835
 21
3.7591524839
  0
LINE
  5
321
100
AcDbEntity
  8
0
100
AcDbLine
 62
7
  6
CONTINUOUS
 10
6.4944285835
 20
3.7696502528
 11
6.4944285835
 21
3.7720910216
  0
LINE
  5
322
100
AcDbEntity
  8
0
100
AcDbLine
 62
7
  6
CONTINUOUS
 10
6.4944285835
 20
3.7829311952
 11
6.4944285835
 21
3.7854468981
  0
LINE
  5
323
100
AcDbEntity
  8
0
100
AcDbLine
 62
7
  6
CONTINUOUS
 10
6.4944285835
 20
3.7965997643
 11
6.4944285835
 21
3.799183506
  0
LINE
  5
324
100
AcDbEntity
  8
0
100
AcDbLine
 62
7
  6
CONTINUOUS
 10
6.4944285835
 20
3.8106184955
 11
6.4944285835
 21
3.8132631941
  0
LINE
  5
325
100
AcDbEntity
  8
0
100
AcDbLine
 62
7
  6
CONTINUOUS
 10
6.4944285835
 20
3.8249489644
 11
6.4944285835
 21
3.8276554719
  0
LINE
  5
326
100
AcDbEntity
  8
0
100
AcDbLine
 62
7
  6
CONTINUOUS
 10
6.4944285835
 20
3.8395436784
 11
6.4944285835
 21
3.8422966107
  0
LINE
  5
327
100
AcDbEntity
  8
0
100
AcDbLine
 62
7
  6
CONTINUOUS
 10
6.4944285835
 20
3.8543872534
 11
6.4944285835
 21
3.8571707606
  0
LINE
  5
328
100
AcDbEntity
  8
0
100
AcDbLine
 62
7
  6
CONTINUOUS
 10
6.4944285835
 20
3.8694143851
 11
6.4944285835
 21
3.8722290518
  0
LINE
  5
329
100
AcDbEntity
  8
0
100
AcDbLine
 62
7
  6
CONTINUOUS
 10
6.4944285835
 20
3.8845920992
 11
6.4944285835
 21
3.8874302104
  0
LINE
  5
32A
100
AcDbEntity
  8
0
100
AcDbLine
 62
7
  6
CONTINUOUS
 10
6.4944285835
 20
3.8998787945
 11
6.4944285835
 21
3.9027325712
  0
LINE
  5
32B
100
AcDbEntity
  8
0
100
AcDbLine
 62
7
  6
CONTINUOUS
 10
6.4944285835
 20
3.9152325712
 11
6.4944285835
 21
3.9181027686
  0
LINE
  5
32C
100
AcDbEntity
  8
0
100
AcDbLine
 62
7
  6
CONTINUOUS
 10
6.4944285835
 20
3.9306027686
 11
6.4944285835
 21
3.933472966
  0
LINE
  5
32D
100
AcDbEntity
  8
0
100
AcDbLine
 62
7
  6
CONTINUOUS
 10
6.4944285835
 20
3.945972966
 11
6.4944285835
 21
3.9488267428
  0
LINE
  5
32E
100
AcDbEntity
  8
0
100
AcDbLine
 62
7
  6
CONTINUOUS
 10
6.4944285835
 20
3.9612753268
 11
6.4944285835
 21
3.964113438
  0
LINE
  5
32F
100
AcDbEntity
  8
0
100
AcDbLine
 62
7
  6
CONTINUOUS
 10
6.4944285835
 20
3.9764764854
 11
6.4944285835
 21
3.9792911521
  0
LINE
  5
330
100
AcDbEntity
  8
0
100
AcDbLine
 62
7
  6
CONTINUOUS
 10
6.4944285835
 20
3.9915347766
 11
6.4944285835
 21
3.9943182838
  0
LINE
  5
331
100
AcDbEntity
  8
0
100
AcDbLine
 62
7
  6
CONTINUOUS
 10
6.4944285835
 20
4.0064089265
 11
6.4944285835
 21
4.0091618588
  0
LINE
  5
332
100
AcDbEntity
  8
0
100
AcDbLine
 62
7
  6
CONTINUOUS
 10
6.4944285835
 20
4.0210500653
 11
6.4944285835
 21
4.0237565728
  0
LINE
  5
333
100
AcDbEntity
  8
0
100
AcDbLine
 62
7
  6
CONTINUOUS
 10
6.4944285835
 20
4.0354423431
 11
6.4944285835
 21
4.0380870418
  0
LINE
  5
334
100
AcDbEntity
  8
0
100
AcDbLine
 62
7
  6
CONTINUOUS
 10
6.4944285835
 20
4.0495220312
 11
6.4944285835
 21
4.0521057729
  0
LINE
  5
335
100
AcDbEntity
  8
0
100
AcDbLine
 62
7
  6
CONTINUOUS
 10
6.4944285835
 20
4.0632586391
 11
6.4944285835
 21
4.065774342
  0
LINE
  5
336
100
AcDbEntity
  8
0
100
AcDbLine
 62
7
  6
CONTINUOUS
 10
6.4944285835
 20
4.0766145156
 11
6.4944285835
 21
4.0790552844
  0
LINE
  5
337
100
AcDbEntity
  8
0
100
AcDbLine
 62
7
  6
CONTINUOUS
 10
6.4944285835
 20
4.0895530533
 11
6.4944285835
 21
4.0919192444
  0
LINE
  5
338
100
AcDbEntity
  8
0
100
AcDbLine
 62
7
  6
CONTINUOUS
 10
6.4944285835
 20
4.1020319568
 11
6.4944285835
 21
4.1043098427
  0
LINE
  5
339
100
AcDbEntity
  8
0
100
AcDbLine
 62
7
  6
CONTINUOUS
 10
6.4944285835
 20
4.1140374986
 11
6.4944285835
 21
4.1162142377
  0
LINE
  5
33A
100
AcDbEntity
  8
0
100
AcDbLine
 62
7
  6
CONTINUOUS
 10
6.4944285835
 20
4.1255162961
 11
6.4944285835
 21
4.1275927537
  0
LINE
  5
33B
100
AcDbEntity
  8
0
100
AcDbLine
 62
7
  6
CONTINUOUS
 10
6.4944285835
 20
4.1364437184
 11
6.4944285835
 21
4.138414203
  0
LINE
  5
33C
100
AcDbEntity
  8
0
100
AcDbLine
 62
7
  6
CONTINUOUS
 10
6.4944285835
 20
4.1467898141
 11
6.4944285835
 21
4.1486489248
  0
LINE
  5
33D
100
AcDbEntity
  8
0
100
AcDbLine
 62
7
  6
CONTINUOUS
 10
6.4944285835
 20
4.1565262253
 11
6.4944285835
 21
4.1582740558
  0
LINE
  5
33E
100
AcDbEntity
  8
0
100
AcDbLine
 62
7
  6
CONTINUOUS
 10
6.4944285835
 20
4.1656213714
 11
6.4944285835
 21
4.1672476603
  0
LINE
  5
33F
100
AcDbEntity
  8
0
100
AcDbLine
 62
7
  6
CONTINUOUS
 10
6.4944285835
 20
4.1740649912
 11
6.4944285835
 21
4.1755606962
  0
LINE
  5
340
100
AcDbEntity
  8
0
100
AcDbLine
 62
7
  6
CONTINUOUS
 10
6.4944285835
 20
4.1818192734
 11
6.4944285835
 21
4.1831851886
  0
LINE
  5
341
100
AcDbEntity
  8
0
100
AcDbLine
 62
7
  6
CONTINUOUS
 10
6.4944285835
 20
4.1888678577
 11
6.4944285835
 21
4.1901002393
  0
LINE
  5
342
100
AcDbEntity
  8
0
100
AcDbLine
 62
7
  6
CONTINUOUS
 10
6.4944285835
 20
4.1951914247
 11
6.4944285835
 21
4.1962868947
  0
LINE
  5
343
100
AcDbEntity
  8
0
100
AcDbLine
 62
7
  6
CONTINUOUS
 10
6.4944285835
 20
4.2007726416
 11
6.4944285835
 21
4.2017310218
  0
LINE
  5
344
100
AcDbEntity
  8
0
100
AcDbLine
 62
7
  6
CONTINUOUS
 10
6.4944285835
 20
4.2055937342
 11
6.4944285835
 21
4.2064092336
  0
LINE
  5
345
100
AcDbEntity
  8
0
100
AcDbLine
 62
7
  6
CONTINUOUS
 10
6.4944285835
 20
4.2096489115
 11
6.4944285835
 21
4.2103171725
  0
LINE
  5
346
100
AcDbEntity
  8
0
100
AcDbLine
 62
7
  6
CONTINUOUS
 10
6.4944285835
 20
4.2129196352
 11
6.4944285835
 21
4.2134413029
  0
LINE
  5
347
100
AcDbEntity
  8
0
100
AcDbLine
 62
7
  6
CONTINUOUS
 10
6.4944285835
 20
4.2153994172
 11
6.4944285835
 21
4.2157730616
  0
LINE
  5
348
100
AcDbEntity
  8
0
100
AcDbLine
 62
7
  6
CONTINUOUS
 10
6.4944285835
 20
4.2170814606
 11
6.4944285835
 21
4.2173060577
  0
LINE
  5
349
100
AcDbEntity
  8
0
100
AcDbLine
 62
7
  6
CONTINUOUS
 10
6.5044285835
 20
3.6406027686
 11
6.5044285835
 21
4.2081027686
  0
LINE
  5
34A
100
AcDbEntity
  8
0
100
AcDbLine
 62
7
  6
CONTINUOUS
 10
6.6032480323
 20
3.0023527686
 11
6.6032480323
 21
2.8849264958
  0
LINE
  5
34B
100
AcDbEntity
  8
0
100
AcDbLine
 62
7
  6
CONTINUOUS
 10
6.6150880323
 20
4.1801027686
 11
6.6150880323
 21
4.2079948172
  0
LINE
  5
34C
100
AcDbEntity
  8
0
100
AcDbLine
 62
7
  6
CONTINUOUS
 10
7.2663355818
 20
3.729232354
 11
7.2474252103
 21
3.7227209909
  0
LINE
  5
34D
100
AcDbEntity
  8
0
100
AcDbLine
 62
7
  6
CONTINUOUS
 10
7.3192370956
 20
3.6523840395
 11
7.3381474671
 21
3.6588954025
  0
LINE
  5
34E
100
AcDbEntity
  8
0
100
AcDbLine
 62
7
  6
CONTINUOUS
 10
7.5409917565
 20
5.3838527686
 11
8.0984921489
 21
5.3838527686
  0
LINE
  5
34F
100
AcDbEntity
  8
0
100
AcDbLine
 62
7
  6
CONTINUOUS
 10
7.5409919527
 20
5.4463527686
 11
8.0984919527
 21
5.4463527686
  0
LINE
  5
350
100
AcDbEntity
  8
0
100
AcDbLine
 62
7
  6
CONTINUOUS
 10
8.0925332811
 20
5.4528527686
 11
7.5469506243
 21
5.4528527686
  0
LINE
  5
351
100
AcDbEntity
  8
0
100
AcDbLine
 62
7
  6
CONTINUOUS
 10
2.8627200595
 20
5.4355942018
 11
2.423822379
 21
5.4585958546
  0
LINE
  5
352
100
AcDbEntity
  8
0
100
AcDbLine
 62
7
  6
CONTINUOUS
 10
4.4407729108
 20
5.7003273631
 11
3.4541868214
 21
6.1191083121
  0
LWPOLYLINE
  5
353
100
AcDbEntity
  8
0
100
AcDbPolyline
 62
7
  6
CONTINUOUS
 90
25
 70
0
 10
7.6071239014
 20
3.0173998553
 10
7.6076211222
 20
3.0166358668
 10
7.6085076388
 20
3.0152097726
 10
7.609356209
 20
3.0137589675
 10
7.6101660945
 20
3.0122844758
 10
7.6109366101
 20
3.0107872955
 10
7.6116668815
 20
3.0092689029
 10
7.6123562928
 20
3.007730391
 10
7.6130042704
 20
3.00617284
 10
7.6136101148
 20
3.0045977635
 10
7.6141733296
 20
3.0030063226
 10
7.6146934653
 20
3.0013996494
 10
7.6151699982
 20
2.9997792561
 10
7.6156025404
 20
2.9981464104
 10
7.6159907822
 20
2.9965022262
 10
7.6163344012
 20
2.9948480101
 10
7.6166331325
 20
2.9931849965
 10
7.6168867526
 20
2.9915143843
 10
7.6170950617
 20
2.9898374398
 10
7.617257901
 20
2.9881553957
 10
7.6173751456
 20
2.986469485
 10
7.6174467028
 20
2.98478098
 10
7.6174725173
 20
2.9830911211
 10
7.6174525675
 20
2.981401149
 10
7.6173868669
 20
2.9797123381
  0
LINE
  5
354
100
AcDbEntity
  8
0
100
AcDbLine
 62
7
  6
CONTINUOUS
 10
6.6238380323
 20
2.2493527686
 11
6.6238380323
 21
2.3118527686
  0
LINE
  5
355
100
AcDbEntity
  8
0
100
AcDbLine
 62
7
  6
CONTINUOUS
 10
6.6288380323
 20
3.6061027686
 11
6.6288380323
 21
3.4993527686
  0
LINE
  5
356
100
AcDbEntity
  8
0
100
AcDbLine
 62
7
  6
CONTINUOUS
 10
6.6948380323
 20
2.1763527686
 11
6.6948380323
 21
2.1868527686
  0
LINE
  5
357
100
AcDbEntity
  8
0
100
AcDbLine
 62
7
  6
CONTINUOUS
 10
6.8363380323
 20
4.2514236354
 11
6.8363380323
 21
4.2578361351
  0
LINE
  5
358
100
AcDbEntity
  8
0
100
AcDbLine
 62
7
  6
CONTINUOUS
 10
6.8363380323
 20
4.25956957
 11
6.8363380323
 21
4.2636709267
  0
LINE
  5
359
100
AcDbEntity
  8
0
100
AcDbLine
 62
7
  6
CONTINUOUS
 10
6.8477233547
 20
4.2613406703
 11
6.8477233547
 21
4.2626928307
  0
LINE
  5
35A
100
AcDbEntity
  8
0
100
AcDbLine
 62
7
  6
CONTINUOUS
 10
6.8483380323
 20
4.2518788876
 11
6.8483380323
 21
4.25472296
  0
LINE
  5
35B
100
AcDbEntity
  8
0
100
AcDbLine
 62
7
  6
CONTINUOUS
 10
6.8483380323
 20
4.257901805
 11
6.8483380323
 21
4.258406
  0
LINE
  5
35C
100
AcDbEntity
  8
0
100
AcDbLine
 62
7
  6
CONTINUOUS
 10
6.8483380323
 20
4.2637361017
 11
6.8483380323
 21
4.2642364997
  0
LINE
  5
35D
100
AcDbEntity
  8
0
100
AcDbLine
 62
7
  6
CONTINUOUS
 10
6.8549564694
 20
4.2604811594
 11
6.8549564694
 21
4.2609836687
  0
LINE
  5
35E
100
AcDbEntity
  8
0
100
AcDbLine
 62
7
  6
CONTINUOUS
 10
6.85640029
 20
4.257544998
 11
6.85640029
 21
4.2580494271
  0
LINE
  5
35F
100
AcDbEntity
  8
0
100
AcDbLine
 62
7
  6
CONTINUOUS
 10
6.8627233547
 20
4.2640250519
 11
6.8627233547
 21
4.2645252633
  0
LINE
  5
360
100
AcDbEntity
  8
0
100
AcDbLine
 62
7
  6
CONTINUOUS
 10
6.8647461956
 20
4.2484223788
 11
6.8647461956
 21
4.2484856968
  0
LINE
  5
361
100
AcDbEntity
  8
0
100
AcDbLine
 62
7
  6
CONTINUOUS
 10
6.6416705822
 20
3.399888789
 11
6.6166466339
 21
3.1938527686
  0
LINE
  5
362
100
AcDbEntity
  8
0
100
AcDbLine
 62
7
  6
CONTINUOUS
 10
7.3407419527
 20
5.5862375566
 11
7.2167106892
 21
5.5862375566
  0
LINE
  5
363
100
AcDbEntity
  8
0
100
AcDbLine
 62
7
  6
CONTINUOUS
 10
7.1407419527
 20
5.6357375566
 11
4.7582419527
 21
5.6357375566
  0
LINE
  5
364
100
AcDbEntity
  8
0
100
AcDbLine
 62
7
  6
CONTINUOUS
 10
2.8463415313
 20
5.7392844196
 11
2.4718554557
 21
5.7589104032
  0
LINE
  5
365
100
AcDbEntity
  8
0
100
AcDbLine
 62
7
  6
CONTINUOUS
 10
4.587297084
 20
6.0455166832
 11
3.6007109946
 21
6.4642976321
  0
LINE
  5
366
100
AcDbEntity
  8
0
100
AcDbLine
 62
7
  6
CONTINUOUS
 10
7.1425880323
 20
4.2079948172
 11
7.1314782429
 21
4.2191046066
  0
LINE
  5
367
100
AcDbEntity
  8
0
100
AcDbLine
 62
7
  6
CONTINUOUS
 10
6.895429869
 20
4.2482528209
 11
6.895429869
 21
4.24843516
  0
LINE
  5
368
100
AcDbEntity
  8
0
100
AcDbLine
 62
7
  6
CONTINUOUS
 10
6.8974527099
 20
4.2639689992
 11
6.8974527099
 21
4.2644692468
  0
LINE
  5
369
100
AcDbEntity
  8
0
100
AcDbLine
 62
7
  6
CONTINUOUS
 10
6.9037757745
 20
4.2574678883
 11
6.9037757745
 21
4.257972368
  0
LINE
  5
36A
100
AcDbEntity
  8
0
100
AcDbLine
 62
7
  6
CONTINUOUS
 10
6.9118380323
 20
4.2517747632
 11
6.9118380323
 21
4.2546192227
  0
LINE
  5
36B
100
AcDbEntity
  8
0
100
AcDbLine
 62
7
  6
CONTINUOUS
 10
6.9118380323
 20
4.2577984968
 11
6.9118380323
 21
4.2583027596
  0
LINE
  5
36C
100
AcDbEntity
  8
0
100
AcDbLine
 62
7
  6
CONTINUOUS
 10
6.9118380323
 20
4.2636335721
 11
6.9118380323
 21
4.2641340363
  0
LINE
  5
36D
100
AcDbEntity
  8
0
100
AcDbLine
 62
7
  6
CONTINUOUS
 10
6.9208380323
 20
4.2636982141
 11
6.9208380323
 21
4.2624343956
  0
LINE
  5
36E
100
AcDbEntity
  8
0
100
AcDbLine
 62
7
  6
CONTINUOUS
 10
6.9208380323
 20
4.2578636297
 11
6.9208380323
 21
4.2514513615
  0
LINE
  5
36F
100
AcDbEntity
  8
0
100
AcDbLine
 62
7
  6
CONTINUOUS
 10
7.0628380323
 20
2.1763527686
 11
7.0628380323
 21
2.1868527686
  0
LINE
  5
370
100
AcDbEntity
  8
0
100
AcDbLine
 62
7
  6
CONTINUOUS
 10
7.5064160296
 20
3.0319881061
 11
7.4875056581
 21
3.025476743
  0
LINE
  5
371
100
AcDbEntity
  8
0
100
AcDbLine
 62
7
  6
CONTINUOUS
 10
7.2474252103
 20
3.7227209909
 11
7.5082934017
 21
2.9651047519
  0
LINE
  5
372
100
AcDbEntity
  8
0
100
AcDbLine
 62
7
  6
CONTINUOUS
 10
7.2663355818
 20
3.729232354
 11
7.5064148664
 21
3.0319914843
  0
LINE
  5
373
100
AcDbEntity
  8
0
100
AcDbLine
 62
7
  6
CONTINUOUS
 10
7.5330152584
 20
3.0315271736
 11
7.3192370956
 21
3.6523840395
  0
LINE
  5
374
100
AcDbEntity
  8
0
100
AcDbLine
 62
7
  6
CONTINUOUS
 10
7.572714537
 20
2.9776631665
 11
7.3381474671
 21
3.6588954025
  0
LINE
  5
375
100
AcDbEntity
  8
0
100
AcDbLine
 62
7
  6
CONTINUOUS
 10
7.1160054824
 20
3.399888789
 11
7.1410294307
 21
3.1938527686
  0
LINE
  5
376
100
AcDbEntity
  8
0
100
AcDbLine
 62
7
  6
CONTINUOUS
 10
7.2067979918
 20
4.1205398024
 11
7.2279081573
 21
3.8186503712
  0
LINE
  5
377
100
AcDbEntity
  8
0
100
AcDbLine
 62
7
  6
CONTINUOUS
 10
7.2388283524
 20
3.9491960467
 11
7.2478594383
 21
3.8200455006
  0
LINE
  5
378
100
AcDbEntity
  8
0
100
AcDbLine
 62
7
  6
CONTINUOUS
 10
7.2661507114
 20
3.9133119538
 11
7.2636717755
 21
3.948762389
  0
LINE
  5
379
100
AcDbEntity
  8
0
100
AcDbLine
 62
7
  6
CONTINUOUS
 10
7.2861019924
 20
3.9147070833
 11
7.271543976
 21
4.1228964178
  0
LINE
  5
37A
100
AcDbEntity
  8
0
100
AcDbLine
 62
7
  6
CONTINUOUS
 10
7.2270983194
 20
4.1419319119
 11
7.2388283357
 21
3.949196047
  0
LINE
  5
37B
100
AcDbEntity
  8
0
100
AcDbLine
 62
7
  6
CONTINUOUS
 10
7.2636717587
 20
3.9487623893
 11
7.2519417416
 21
4.1414982684
  0
LINE
  5
37C
100
AcDbEntity
  8
0
100
AcDbLine
 62
7
  6
CONTINUOUS
 10
7.2536558672
 20
2.5946551544
 11
7.2536562598
 21
2.594643552
  0
LINE
  5
37D
100
AcDbEntity
  8
0
100
AcDbLine
 62
7
  6
CONTINUOUS
 10
7.1288380323
 20
3.6061020928
 11
7.1288380323
 21
3.4993527686
  0
LINE
  5
37E
100
AcDbEntity
  8
0
100
AcDbLine
 62
7
  6
CONTINUOUS
 10
7.1338380323
 20
2.2493527686
 11
7.1338380323
 21
2.3118527686
  0
LINE
  5
37F
100
AcDbEntity
  8
0
100
AcDbLine
 62
7
  6
CONTINUOUS
 10
7.1407419527
 20
6.0427375566
 11
7.1407419527
 21
5.6037375566
  0
LINE
  5
380
100
AcDbEntity
  8
0
100
AcDbLine
 62
7
  6
CONTINUOUS
 10
7.1425880323
 20
4.1801027686
 11
7.1425880323
 21
4.2079948172
  0
LINE
  5
381
100
AcDbEntity
  8
0
100
AcDbLine
 62
7
  6
CONTINUOUS
 10
7.1544280323
 20
3.0023527686
 11
7.1544280323
 21
2.8849264958
  0
LINE
  5
382
100
AcDbEntity
  8
0
100
AcDbLine
 62
7
  6
CONTINUOUS
 10
7.154838016
 20
3.6973369313
 11
7.1548380323
 21
4.1801027686
  0
LINE
  5
383
100
AcDbEntity
  8
0
100
AcDbLine
 62
7
  6
CONTINUOUS
 10
7.1698380323
 20
3.6744694304
 11
7.1698380323
 21
4.1651027686
  0
LINE
  5
384
100
AcDbEntity
  8
0
100
AcDbLine
 62
7
  6
CONTINUOUS
 10
7.1898380323
 20
4.1551027686
 11
7.1898380323
 21
3.6936027686
  0
LINE
  5
385
100
AcDbEntity
  8
0
100
AcDbLine
 62
7
  6
CONTINUOUS
 10
7.2048380323
 20
4.1401027686
 11
7.2048380323
 21
3.7086027686
  0
LINE
  5
386
100
AcDbEntity
  8
0
100
AcDbLine
 62
7
  6
CONTINUOUS
 10
7.2167106892
 20
6.0602375566
 11
7.2167106892
 21
5.5862375566
  0
LINE
  5
387
100
AcDbEntity
  8
0
100
AcDbLine
 62
7
  6
CONTINUOUS
 10
7.3407419527
 20
6.0602375566
 11
7.3407419527
 21
5.5862375566
  0
LINE
  5
388
100
AcDbEntity
  8
0
100
AcDbLine
 62
7
  6
CONTINUOUS
 10
7.3663764908
 20
6.0470438521
 11
7.3663764908
 21
5.599431261
  0
LINE
  5
389
100
AcDbEntity
  8
0
100
AcDbLine
 62
7
  6
CONTINUOUS
 10
7.5330164219
 20
3.0315237945
 11
7.5519267934
 21
3.0380351576
  0
LINE
  5
38A
100
AcDbEntity
  8
0
100
AcDbLine
 62
7
  6
CONTINUOUS
 10
7.1407419527
 20
6.0107375566
 11
4.7582419527
 21
6.0107375566
  0
LINE
  5
38B
100
AcDbEntity
  8
0
100
AcDbLine
 62
7
  6
CONTINUOUS
 10
7.3407419527
 20
6.0602375566
 11
7.2167106892
 21
6.0602375566
  0
LINE
  5
38C
100
AcDbEntity
  8
0
100
AcDbLine
 62
7
  6
CONTINUOUS
 10
8.1047419527
 20
3.3693527686
 11
8.1384919527
 21
3.3108960538
  0
LINE
  5
38D
100
AcDbEntity
  8
0
100
AcDbLine
 62
7
  6
CONTINUOUS
 10
7.5064151779
 20
3.0319914788
 11
7.5268547255
 21
2.9516191608
  0
LINE
  5
38E
100
AcDbEntity
  8
0
100
AcDbLine
 62
7
  6
CONTINUOUS
 10
7.5534551174
 20
2.9511548495
 11
7.53301557
 21
3.0315271682
  0
LINE
  5
38F
100
AcDbEntity
  8
0
100
AcDbLine
 62
7
  6
CONTINUOUS
 10
7.4194240993
 20
5.5966418456
 11
7.4194240993
 21
6.0498332675
  0
LINE
  5
390
100
AcDbEntity
  8
0
100
AcDbLine
 62
7
  6
CONTINUOUS
 10
7.4663380323
 20
1.8738527686
 11
7.4663380323
 21
1.8313527686
  0
LINE
  5
391
100
AcDbEntity
  8
0
100
AcDbLine
 62
7
  6
CONTINUOUS
 10
7.5009919527
 20
3.3108960538
 11
7.5009919527
 21
3.1859606759
  0
LINE
  5
392
100
AcDbEntity
  8
0
100
AcDbLine
 62
7
  6
CONTINUOUS
 10
7.5046692881
 20
3.3108960538
 11
7.5046692881
 21
3.1752809186
  0
LINE
  5
393
100
AcDbEntity
  8
0
100
AcDbLine
 62
7
  6
CONTINUOUS
 10
7.5147419527
 20
4.4319524228
 11
7.5147419527
 21
4.6863527686
  0
LINE
  5
394
100
AcDbEntity
  8
0
100
AcDbLine
 62
7
  6
CONTINUOUS
 10
7.6012384527
 20
4.1453527686
 11
7.6012384527
 21
3.3893527686
  0
LINE
  5
395
100
AcDbEntity
  8
0
100
AcDbLine
 62
7
  6
CONTINUOUS
 10
7.6179919527
 20
3.3893527686
 11
7.6179919527
 21
3.3693527686
  0
LINE
  5
396
100
AcDbEntity
  8
0
100
AcDbLine
 62
7
  6
CONTINUOUS
 10
7.6203955275
 20
3.3108960538
 11
7.6203955275
 21
3.1378094834
  0
LINE
  5
397
100
AcDbEntity
  8
0
100
AcDbLine
 62
7
  6
CONTINUOUS
 10
7.2499716378
 20
2.5344553898
 11
7.2499629176
 21
2.5344000128
  0
LINE
  5
398
100
AcDbEntity
  8
0
100
AcDbLine
 62
7
  6
CONTINUOUS
 10
7.2431680061
 20
2.5022089368
 11
7.1623606318
 21
2.1981774596
  0
LINE
  5
399
100
AcDbEntity
  8
0
100
AcDbLine
 62
7
  6
CONTINUOUS
 10
7.6527419527
 20
6.2518527686
 11
7.9867419527
 21
6.2518527686
  0
LINE
  5
39A
100
AcDbEntity
  8
0
100
AcDbLine
 62
7
  6
CONTINUOUS
 10
7.6572419527
 20
6.3458527686
 11
7.6619147858
 21
6.3458527686
  0
LINE
  5
39B
100
AcDbEntity
  8
0
100
AcDbLine
 62
7
  6
CONTINUOUS
 10
7.8150691197
 20
6.3458527686
 11
7.8244147858
 21
6.3458527686
  0
LINE
  5
39C
100
AcDbEntity
  8
0
100
AcDbLine
 62
7
  6
CONTINUOUS
 10
7.9775691197
 20
6.3458527686
 11
7.9822419527
 21
6.3458527686
  0
LINE
  5
39D
100
AcDbEntity
  8
0
100
AcDbLine
 62
7
  6
CONTINUOUS
 10
7.687092959
 20
6.414351151
 11
7.9523909464
 21
6.414351151
  0
LINE
  5
39E
100
AcDbEntity
  8
0
100
AcDbLine
 62
7
  6
CONTINUOUS
 10
7.6572419527
 20
6.2518527686
 11
7.6572419527
 21
6.3641364271
  0
LINE
  5
39F
100
AcDbEntity
  8
0
100
AcDbLine
 62
7
  6
CONTINUOUS
 10
7.6619147858
 20
6.2518527686
 11
7.6619147858
 21
6.3458527686
  0
LINE
  5
3A0
100
AcDbEntity
  8
0
100
AcDbLine
 62
7
  6
CONTINUOUS
 10
7.7040157133
 20
3.3108960538
 11
7.7040157133
 21
3.1378094834
  0
LINE
  5
3A1
100
AcDbEntity
  8
0
100
AcDbLine
 62
7
  6
CONTINUOUS
 10
7.8150691197
 20
6.2518527686
 11
7.8150691197
 21
6.3458527686
  0
LINE
  5
3A2
100
AcDbEntity
  8
0
100
AcDbLine
 62
7
  6
CONTINUOUS
 10
7.8244147858
 20
6.2518527686
 11
7.8244147858
 21
6.3458527686
  0
LWPOLYLINE
  5
3A3
100
AcDbEntity
  8
0
100
AcDbPolyline
 62
7
  6
CONTINUOUS
 90
3
 70
0
 10
7.6173869205
 20
2.9797124084
 10
7.617275519
 20
2.9780260155
 10
7.6171184979
 20
2.9763432629
  0
LINE
  5
3A4
100
AcDbEntity
  8
0
100
AcDbLine
 62
7
  6
CONTINUOUS
 10
7.6171184426
 20
2.976343182
 11
7.6170338611
 21
2.9755952758
  0
LINE
  5
3A5
100
AcDbEntity
  8
0
100
AcDbLine
 62
7
  6
CONTINUOUS
 10
7.5347419527
 20
3.3693527686
 11
7.5009919527
 21
3.3108960538
  0
LINE
  5
3A6
100
AcDbEntity
  8
0
100
AcDbLine
 62
7
  6
CONTINUOUS
 10
7.8064919527
 20
6.5023527686
 11
7.8329919527
 21
6.5023527686
  0
LINE
  5
3A7
100
AcDbEntity
  8
0
100
AcDbLine
 62
7
  6
CONTINUOUS
 10
7.9354681922
 20
3.3108960538
 11
7.9354681922
 21
3.1378094834
  0
LINE
  5
3A8
100
AcDbEntity
  8
0
100
AcDbLine
 62
7
  6
CONTINUOUS
 10
7.9775691197
 20
6.2518527686
 11
7.9775691197
 21
6.3458527686
  0
LINE
  5
3A9
100
AcDbEntity
  8
0
100
AcDbLine
 62
7
  6
CONTINUOUS
 10
7.9822419527
 20
6.2518527686
 11
7.9822419527
 21
6.3641364271
  0
LINE
  5
3AA
100
AcDbEntity
  8
0
100
AcDbLine
 62
7
  6
CONTINUOUS
 10
8.0190883779
 20
3.3108960538
 11
8.0190883779
 21
3.1378094834
  0
LINE
  5
3AB
100
AcDbEntity
  8
0
100
AcDbLine
 62
7
  6
CONTINUOUS
 10
8.0214919527
 20
3.3893527686
 11
8.0214919527
 21
3.3693527686
  0
LINE
  5
3AC
100
AcDbEntity
  8
0
100
AcDbLine
 62
7
  6
CONTINUOUS
 10
8.0382454527
 20
4.1453527686
 11
8.0382454527
 21
3.3893527686
  0
LINE
  5
3AD
100
AcDbEntity
  8
0
100
AcDbLine
 62
7
  6
CONTINUOUS
 10
8.1247419527
 20
4.4319524228
 11
8.1247419527
 21
4.6863527686
  0
LWPOLYLINE
  5
3AE
100
AcDbEntity
  8
0
100
AcDbPolyline
 62
7
  6
CONTINUOUS
 90
13
 70
0
 10
8.0187180853
 20
2.9811865312
 10
8.0187606419
 20
2.9819333382
 10
8.0188891208
 20
2.9836121874
 10
8.0190627792
 20
2.9852869542
 10
8.0192814901
 20
2.9869564229
 10
8.0195450938
 20
2.9886193818
 10
8.019853398
 20
2.9902746245
 10
8.0202061782
 20
2.9919209497
 10
8.0206031773
 20
2.9935571623
 10
8.0210441063
 20
2.995182075
 10
8.0215286443
 20
2.9967945086
 10
8.0220564386
 20
2.9983932927
 10
8.0226271049
 20
2.999977266
  0
LINE
  5
3AF
100
AcDbEntity
  8
0
100
AcDbLine
 62
7
  6
CONTINUOUS
 10
8.1348146174
 20
3.3108960538
 11
8.1348146174
 21
3.1378094834
  0
LINE
  5
3B0
100
AcDbEntity
  8
0
100
AcDbLine
 62
7
  6
CONTINUOUS
 10
8.1384919527
 20
3.3108960538
 11
8.1384919527
 21
3.1378094834
  0
LWPOLYLINE
  5
3B1
100
AcDbEntity
  8
0
100
AcDbPolyline
 62
7
  6
CONTINUOUS
 90
11
 70
0
 10
8.0226271668
 20
2.9999773767
 10
8.0232402924
 20
3.0015453887
 10
8.0238954287
 20
3.0030963025
 10
8.024592093
 20
3.0046289795
 10
8.0253297857
 20
3.0061423242
 10
8.0261079622
 20
3.0076352224
 10
8.0269260209
 20
3.0091065312
 10
8.0277833638
 20
3.0105551906
 10
8.0286793596
 20
3.0119801487
 10
8.0296133036
 20
3.0133803062
 10
8.0299906801
 20
3.0139236996
  0
LINE
  5
3B2
100
AcDbEntity
  8
0
100
AcDbLine
 62
7
  6
CONTINUOUS
 10
8.1384919527
 20
3.1378094834
 11
8.1047419527
 21
3.0793527686
  0
LINE
  5
3B3
100
AcDbEntity
  8
0
100
AcDbLine
 62
7
  6
CONTINUOUS
 10
7.4663380323
 20
1.8313527686
 11
7.4563380323
 21
1.8213527686
  0
ARC
  5
3B4
100
AcDbEntity
  8
0
100
AcDbCircle
 62
7
  6
CONTINUOUS
 10
5.6258380323
 20
2.8338527686
 40
1.5265
100
AcDbArc
 50
346.7644365334
 51
13.2162850744
  0
ARC
  5
3B5
100
AcDbEntity
  8
0
100
AcDbCircle
 62
7
  6
CONTINUOUS
 10
4.7582419527
 20
6.4482375566
 40
0.8125
100
AcDbArc
 50
247.0
 51
270.0
  0
ARC
  5
3B6
100
AcDbEntity
  8
0
100
AcDbCircle
 62
7
  6
CONTINUOUS
 10
3.2832419527
 20
5.7163874387
 40
0.8125
100
AcDbArc
 50
67.0
 51
177.0
  0
ARC
  5
3B7
100
AcDbEntity
  8
0
100
AcDbCircle
 62
7
  6
CONTINUOUS
 10
4.7582419527
 20
6.4482375566
 40
0.4375
100
AcDbArc
 50
247.0
 51
270.0
  0
ARC
  5
3B8
100
AcDbEntity
  8
0
100
AcDbCircle
 62
7
  6
CONTINUOUS
 10
3.2832419527
 20
5.7163874387
 40
0.4375
100
AcDbArc
 50
67.0
 51
177.0
  0
ARC
  5
3B9
100
AcDbEntity
  8
0
100
AcDbCircle
 62
7
  6
CONTINUOUS
 10
2.8602602696
 20
5.3886586137
 40
0.047
100
AcDbArc
 50
267.0
 51
87.0
  0
ARC
  5
3BA
100
AcDbEntity
  8
0
100
AcDbCircle
 62
7
  6
CONTINUOUS
 10
2.4213625891
 20
5.4116602664
 40
0.047
100
AcDbArc
 50
87.0
 51
267.0
  0
ARC
  5
3BB
100
AcDbEntity
  8
0
100
AcDbCircle
 62
7
  6
CONTINUOUS
 10
2.8110410349
 20
5.0848181466
 40
0.0155
100
AcDbArc
 50
267.0
 51
353.0874617428
  0
ARC
  5
3BC
100
AcDbEntity
  8
0
100
AcDbCircle
 62
7
  6
CONTINUOUS
 10
2.4385522185
 20
5.1043394582
 40
0.0155
100
AcDbArc
 50
180.9125382572
 51
267.0
  0
ARC
  5
3BD
100
AcDbEntity
  8
0
100
AcDbCircle
 62
7
  6
CONTINUOUS
 10
6.9351661943
 20
2.5839341052
 40
0.3186700629
100
AcDbArc
 50
351.0677640404
 51
1.9258781635
  0
ARC
  5
3BE
100
AcDbEntity
  8
0
100
AcDbCircle
 62
7
  6
CONTINUOUS
 10
6.9358380323
 20
2.5838930061
 40
0.318
100
AcDbArc
 50
345.1156903923
 51
351.0562419724
  0
ARC
  5
3BF
100
AcDbEntity
  8
0
100
AcDbCircle
 62
7
  6
CONTINUOUS
 10
6.9358380323
 20
2.5838930061
 40
0.318
100
AcDbArc
 50
1.9373534048
 51
36.549446714
  0
ARC
  5
3C0
100
AcDbEntity
  8
0
100
AcDbCircle
 62
7
  6
CONTINUOUS
 10
6.8218380323
 20
2.5838930061
 40
0.318
100
AcDbArc
 50
143.450553286
 51
194.8843096077
  0
ARC
  5
3C1
100
AcDbEntity
  8
0
100
AcDbCircle
 62
7
  6
CONTINUOUS
 10
6.3498380323
 20
2.1329329515
 40
0.254
100
AcDbArc
 50
9.0885407019
 51
14.8843096077
  0
ARC
  5
3C2
100
AcDbEntity
  8
0
100
AcDbCircle
 62
7
  6
CONTINUOUS
 10
6.4429248754
 20
2.4366156248
 40
0.2085
100
AcDbArc
 50
342.6250952378
 51
13.2355634666
  0
ARC
  5
3C3
100
AcDbEntity
  8
0
100
AcDbCircle
 62
7
  6
CONTINUOUS
 10
6.4157480323
 20
2.8849264958
 40
0.1875
100
AcDbArc
 50
323.450553286
 51
360.0
  0
ARC
  5
3C4
100
AcDbEntity
  8
0
100
AcDbCircle
 62
7
  6
CONTINUOUS
 10
7.1043035828
 20
1.9957364824
 40
0.185
100
AcDbArc
 50
4.0656154981
 51
77.5021822312
  0
ARC
  5
3C5
100
AcDbEntity
  8
0
100
AcDbCircle
 62
7
  6
CONTINUOUS
 10
6.6533724817
 20
1.9957364824
 40
0.185
100
AcDbArc
 50
102.4978177688
 51
175.9343845019
  0
ARC
  5
3C6
100
AcDbEntity
  8
0
100
AcDbCircle
 62
7
  6
CONTINUOUS
 10
6.3189380723
 20
2.0138527686
 40
0.125
100
AcDbArc
 50
270.0
 51
357.707557224
  0
ARC
  5
3C7
100
AcDbEntity
  8
0
100
AcDbCircle
 62
7
  6
CONTINUOUS
 10
7.1551984781
 20
2.7223546496
 40
0.0630770062
100
AcDbArc
 50
53.8036504978
 51
55.6344210278
  0
ARC
  5
3C8
100
AcDbEntity
  8
0
100
AcDbCircle
 62
7
  6
CONTINUOUS
 10
7.1571878262
 20
2.7252563283
 40
0.059558878
100
AcDbArc
 50
55.6384602142
 51
56.3948751001
  0
ARC
  5
3C9
100
AcDbEntity
  8
0
100
AcDbCircle
 62
7
  6
CONTINUOUS
 10
6.6238380323
 20
2.2178527686
 40
0.0315
100
AcDbArc
 50
90.0
 51
259.7778206094
  0
ARC
  5
3CA
100
AcDbEntity
  8
0
100
AcDbCircle
 62
7
  6
CONTINUOUS
 10
7.1338380323
 20
2.2178527686
 40
0.0315
100
AcDbArc
 50
280.2221793906
 51
90.0
  0
ARC
  5
3CB
100
AcDbEntity
  8
0
100
AcDbCircle
 62
7
  6
CONTINUOUS
 10
6.6238380323
 20
2.3433527686
 40
0.0315
100
AcDbArc
 50
100.2221793906
 51
270.0
  0
ARC
  5
3CC
100
AcDbEntity
  8
0
100
AcDbCircle
 62
7
  6
CONTINUOUS
 10
7.1338380323
 20
2.3433527686
 40
0.0315
100
AcDbArc
 50
270.0
 51
79.7778206094
  0
ARC
  5
3CD
100
AcDbEntity
  8
0
100
AcDbCircle
 62
7
  6
CONTINUOUS
 10
6.3063380323
 20
1.8738527686
 40
0.015
100
AcDbArc
 50
90.0
 51
180.0
  0
ARC
  5
3CE
100
AcDbEntity
  8
0
100
AcDbCircle
 62
7
  6
CONTINUOUS
 10
6.2179095873
 20
3.2833345898
 40
0.4395
100
AcDbArc
 50
346.7837149256
 51
20.4446212878
  0
ARC
  5
3CF
100
AcDbEntity
  8
0
100
AcDbCircle
 62
7
  6
CONTINUOUS
 10
6.3838573015
 20
3.2221260201
 40
0.2345
100
AcDbArc
 50
324.602372359
 51
353.0751017558
  0
ARC
  5
3D0
100
AcDbEntity
  8
0
100
AcDbCircle
 62
7
  6
CONTINUOUS
 10
6.6055880323
 20
3.0491027686
 40
0.04675
100
AcDbArc
 50
229.1510475503
 51
268.2226944132
  0
ARC
  5
3D1
100
AcDbEntity
  8
0
100
AcDbCircle
 62
7
  6
CONTINUOUS
 10
6.6235880323
 20
3.4681027686
 40
0.03125
100
AcDbArc
 50
90.0
 51
270.0
  0
ARC
  5
3D2
100
AcDbEntity
  8
0
100
AcDbCircle
 62
7
  6
CONTINUOUS
 10
6.5663380323
 20
3.6061027686
 40
0.0625
100
AcDbArc
 50
0.0
 51
90.0
  0
ARC
  5
3D3
100
AcDbEntity
  8
0
100
AcDbCircle
 62
7
  6
CONTINUOUS
 10
6.2683470984
 20
3.924355127
 40
0.0420098048
100
AcDbArc
 50
177.4129385258
 51
180.0032165325
  0
ARC
  5
3D4
100
AcDbEntity
  8
0
100
AcDbCircle
 62
7
  6
CONTINUOUS
 10
6.1898569558
 20
3.9243493959
 40
0.041562075
100
AcDbArc
 50
357.0490043431
 51
0.004649529
  0
ARC
  5
3D5
100
AcDbEntity
  8
0
100
AcDbCircle
 62
7
  6
CONTINUOUS
 10
6.4922935186
 20
3.6443502335
 40
0.0121279895
100
AcDbArc
 50
342.8270949624
 51
347.1454171458
  0
ARC
  5
3D6
100
AcDbEntity
  8
0
100
AcDbCircle
 62
7
  6
CONTINUOUS
 10
6.4944285835
 20
3.6406027686
 40
0.01
100
AcDbArc
 50
345.610977056
 51
360.0
  0
ARC
  5
3D7
100
AcDbEntity
  8
0
100
AcDbCircle
 62
7
  6
CONTINUOUS
 10
6.4945016329
 20
3.6405838224
 40
0.0099245339
100
AcDbArc
 50
342.6147806264
 51
345.6121247297
  0
ARC
  5
3D8
100
AcDbEntity
  8
0
100
AcDbCircle
 62
7
  6
CONTINUOUS
 10
6.4968479892
 20
3.6438206701
 40
0.0075861441
100
AcDbArc
 50
339.9828629799
 51
343.3892283087
  0
ARC
  5
3D9
100
AcDbEntity
  8
0
100
AcDbCircle
 62
7
  6
CONTINUOUS
 10
6.2463696249
 20
3.7221677292
 40
0.005
100
AcDbArc
 50
197.8240571942
 51
247.1569399385
  0
ARC
  5
3DA
100
AcDbEntity
  8
0
100
AcDbCircle
 62
7
  6
CONTINUOUS
 10
6.2463696249
 20
4.126537808
 40
0.005
100
AcDbArc
 50
112.8430600615
 51
162.1759428058
  0
ARC
  5
3DB
100
AcDbEntity
  8
0
100
AcDbCircle
 62
7
  6
CONTINUOUS
 10
6.3234627002
 20
3.6518527686
 40
0.005
100
AcDbArc
 50
235.8855270539
 51
270.0
  0
ARC
  5
3DC
100
AcDbEntity
  8
0
100
AcDbCircle
 62
7
  6
CONTINUOUS
 10
6.2494285835
 20
3.7020049122
 40
0.005
100
AcDbArc
 50
180.0
 51
235.8855270544
  0
ARC
  5
3DD
100
AcDbEntity
  8
0
100
AcDbCircle
 62
7
  6
CONTINUOUS
 10
6.2494285835
 20
4.146700625
 40
0.005
100
AcDbArc
 50
124.1144729456
 51
180.0
  0
ARC
  5
3DE
100
AcDbEntity
  8
0
100
AcDbCircle
 62
7
  6
CONTINUOUS
 10
6.8788380323
 20
3.4895177609
 40
0.7753350077
100
AcDbArc
 50
88.6231111619
 51
91.1920956682
  0
ARC
  5
3DF
100
AcDbEntity
  8
0
100
AcDbCircle
 62
7
  6
CONTINUOUS
 10
6.8788380323
 20
3.4895177609
 40
0.7753188855
100
AcDbArc
 50
75.2369687319
 51
87.5605752481
  0
ARC
  5
3E0
100
AcDbEntity
  8
0
100
AcDbCircle
 62
7
  6
CONTINUOUS
 10
6.8788380323
 20
3.4895177609
 40
0.7753188855
100
AcDbArc
 50
92.2545204889
 51
104.7630312681
  0
ARC
  5
3E1
100
AcDbEntity
  8
0
100
AcDbCircle
 62
7
  6
CONTINUOUS
 10
6.8788380323
 20
3.4895177609
 40
0.7751750201
100
AcDbArc
 50
88.6239946244
 51
91.1911755502
  0
ARC
  5
3E2
100
AcDbEntity
  8
0
100
AcDbCircle
 62
7
  6
CONTINUOUS
 10
6.8788380323
 20
3.4895177609
 40
0.7748188751
100
AcDbArc
 50
86.8926895707
 51
87.5590000722
  0
ARC
  5
3E3
100
AcDbEntity
  8
0
100
AcDbCircle
 62
7
  6
CONTINUOUS
 10
6.8788380323
 20
3.4895177609
 40
0.7748188751
100
AcDbArc
 50
92.2559761406
 51
93.1443391817
  0
ARC
  5
3E4
100
AcDbEntity
  8
0
100
AcDbCircle
 62
7
  6
CONTINUOUS
 10
6.8788380323
 20
3.4895177609
 40
0.7746749168
100
AcDbArc
 50
88.6231061521
 51
91.1919446428
  0
ARC
  5
3E5
100
AcDbEntity
  8
0
100
AcDbCircle
 62
7
  6
CONTINUOUS
 10
6.8788380323
 20
3.4895177609
 40
0.7746000979
100
AcDbArc
 50
88.6229731319
 51
91.1920597897
  0
ARC
  5
3E6
100
AcDbEntity
  8
0
100
AcDbCircle
 62
7
  6
CONTINUOUS
 10
6.8788380323
 20
3.4895177609
 40
0.7740569257
100
AcDbArc
 50
86.889627857
 51
87.5565957966
  0
ARC
  5
3E7
100
AcDbEntity
  8
0
100
AcDbCircle
 62
7
  6
CONTINUOUS
 10
6.8788380323
 20
3.4895177609
 40
0.7694929332
100
AcDbArc
 50
86.871161409
 51
87.5420946835
  0
ARC
  5
3E8
100
AcDbEntity
  8
0
100
AcDbCircle
 62
7
  6
CONTINUOUS
 10
6.8788380323
 20
3.4895177609
 40
0.7694929332
100
AcDbArc
 50
92.2715987345
 51
93.1661244052
  0
ARC
  5
3E9
100
AcDbEntity
  8
0
100
AcDbCircle
 62
7
  6
CONTINUOUS
 10
6.8788380323
 20
3.4895177609
 40
0.7689891346
100
AcDbArc
 50
92.2730877396
 51
93.1682007883
  0
ARC
  5
3EA
100
AcDbEntity
  8
0
100
AcDbCircle
 62
7
  6
CONTINUOUS
 10
6.8788380323
 20
3.4895177609
 40
0.7689891346
100
AcDbArc
 50
86.8691095275
 51
87.5404834123
  0
ARC
  5
3EB
100
AcDbEntity
  8
0
100
AcDbCircle
 62
7
  6
CONTINUOUS
 10
6.8788380323
 20
3.4895177609
 40
0.7688591381
100
AcDbArc
 50
88.1413005927
 51
91.6723095547
  0
ARC
  5
3EC
100
AcDbEntity
  8
0
100
AcDbCircle
 62
7
  6
CONTINUOUS
 10
6.8788380323
 20
3.4895177609
 40
0.768354924
100
AcDbArc
 50
88.1400804383
 51
91.6734072789
  0
ARC
  5
3ED
100
AcDbEntity
  8
0
100
AcDbCircle
 62
7
  6
CONTINUOUS
 10
6.8788380323
 20
3.4895177609
 40
0.7662813403
100
AcDbArc
 50
87.7562904206
 51
92.0566497773
  0
ARC
  5
3EE
100
AcDbEntity
  8
0
100
AcDbCircle
 62
7
  6
CONTINUOUS
 10
6.8639204962
 20
3.5127348803
 40
0.7473438606
100
AcDbArc
 50
90.0446551133
 51
92.1151144109
  0
ARC
  5
3EF
100
AcDbEntity
  8
0
100
AcDbCircle
 62
7
  6
CONTINUOUS
 10
7.1520880323
 20
3.0491027686
 40
0.04675
100
AcDbArc
 50
271.7773055868
 51
310.8489524497
  0
ARC
  5
3F0
100
AcDbEntity
  8
0
100
AcDbCircle
 62
7
  6
CONTINUOUS
 10
7.1340880323
 20
3.4681027686
 40
0.03125
100
AcDbArc
 50
270.0
 51
90.0
  0
ARC
  5
3F1
100
AcDbEntity
  8
0
100
AcDbCircle
 62
7
  6
CONTINUOUS
 10
6.8751950404
 20
3.9243527686
 40
0.6655302365
100
AcDbArc
 50
162.1759428058
 51
165.3102062657
  0
ARC
  5
3F2
100
AcDbEntity
  8
0
100
AcDbCircle
 62
7
  6
CONTINUOUS
 10
6.8751950404
 20
3.9243527686
 40
0.6655302365
100
AcDbArc
 50
167.1481751459
 51
170.7147267369
  0
ARC
  5
3F3
100
AcDbEntity
  8
0
100
AcDbCircle
 62
7
  6
CONTINUOUS
 10
6.8751950404
 20
3.9243527686
 40
0.6655302365
100
AcDbArc
 50
172.4196365177
 51
187.5803634823
  0
ARC
  5
3F4
100
AcDbEntity
  8
0
100
AcDbCircle
 62
7
  6
CONTINUOUS
 10
6.8751950404
 20
3.9243527686
 40
0.6655302365
100
AcDbArc
 50
189.2852732631
 51
192.8518248541
  0
ARC
  5
3F5
100
AcDbEntity
  8
0
100
AcDbCircle
 62
7
  6
CONTINUOUS
 10
6.8751950404
 20
3.9243527686
 40
0.6655302365
100
AcDbArc
 50
194.6897937343
 51
197.8240571942
  0
ARC
  5
3F6
100
AcDbEntity
  8
0
100
AcDbCircle
 62
7
  6
CONTINUOUS
 10
6.8398336714
 20
3.6961289636
 40
0.5650571094
100
AcDbArc
 50
87.3532425516
 51
88.4663922313
  0
ARC
  5
3F7
100
AcDbEntity
  8
0
100
AcDbCircle
 62
7
  6
CONTINUOUS
 10
6.8398341848
 20
3.6960140593
 40
0.5646696296
100
AcDbArc
 50
87.7221805793
 51
88.4653917189
  0
ARC
  5
3F8
100
AcDbEntity
  8
0
100
AcDbCircle
 62
7
  6
CONTINUOUS
 10
6.8788380323
 20
4.0143527686
 40
0.2344999982
100
AcDbArc
 50
44.9800467377
 51
135.0200139532
  0
ARC
  5
3F9
100
AcDbEntity
  8
0
100
AcDbCircle
 62
7
  6
CONTINUOUS
 10
6.9060167174
 20
4.0480699628
 40
0.2162616376
100
AcDbArc
 50
100.683056413
 51
101.3818884569
  0
ARC
  5
3FA
100
AcDbEntity
  8
0
100
AcDbCircle
 62
7
  6
CONTINUOUS
 10
7.1913380277
 20
3.6061027732
 40
0.0624999991
100
AcDbArc
 50
118.0971321168
 51
180.0006233435
  0
ARC
  5
3FB
100
AcDbEntity
  8
0
100
AcDbCircle
 62
7
  6
CONTINUOUS
 10
7.2267492728
 20
4.1219349319
 40
0.02
100
AcDbArc
 50
88.9999977482
 51
184.0
  0
ARC
  5
3FC
100
AcDbEntity
  8
0
100
AcDbCircle
 62
7
  6
CONTINUOUS
 10
7.1548380323
 20
3.6744694304
 40
0.015
100
AcDbArc
 50
298.0971273946
 51
360.0
  0
ARC
  5
3FD
100
AcDbEntity
  8
0
100
AcDbCircle
 62
7
  6
CONTINUOUS
 10
7.1898380323
 20
4.1401027686
 40
0.015
100
AcDbArc
 50
0.0
 51
90.0
  0
ARC
  5
3FE
100
AcDbEntity
  8
0
100
AcDbCircle
 62
7
  6
CONTINUOUS
 10
7.1898380323
 20
3.7086027686
 40
0.015
100
AcDbArc
 50
270.0
 51
360.0
  0
ARC
  5
3FF
100
AcDbEntity
  8
0
100
AcDbCircle
 62
7
  6
CONTINUOUS
 10
8.1318380323
 20
2.8338527686
 40
1.5265
100
AcDbArc
 50
166.7837149256
 51
193.2355634666
  0
ARC
  5
400
100
AcDbEntity
  8
0
100
AcDbCircle
 62
7
  6
CONTINUOUS
 10
7.4078380323
 20
2.1329329515
 40
0.254
100
AcDbArc
 50
165.1156903923
 51
170.9114592981
  0
ARC
  5
401
100
AcDbEntity
  8
0
100
AcDbCircle
 62
7
  6
CONTINUOUS
 10
7.3147511892
 20
2.4366156248
 40
0.2085
100
AcDbArc
 50
166.7644365334
 51
197.3749047622
  0
ARC
  5
402
100
AcDbEntity
  8
0
100
AcDbCircle
 62
7
  6
CONTINUOUS
 10
7.3419280323
 20
2.8849264958
 40
0.1875
100
AcDbArc
 50
180.0
 51
216.549446714
  0
ARC
  5
403
100
AcDbEntity
  8
0
100
AcDbCircle
 62
7
  6
CONTINUOUS
 10
7.4387379923
 20
2.0138527686
 40
0.125
100
AcDbArc
 50
182.292442776
 51
270.0
  0
ARC
  5
404
100
AcDbEntity
  8
0
100
AcDbCircle
 62
7
  6
CONTINUOUS
 10
7.5538041655
 20
2.9711518034
 40
0.02
100
AcDbArc
 50
269.0
 51
19.0
  0
ARC
  5
405
100
AcDbEntity
  8
0
100
AcDbCircle
 62
7
  6
CONTINUOUS
 10
7.5272037732
 20
2.971616115
 40
0.02
100
AcDbArc
 50
199.0
 51
269.0
  0
ARC
  5
406
100
AcDbEntity
  8
0
100
AcDbCircle
 62
7
  6
CONTINUOUS
 10
7.4513380323
 20
1.8738527686
 40
0.015
100
AcDbArc
 50
0.0
 51
90.0
  0
ARC
  5
407
100
AcDbEntity
  8
0
100
AcDbCircle
 62
7
  6
CONTINUOUS
 10
8.2836660427
 20
3.984463557
 40
1.02
100
AcDbArc
 50
184.0
 51
199.0
  0
ARC
  5
408
100
AcDbEntity
  8
0
100
AcDbCircle
 62
7
  6
CONTINUOUS
 10
8.2836660427
 20
3.984463557
 40
1.0
100
AcDbArc
 50
184.0
 51
199.0
  0
ARC
  5
409
100
AcDbEntity
  8
0
100
AcDbCircle
 62
7
  6
CONTINUOUS
 10
7.5397664773
 20
3.2833345898
 40
0.4395
100
AcDbArc
 50
159.5553787122
 51
193.2162850744
  0
ARC
  5
40A
100
AcDbEntity
  8
0
100
AcDbCircle
 62
7
  6
CONTINUOUS
 10
7.8197419527
 20
4.1453527686
 40
0.4035425
100
AcDbArc
 50
142.0506496105
 51
237.215166167
  0
ARC
  5
40B
100
AcDbEntity
  8
0
100
AcDbCircle
 62
7
  6
CONTINUOUS
 10
7.8197419527
 20
4.1453527686
 40
0.4035425
100
AcDbArc
 50
302.784833833
 51
37.9493503895
  0
ARC
  5
40C
100
AcDbEntity
  8
0
100
AcDbCircle
 62
7
  6
CONTINUOUS
 10
7.6019946761
 20
3.8448090488
 40
0.375
100
AcDbArc
 50
184.0
 51
199.0
  0
ARC
  5
40D
100
AcDbEntity
  8
0
100
AcDbCircle
 62
7
  6
CONTINUOUS
 10
7.6019946761
 20
3.8448090488
 40
0.355
100
AcDbArc
 50
184.0
 51
199.0
  0
ARC
  5
40E
100
AcDbEntity
  8
0
100
AcDbCircle
 62
7
  6
CONTINUOUS
 10
7.8197421235
 20
4.1453530425
 40
0.2433181388
100
AcDbArc
 50
333.9100954404
 51
206.0899251346
  0
ARC
  5
40F
100
AcDbEntity
  8
0
100
AcDbCircle
 62
7
  6
CONTINUOUS
 10
7.373818763
 20
3.2221260201
 40
0.2345
100
AcDbArc
 50
186.9248982442
 51
215.397627641
  0
ARC
  5
410
100
AcDbEntity
  8
0
100
AcDbCircle
 62
7
  6
CONTINUOUS
 10
7.8197419527
 20
4.1453527686
 40
0.2185035
100
AcDbArc
 50
0.0
 51
180.0
  0
ARC
  5
411
100
AcDbEntity
  8
0
100
AcDbCircle
 62
7
  6
CONTINUOUS
 10
7.7322419527
 20
3.1001370944
 40
0.15
100
AcDbArc
 50
187.9648629677
 51
213.4757298033
  0
ARC
  5
412
100
AcDbEntity
  8
0
100
AcDbCircle
 62
7
  6
CONTINUOUS
 10
7.9072419527
 20
3.1001370944
 40
0.15
100
AcDbArc
 50
324.9174561452
 51
352.0351370246
  0
ARC
  5
413
100
AcDbEntity
  8
0
100
AcDbCircle
 62
7
  6
CONTINUOUS
 10
7.251592695
 20
4.1215012884
 40
0.02
100
AcDbArc
 50
4.0
 51
88.9999977491
  0
ARC
  5
414
100
AcDbEntity
  8
0
100
AcDbCircle
 62
7
  6
CONTINUOUS
 10
6.5909919527
 20
5.0716022718
 40
1.0
100
AcDbArc
 50
341.8050916615
 51
18.1949083385
  0
ARC
  5
415
100
AcDbEntity
  8
0
100
AcDbCircle
 62
7
  6
CONTINUOUS
 10
9.0484919527
 20
5.0716022718
 40
1.0
100
AcDbArc
 50
161.8050916615
 51
198.1949083385
  0
ARC
  5
416
100
AcDbEntity
  8
0
100
AcDbCircle
 62
7
  6
CONTINUOUS
 10
7.8197419527
 20
5.8232375566
 40
0.46
100
AcDbArc
 50
111.2872245146
 51
150.4884256145
  0
ARC
  5
417
100
AcDbEntity
  8
0
100
AcDbCircle
 62
7
  6
CONTINUOUS
 10
7.8197419527
 20
5.8232375566
 40
0.46
100
AcDbArc
 50
209.5115743855
 51
233.6280600203
  0
ARC
  5
418
100
AcDbEntity
  8
0
100
AcDbCircle
 62
7
  6
CONTINUOUS
 10
7.8197419527
 20
5.8232375566
 40
0.46
100
AcDbArc
 50
306.3719399797
 51
68.7127754854
  0
ARC
  5
419
100
AcDbEntity
  8
0
100
AcDbCircle
 62
7
  6
CONTINUOUS
 10
6.8818765823
 20
4.533883073
 40
0.2857694921
100
AcDbArc
 50
272.4086229518
 51
272.7184061458
  0
ARC
  5
41A
100
AcDbEntity
  8
0
100
AcDbCircle
 62
7
  6
CONTINUOUS
 10
6.8791612657
 20
4.5323848622
 40
0.2842648946
100
AcDbArc
 50
267.0932848737
 51
267.2192586279
  0
ARC
  5
41B
100
AcDbEntity
  8
0
100
AcDbCircle
 62
7
  6
CONTINUOUS
 10
7.5676939653
 20
6.4513495334
 40
0.125
100
AcDbArc
 50
315.7567298377
 51
342.7832648064
  0
ARC
  5
41C
100
AcDbEntity
  8
0
100
AcDbCircle
 62
7
  6
CONTINUOUS
 10
7.8064919527
 20
6.3773527686
 40
0.125
100
AcDbArc
 50
90.0
 51
162.7832648064
  0
ARC
  5
41D
100
AcDbEntity
  8
0
100
AcDbCircle
 62
7
  6
CONTINUOUS
 10
8.0717899402
 20
6.4513495334
 40
0.125
100
AcDbArc
 50
197.2167351936
 51
224.2432701623
  0
ARC
  5
41E
100
AcDbEntity
  8
0
100
AcDbCircle
 62
7
  6
CONTINUOUS
 10
7.8329919527
 20
6.3773527686
 40
0.125
100
AcDbArc
 50
17.2167351936
 51
90.0
  0
ARC
  5
41F
100
AcDbEntity
  8
0
100
AcDbCircle
 62
7
  6
CONTINUOUS
 10
7.4522419527
 20
4.4319524228
 40
0.0625
100
AcDbArc
 50
322.0506496105
 51
360.0
  0
ARC
  5
420
100
AcDbEntity
  8
0
100
AcDbCircle
 62
7
  6
CONTINUOUS
 10
8.1872419527
 20
4.4319524228
 40
0.0625
100
AcDbArc
 50
180.0
 51
217.9493503895
  0
ARC
  5
421
100
AcDbEntity
  8
0
100
AcDbCircle
 62
7
  6
CONTINUOUS
 10
7.1807419527
 20
6.0427375566
 40
0.04
100
AcDbArc
 50
25.9444797724
 51
180.0
  0
ARC
  5
422
100
AcDbEntity
  8
0
100
AcDbCircle
 62
7
  6
CONTINUOUS
 10
7.1807419527
 20
5.6037375566
 40
0.04
100
AcDbArc
 50
180.0
 51
334.0555202276
  0
ARC
  5
423
100
AcDbEntity
  8
0
100
AcDbCircle
 62
7
  6
CONTINUOUS
 10
8.0982419527
 20
4.7278527686
 40
0.0315
100
AcDbArc
 50
270.0
 51
89.5449099509
  0
ARC
  5
424
100
AcDbEntity
  8
0
100
AcDbCircle
 62
7
  6
CONTINUOUS
 10
7.5412419527
 20
4.7278527686
 40
0.0315
100
AcDbArc
 50
90.4550900491
 51
270.0
  0
ARC
  5
425
100
AcDbEntity
  8
0
100
AcDbCircle
 62
7
  6
CONTINUOUS
 10
7.3920110289
 20
6.0653501477
 40
0.0315
100
AcDbArc
 50
215.5316259562
 51
330.4884256145
  0
ARC
  5
426
100
AcDbEntity
  8
0
100
AcDbCircle
 62
7
  6
CONTINUOUS
 10
7.3920110289
 20
5.5811249654
 40
0.0315
100
AcDbArc
 50
29.5115743855
 51
144.4683740438
  0
ARC
  5
427
100
AcDbEntity
  8
0
100
AcDbCircle
 62
7
  6
CONTINUOUS
 10
7.3407419527
 20
6.0287375566
 40
0.0315
100
AcDbArc
 50
35.5316259562
 51
90.0
  0
ARC
  5
428
100
AcDbEntity
  8
0
100
AcDbCircle
 62
7
  6
CONTINUOUS
 10
7.3407419527
 20
5.6177375566
 40
0.0315
100
AcDbArc
 50
270.0
 51
324.4683740438
  0
ARC
  5
429
100
AcDbEntity
  8
0
100
AcDbCircle
 62
7
  6
CONTINUOUS
 10
7.5409919527
 20
5.4151027686
 40
0.03125
100
AcDbArc
 50
90.0
 51
269.99964029
  0
ARC
  5
42A
100
AcDbEntity
  8
0
100
AcDbCircle
 62
7
  6
CONTINUOUS
 10
8.0984919527
 20
5.4151027686
 40
0.03125
100
AcDbArc
 50
270.00035971
 51
90.0
  0
ARC
  5
42B
100
AcDbEntity
  8
0
100
AcDbCircle
 62
7
  6
CONTINUOUS
 10
7.0725880323
 20
4.2247525951
 40
0.015
100
AcDbArc
 50
9.9842614036
 51
75.2369687319
  0
ARC
  5
42C
100
AcDbEntity
  8
0
100
AcDbCircle
 62
7
  6
CONTINUOUS
 10
6.6850880323
 20
4.2247525951
 40
0.015
100
AcDbArc
 50
104.7630312681
 51
170.0157385964
  0
ARC
  5
42D
100
AcDbEntity
  8
0
100
AcDbCircle
 62
7
  6
CONTINUOUS
 10
7.1548380323
 20
4.1651027686
 40
0.015
100
AcDbArc
 50
0.0
 51
90.0
  0
ARC
  5
42E
100
AcDbEntity
  8
0
100
AcDbCircle
 62
7
  6
CONTINUOUS
 10
6.492282514
 20
4.2043529278
 40
0.012139247
100
AcDbArc
 50
12.8539604215
 51
15.5776212881
  0
ARC
  5
42F
100
AcDbEntity
  8
0
100
AcDbCircle
 62
7
  6
CONTINUOUS
 10
7.5247419527
 20
4.6863527686
 40
0.01
100
AcDbArc
 50
90.0
 51
180.0
  0
ARC
  5
430
100
AcDbEntity
  8
0
100
AcDbCircle
 62
7
  6
CONTINUOUS
 10
8.1147419527
 20
4.6863527686
 40
0.01
100
AcDbArc
 50
0.0
 51
90.0
  0
ARC
  5
431
100
AcDbEntity
  8
0
100
AcDbCircle
 62
7
  6
CONTINUOUS
 10
6.4944285835
 20
4.2081027686
 40
0.01
100
AcDbArc
 50
0.0
 51
14.389022944
  0
ARC
  5
432
100
AcDbEntity
  8
0
100
AcDbCircle
 62
7
  6
CONTINUOUS
 10
6.4944967922
 20
4.2081203368
 40
0.0099295652
100
AcDbArc
 50
14.3886367759
 51
17.3831165505
  0
ARC
  5
433
100
AcDbEntity
  8
0
100
AcDbCircle
 62
7
  6
CONTINUOUS
 10
6.4968283589
 20
4.2048788426
 40
0.0076066773
100
AcDbArc
 50
16.6119878103
 51
23.0983985874
  0
ARC
  5
434
100
AcDbEntity
  8
0
100
AcDbCircle
 62
7
  6
CONTINUOUS
 10
6.3234627002
 20
4.1968527686
 40
0.005
100
AcDbArc
 50
90.0
 51
124.1144729461
  0
SPLINE
  5
435
100
AcDbEntity
  8
0
100
AcDbSpline
 62
7
  6
CONTINUOUS
 70
0
 71
3
 72
28
 73
24
 74
0
 42
0.0000001
 43
0.0000001
 44
0.0000000001
 40
0.0
 40
0.0
 40
0.0
 40
0.0
 40
0.0023551496
 40
0.0047789917
 40
0.007430502
 40
0.0104320276
 40
0.0177825102
 40
0.0272348349
 40
0.0389467285
 40
0.0529805684
 40
0.0693505008
 40
0.0880388205
 40
0.1090123064
 40
0.1322179317
 40
0.1850645238
 40
0.2459537476
 40
0.3141166467
 40
0.3886684493
 40
0.4686292024
 40
0.5529423745
 40
0.6404959412
 40
0.8207120402
 40
1.0
 40
1.0
 40
1.0
 40
1.0
 10
6.2179525709
 20
4.0031525555
 30
0.0
 10
6.217962267
 20
4.0031531311
 30
0.0
 10
6.2179822195
 20
4.0031516295
 30
0.0
 10
6.2180112761
 20
4.0031408624
 30
0.0
 10
6.218039032
 20
4.0031219692
 30
0.0
 10
6.2180769449
 20
4.003083692
 30
0.0
 10
6.2181203701
 20
4.0030135467
 30
0.0
 10
6.2181653973
 20
4.0029047021
 30
0.0
 10
6.2182067197
 20
4.0027653208
 30
0.0
 10
6.2182441277
 20
4.0025956133
 30
0.0
 10
6.2182774556
 20
4.0023958364
 30
0.0
 10
6.2183065459
 20
4.0021665436
 30
0.0
 10
6.2183312471
 20
4.0019084103
 30
0.0
 10
6.2183594098
 20
4.0015092147
 30
0.0
 10
6.2183811968
 20
4.0009447231
 30
0.0
 10
6.2183880711
 20
4.0001944926
 30
0.0
 10
6.2183762629
 20
3.9993548039
 30
0.0
 10
6.2183458746
 20
3.9984368987
 30
0.0
 10
6.2182972513
 20
3.9974530916
 30
0.0
 10
6.2182310456
 20
3.9964165787
 30
0.0
 10
6.2181194116
 20
3.9949687744
 30
0.0
 10
6.2179436368
 20
3.9931332275
 30
0.0
 10
6.2177682636
 20
3.9916608004
 30
0.0
 10
6.2176716117
 20
3.9909277216
 30
0.0
  0
SPLINE
  5
436
100
AcDbEntity
  8
0
100
AcDbSpline
 62
7
  6
CONTINUOUS
 70
0
 71
3
 72
18
 73
14
 74
0
 42
0.0000001
 43
0.0000001
 44
0.0000000001
 40
0.0
 40
0.0
 40
0.0
 40
0.0
 40
0.0190660542
 40
0.0391837798
 40
0.0631484452
 40
0.0926703571
 40
0.1286629822
 40
0.171615487
 40
0.2792135823
 40
0.4162578504
 40
0.582582473
 40
0.777560225
 40
1.0
 40
1.0
 40
1.0
 40
1.0
 10
6.2312197592
 20
4.0810636495
 30
0.0
 10
6.2312317532
 20
4.0810643137
 30
0.0
 10
6.2312570827
 20
4.0810606726
 30
0.0
 10
6.2312910857
 20
4.0810381729
 30
0.0
 10
6.2313198821
 20
4.0810011727
 30
0.0
 10
6.2313447002
 20
4.0809502787
 30
0.0
 10
6.2313659614
 20
4.0808851759
 30
0.0
 10
6.2313915521
 20
4.0807703391
 30
0.0
 10
6.2314118371
 20
4.080589871
 30
0.0
 10
6.2314212437
 20
4.0803310221
 30
0.0
 10
6.231416428
 20
4.0800169598
 30
0.0
 10
6.2313973572
 20
4.0796496228
 30
0.0
 10
6.2313764755
 20
4.0793874297
 30
0.0
 10
6.2313639167
 20
4.079247847
 30
0.0
  0
SPLINE
  5
437
100
AcDbEntity
  8
0
100
AcDbSpline
 62
7
  6
CONTINUOUS
 70
0
 71
3
 72
22
 73
18
 74
0
 42
0.0000001
 43
0.0000001
 44
0.0000000001
 40
0.0
 40
0.0
 40
0.0
 40
0.0
 40
0.0112237937
 40
0.0225270449
 40
0.0467662495
 40
0.0604010611
 40
0.0753238211
 40
0.1095909601
 40
0.1503941507
 40
0.1980687229
 40
0.2526743386
 40
0.3140923429
 40
0.3820638609
 40
0.4562174338
 40
0.6211273225
 40
0.8042282159
 40
1.0
 40
1.0
 40
1.0
 40
1.0
 10
6.2298148503
 20
3.9953352577
 30
0.0
 10
6.2298484317
 20
3.9953372289
 30
0.0
 10
6.2299164017
 20
3.9953348465
 30
0.0
 10
6.2300536631
 20
3.9953028643
 30
0.0
 10
6.2301847477
 20
3.9952287082
 30
0.0
 10
6.2303035239
 20
3.9951239034
 30
0.0
 10
6.2304292747
 20
3.9949831604
 30
0.0
 10
6.2305767117
 20
3.9947556217
 30
0.0
 10
6.2307334959
 20
3.9944220666
 30
0.0
 10
6.2308768581
 20
3.9940173152
 30
0.0
 10
6.2310057229
 20
3.9935435653
 30
0.0
 10
6.231118948
 20
3.9930035942
 30
0.0
 10
6.2312154976
 20
3.9924010432
 30
0.0
 10
6.2313245738
 20
3.9914871101
 30
0.0
 10
6.2314083044
 20
3.9902237163
 30
0.0
 10
6.2314302251
 20
3.9885935299
 30
0.0
 10
6.2313942429
 20
3.987458149
 30
0.0
 10
6.2313639167
 20
3.9868721806
 30
0.0
  0
SPLINE
  5
438
100
AcDbEntity
  8
0
100
AcDbSpline
 62
7
  6
CONTINUOUS
 70
0
 71
3
 72
34
 73
30
 74
0
 42
0.0000001
 43
0.0000001
 44
0.0000000001
 40
0.0
 40
0.0
 40
0.0
 40
0.0
 40
0.0050365578
 40
0.008720432
 40
0.0133223259
 40
0.018883343
 40
0.0254172732
 40
0.0329233749
 40
0.0413941654
 40
0.0611667579
 40
0.0845803419
 40
0.111433916
 40
0.1414970775
 40
0.2102122356
 40
0.2884760741
 40
0.3738104244
 40
0.4635630265
 40
0.5549347422
 40
0.6450117559
 40
0.7308095776
 40
0.809351952
 40
0.877794781
 40
0.9074168726
 40
0.9335944617
 40
0.9560905161
 40
0.9747170863
 40
0.9893569882
 40
0.9951731118
 40
1.0
 40
1.0
 40
1.0
 40
1.0
 10
6.2265246966
 20
3.788375758
 30
0.0
 10
6.2265604031
 20
3.7883778547
 30
0.0
 10
6.2266204967
 20
3.7883439341
 30
0.0
 10
6.2266867409
 20
3.788278429
 30
0.0
 10
6.2267485171
 20
3.7882010219
 30
0.0
 10
6.2268141859
 20
3.7881024016
 30
0.0
 10
6.2268845374
 20
3.7879821494
 30
0.0
 10
6.226959096
 20
3.7878407141
 30
0.0
 10
6.2270697841
 20
3.7876121821
 30
0.0
 10
6.2272158079
 20
3.7872754956
 30
0.0
 10
6.2273973534
 20
3.786812343
 30
0.0
 10
6.2275913327
 20
3.7862757955
 30
0.0
 10
6.227877173
 20
3.7854305767
 30
0.0
 10
6.2282490759
 20
3.7842293359
 30
0.0
 10
6.2286995622
 20
3.7826421072
 30
0.0
 10
6.2291571158
 20
3.7809019378
 30
0.0
 10
6.2296071119
 20
3.7790638334
 30
0.0
 10
6.2300349895
 20
3.777185894
 30
0.0
 10
6.2304265781
 20
3.7753287453
 30
0.0
 10
6.2307684498
 20
3.7735544819
 30
0.0
 10
6.2310482369
 20
3.7719250636
 30
0.0
 10
6.2312293322
 20
3.7706837684
 30
0.0
 10
6.2313319339
 20
3.7698073603
 30
0.0
 10
6.2313837732
 20
3.7692536981
 30
0.0
 10
6.2314140332
 20
3.7687765878
 30
0.0
 10
6.2314224325
 20
3.7683805851
 30
0.0
 10
6.2314113575
 20
3.7681028242
 30
0.0
 10
6.2313885638
 20
3.767924627
 30
0.0
 10
6.2313730814
 20
3.7678504911
 30
0.0
 10
6.2313639167
 20
3.7678174599
 30
0.0
  0
SPLINE
  5
439
100
AcDbEntity
  8
0
100
AcDbSpline
 62
7
  6
CONTINUOUS
 70
0
 71
3
 72
27
 73
23
 74
0
 42
0.0000001
 43
0.0000001
 44
0.0000000001
 40
0.0
 40
0.0
 40
0.0
 40
0.0
 40
0.0447352439
 40
0.0965976798
 40
0.1577348329
 40
0.2308541994
 40
0.2727761555
 40
0.3184882136
 40
0.367669298
 40
0.4192967113
 40
0.4716242359
 40
0.5226583322
 40
0.5708472895
 40
0.6154039264
 40
0.6933351761
 40
0.75829672
 40
0.8131001096
 40
0.8600978738
 40
0.9010794668
 40
0.9374000308
 40
0.9701017966
 40
1.0
 40
1.0
 40
1.0
 40
1.0
 10
6.5697078169
 20
3.077863078
 30
0.0
 10
6.5692044529
 20
3.076982867
 30
0.0
 10
6.5682076594
 20
3.0750297128
 30
0.0
 10
6.566861419
 20
3.071713258
 30
0.0
 10
6.5656047999
 20
3.0676812044
 30
0.0
 10
6.5647308314
 20
3.0637798855
 30
0.0
 10
6.5641433952
 20
3.0601831154
 30
0.0
 10
6.5637703621
 20
3.0571035962
 30
0.0
 10
6.5635092863
 20
3.0537918423
 30
0.0
 10
6.5633835559
 20
3.0503220479
 30
0.0
 10
6.5634066788
 20
3.0468080307
 30
0.0
 10
6.5635759829
 20
3.0433761105
 30
0.0
 10
6.5638741198
 20
3.0401298108
 30
0.0
 10
6.5643884505
 20
3.0362947294
 30
0.0
 10
6.5652010091
 20
3.0321192195
 30
0.0
 10
6.566413255
 20
3.0278002354
 30
0.0
 10
6.5677336062
 20
3.0242537536
 30
0.0
 10
6.569118605
 20
3.021324287
 30
0.0
 10
6.5705445987
 20
3.0188900595
 30
0.0
 10
6.5719977575
 20
3.0168595142
 30
0.0
 10
6.5734691447
 20
3.0151635322
 30
0.0
 10
6.5744977657
 20
3.0141825974
 30
0.0
 10
6.5750103941
 20
3.0137393611
 30
0.0
  0
SPLINE
  5
43A
100
AcDbEntity
  8
0
100
AcDbSpline
 62
7
  6
CONTINUOUS
 70
0
 71
3
 72
11
 73
7
 74
0
 42
0.0000001
 43
0.0000001
 44
0.0000000001
 40
0.0
 40
0.0
 40
0.0
 40
0.0
 40
0.2619168228
 40
0.5164905671
 40
0.7628142625
 40
1.0
 40
1.0
 40
1.0
 40
1.0
 10
6.5697078169
 20
3.077863078
 30
0.0
 10
6.5701395883
 20
3.0786180979
 30
0.0
 10
6.5710031
 20
3.0801001224
 30
0.0
 10
6.5723217323
 20
3.0822631971
 30
0.0
 10
6.5736473161
 20
3.0843250912
 30
0.0
 10
6.5745541625
 20
3.0856504848
 30
0.0
 10
6.5750103922
 20
3.0862925296
 30
0.0
  0
SPLINE
  5
43B
100
AcDbEntity
  8
0
100
AcDbSpline
 62
7
  6
CONTINUOUS
 70
0
 71
3
 72
25
 73
21
 74
0
 42
0.0000001
 43
0.0000001
 44
0.0000000001
 40
0.0
 40
0.0
 40
0.0
 40
0.0
 40
0.0070906835
 40
0.0147725593
 40
0.0236221154
 40
0.0340171358
 40
0.0461804383
 40
0.0602373179
 40
0.0762579021
 40
0.0942723609
 40
0.1362839019
 40
0.1861501846
 40
0.243561464
 40
0.3080805171
 40
0.3791703195
 40
0.4562083551
 40
0.5384937598
 40
0.6252608077
 40
0.8088817792
 40
1.0
 40
1.0
 40
1.0
 40
1.0
 10
6.2169184542
 20
3.9341462594
 30
0.0
 10
6.216942303
 20
3.934147701
 30
0.0
 10
6.21699285
 20
3.9341420756
 30
0.0
 10
6.2170661121
 20
3.9341084665
 30
0.0
 10
6.2171375501
 20
3.934051496
 30
0.0
 10
6.2172077252
 20
3.9339717736
 30
0.0
 10
6.2172770109
 20
3.9338694017
 30
0.0
 10
6.2173454596
 20
3.9337444327
 30
0.0
 10
6.2174129731
 20
3.9335970011
 30
0.0
 10
6.2175064028
 20
3.9333582878
 30
0.0
 10
6.2176171279
 20
3.9330045227
 30
0.0
 10
6.2177383615
 20
3.9325161312
 30
0.0
 10
6.2178524021
 20
3.9319484351
 30
0.0
 10
6.2179580587
 20
3.9313065829
 30
0.0
 10
6.2180541571
 20
3.9305964514
 30
0.0
 10
6.2181396542
 20
3.9298247232
 30
0.0
 10
6.2182136398
 20
3.9289987645
 30
0.0
 10
6.2182974196
 20
3.9278133181
 30
0.0
 10
6.2183667486
 20
3.926259517
 30
0.0
 10
6.2183850997
 20
3.9249967482
 30
0.0
 10
6.2183850997
 20
3.9243527686
 30
0.0
  0
SPLINE
  5
43C
100
AcDbEntity
  8
0
100
AcDbSpline
 62
7
  6
CONTINUOUS
 70
0
 71
3
 72
27
 73
23
 74
0
 42
0.0000001
 43
0.0000001
 44
0.0000000001
 40
0.0
 40
0.0
 40
0.0
 40
0.0
 40
0.0447352439
 40
0.0965976798
 40
0.1577348329
 40
0.2308541994
 40
0.2727761555
 40
0.3184882136
 40
0.367669298
 40
0.4192967113
 40
0.4716242359
 40
0.5226583322
 40
0.5708472895
 40
0.6154039264
 40
0.6933351761
 40
0.75829672
 40
0.8131001096
 40
0.8600978738
 40
0.9010794668
 40
0.9374000308
 40
0.9701017966
 40
1.0
 40
1.0
 40
1.0
 40
1.0
 10
7.1879682476
 20
3.077863078
 30
0.0
 10
7.1884716117
 20
3.076982867
 30
0.0
 10
7.1894684052
 20
3.0750297128
 30
0.0
 10
7.1908146455
 20
3.071713258
 30
0.0
 10
7.1920712647
 20
3.0676812044
 30
0.0
 10
7.1929452332
 20
3.0637798855
 30
0.0
 10
7.1935326693
 20
3.0601831154
 30
0.0
 10
7.1939057025
 20
3.0571035962
 30
0.0
 10
7.1941667783
 20
3.0537918423
 30
0.0
 10
7.1942925086
 20
3.0503220479
 30
0.0
 10
7.1942693858
 20
3.0468080307
 30
0.0
 10
7.1941000817
 20
3.0433761105
 30
0.0
 10
7.1938019448
 20
3.0401298108
 30
0.0
 10
7.1932876141
 20
3.0362947294
 30
0.0
 10
7.1924750555
 20
3.0321192195
 30
0.0
 10
7.1912628096
 20
3.0278002354
 30
0.0
 10
7.1899424583
 20
3.0242537536
 30
0.0
 10
7.1885574596
 20
3.021324287
 30
0.0
 10
7.1871314658
 20
3.0188900595
 30
0.0
 10
7.1856783071
 20
3.0168595142
 30
0.0
 10
7.1842069198
 20
3.0151635322
 30
0.0
 10
7.1831782989
 20
3.0141825974
 30
0.0
 10
7.1826656705
 20
3.0137393611
 30
0.0
  0
LINE
  5
43D
100
AcDbEntity
  8
0
100
AcDbLine
 62
7
  6
CONTINUOUS
 10
6.2158990747
 20
3.8651409155
 11
6.2161686269
 21
3.8648788047
  0
SPLINE
  5
43E
100
AcDbEntity
  8
0
100
AcDbSpline
 62
7
  6
CONTINUOUS
 70
0
 71
3
 72
11
 73
7
 74
0
 42
0.0000001
 43
0.0000001
 44
0.0000000001
 40
0.0
 40
0.0
 40
0.0
 40
0.0
 40
0.2619168228
 40
0.5164905671
 40
0.7628142625
 40
1.0
 40
1.0
 40
1.0
 40
1.0
 10
7.1879682476
 20
3.077863078
 30
0.0
 10
7.1875364763
 20
3.0786180979
 30
0.0
 10
7.1866729646
 20
3.0801001224
 30
0.0
 10
7.1853543323
 20
3.0822631971
 30
0.0
 10
7.1840287484
 20
3.0843250912
 30
0.0
 10
7.1831219021
 20
3.0856504848
 30
0.0
 10
7.1826656724
 20
3.0862925296
 30
0.0
  0
SPLINE
  5
43F
100
AcDbEntity
  8
0
100
AcDbSpline
 62
7
  6
CONTINUOUS
 70
0
 71
3
 72
20
 73
16
 74
0
 42
0.0000001
 43
0.0000001
 44
0.0000000001
 40
0.0
 40
0.0
 40
0.0
 40
0.0
 40
0.0221629594
 40
0.0453755637
 40
0.0721442898
 40
0.1041454217
 40
0.1423261597
 40
0.1871952218
 40
0.2389827675
 40
0.297760899
 40
0.3634836031
 40
0.43602409
 40
0.600698525
 40
0.7896446571
 40
1.0
 40
1.0
 40
1.0
 40
1.0
 10
6.2306541732
 20
4.0467254685
 30
0.0
 10
6.2306908956
 20
4.0467275851
 30
0.0
 10
6.2307677442
 20
4.0467183709
 30
0.0
 10
6.2308748017
 20
4.0466597577
 30
0.0
 10
6.2309705097
 20
4.0465610468
 30
0.0
 10
6.2310565043
 20
4.0464241351
 30
0.0
 10
6.2311337787
 20
4.0462490098
 30
0.0
 10
6.231202352
 20
4.0460356812
 30
0.0
 10
6.2312620698
 20
4.0457845167
 30
0.0
 10
6.2313126127
 20
4.0454961956
 30
0.0
 10
6.231353746
 20
4.0451716673
 30
0.0
 10
6.2313975335
 20
4.0446706986
 30
0.0
 10
6.2314240185
 20
4.0439634862
 30
0.0
 10
6.2314155564
 20
4.0430272868
 30
0.0
 10
6.2313850725
 20
4.0423651235
 30
0.0
 10
6.2313639167
 20
4.0420166429
 30
0.0
  0
SPLINE
  5
440
100
AcDbEntity
  8
0
100
AcDbSpline
 62
7
  6
CONTINUOUS
 70
0
 71
3
 72
31
 73
27
 74
0
 42
0.0000001
 43
0.0000001
 44
0.0000000001
 40
0.0
 40
0.0
 40
0.0
 40
0.0
 40
0.0036621363
 40
0.0075988358
 40
0.0119545396
 40
0.0168325405
 40
0.0283977882
 40
0.0426205336
 40
0.0596015023
 40
0.079341051
 40
0.1017811799
 40
0.1268264719
 40
0.1543565404
 40
0.1842287628
 40
0.250350122
 40
0.3237611102
 40
0.4028272765
 40
0.4857380714
 40
0.5705245417
 40
0.6550884934
 40
0.737250799
 40
0.8148198437
 40
0.8856877058
 40
0.9479397404
 40
0.9753319315
 40
1.0
 40
1.0
 40
1.0
 40
1.0
 10
6.2270609819
 20
3.8227118665
 30
0.0
 10
6.2270852797
 20
3.8227132865
 30
0.0
 10
6.2271362043
 20
3.8227100244
 30
0.0
 10
6.227213019
 20
3.822687918
 30
0.0
 10
6.2272918746
 20
3.8226490646
 30
0.0
 10
6.2274062646
 20
3.822570825
 30
0.0
 10
6.2275531284
 20
3.822427665
 30
0.0
 10
6.2277279062
 20
3.8222029461
 30
0.0
 10
6.2279098967
 20
3.8219169633
 30
0.0
 10
6.2280979873
 20
3.821571441
 30
0.0
 10
6.2282910672
 20
3.8211683475
 30
0.0
 10
6.2284879196
 20
3.8207101689
 30
0.0
 10
6.2286873229
 20
3.8201996834
 30
0.0
 10
6.2289644423
 20
3.8194268156
 30
0.0
 10
6.2293051315
 20
3.8183532951
 30
0.0
 10
6.229692794
 20
3.8169528582
 30
0.0
 10
6.2300621338
 20
3.8154324002
 30
0.0
 10
6.2304037421
 20
3.8138281249
 30
0.0
 10
6.2307085558
 20
3.8121792857
 30
0.0
 10
6.2309681863
 20
3.8105277577
 30
0.0
 10
6.2311751803
 20
3.8089171442
 30
0.0
 10
6.2313234966
 20
3.8073914337
 30
0.0
 10
6.2314086591
 20
3.8059934334
 30
0.0
 10
6.2314262979
 20
3.8049262043
 30
0.0
 10
6.2314027639
 20
3.8041667043
 30
0.0
 10
6.2313791385
 20
3.8038213845
 30
0.0
 10
6.2313639167
 20
3.803658144
 30
0.0
  0
SPLINE
  5
441
100
AcDbEntity
  8
0
100
AcDbSpline
 62
7
  6
CONTINUOUS
 70
0
 71
3
 72
22
 73
18
 74
0
 42
0.0000001
 43
0.0000001
 44
0.0000000001
 40
0.0
 40
0.0
 40
0.0
 40
0.0
 40
0.011159426
 40
0.0226112513
 40
0.0477744714
 40
0.0621251664
 40
0.0778921451
 40
0.1141093769
 40
0.1570369024
 40
0.2068418001
 40
0.2634431929
 40
0.3265887791
 40
0.3958918318
 40
0.4708496933
 40
0.6352130082
 40
0.8138830605
 40
1.0
 40
1.0
 40
1.0
 40
1.0
 10
6.2288367291
 20
3.934717203
 30
0.0
 10
6.2288780458
 20
3.9347196159
 30
0.0
 10
6.228962497
 20
3.9347160692
 30
0.0
 10
6.2291355553
 20
3.9346736977
 30
0.0
 10
6.2293028056
 20
3.9345778208
 30
0.0
 10
6.2294583475
 20
3.934444077
 30
0.0
 10
6.2296266703
 20
3.9342639636
 30
0.0
 10
6.2298296195
 20
3.9339745174
 30
0.0
 10
6.2300541226
 20
3.9335513937
 30
0.0
 10
6.2302681844
 20
3.9330399318
 30
0.0
 10
6.2304697981
 20
3.9324438967
 30
0.0
 10
6.2306569053
 20
3.9317678778
 30
0.0
 10
6.2308275091
 20
3.9310175832
 30
0.0
 10
6.23103683
 20
3.9298920434
 30
0.0
 10
6.2312392749
 20
3.9283539492
 30
0.0
 10
6.2313860832
 20
3.9263961821
 30
0.0
 10
6.2314190307
 20
3.9250430225
 30
0.0
 10
6.2314190307
 20
3.9243527686
 30
0.0
  0
SPLINE
  5
442
100
AcDbEntity
  8
0
100
AcDbSpline
 62
7
  6
CONTINUOUS
 70
0
 71
3
 72
28
 73
24
 74
0
 42
0.0000001
 43
0.0000001
 44
0.0000000001
 40
0.0
 40
0.0
 40
0.0
 40
0.0
 40
0.0093719976
 40
0.0195787473
 40
0.0311846829
 40
0.0445537053
 40
0.0598998966
 40
0.0773343359
 40
0.0969055252
 40
0.1186155983
 40
0.1424387406
 40
0.1683228679
 40
0.2259786488
 40
0.2908642483
 40
0.3620505925
 40
0.4384345862
 40
0.5187562842
 40
0.6016207144
 40
0.6855236682
 40
0.7688891423
 40
0.8501187308
 40
0.9276458227
 40
1.0
 40
1.0
 40
1.0
 40
1.0
 10
6.2278707769
 20
3.874100006
 30
0.0
 10
6.227924179
 20
3.8741031117
 30
0.0
 10
6.2280372913
 20
3.8740919299
 30
0.0
 10
6.2282044304
 20
3.8740259635
 30
0.0
 10
6.2283721397
 20
3.8739134191
 30
0.0
 10
6.2285407184
 20
3.8737556898
 30
0.0
 10
6.2287102395
 20
3.8735534507
 30
0.0
 10
6.2288803835
 20
3.8733074165
 30
0.0
 10
6.2290505464
 20
3.873018428
 30
0.0
 10
6.2292200979
 20
3.872687576
 30
0.0
 10
6.2293883009
 20
3.8723161236
 30
0.0
 10
6.229618158
 20
3.8717479256
 30
0.0
 10
6.2298934587
 20
3.8709460985
 30
0.0
 10
6.2301966471
 20
3.8698823481
 30
0.0
 10
6.230477584
 20
3.8687023559
 30
0.0
 10
6.2307307764
 20
3.8674262242
 30
0.0
 10
6.230951037
 20
3.8660764416
 30
0.0
 10
6.2311337045
 20
3.8646777853
 30
0.0
 10
6.2312747741
 20
3.8632568661
 30
0.0
 10
6.2313710731
 20
3.8618415595
 30
0.0
 10
6.2314204135
 20
3.8604602224
 30
0.0
 10
6.2314217153
 20
3.8591408496
 30
0.0
 10
6.2313893427
 20
3.8582856813
 30
0.0
 10
6.2313639167
 20
3.8578734905
 30
0.0
  0
SPLINE
  5
443
100
AcDbEntity
  8
0
100
AcDbSpline
 62
7
  6
CONTINUOUS
 70
0
 71
3
 72
16
 73
12
 74
0
 42
0.0000001
 43
0.0000001
 44
0.0000000001
 40
0.0
 40
0.0
 40
0.0
 40
0.0
 40
0.2026853824
 40
0.382142777
 40
0.53791959
 40
0.670120569
 40
0.7794402813
 40
0.8676338714
 40
0.9385016172
 40
0.969803057
 40
1.0
 40
1.0
 40
1.0
 40
1.0
 10
6.2176716117
 20
3.9159251624
 30
0.0
 10
6.2176447499
 20
3.9158180163
 30
0.0
 10
6.2175906411
 20
3.9156168363
 30
0.0
 10
6.2175018262
 20
3.915337325
 30
0.0
 10
6.2174106035
 20
3.9150992655
 30
0.0
 10
6.2173174995
 20
3.9149034649
 30
0.0
 10
6.217222573
 20
3.9147502411
 30
0.0
 10
6.217125952
 20
3.9146393548
 30
0.0
 10
6.2170380367
 20
3.9145802164
 30
0.0
 10
6.2169682009
 20
3.914560083
 30
0.0
 10
6.2169343832
 20
3.9145582807
 30
0.0
 10
6.2169179582
 20
3.9145593075
 30
0.0
  0
SPLINE
  5
444
100
AcDbEntity
  8
0
100
AcDbSpline
 62
7
  6
CONTINUOUS
 70
0
 71
3
 72
14
 73
10
 74
0
 42
0.0000001
 43
0.0000001
 44
0.0000000001
 40
0.0
 40
0.0
 40
0.0
 40
0.0
 40
0.2969902894
 40
0.439244924
 40
0.5741595117
 40
0.699543892
 40
0.8134158299
 40
0.9140453546
 40
1.0
 40
1.0
 40
1.0
 40
1.0
 10
6.2183850997
 20
3.9243527686
 30
0.0
 10
6.2183850997
 20
3.923513894
 30
0.0
 10
6.2183618809
 20
3.9222729971
 30
0.0
 10
6.2182816476
 20
3.9206531317
 30
0.0
 10
6.2182001373
 20
3.9195188977
 30
0.0
 10
6.2180980319
 20
3.9184668421
 30
0.0
 10
6.2179772705
 20
3.9175142478
 30
0.0
 10
6.2178401367
 20
3.916676548
 30
0.0
 10
6.2177306518
 20
3.9161606607
 30
0.0
 10
6.2176716117
 20
3.9159251624
 30
0.0
  0
SPLINE
  5
445
100
AcDbEntity
  8
0
100
AcDbSpline
 62
7
  6
CONTINUOUS
 70
0
 71
3
 72
21
 73
17
 74
0
 42
0.0000001
 43
0.0000001
 44
0.0000000001
 40
0.0
 40
0.0
 40
0.0
 40
0.0
 40
0.1931345016
 40
0.3733645395
 40
0.5357816722
 40
0.6090350502
 40
0.6764362329
 40
0.7376748137
 40
0.7925429279
 40
0.8409477072
 40
0.8829580023
 40
0.9188793045
 40
0.9493814043
 40
0.9757181366
 40
0.9879697133
 40
1.0
 40
1.0
 40
1.0
 40
1.0
 10
6.2313639167
 20
3.9222097045
 30
0.0
 10
6.2313338816
 20
3.9216321133
 30
0.0
 10
6.2312515894
 20
3.9205165612
 30
0.0
 10
6.2310558461
 20
3.9189234324
 30
0.0
 10
6.23083439
 20
3.9176968048
 30
0.0
 10
6.2306238527
 20
3.9168137478
 30
0.0
 10
6.2304590696
 20
3.9162318191
 30
0.0
 10
6.2302832832
 20
3.9157108672
 30
0.0
 10
6.2300978708
 20
3.915254041
 30
0.0
 10
6.2299041549
 20
3.9148638924
 30
0.0
 10
6.2297033695
 20
3.9145423277
 30
0.0
 10
6.2294962213
 20
3.9142906327
 30
0.0
 10
6.2292828476
 20
3.9141097766
 30
0.0
 10
6.2290935793
 20
3.9140183184
 30
0.0
 10
6.2289443441
 20
3.9139881709
 30
0.0
 10
6.228871217
 20
3.9139862371
 30
0.0
 10
6.2288352567
 20
3.9139884221
 30
0.0
  0
SPLINE
  5
446
100
AcDbEntity
  8
0
100
AcDbSpline
 62
7
  6
CONTINUOUS
 70
0
 71
3
 72
37
 73
33
 74
0
 42
0.0000001
 43
0.0000001
 44
0.0000000001
 40
0.0
 40
0.0
 40
0.0
 40
0.0
 40
0.0095910616
 40
0.0195052855
 40
0.0298772081
 40
0.0352968096
 40
0.04091413
 40
0.0467615403
 40
0.0528683859
 40
0.0659518987
 40
0.0962265463
 40
0.1137586866
 40
0.1330655646
 40
0.1542520041
 40
0.177397676
 40
0.2025552053
 40
0.2297511093
 40
0.2589872545
 40
0.2902431523
 40
0.3234784048
 40
0.3586354478
 40
0.3956424139
 40
0.434415907
 40
0.4748635773
 40
0.5168863223
 40
0.5603802804
 40
0.6052383647
 40
0.6513515031
 40
0.6986095256
 40
0.7961037619
 40
0.8968570684
 40
1.0
 40
1.0
 40
1.0
 40
1.0
 10
7.4954840046
 20
2.7838930061
 30
0.0
 10
7.4962560829
 20
2.7838930061
 30
0.0
 10
7.4978266403
 20
2.7839380181
 30
0.0
 10
7.5002239173
 20
2.7841466994
 30
0.0
 10
7.5022730947
 20
2.7844433554
 30
0.0
 10
7.5039668242
 20
2.7847628524
 30
0.0
 10
7.5052948031
 20
2.7850533512
 30
0.0
 10
7.5066677082
 20
2.7853946384
 30
0.0
 10
7.5086097493
 20
2.7859348952
 30
0.0
 10
7.5123981533
 20
2.7871674261
 30
0.0
 10
7.5169201894
 20
2.7890888841
 30
0.0
 10
7.5217172049
 20
2.7915777126
 30
0.0
 10
7.5257457357
 20
2.793946634
 30
0.0
 10
7.5300228238
 20
2.7967703273
 30
0.0
 10
7.5345303667
 20
2.8000870208
 30
0.0
 10
7.5392423707
 20
2.8039295076
 30
0.0
 10
7.5441267226
 20
2.8083242972
 30
0.0
 10
7.5491463294
 20
2.813290935
 30
0.0
 10
7.5542605445
 20
2.8188417717
 30
0.0
 10
7.559426508
 20
2.8249819876
 30
0.0
 10
7.5646003827
 20
2.8317099002
 30
0.0
 10
7.5697384401
 20
2.8390174707
 30
0.0
 10
7.5747979623
 20
2.8468909521
 30
0.0
 10
7.579737953
 20
2.8553116011
 30
0.0
 10
7.5845196638
 20
2.8642564032
 30
0.0
 10
7.589106961
 20
2.8736987857
 30
0.0
 10
7.5934665167
 20
2.8836092052
 30
0.0
 10
7.5975680252
 20
2.8939559381
 30
0.0
 10
7.6027090722
 20
2.9084378848
 30
0.0
 10
7.608312833
 20
2.927408678
 30
0.0
 10
7.6135742954
 20
2.951110808
 30
0.0
 10
7.6160511358
 20
2.9673510614
 30
0.0
 10
7.617033896
 20
2.9755956784
 30
0.0
  0
SPLINE
  5
447
100
AcDbEntity
  8
0
100
AcDbSpline
 62
7
  6
CONTINUOUS
 70
0
 71
3
 72
36
 73
32
 74
0
 42
0.0000001
 43
0.0000001
 44
0.0000000001
 40
0.0
 40
0.0
 40
0.0
 40
0.0
 40
0.0297899811
 40
0.0595880368
 40
0.0894021664
 40
0.1192409591
 40
0.1491133517
 40
0.1790288817
 40
0.2089976996
 40
0.2390305736
 40
0.2691388315
 40
0.2993342502
 40
0.3296287378
 40
0.360034345
 40
0.3905629507
 40
0.4212259542
 40
0.4520337622
 40
0.4829958677
 40
0.5141204251
 40
0.5454140077
 40
0.5768812213
 40
0.6085247605
 40
0.6723269528
 40
0.736813199
 40
0.7693023867
 40
0.8019379648
 40
0.8347074216
 40
0.867596487
 40
0.9005892944
 40
0.9336684659
 40
1.0
 40
1.0
 40
1.0
 40
1.0
 10
7.4954840046
 20
2.3838930061
 30
0.0
 10
7.5041768332
 20
2.3838930061
 30
0.0
 10
7.5215692415
 20
2.3844083283
 30
0.0
 10
7.5475687204
 20
2.3867232649
 30
0.0
 10
7.5734014638
 20
2.3905686923
 30
0.0
 10
7.5989852557
 20
2.3959257305
 30
0.0
 10
7.6242427142
 20
2.4027687685
 30
0.0
 10
7.6491001415
 20
2.4110660671
 30
0.0
 10
7.6734887241
 20
2.4207806238
 30
0.0
 10
7.6973448486
 20
2.4318710128
 30
0.0
 10
7.7206103715
 20
2.444292316
 30
0.0
 10
7.7432326367
 20
2.4579969235
 30
0.0
 10
7.7651643443
 20
2.4729353747
 30
0.0
 10
7.7863633009
 20
2.4890570017
 30
0.0
 10
7.8067920299
 20
2.5063105561
 30
0.0
 10
7.8264172594
 20
2.5246445434
 30
0.0
 10
7.8452094239
 20
2.5440075695
 30
0.0
 10
7.8631421804
 20
2.5643484633
 30
0.0
 10
7.8801919782
 20
2.5856164663
 30
0.0
 10
7.896337464
 20
2.6077609307
 30
0.0
 10
7.9115595153
 20
2.6307320093
 30
0.0
 10
7.9306502611
 20
2.6624774162
 30
0.0
 10
7.9521012735
 20
2.7039908075
 30
0.0
 10
7.970153411
 20
2.7473527156
 30
0.0
 10
7.9825879391
 20
2.7830797009
 30
0.0
 10
7.9909148722
 20
2.810412937
 30
0.0
 10
7.9982080858
 20
2.8381600413
 30
0.0
 10
8.0044587573
 20
2.8662670177
 30
0.0
 10
8.0096590349
 20
2.8946796354
 30
0.0
 10
8.0151876187
 20
2.9329239992
 30
0.0
 10
8.0177325736
 20
2.9618557877
 30
0.0
 10
8.018718114
 20
2.9811864723
 30
0.0
  0
LINE
  5
448
100
AcDbEntity
  8
0
100
AcDbLine
 62
7
  6
CONTINUOUS
 10
6.2313639167
 20
3.7678174599
 11
6.231219101
 21
3.7676419157
  0
SPLINE
  5
449
100
AcDbEntity
  8
0
100
AcDbSpline
 62
7
  6
CONTINUOUS
 70
0
 71
3
 72
17
 73
13
 74
0
 42
0.0000001
 43
0.0000001
 44
0.0000000001
 40
0.0
 40
0.0
 40
0.0
 40
0.0
 40
0.2035735757
 40
0.3828154839
 40
0.5373341074
 40
0.6674960314
 40
0.7745173874
 40
0.8201939162
 40
0.8613176582
 40
0.933096974
 40
0.9664727032
 40
1.0
 40
1.0
 40
1.0
 40
1.0
 10
6.2313639167
 20
3.803658144
 30
0.0
 10
6.2313516463
 20
3.8035265557
 30
0.0
 10
6.2313236341
 20
3.8032795079
 30
0.0
 10
6.2312660063
 20
3.8029352724
 30
0.0
 10
6.2311957726
 20
3.8026420405
 30
0.0
 10
6.2311134198
 20
3.8024010123
 30
0.0
 10
6.2310310329
 20
3.8022357902
 30
0.0
 10
6.2309573372
 20
3.8021333745
 30
0.0
 10
6.2308870053
 20
3.8020580589
 30
0.0
 10
6.2308058555
 20
3.8020037805
 30
0.0
 10
6.2307181811
 20
3.8019805265
 30
0.0
 10
6.2306743891
 20
3.8019788053
 30
0.0
 10
6.2306526655
 20
3.8019801588
 30
0.0
  0
SPLINE
  5
44A
100
AcDbEntity
  8
0
100
AcDbSpline
 62
7
  6
CONTINUOUS
 70
0
 71
3
 72
20
 73
16
 74
0
 42
0.0000001
 43
0.0000001
 44
0.0000000001
 40
0.0
 40
0.0
 40
0.0
 40
0.0
 40
0.2023524359
 40
0.3841482904
 40
0.5432006026
 40
0.6137391263
 40
0.6781261626
 40
0.7363408599
 40
0.7884485884
 40
0.8346429354
 40
0.8752789597
 40
0.9109677736
 40
0.9426579072
 40
0.9717397113
 40
1.0
 40
1.0
 40
1.0
 40
1.0
 10
6.2313639167
 20
3.8578734905
 30
0.0
 10
6.2313430198
 20
3.8575347241
 30
0.0
 10
6.2312907884
 20
3.8568922418
 30
0.0
 10
6.2311725524
 20
3.8559884426
 30
0.0
 10
6.2310413816
 20
3.8553103014
 30
0.0
 10
6.2309170291
 20
3.8548329796
 30
0.0
 10
6.2308200078
 20
3.854523728
 30
0.0
 10
6.230715926
 20
3.8542495715
 30
0.0
 10
6.2306051378
 20
3.8540112548
 30
0.0
 10
6.2304880406
 20
3.853809306
 30
0.0
 10
6.2303648035
 20
3.8536441297
 30
0.0
 10
6.2302354889
 20
3.8535160175
 30
0.0
 10
6.2300997435
 20
3.853425639
 30
0.0
 10
6.2299577462
 20
3.85337439
 30
0.0
 10
6.229860394
 20
3.853367456
 30
0.0
 10
6.2298130831
 20
3.8533703871
 30
0.0
  0
SPLINE
  5
44B
100
AcDbEntity
  8
0
100
AcDbSpline
 62
7
  6
CONTINUOUS
 70
0
 71
3
 72
36
 73
32
 74
0
 42
0.0000001
 43
0.0000001
 44
0.0000000001
 40
0.0
 40
0.0
 40
0.0
 40
0.0
 40
0.0137108199
 40
0.0311107409
 40
0.0521191599
 40
0.076605711
 40
0.1043935062
 40
0.1352738688
 40
0.2053421584
 40
0.2846445593
 40
0.3706970144
 40
0.4607684647
 40
0.5519517979
 40
0.6412530173
 40
0.7256947002
 40
0.7651971307
 40
0.802436028
 40
0.8370988059
 40
0.8688964541
 40
0.8975684157
 40
0.9228894674
 40
0.9446719033
 40
0.9627750235
 40
0.9704222855
 40
0.9771283358
 40
0.9829016616
 40
0.9877647425
 40
0.9917628175
 40
0.9949889689
 40
0.9976259784
 40
1.0
 40
1.0
 40
1.0
 40
1.0
 10
6.2161686269
 20
3.8648788047
 30
0.0
 10
6.2162117874
 20
3.8648000449
 30
0.0
 10
6.2162965206
 20
3.8646142082
 30
0.0
 10
6.2164147887
 20
3.8642938327
 30
0.0
 10
6.2165377995
 20
3.8639004821
 30
0.0
 10
6.2166644306
 20
3.8634373906
 30
0.0
 10
6.216793543
 20
3.8629081622
 30
0.0
 10
6.2169752383
 20
3.8620846489
 30
0.0
 10
6.2171972683
 20
3.8609247801
 30
0.0
 10
6.2174470219
 20
3.8594029078
 30
0.0
 10
6.2176814842
 20
3.8577461623
 30
0.0
 10
6.2178928061
 20
3.8560079041
 30
0.0
 10
6.2180737969
 20
3.8542448301
 30
0.0
 10
6.218218259
 20
3.8525153924
 30
0.0
 10
6.2183060333
 20
3.8511211935
 30
0.0
 10
6.2183529822
 20
3.8500664084
 30
0.0
 10
6.2183755887
 20
3.8493369983
 30
0.0
 10
6.2183862272
 20
3.8486577856
 30
0.0
 10
6.2183848304
 20
3.8480345972
 30
0.0
 10
6.2183714544
 20
3.8474727483
 30
0.0
 10
6.2183463362
 20
3.8469769449
 30
0.0
 10
6.2183097684
 20
3.8465512978
 30
0.0
 10
6.2182683461
 20
3.8462424836
 30
0.0
 10
6.2182280047
 20
3.8460336841
 30
0.0
 10
6.2181968455
 20
3.8459055175
 30
0.0
 10
6.2181631678
 20
3.8457969243
 30
0.0
 10
6.2181270506
 20
3.8457079584
 30
0.0
 10
6.2180884352
 20
3.8456385154
 30
0.0
 10
6.2180469697
 20
3.8455883099
 30
0.0
 10
6.2180012928
 20
3.8455574879
 30
0.0
 10
6.2179676309
 20
3.8455520164
 30
0.0
 10
6.2179521115
 20
3.8455530012
 30
0.0
  0
SPLINE
  5
44C
100
AcDbEntity
  8
0
100
AcDbSpline
 62
7
  6
CONTINUOUS
 70
0
 71
3
 72
25
 73
21
 74
0
 42
0.0000001
 43
0.0000001
 44
0.0000000001
 40
0.0
 40
0.0
 40
0.0
 40
0.0
 40
0.2018882398
 40
0.3898009073
 40
0.4769711433
 40
0.5588434363
 40
0.6348908319
 40
0.7046252658
 40
0.7676029488
 40
0.8234348807
 40
0.87178777
 40
0.9124107796
 40
0.9297755218
 40
0.9451678845
 40
0.9585988229
 40
0.9701062463
 40
0.9797702185
 40
0.9877416338
 40
0.9943096555
 40
1.0
 40
1.0
 40
1.0
 40
1.0
 10
6.2176716117
 20
3.9909277216
 30
0.0
 10
6.217604139
 20
3.9904159592
 30
0.0
 10
6.217465165
 20
3.9894289818
 30
0.0
 10
6.2172711076
 20
3.9882248854
 30
0.0
 10
6.217109472
 20
3.9873266207
 30
0.0
 10
6.2169902069
 20
3.9867114027
 30
0.0
 10
6.2168706821
 20
3.9861417105
 30
0.0
 10
6.2167517181
 20
3.9856213413
 30
0.0
 10
6.2166341406
 20
3.9851537826
 30
0.0
 10
6.2165188209
 20
3.9847421562
 30
0.0
 10
6.216406562
 20
3.9843892561
 30
0.0
 10
6.2163120605
 20
3.9841341193
 30
0.0
 10
6.2162372925
 20
3.9839619893
 30
0.0
 10
6.2161854213
 20
3.9838558416
 30
0.0
 10
6.2161348673
 20
3.9837658814
 30
0.0
 10
6.2160856871
 20
3.9836922009
 30
0.0
 10
6.2160378983
 20
3.9836347814
 30
0.0
 10
6.2159912735
 20
3.9835935722
 30
0.0
 10
6.2159452329
 20
3.9835686236
 30
0.0
 10
6.2159133601
 20
3.9835637398
 30
0.0
 10
6.215898839
 20
3.9835646426
 30
0.0
  0
SPLINE
  5
44D
100
AcDbEntity
  8
0
100
AcDbSpline
 62
7
  6
CONTINUOUS
 70
0
 71
3
 72
30
 73
26
 74
0
 42
0.0000001
 43
0.0000001
 44
0.0000000001
 40
0.0
 40
0.0
 40
0.0
 40
0.0
 40
0.0539792304
 40
0.1179912696
 40
0.1902689102
 40
0.2688539116
 40
0.3516962185
 40
0.436719288
 40
0.5218710633
 40
0.6051533248
 40
0.684642464
 40
0.7585036676
 40
0.8250050596
 40
0.8825424666
 40
0.907493558
 40
0.9296822108
 40
0.9489663955
 40
0.9652287957
 40
0.9722000862
 40
0.9783892764
 40
0.9837947741
 40
0.9884237942
 40
0.9922960515
 40
0.9954529433
 40
1.0
 40
1.0
 40
1.0
 40
1.0
 10
6.2313639167
 20
4.079247847
 30
0.0
 10
6.2313322168
 20
4.0788955256
 30
0.0
 10
6.2312437665
 20
4.078127135
 30
0.0
 10
6.2310644758
 20
4.0768930938
 30
0.0
 10
6.2308306539
 20
4.0755043876
 30
0.0
 10
6.2305488594
 20
4.0739989158
 30
0.0
 10
6.2302266946
 20
4.0724162364
 30
0.0
 10
6.2298725725
 20
4.070796328
 30
0.0
 10
6.2294953818
 20
4.0691786759
 30
0.0
 10
6.2291042978
 20
4.0676016622
 30
0.0
 10
6.2287086365
 20
4.066102188
 30
0.0
 10
6.2283178218
 20
4.0647153541
 30
0.0
 10
6.2279411931
 20
4.063474247
 30
0.0
 10
6.2276341814
 20
4.0625471984
 30
0.0
 10
6.2274001366
 20
4.0619023267
 30
0.0
 10
6.2272422591
 20
4.0614966102
 30
0.0
 10
6.2270946294
 20
4.0611481773
 30
0.0
 10
6.2269757477
 20
4.0608960302
 30
0.0
 10
6.2268854462
 20
4.0607256197
 30
0.0
 10
6.2268244345
 20
4.0606203227
 30
0.0
 10
6.226766645
 20
4.0605309773
 30
0.0
 10
6.2267123617
 20
4.0604577889
 30
0.0
 10
6.2266610835
 20
4.060400561
 30
0.0
 10
6.226604376
 20
4.0603512849
 30
0.0
 10
6.2265543003
 20
4.0603280038
 30
0.0
 10
6.2265245556
 20
4.0603297936
 30
0.0
  0
SPLINE
  5
44E
100
AcDbEntity
  8
0
100
AcDbSpline
 62
7
  6
CONTINUOUS
 70
0
 71
3
 72
27
 73
23
 74
0
 42
0.0000001
 43
0.0000001
 44
0.0000000001
 40
0.0
 40
0.0
 40
0.0
 40
0.0
 40
0.0736713074
 40
0.1522657057
 40
0.2342772588
 40
0.3181632701
 40
0.4023934005
 40
0.4854823304
 40
0.5660158041
 40
0.6426678846
 40
0.7142102304
 40
0.7795223184
 40
0.8376019328
 40
0.8875856743
 40
0.9093230568
 40
0.9288005898
 40
0.9459775586
 40
0.9608480967
 40
0.9734564861
 40
0.9839385141
 40
0.9925917099
 40
1.0
 40
1.0
 40
1.0
 40
1.0
 10
6.2313639167
 20
4.0420166429
 30
0.0
 10
6.2313387601
 20
4.0416022616
 30
0.0
 10
6.2312718285
 20
4.0407466791
 30
0.0
 10
6.2311314206
 20
4.0394338497
 30
0.0
 10
6.2309500916
 20
4.0380679591
 30
0.0
 10
6.2307316582
 20
4.0366753709
 30
0.0
 10
6.2304805761
 20
4.0352821312
 30
0.0
 10
6.2302017853
 20
4.0339134434
 30
0.0
 10
6.2299005691
 20
4.0325932728
 30
0.0
 10
6.2295824502
 20
4.0313440914
 30
0.0
 10
6.2292530993
 20
4.030186741
 30
0.0
 10
6.2289183373
 20
4.0291402649
 30
0.0
 10
6.2285839619
 20
4.0282219962
 30
0.0
 10
6.2282989561
 20
4.0275477815
 30
0.0
 10
6.2280723018
 20
4.0270863994
 30
0.0
 10
6.2279139165
 20
4.0267978243
 30
0.0
 10
6.2277598062
 20
4.0265515143
 30
0.0
 10
6.2276105992
 20
4.0263485005
 30
0.0
 10
6.2274667567
 20
4.0261894954
 30
0.0
 10
6.2273281858
 20
4.0260749824
 30
0.0
 10
6.2271939938
 20
4.0260054045
 30
0.0
 10
6.2271021351
 20
4.0259911896
 30
0.0
 10
6.2270604641
 20
4.0259936961
 30
0.0
  0
SPLINE
  5
44F
100
AcDbEntity
  8
0
100
AcDbSpline
 62
7
  6
CONTINUOUS
 70
0
 71
3
 72
25
 73
21
 74
0
 42
0.0000001
 43
0.0000001
 44
0.0000000001
 40
0.0
 40
0.0
 40
0.0
 40
0.0
 40
0.176714421
 40
0.351875081
 40
0.4362274749
 40
0.5171203995
 40
0.593670954
 40
0.6650844678
 40
0.7306620815
 40
0.789809035
 40
0.8420496662
 40
0.8870574333
 40
0.9068101257
 40
0.9247354785
 40
0.9408755138
 40
0.9553088117
 40
0.9681716851
 40
0.9796766242
 40
0.9901408298
 40
1.0
 40
1.0
 40
1.0
 40
1.0
 10
6.2313639167
 20
3.9868721806
 30
0.0
 10
6.2313238433
 20
3.9860978769
 30
0.0
 10
6.2312032901
 20
3.9845579669
 30
0.0
 10
6.2309597661
 20
3.9826586955
 30
0.0
 10
6.2307111795
 20
3.9811858213
 30
0.0
 10
6.2305053742
 20
3.9801449319
 30
0.0
 10
6.2302806835
 20
3.9791661024
 30
0.0
 10
6.2300400218
 20
3.9782604014
 30
0.0
 10
6.2297864349
 20
3.9774377865
 30
0.0
 10
6.2295230625
 20
3.9767069879
 30
0.0
 10
6.2292530511
 20
3.976075699
 30
0.0
 10
6.2290159097
 20
3.9756194975
 30
0.0
 10
6.2288226524
 20
3.9753122365
 30
0.0
 10
6.228684231
 20
3.9751206931
 30
0.0
 10
6.2285463248
 20
3.9749582908
 30
0.0
 10
6.2284091356
 20
3.9748254669
 30
0.0
 10
6.228272843
 20
3.9747225757
 30
0.0
 10
6.2281373986
 20
3.9746501175
 30
0.0
 10
6.2280029209
 20
3.9746089166
 30
0.0
 10
6.2279129193
 20
3.9746029907
 30
0.0
 10
6.2278697401
 20
3.9746055905
 30
0.0
  0
SPLINE
  5
450
100
AcDbEntity
  8
0
100
AcDbSpline
 62
7
  6
CONTINUOUS
 70
0
 71
3
 72
17
 73
13
 74
0
 42
0.0000001
 43
0.0000001
 44
0.0000000001
 40
0.0
 40
0.0
 40
0.0
 40
0.0
 40
0.1398858427
 40
0.2090024177
 40
0.277146633
 40
0.4096407478
 40
0.5367288198
 40
0.59831166
 40
0.6586379295
 40
0.7758406242
 40
0.8893067597
 40
1.0
 40
1.0
 40
1.0
 40
1.0
 10
6.4944285835
 20
3.6306692655
 30
0.0
 10
6.4950173576
 20
3.6306692655
 30
0.0
 10
6.4958995531
 20
3.6307460982
 30
0.0
 10
6.4970396817
 20
3.6309975256
 30
0.0
 10
6.4981247127
 20
3.63133615
 30
0.0
 10
6.4993857295
 20
3.6319118406
 30
0.0
 10
6.50051214
 20
3.6326703761
 30
0.0
 10
6.5013056387
 20
3.6333564485
 30
0.0
 10
6.5020140414
 20
3.6340725211
 30
0.0
 10
6.5027740336
 20
3.6350394996
 30
0.0
 10
6.5034875602
 20
3.6362920486
 30
0.0
 10
6.5038335763
 20
3.6371738061
 30
0.0
 10
6.5039727887
 20
3.6376184251
 30
0.0
  0
SPLINE
  5
451
100
AcDbEntity
  8
0
100
AcDbSpline
 62
7
  6
CONTINUOUS
 70
0
 71
3
 72
17
 73
13
 74
0
 42
0.0000001
 43
0.0000001
 44
0.0000000001
 40
0.0
 40
0.0
 40
0.0
 40
0.0
 40
0.143200565
 40
0.2137448209
 40
0.2830684322
 40
0.4170234278
 40
0.5443395525
 40
0.6056108168
 40
0.6653815495
 40
0.7808446623
 40
0.8919819171
 40
1.0
 40
1.0
 40
1.0
 40
1.0
 10
6.4944285835
 20
3.6313994796
 30
0.0
 10
6.4950450937
 20
3.6313994796
 30
0.0
 10
6.4959679662
 20
3.6314797529
 30
0.0
 10
6.4971590343
 20
3.6317427416
 30
0.0
 10
6.4982853806
 20
3.6320951095
 30
0.0
 10
6.4995857792
 20
3.6326911543
 30
0.0
 10
6.5007395903
 20
3.6334758739
 30
0.0
 10
6.5015430738
 20
3.6341829354
 30
0.0
 10
6.5022512458
 20
3.6349158279
 30
0.0
 10
6.50300014
 20
3.6359023581
 30
0.0
 10
6.503683262
 20
3.6371768529
 30
0.0
 10
6.5039973718
 20
3.6380711471
 30
0.0
 10
6.5041175547
 20
3.6385203909
 30
0.0
  0
SPLINE
  5
452
100
AcDbEntity
  8
0
100
AcDbSpline
 62
7
  6
CONTINUOUS
 70
0
 71
3
 72
16
 73
12
 74
0
 42
0.0000001
 43
0.0000001
 44
0.0000000001
 40
0.0
 40
0.0
 40
0.0
 40
0.0
 40
0.1459748911
 40
0.2177486121
 40
0.2881319636
 40
0.4235631268
 40
0.5513650511
 40
0.671788117
 40
0.7858156595
 40
0.8947545415
 40
1.0
 40
1.0
 40
1.0
 40
1.0
 10
6.4944285835
 20
3.6329324756
 30
0.0
 10
6.4950448661
 20
3.6329324756
 30
0.0
 10
6.4959665771
 20
3.6330085027
 30
0.0
 10
6.4971581217
 20
3.6332582858
 30
0.0
 10
6.4982826547
 20
3.6335923195
 30
0.0
 10
6.4995805413
 20
3.634156628
 30
0.0
 10
6.5009475764
 20
3.6350383357
 30
0.0
 10
6.5020873881
 20
3.6360680238
 30
0.0
 10
6.5029970958
 20
3.6372049194
 30
0.0
 10
6.5036815806
 20
3.6384162039
 30
0.0
 10
6.5039970941
 20
3.6392684094
 30
0.0
 10
6.5041175547
 20
3.6396960985
 30
0.0
  0
SPLINE
  5
453
100
AcDbEntity
  8
0
100
AcDbSpline
 62
7
  6
CONTINUOUS
 70
0
 71
3
 72
16
 73
12
 74
0
 42
0.0000001
 43
0.0000001
 44
0.0000000001
 40
0.0
 40
0.0
 40
0.0
 40
0.0
 40
0.1476771572
 40
0.2913118326
 40
0.428049011
 40
0.4934249533
 40
0.5567096174
 40
0.6771480276
 40
0.790307099
 40
0.8974419133
 40
1.0
 40
1.0
 40
1.0
 40
1.0
 10
6.4944285835
 20
3.6352642343
 30
0.0
 10
6.4950172987
 20
3.6352642343
 30
0.0
 10
6.4961805485
 20
3.6353506776
 30
0.0
 10
6.4978505284
 20
3.6357289376
 30
0.0
 10
6.4991399855
 20
3.6362317677
 30
0.0
 10
6.5000761972
 20
3.6367265167
 30
0.0
 10
6.500917379
 20
3.6372557488
 30
0.0
 10
6.5018463526
 20
3.6379970101
 30
0.0
 10
6.5027693908
 20
3.6390008676
 30
0.0
 10
6.5034858328
 20
3.6400761436
 30
0.0
 10
6.5038359188
 20
3.6408397702
 30
0.0
 10
6.5039758564
 20
3.641223924
 30
0.0
  0
SPLINE
  5
454
100
AcDbEntity
  8
0
100
AcDbSpline
 62
7
  6
CONTINUOUS
 70
0
 71
3
 72
15
 73
11
 74
0
 42
0.0000001
 43
0.0000001
 44
0.0000000001
 40
0.0
 40
0.0
 40
0.0
 40
0.0
 40
0.1521062435
 40
0.2992606385
 40
0.4380396732
 40
0.5670202162
 40
0.6863672849
 40
0.7972078833
 40
0.901150225
 40
1.0
 40
1.0
 40
1.0
 40
1.0
 10
6.4944285835
 20
3.6383883647
 30
0.0
 10
6.4950444156
 20
3.6383883647
 30
0.0
 10
6.4962579567
 20
3.63847678
 30
0.0
 10
6.4979950897
 20
3.6388632545
 30
0.0
 10
6.4995691159
 20
3.6394680142
 30
0.0
 10
6.5009361343
 20
3.6402470438
 30
0.0
 10
6.5020773976
 20
3.641157956
 30
0.0
 10
6.5029896744
 20
3.6421651636
 30
0.0
 10
6.5036770848
 20
3.6432396812
 30
0.0
 10
6.5039963429
 20
3.6440014092
 30
0.0
 10
6.5041175547
 20
3.6443828251
 30
0.0
  0
SPLINE
  5
455
100
AcDbEntity
  8
0
100
AcDbSpline
 62
7
  6
CONTINUOUS
 70
0
 71
3
 72
15
 73
11
 74
0
 42
0.0000001
 43
0.0000001
 44
0.0000000001
 40
0.0
 40
0.0
 40
0.0
 40
0.0
 40
0.1554438786
 40
0.3054054105
 40
0.4460559472
 40
0.5757412657
 40
0.6945506441
 40
0.8036546597
 40
0.9047978864
 40
1.0
 40
1.0
 40
1.0
 40
1.0
 10
6.4944285835
 20
3.6422963036
 30
0.0
 10
6.4950441977
 20
3.6422963036
 30
0.0
 10
6.4962553897
 20
3.6423784061
 30
0.0
 10
6.4979905025
 20
3.6427375145
 30
0.0
 10
6.4995632313
 20
3.6432996236
 30
0.0
 10
6.5009298498
 20
3.6440240188
 30
0.0
 10
6.502071575
 20
3.6448715137
 30
0.0
 10
6.5029850559
 20
3.6458093054
 30
0.0
 10
6.5036741137
 20
3.6468106194
 30
0.0
 10
6.5039958305
 20
3.6475241527
 30
0.0
 10
6.5041175547
 20
3.647880998
 30
0.0
  0
SPLINE
  5
456
100
AcDbEntity
  8
0
100
AcDbSpline
 62
7
  6
CONTINUOUS
 70
0
 71
3
 72
15
 73
11
 74
0
 42
0.0000001
 43
0.0000001
 44
0.0000000001
 40
0.0
 40
0.0
 40
0.0
 40
0.0
 40
0.1589075172
 40
0.3118036961
 40
0.4544467054
 40
0.5849309267
 40
0.7032405384
 40
0.8105573838
 40
0.9087358824
 40
1.0
 40
1.0
 40
1.0
 40
1.0
 10
6.4944285835
 20
3.6469745155
 30
0.0
 10
6.4950434309
 20
3.6469745155
 30
0.0
 10
6.4962512964
 20
3.6470499978
 30
0.0
 10
6.4979829945
 20
3.6473803472
 30
0.0
 10
6.4995532751
 20
3.6478975834
 30
0.0
 10
6.5009186715
 20
3.6485644051
 30
0.0
 10
6.5020604519
 20
3.6493449448
 30
0.0
 10
6.5029752539
 20
3.6502093367
 30
0.0
 10
6.503666688
 20
3.6511332367
 30
0.0
 10
6.5039921025
 20
3.651795981
 30
0.0
 10
6.5041148914
 20
3.6521270656
 30
0.0
  0
SPLINE
  5
457
100
AcDbEntity
  8
0
100
AcDbSpline
 62
7
  6
CONTINUOUS
 70
0
 71
3
 72
15
 73
11
 74
0
 42
0.0000001
 43
0.0000001
 44
0.0000000001
 40
0.0
 40
0.0
 40
0.0
 40
0.0
 40
0.1625928783
 40
0.3186179256
 40
0.4633996691
 40
0.594765701
 40
0.712578425
 40
0.8180108031
 40
0.9130091838
 40
1.0
 40
1.0
 40
1.0
 40
1.0
 10
6.4944285835
 20
3.6524186425
 30
0.0
 10
6.4950437884
 20
3.6524186425
 30
0.0
 10
6.4962505503
 20
3.6524876132
 30
0.0
 10
6.4979816394
 20
3.6527895976
 30
0.0
 10
6.499551389
 20
3.6532624184
 30
0.0
 10
6.5009164647
 20
3.6538719931
 30
0.0
 10
6.5020582572
 20
3.6545856152
 30
0.0
 10
6.5029735867
 20
3.6553762903
 30
0.0
 10
6.5036660795
 20
3.6562221649
 30
0.0
 10
6.5039943738
 20
3.6568338188
 30
0.0
 10
6.5041175547
 20
3.6571390484
 30
0.0
  0
SPLINE
  5
458
100
AcDbEntity
  8
0
100
AcDbSpline
 62
7
  6
CONTINUOUS
 70
0
 71
3
 72
15
 73
11
 74
0
 42
0.0000001
 43
0.0000001
 44
0.0000000001
 40
0.0
 40
0.0
 40
0.0
 40
0.0
 40
0.1663427071
 40
0.3255747933
 40
0.4725893014
 40
0.6049329874
 40
0.7223168302
 40
0.8258623473
 40
0.9175594262
 40
1.0
 40
1.0
 40
1.0
 40
1.0
 10
6.4944285835
 20
3.6586052979
 30
0.0
 10
6.4950436016
 20
3.6586052979
 30
0.0
 10
6.496248333
 20
3.658667487
 30
0.0
 10
6.4979774825
 20
3.6589398886
 30
0.0
 10
6.4995456111
 20
3.6593663796
 30
0.0
 10
6.5009095523
 20
3.659916202
 30
0.0
 10
6.5020508462
 20
3.6605598673
 30
0.0
 10
6.5029665962
 20
3.6612732835
 30
0.0
 10
6.5036606609
 20
3.6620371752
 30
0.0
 10
6.5039933251
 20
3.6625952079
 30
0.0
 10
6.5041175547
 20
3.6628735501
 30
0.0
  0
SPLINE
  5
459
100
AcDbEntity
  8
0
100
AcDbSpline
 62
7
  6
CONTINUOUS
 70
0
 71
3
 72
15
 73
11
 74
0
 42
0.0000001
 43
0.0000001
 44
0.0000000001
 40
0.0
 40
0.0
 40
0.0
 40
0.0
 40
0.1701476852
 40
0.3326520132
 40
0.4819779838
 40
0.6153835923
 40
0.7324058511
 40
0.8340754403
 40
0.9223717422
 40
1.0
 40
1.0
 40
1.0
 40
1.0
 10
6.4944285835
 20
3.6655203486
 30
0.0
 10
6.4950434294
 20
3.6655203486
 30
0.0
 10
6.4962462852
 20
3.6655756356
 30
0.0
 10
6.4979735886
 20
3.6658178861
 30
0.0
 10
6.4995400639
 20
3.6661971248
 30
0.0
 10
6.500902665
 20
3.666685934
 30
0.0
 10
6.5020430675
 20
3.6672580096
 30
0.0
 10
6.5029587354
 20
3.6678920829
 30
0.0
 10
6.5036540197
 20
3.6685713661
 30
0.0
 10
6.5039919555
 20
3.6690739197
 30
0.0
 10
6.5041175547
 20
3.6693247482
 30
0.0
  0
SPLINE
  5
45A
100
AcDbEntity
  8
0
100
AcDbSpline
 62
7
  6
CONTINUOUS
 70
0
 71
3
 72
17
 73
13
 74
0
 42
0.0000001
 43
0.0000001
 44
0.0000000001
 40
0.0
 40
0.0
 40
0.0
 40
0.0
 40
0.1739188447
 40
0.2582741719
 40
0.3397193751
 40
0.4913762564
 40
0.6258955262
 40
0.7426227588
 40
0.8424587357
 40
0.8866448278
 40
0.9273988178
 40
1.0
 40
1.0
 40
1.0
 40
1.0
 10
6.4944285835
 20
3.673144841
 30
0.0
 10
6.4950432737
 20
3.673144841
 30
0.0
 10
6.4959567206
 20
3.673181522
 30
0.0
 10
6.4971513718
 20
3.6733044158
 30
0.0
 10
6.4982618937
 20
3.6734664754
 30
0.0
 10
6.499534865
 20
3.6737359547
 30
0.0
 10
6.5008960031
 20
3.6741626977
 30
0.0
 10
6.5020349736
 20
3.674661864
 30
0.0
 10
6.5028269378
 20
3.6751402881
 30
0.0
 10
6.5033394068
 20
3.6755466349
 30
0.0
 10
6.5037421812
 20
3.6759315156
 30
0.0
 10
6.5039901416
 20
3.6762522308
 30
0.0
 10
6.5041175547
 20
3.6764749604
 30
0.0
  0
SPLINE
  5
45B
100
AcDbEntity
  8
0
100
AcDbSpline
 62
7
  6
CONTINUOUS
 70
0
 71
3
 72
18
 73
14
 74
0
 42
0.0000001
 43
0.0000001
 44
0.0000000001
 40
0.0
 40
0.0
 40
0.0
 40
0.0
 40
0.1776063886
 40
0.263647047
 40
0.3466022848
 40
0.5005864649
 40
0.636273674
 40
0.75280813
 40
0.8041055
 40
0.8509836093
 40
0.8936881492
 40
0.9325286207
 40
1.0
 40
1.0
 40
1.0
 40
1.0
 10
6.4944285835
 20
3.6814578769
 30
0.0
 10
6.4950431363
 20
3.6814578769
 30
0.0
 10
6.4959558572
 20
3.6814891775
 30
0.0
 10
6.4971507607
 20
3.6815942222
 30
0.0
 10
6.4982599352
 20
3.6817325638
 30
0.0
 10
6.4995301577
 20
3.6819621703
 30
0.0
 10
6.5008895155
 20
3.6823260282
 30
0.0
 10
6.501875456
 20
3.682694496
 30
0.0
 10
6.5025447433
 20
3.6830181315
 30
0.0
 10
6.5029685587
 20
3.6832597461
 30
0.0
 10
6.503337048
 20
3.6835092848
 30
0.0
 10
6.5037366821
 20
3.6838353023
 30
0.0
 10
6.5039877127
 20
3.6841105612
 30
0.0
 10
6.5041175547
 20
3.6843045884
 30
0.0
  0
SPLINE
  5
45C
100
AcDbEntity
  8
0
100
AcDbSpline
 62
7
  6
CONTINUOUS
 70
0
 71
3
 72
19
 73
15
 74
0
 42
0.0000001
 43
0.0000001
 44
0.0000000001
 40
0.0
 40
0.0
 40
0.0
 40
0.0
 40
0.1809852386
 40
0.3529118
 40
0.509084469
 40
0.6459278083
 40
0.7067113623
 40
0.7624131412
 40
0.8131406383
 40
0.8590653797
 40
0.9004051643
 40
0.9374393642
 40
0.9705031274
 40
1.0
 40
1.0
 40
1.0
 40
1.0
 10
6.4944285835
 20
3.6904314814
 30
0.0
 10
6.4950424643
 20
3.6904314814
 30
0.0
 10
6.4962397948
 20
3.6904654453
 30
0.0
 10
6.4979611255
 20
3.6906143411
 30
0.0
 10
6.4995219058
 20
3.6908473531
 30
0.0
 10
6.5006949969
 20
3.6911064009
 30
0.0
 10
6.5015206754
 20
3.6913451974
 30
0.0
 10
6.5020578518
 20
3.6915278984
 30
0.0
 10
6.5025380129
 20
3.6917196463
 30
0.0
 10
6.502961826
 20
3.6919190416
 30
0.0
 10
6.5033302597
 20
3.6921248105
 30
0.0
 10
6.5036443711
 20
3.6923360107
 30
0.0
 10
6.5039051787
 20
3.6925516556
 30
0.0
 10
6.5040518066
 20
3.6927060992
 30
0.0
 10
6.5041148914
 20
3.6927837543
 30
0.0
  0
SPLINE
  5
45D
100
AcDbEntity
  8
0
100
AcDbSpline
 62
7
  6
CONTINUOUS
 70
0
 71
3
 72
19
 73
15
 74
0
 42
0.0000001
 43
0.0000001
 44
0.0000000001
 40
0.0
 40
0.0
 40
0.0
 40
0.0
 40
0.184222375
 40
0.3589817205
 40
0.5172541305
 40
0.655226674
 40
0.7161477833
 40
0.7716758173
 40
0.8218941042
 40
0.8669460441
 40
0.9070162184
 40
0.9423435123
 40
0.9732182147
 40
1.0
 40
1.0
 40
1.0
 40
1.0
 10
6.4944285835
 20
3.7000566124
 30
0.0
 10
6.4950429222
 20
3.7000566124
 30
0.0
 10
6.4962402261
 20
3.7000834087
 30
0.0
 10
6.4979617738
 20
3.7002008824
 30
0.0
 10
6.4995223323
 20
3.7003846804
 30
0.0
 10
6.5006965649
 20
3.7005891762
 30
0.0
 10
6.501523883
 20
3.7007780527
 30
0.0
 10
6.5020608142
 20
3.700922219
 30
0.0
 10
6.5025405923
 20
3.7010734727
 30
0.0
 10
6.5029638913
 20
3.7012306922
 30
0.0
 10
6.5033316841
 20
3.7013928397
 30
0.0
 10
6.5036450833
 20
3.7015591517
 30
0.0
 10
6.5039051715
 20
3.70172882
 30
0.0
 10
6.5040536156
 20
3.7018520908
 30
0.0
 10
6.5041175547
 20
3.7019144466
 30
0.0
  0
SPLINE
  5
45E
100
AcDbEntity
  8
0
100
AcDbSpline
 62
7
  6
CONTINUOUS
 70
0
 71
3
 72
18
 73
14
 74
0
 42
0.0000001
 43
0.0000001
 44
0.0000000001
 40
0.0
 40
0.0
 40
0.0
 40
0.0
 40
0.1868683986
 40
0.3639603036
 40
0.5239924567
 40
0.6629572256
 40
0.7794488151
 40
0.8292911447
 40
0.8736615339
 40
0.9127077406
 40
0.9466195353
 40
0.9756237673
 40
1.0
 40
1.0
 40
1.0
 40
1.0
 10
6.4944285835
 20
3.7102913342
 30
0.0
 10
6.4950428478
 20
3.7102913342
 30
0.0
 10
6.4962393413
 20
3.7103108532
 30
0.0
 10
6.4979599742
 20
3.7103964637
 30
0.0
 10
6.4995196149
 20
3.7105303034
 30
0.0
 10
6.5008748827
 20
3.7107024972
 30
0.0
 10
6.5018637025
 20
3.7108774877
 30
0.0
 10
6.5025388714
 20
3.7110325823
 30
0.0
 10
6.5029618185
 20
3.7111470892
 30
0.0
 10
6.5033291707
 20
3.7112650871
 30
0.0
 10
6.5036420449
 20
3.7113859861
 30
0.0
 10
6.5039015312
 20
3.7115091271
 30
0.0
 10
6.5040522603
 20
3.711599964
 30
0.0
 10
6.5041175547
 20
3.7116464095
 30
0.0
  0
SPLINE
  5
45F
100
AcDbEntity
  8
0
100
AcDbSpline
 62
7
  6
CONTINUOUS
 70
0
 71
3
 72
18
 73
14
 74
0
 42
0.0000001
 43
0.0000001
 44
0.0000000001
 40
0.0
 40
0.0
 40
0.0
 40
0.0
 40
0.1888310843
 40
0.3676588728
 40
0.5290121587
 40
0.6687411373
 40
0.7853192893
 40
0.8349042019
 40
0.8787885668
 40
0.9170877865
 40
0.9499455205
 40
0.9775224806
 40
1.0
 40
1.0
 40
1.0
 40
1.0
 10
6.4944285835
 20
3.7211127835
 30
0.0
 10
6.4950427964
 20
3.7211127835
 30
0.0
 10
6.4962387245
 20
3.7211249974
 30
0.0
 10
6.4979587393
 20
3.7211785724
 30
0.0
 10
6.4995176582
 20
3.7212623101
 30
0.0
 10
6.5008720639
 20
3.7213700214
 30
0.0
 10
6.5018612512
 20
3.7214795313
 30
0.0
 10
6.5025375746
 20
3.7215767825
 30
0.0
 10
6.50296021
 20
3.7216483988
 30
0.0
 10
6.503327135
 20
3.7217221479
 30
0.0
 10
6.5036394174
 20
3.7217976071
 30
0.0
 10
6.5038980885
 20
3.7218743139
 30
0.0
 10
6.5040507685
 20
3.7219316352
 30
0.0
 10
6.5041175547
 20
3.7219613857
 30
0.0
  0
SPLINE
  5
460
100
AcDbEntity
  8
0
100
AcDbSpline
 62
7
  6
CONTINUOUS
 70
0
 71
3
 72
17
 73
13
 74
0
 42
0.0000001
 43
0.0000001
 44
0.0000000001
 40
0.0
 40
0.0
 40
0.0
 40
0.0
 40
0.1899503224
 40
0.3697703632
 40
0.5318836126
 40
0.6720602952
 40
0.788704978
 40
0.8817683669
 40
0.9196489119
 40
0.9519066112
 40
0.9786555826
 40
1.0
 40
1.0
 40
1.0
 40
1.0
 10
6.4944285835
 20
3.7324912995
 30
0.0
 10
6.4950427686
 20
3.7324912995
 30
0.0
 10
6.4962383898
 20
3.7324961892
 30
0.0
 10
6.4979580688
 20
3.7325176296
 30
0.0
 10
6.4995165849
 20
3.7325511569
 30
0.0
 10
6.5008705145
 20
3.7325942188
 30
0.0
 10
6.502000746
 20
3.7326444106
 30
0.0
 10
6.5027998952
 20
3.7326929182
 30
0.0
 10
6.5033259105
 20
3.7327351959
 30
0.0
 10
6.5036377523
 20
3.7327653462
 30
0.0
 10
6.5038957694
 20
3.732795945
 30
0.0
 10
6.5040496121
 20
3.7328189834
 30
0.0
 10
6.5041175547
 20
3.7328311026
 30
0.0
  0
SPLINE
  5
461
100
AcDbEntity
  8
0
100
AcDbSpline
 62
7
  6
CONTINUOUS
 70
0
 71
3
 72
17
 73
13
 74
0
 42
0.0000001
 43
0.0000001
 44
0.0000000001
 40
0.0
 40
0.0
 40
0.0
 40
0.0
 40
0.0213444189
 40
0.0480933377
 40
0.0803508879
 40
0.1182312457
 40
0.2112941911
 40
0.3279386068
 40
0.4681148411
 40
0.6302283049
 40
0.8100485941
 40
1.0
 40
1.0
 40
1.0
 40
1.0
 10
6.5041175547
 20
4.1158744346
 30
0.0
 10
6.5040496121
 20
4.1158865538
 30
0.0
 10
6.5038957695
 20
4.1159095922
 30
0.0
 10
6.5036377531
 20
4.1159401909
 30
0.0
 10
6.5033259125
 20
4.1159703411
 30
0.0
 10
6.5027998998
 20
4.1160126186
 30
0.0
 10
6.5020007535
 20
4.1160611262
 30
0.0
 10
6.5008705258
 20
4.116111318
 30
0.0
 10
6.4995165978
 20
4.11615438
 30
0.0
 10
6.4979580817
 20
4.1161879074
 30
0.0
 10
6.4962383976
 20
4.1162093479
 30
0.0
 10
6.4950427721
 20
4.1162142377
 30
0.0
 10
6.4944285835
 20
4.1162142377
 30
0.0
  0
SPLINE
  5
462
100
AcDbEntity
  8
0
100
AcDbSpline
 62
7
  6
CONTINUOUS
 70
0
 71
3
 72
18
 73
14
 74
0
 42
0.0000001
 43
0.0000001
 44
0.0000000001
 40
0.0
 40
0.0
 40
0.0
 40
0.0
 40
0.0224775207
 40
0.0500544273
 40
0.08291201
 40
0.1212110421
 40
0.1650951813
 40
0.2146798786
 40
0.3312577667
 40
0.4709863018
 40
0.6323398024
 40
0.8111678389
 40
1.0
 40
1.0
 40
1.0
 40
1.0
 10
6.5041175547
 20
4.1267441515
 30
0.0
 10
6.5040507685
 20
4.1267739021
 30
0.0
 10
6.5038980886
 20
4.1268312232
 30
0.0
 10
6.5036394182
 20
4.1269079299
 30
0.0
 10
6.503327137
 20
4.1269833888
 30
0.0
 10
6.5029602139
 20
4.1270571376
 30
0.0
 10
6.5025375805
 20
4.1271287538
 30
0.0
 10
6.5018612594
 20
4.1272260049
 30
0.0
 10
6.5008720751
 20
4.1273355146
 30
0.0
 10
6.499517671
 20
4.1274432264
 30
0.0
 10
6.4979587521
 20
4.1275269642
 30
0.0
 10
6.4962387323
 20
4.1275805397
 30
0.0
 10
6.4950427999
 20
4.1275927537
 30
0.0
 10
6.4944285835
 20
4.1275927537
 30
0.0
  0
SPLINE
  5
463
100
AcDbEntity
  8
0
100
AcDbSpline
 62
7
  6
CONTINUOUS
 70
0
 71
3
 72
18
 73
14
 74
0
 42
0.0000001
 43
0.0000001
 44
0.0000000001
 40
0.0
 40
0.0
 40
0.0
 40
0.0
 40
0.0243762336
 40
0.0533804106
 40
0.0872920501
 40
0.1263380683
 40
0.1707082334
 40
0.2205503502
 40
0.3370416817
 40
0.4760060154
 40
0.6360383839
 40
0.8131305356
 40
1.0
 40
1.0
 40
1.0
 40
1.0
 10
6.5041175547
 20
4.1370591277
 30
0.0
 10
6.5040522603
 20
4.1371055732
 30
0.0
 10
6.5039015313
 20
4.13719641
 30
0.0
 10
6.5036420457
 20
4.1373195508
 30
0.0
 10
6.5033291727
 20
4.1374404493
 30
0.0
 10
6.5029618224
 20
4.1375584468
 30
0.0
 10
6.5025388774
 20
4.1376729535
 30
0.0
 10
6.5018637107
 20
4.1378280479
 30
0.0
 10
6.5008748939
 20
4.1380030382
 30
0.0
 10
6.4995196278
 20
4.1381752326
 30
0.0
 10
6.497959987
 20
4.1383090726
 30
0.0
 10
6.4962393491
 20
4.1383946837
 30
0.0
 10
6.4950428513
 20
4.138414203
 30
0.0
 10
6.4944285835
 20
4.138414203
 30
0.0
  0
SPLINE
  5
464
100
AcDbEntity
  8
0
100
AcDbSpline
 62
7
  6
CONTINUOUS
 70
0
 71
3
 72
19
 73
15
 74
0
 42
0.0000001
 43
0.0000001
 44
0.0000000001
 40
0.0
 40
0.0
 40
0.0
 40
0.0
 40
0.0267817857
 40
0.057656431
 40
0.0929835645
 40
0.1330535487
 40
0.1781052667
 40
0.2283233441
 40
0.2838510949
 40
0.3447722374
 40
0.4827443568
 40
0.6410169831
 40
0.8157765735
 40
1.0
 40
1.0
 40
1.0
 40
1.0
 10
6.5041175547
 20
4.1467910906
 30
0.0
 10
6.5040536156
 20
4.1468534464
 30
0.0
 10
6.5039051717
 20
4.146976717
 30
0.0
 10
6.5036450841
 20
4.1471463851
 30
0.0
 10
6.5033316861
 20
4.1473126964
 30
0.0
 10
6.5029638951
 20
4.1474748433
 30
0.0
 10
6.5025405982
 20
4.1476320625
 30
0.0
 10
6.5020608225
 20
4.1477833157
 30
0.0
 10
6.5015238929
 20
4.1479274822
 30
0.0
 10
6.500696577
 20
4.1481163584
 30
0.0
 10
6.4995223452
 20
4.1483208553
 30
0.0
 10
6.4979617866
 20
4.1485046536
 30
0.0
 10
6.496240234
 20
4.148622128
 30
0.0
 10
6.4950429257
 20
4.1486489248
 30
0.0
 10
6.4944285835
 20
4.1486489248
 30
0.0
  0
SPLINE
  5
465
100
AcDbEntity
  8
0
100
AcDbSpline
 62
7
  6
CONTINUOUS
 70
0
 71
3
 72
19
 73
15
 74
0
 42
0.0000001
 43
0.0000001
 44
0.0000000001
 40
0.0
 40
0.0
 40
0.0
 40
0.0
 40
0.0294968726
 40
0.0625605761
 40
0.0995946094
 40
0.1409342024
 40
0.1868587248
 40
0.2375860169
 40
0.2932875193
 40
0.35407111
 40
0.4909140404
 40
0.6470869275
 40
0.8190137311
 40
1.0
 40
1.0
 40
1.0
 40
1.0
 10
6.5041148914
 20
4.1559217829
 30
0.0
 10
6.5040518066
 20
4.155999438
 30
0.0
 10
6.5039051788
 20
4.1561538815
 30
0.0
 10
6.5036443719
 20
4.156369526
 30
0.0
 10
6.5033302616
 20
4.1565807254
 30
0.0
 10
6.5029618298
 20
4.1567864935
 30
0.0
 10
6.5025380188
 20
4.1569858883
 30
0.0
 10
6.5020578601
 20
4.1571776357
 30
0.0
 10
6.5015206853
 20
4.1573603369
 30
0.0
 10
6.500695009
 20
4.157599133
 30
0.0
 10
6.4995219187
 20
4.1578581822
 30
0.0
 10
6.4979611383
 20
4.1580911946
 30
0.0
 10
6.4962398026
 20
4.1582400913
 30
0.0
 10
6.4950424678
 20
4.1582740558
 30
0.0
 10
6.4944285835
 20
4.1582740558
 30
0.0
  0
SPLINE
  5
466
100
AcDbEntity
  8
0
100
AcDbSpline
 62
7
  6
CONTINUOUS
 70
0
 71
3
 72
18
 73
14
 74
0
 42
0.0000001
 43
0.0000001
 44
0.0000000001
 40
0.0
 40
0.0
 40
0.0
 40
0.0
 40
0.067471317
 40
0.1063116148
 40
0.14901596
 40
0.1958938517
 40
0.24719102
 40
0.363725245
 40
0.4994120591
 40
0.6533964587
 40
0.7363516285
 40
0.822392597
 40
1.0
 40
1.0
 40
1.0
 40
1.0
 10
6.5041175547
 20
4.1644009488
 30
0.0
 10
6.5039877128
 20
4.1645949759
 30
0.0
 10
6.5037366828
 20
4.1648702342
 30
0.0
 10
6.50333705
 20
4.1651962508
 30
0.0
 10
6.5029685625
 20
4.1654457886
 30
0.0
 10
6.5025447492
 20
4.1656874026
 30
0.0
 10
6.5018754642
 20
4.1660110377
 30
0.0
 10
6.5008895267
 20
4.1663795051
 30
0.0
 10
6.4995301707
 20
4.1667433646
 30
0.0
 10
6.498259949
 20
4.1669729709
 30
0.0
 10
6.4971507731
 20
4.1671113142
 30
0.0
 10
6.4959558653
 20
4.1672163588
 30
0.0
 10
6.4950431398
 20
4.1672476603
 30
0.0
 10
6.4944285835
 20
4.1672476603
 30
0.0
  0
SPLINE
  5
467
100
AcDbEntity
  8
0
100
AcDbSpline
 62
7
  6
CONTINUOUS
 70
0
 71
3
 72
17
 73
13
 74
0
 42
0.0000001
 43
0.0000001
 44
0.0000000001
 40
0.0
 40
0.0
 40
0.0
 40
0.0
 40
0.0726011172
 40
0.1133549263
 40
0.1575408206
 40
0.257376384
 40
0.374103397
 40
0.5086222896
 40
0.6602793909
 40
0.7417245294
 40
0.8260801603
 40
1.0
 40
1.0
 40
1.0
 40
1.0
 10
6.5041175547
 20
4.1722305769
 30
0.0
 10
6.5039901417
 20
4.1724533062
 30
0.0
 10
6.5037421819
 20
4.1727740208
 30
0.0
 10
6.5033394087
 20
4.1731589004
 30
0.0
 10
6.5028269422
 20
4.1735652458
 30
0.0
 10
6.5020349811
 20
4.1740436694
 30
0.0
 10
6.5008960142
 20
4.174542835
 30
0.0
 10
6.499534878
 20
4.1749695798
 30
0.0
 10
6.4982619075
 20
4.1752390589
 30
0.0
 10
6.4971513842
 20
4.1754011204
 30
0.0
 10
6.4959567286
 20
4.1755240142
 30
0.0
 10
6.4950432772
 20
4.1755606962
 30
0.0
 10
6.4944285835
 20
4.1755606962
 30
0.0
  0
SPLINE
  5
468
100
AcDbEntity
  8
0
100
AcDbSpline
 62
7
  6
CONTINUOUS
 70
0
 71
3
 72
15
 73
11
 74
0
 42
0.0000001
 43
0.0000001
 44
0.0000000001
 40
0.0
 40
0.0
 40
0.0
 40
0.0
 40
0.0776281888
 40
0.1659241027
 40
0.2675932846
 40
0.3846153343
 40
0.5180205813
 40
0.6673467762
 40
0.8298513414
 40
1.0
 40
1.0
 40
1.0
 40
1.0
 10
6.5041175547
 20
4.179380789
 30
0.0
 10
6.5039919556
 20
4.1796316173
 30
0.0
 10
6.5036540208
 20
4.1801341696
 30
0.0
 10
6.5029587391
 20
4.1808134507
 30
0.0
 10
6.502043075
 20
4.1814475232
 30
0.0
 10
6.5009026761
 20
4.182019598
 30
0.0
 10
6.499540077
 20
4.1825084091
 30
0.0
 10
6.4979736015
 20
4.1828876487
 30
0.0
 10
6.4962462931
 20
4.1831299007
 30
0.0
 10
6.4950434329
 20
4.1831851886
 30
0.0
 10
6.4944285835
 20
4.1831851886
 30
0.0
  0
SPLINE
  5
469
100
AcDbEntity
  8
0
100
AcDbSpline
 62
7
  6
CONTINUOUS
 70
0
 71
3
 72
15
 73
11
 74
0
 42
0.0000001
 43
0.0000001
 44
0.0000000001
 40
0.0
 40
0.0
 40
0.0
 40
0.0
 40
0.0824405015
 40
0.1741371818
 40
0.2776822967
 40
0.3950659414
 40
0.5274092834
 40
0.6744240188
 40
0.8336563405
 40
1.0
 40
1.0
 40
1.0
 40
1.0
 10
6.5041175547
 20
4.1858319871
 30
0.0
 10
6.5039933252
 20
4.1861103291
 30
0.0
 10
6.5036606621
 20
4.1866683603
 30
0.0
 10
6.5029665998
 20
4.1874322498
 30
0.0
 10
6.5020508537
 20
4.188145665
 30
0.0
 10
6.5009095633
 20
4.1887893294
 30
0.0
 10
6.4995456243
 20
4.1893391539
 30
0.0
 10
6.4979774954
 20
4.1897656459
 30
0.0
 10
6.4962483409
 20
4.1900380493
 30
0.0
 10
6.4950436051
 20
4.1901002393
 30
0.0
 10
6.4944285835
 20
4.1901002393
 30
0.0
  0
SPLINE
  5
46A
100
AcDbEntity
  8
0
100
AcDbSpline
 62
7
  6
CONTINUOUS
 70
0
 71
3
 72
15
 73
11
 74
0
 42
0.0000001
 43
0.0000001
 44
0.0000000001
 40
0.0
 40
0.0
 40
0.0
 40
0.0
 40
0.0869907407
 40
0.1819887123
 40
0.2874206927
 40
0.4052332293
 40
0.5365989343
 40
0.6813809082
 40
0.8374061895
 40
1.0
 40
1.0
 40
1.0
 40
1.0
 10
6.5041175547
 20
4.1915664888
 30
0.0
 10
6.5039943739
 20
4.1918717181
 30
0.0
 10
6.5036660806
 20
4.1924833705
 30
0.0
 10
6.5029735902
 20
4.1933292426
 30
0.0
 10
6.5020582647
 20
4.1941199165
 30
0.0
 10
6.5009164757
 20
4.1948335377
 30
0.0
 10
6.4995514022
 20
4.1954431147
 30
0.0
 10
6.4979816523
 20
4.1959159366
 30
0.0
 10
6.4962505582
 20
4.1962179229
 30
0.0
 10
6.495043792
 20
4.1962868947
 30
0.0
 10
6.4944285835
 20
4.1962868947
 30
0.0
  0
SPLINE
  5
46B
100
AcDbEntity
  8
0
100
AcDbSpline
 62
7
  6
CONTINUOUS
 70
0
 71
3
 72
15
 73
11
 74
0
 42
0.0000001
 43
0.0000001
 44
0.0000000001
 40
0.0
 40
0.0
 40
0.0
 40
0.0
 40
0.0912640391
 40
0.1894421192
 40
0.2967585723
 40
0.4150680073
 40
0.5455519194
 40
0.6881951629
 40
0.8410915738
 40
1.0
 40
1.0
 40
1.0
 40
1.0
 10
6.5041148914
 20
4.1965784716
 30
0.0
 10
6.5039921026
 20
4.1969095559
 30
0.0
 10
6.5036666891
 20
4.1975722986
 30
0.0
 10
6.5029752574
 20
4.1984961959
 30
0.0
 10
6.5020604594
 20
4.1993605865
 30
0.0
 10
6.5009186825
 20
4.2001411251
 30
0.0
 10
6.4995532884
 20
4.2008079492
 30
0.0
 10
6.4979830073
 20
4.2013251867
 30
0.0
 10
6.4962513043
 20
4.2016555382
 30
0.0
 10
6.4950434344
 20
4.2017310218
 30
0.0
 10
6.4944285835
 20
4.2017310218
 30
0.0
  0
SPLINE
  5
46C
100
AcDbEntity
  8
0
100
AcDbSpline
 62
7
  6
CONTINUOUS
 70
0
 71
3
 72
15
 73
11
 74
0
 42
0.0000001
 43
0.0000001
 44
0.0000000001
 40
0.0
 40
0.0
 40
0.0
 40
0.0
 40
0.0952020323
 40
0.1963448299
 40
0.3054484552
 40
0.4242576661
 40
0.5539426909
 40
0.694593465
 40
0.8445552286
 40
1.0
 40
1.0
 40
1.0
 40
1.0
 10
6.5041175547
 20
4.2008245392
 30
0.0
 10
6.5039958306
 20
4.2011813842
 30
0.0
 10
6.5036741148
 20
4.2018949157
 30
0.0
 10
6.5029850593
 20
4.2028962269
 30
0.0
 10
6.5020715825
 20
4.203834017
 30
0.0
 10
6.5009298607
 20
4.2046815109
 30
0.0
 10
6.4995632446
 20
4.2054059086
 30
0.0
 10
6.4979905155
 20
4.2059680191
 30
0.0
 10
6.4962553977
 20
4.2063271298
 30
0.0
 10
6.4950442013
 20
4.2064092336
 30
0.0
 10
6.4944285835
 20
4.2064092336
 30
0.0
  0
SPLINE
  5
46D
100
AcDbEntity
  8
0
100
AcDbSpline
 62
7
  6
CONTINUOUS
 70
0
 71
3
 72
15
 73
11
 74
0
 42
0.0000001
 43
0.0000001
 44
0.0000000001
 40
0.0
 40
0.0
 40
0.0
 40
0.0
 40
0.0988496911
 40
0.2027915943
 40
0.3136318054
 40
0.4329787155
 40
0.56195898
 40
0.7007382558
 40
0.8478928814
 40
1.0
 40
1.0
 40
1.0
 40
1.0
 10
6.5041175547
 20
4.2043227122
 30
0.0
 10
6.503996343
 20
4.2047041276
 30
0.0
 10
6.5036770859
 20
4.2054658538
 30
0.0
 10
6.5029896777
 20
4.2065403683
 30
0.0
 10
6.502077405
 20
4.2075475743
 30
0.0
 10
6.5009361452
 20
4.2084584853
 30
0.0
 10
6.4995691293
 20
4.2092375176
 30
0.0
 10
6.4979951027
 20
4.2098422788
 30
0.0
 10
6.4962579647
 20
4.2102287557
 30
0.0
 10
6.4950444192
 20
4.2103171725
 30
0.0
 10
6.4944285835
 20
4.2103171725
 30
0.0
  0
SPLINE
  5
46E
100
AcDbEntity
  8
0
100
AcDbSpline
 62
7
  6
CONTINUOUS
 70
0
 71
3
 72
15
 73
11
 74
0
 42
0.0000001
 43
0.0000001
 44
0.0000000001
 40
0.0
 40
0.0
 40
0.0
 40
0.0
 40
0.1029967411
 40
0.2107516839
 40
0.3245550907
 40
0.4454893029
 40
0.5742245727
 40
0.7106557475
 40
0.853475574
 40
1.0
 40
1.0
 40
1.0
 40
1.0
 10
6.5038252277
 20
4.2078630289
 30
0.0
 10
6.5036697958
 20
4.2082278203
 30
0.0
 10
6.5032935388
 20
4.2089507848
 30
0.0
 10
6.5025542096
 20
4.2099635751
 30
0.0
 10
6.5016242136
 20
4.2109051316
 30
0.0
 10
6.5005018399
 20
4.2117490934
 30
0.0
 10
6.4991926945
 20
4.2124639285
 30
0.0
 10
6.4977154612
 20
4.213013489
 30
0.0
 10
6.4961082943
 20
4.2133618807
 30
0.0
 10
6.4949926844
 20
4.2134413029
 30
0.0
 10
6.4944285835
 20
4.2134413029
 30
0.0
  0
SPLINE
  5
46F
100
AcDbEntity
  8
0
100
AcDbSpline
 62
7
  6
CONTINUOUS
 70
0
 71
3
 72
16
 73
12
 74
0
 42
0.0000001
 43
0.0000001
 44
0.0000000001
 40
0.0
 40
0.0
 40
0.0
 40
0.0
 40
0.1052453695
 40
0.2141837957
 40
0.3282109546
 40
0.4486338774
 40
0.5764355511
 40
0.7118669617
 40
0.7822502872
 40
0.8540242684
 40
1.0
 40
1.0
 40
1.0
 40
1.0
 10
6.5041175547
 20
4.2090094387
 30
0.0
 10
6.5039970942
 20
4.2094371274
 30
0.0
 10
6.5036815817
 20
4.2102893308
 30
0.0
 10
6.5029970991
 20
4.211500612
 30
0.0
 10
6.5020873955
 20
4.2126375056
 30
0.0
 10
6.5009475872
 20
4.2136671924
 30
0.0
 10
6.4995805548
 20
4.2145489032
 30
0.0
 10
6.4982826685
 20
4.2151132119
 30
0.0
 10
6.4971581343
 20
4.2154472493
 30
0.0
 10
6.4959665851
 20
4.2156970323
 30
0.0
 10
6.4950448697
 20
4.2157730616
 30
0.0
 10
6.4944285835
 20
4.2157730616
 30
0.0
  0
SPLINE
  5
470
100
AcDbEntity
  8
0
100
AcDbSpline
 62
7
  6
CONTINUOUS
 70
0
 71
3
 72
17
 73
13
 74
0
 42
0.0000001
 43
0.0000001
 44
0.0000000001
 40
0.0
 40
0.0
 40
0.0
 40
0.0
 40
0.1080179917
 40
0.2191547829
 40
0.3346175136
 40
0.39438803
 40
0.4556593758
 40
0.5829752622
 40
0.7169305084
 40
0.7862540976
 40
0.8567986095
 40
1.0
 40
1.0
 40
1.0
 40
1.0
 10
6.5041175547
 20
4.2101851463
 30
0.0
 10
6.5039973719
 20
4.2106343897
 30
0.0
 10
6.503683263
 20
4.2115286817
 30
0.0
 10
6.5030001433
 20
4.2128031731
 30
0.0
 10
6.502251253
 20
4.2137897003
 30
0.0
 10
6.5015430839
 20
4.2145225927
 30
0.0
 10
6.500739602
 20
4.2152296535
 30
0.0
 10
6.4995857928
 20
4.2160143767
 30
0.0
 10
6.4982853943
 20
4.2166104216
 30
0.0
 10
6.497159047
 20
4.2169627934
 30
0.0
 10
6.4959679742
 20
4.2172257821
 30
0.0
 10
6.4950450973
 20
4.2173060577
 30
0.0
 10
6.4944285835
 20
4.2173060577
 30
0.0
  0
SPLINE
  5
471
100
AcDbEntity
  8
0
100
AcDbSpline
 62
7
  6
CONTINUOUS
 70
0
 71
3
 72
17
 73
13
 74
0
 42
0.0000001
 43
0.0000001
 44
0.0000000001
 40
0.0
 40
0.0
 40
0.0
 40
0.0
 40
0.1106929234
 40
0.2241584844
 40
0.3413606218
 40
0.4016866335
 40
0.4632695398
 40
0.5903571345
 40
0.7228517518
 40
0.7909959702
 40
0.8601130169
 40
1.0
 40
1.0
 40
1.0
 40
1.0
 10
6.5039728583
 20
4.2110868896
 30
0.0
 10
6.5038336544
 20
4.2115315181
 30
0.0
 10
6.5034876538
 20
4.2124132949
 30
0.0
 10
6.5027741443
 20
4.2136658746
 30
0.0
 10
6.5020141616
 20
4.2146328796
 30
0.0
 10
6.5013057615
 20
4.2153489743
 30
0.0
 10
6.5005122625
 20
4.2160350691
 30
0.0
 10
6.4993858445
 20
4.2167936357
 30
0.0
 10
6.4981248118
 20
4.2173693485
 30
0.0
 10
6.4970397623
 20
4.217707992
 30
0.0
 10
6.4958996091
 20
4.2179594304
 30
0.0
 10
6.4950173922
 20
4.2180362717
 30
0.0
 10
6.4944286034
 20
4.2180362717
 30
0.0
  0
SPLINE
  5
472
100
AcDbEntity
  8
0
100
AcDbSpline
 62
7
  6
CONTINUOUS
 70
0
 71
3
 72
21
 73
17
 74
0
 42
0.0000001
 43
0.0000001
 44
0.0000000001
 40
0.0
 40
0.0
 40
0.0
 40
0.0
 40
0.1891835614
 40
0.3710438228
 40
0.538741742
 40
0.6861564317
 40
0.7506366925
 40
0.8082397545
 40
0.8585472541
 40
0.901254068
 40
0.9362195837
 40
0.9635874545
 40
0.9746336379
 40
0.9841432326
 40
0.9924364037
 40
1.0
 40
1.0
 40
1.0
 40
1.0
 10
6.8513380323
 20
4.2553054876
 30
0.0
 10
6.8511414538
 20
4.2552984284
 30
0.0
 10
6.8507560923
 20
4.255278649
 30
0.0
 10
6.850197759
 20
4.2552321603
 30
0.0
 10
6.8496845445
 20
4.2551710281
 30
0.0
 10
6.8492947778
 20
4.2551076871
 30
0.0
 10
6.8490204822
 20
4.2550501809
 30
0.0
 10
6.8488464521
 20
4.2550070425
 30
0.0
 10
6.848696276
 20
4.2549624177
 30
0.0
 10
6.8485711351
 20
4.2549167635
 30
0.0
 10
6.8484720552
 20
4.2548705422
 30
0.0
 10
6.8484072458
 20
4.2548293376
 30
0.0
 10
6.8483706715
 20
4.2547952715
 30
0.0
 10
6.8483521783
 20
4.2547714343
 30
0.0
 10
6.8483407302
 20
4.2547473901
 30
0.0
 10
6.8483380323
 20
4.2547308244
 30
0.0
 10
6.8483380323
 20
4.25472296
 30
0.0
  0
SPLINE
  5
473
100
AcDbEntity
  8
0
100
AcDbSpline
 62
7
  6
CONTINUOUS
 70
0
 71
3
 72
20
 73
16
 74
0
 42
0.0000001
 43
0.0000001
 44
0.0000000001
 40
0.0
 40
0.0
 40
0.0
 40
0.0
 40
0.0157202002
 40
0.0252438837
 40
0.036306861
 40
0.0637118003
 40
0.0987142401
 40
0.1414545655
 40
0.1917903486
 40
0.249415328
 40
0.3139106092
 40
0.4613348048
 40
0.6290188722
 40
0.810850596
 40
1.0
 40
1.0
 40
1.0
 40
1.0
 10
6.9118380323
 20
4.2546192227
 30
0.0
 10
6.9118380323
 20
4.2546355744
 30
0.0
 10
6.9118286251
 20
4.2546618541
 30
0.0
 10
6.9118053815
 20
4.2546916087
 30
0.0
 10
6.9117687996
 20
4.2547258973
 30
0.0
 10
6.911703984
 20
4.2547672572
 30
0.0
 10
6.9116048883
 20
4.2548138383
 30
0.0
 10
6.9114797344
 20
4.2548598984
 30
0.0
 10
6.9113295503
 20
4.2549050221
 30
0.0
 10
6.9111555192
 20
4.2549487311
 30
0.0
 10
6.9108812491
 20
4.2550071328
 30
0.0
 10
6.9104915209
 20
4.255071748
 30
0.0
 10
6.909978336
 20
4.2551345612
 30
0.0
 10
6.9094200134
 20
4.2551828794
 30
0.0
 10
6.9090346297
 20
4.2552039216
 30
0.0
 10
6.9088380323
 20
4.2552116243
 30
0.0
  0
SPLINE
  5
474
100
AcDbEntity
  8
0
100
AcDbSpline
 62
7
  6
CONTINUOUS
 70
0
 71
3
 72
17
 73
13
 74
0
 42
0.0000001
 43
0.0000001
 44
0.0000000001
 40
0.0
 40
0.0
 40
0.0
 40
0.0
 40
0.0273598645
 40
0.0608467826
 40
0.1002707343
 40
0.1454068397
 40
0.2516709361
 40
0.3769997356
 40
0.5182320044
 40
0.6717878328
 40
0.8337571109
 40
1.0
 40
1.0
 40
1.0
 40
1.0
 10
6.9118380323
 20
4.26287093
 30
0.0
 10
6.9117099523
 20
4.262901341
 30
0.0
 10
6.9114229848
 20
4.2629599641
 30
0.0
 10
6.9109471066
 20
4.263039607
 30
0.0
 10
6.9103846568
 20
4.2631190378
 30
0.0
 10
6.9094732011
 20
4.263229968
 30
0.0
 10
6.9081479523
 20
4.2633601837
 30
0.0
 10
6.9063595365
 20
4.2635003833
 30
0.0
 10
6.9043420911
 20
4.263627478
 30
0.0
 10
6.9021471566
 20
4.2637380602
 30
0.0
 10
6.8998308956
 20
4.2638290923
 30
0.0
 10
6.8982523499
 20
4.2638749367
 30
0.0
 10
6.8974527099
 20
4.2638941587
 30
0.0
  0
SPLINE
  5
475
100
AcDbEntity
  8
0
100
AcDbSpline
 62
7
  6
CONTINUOUS
 70
0
 71
3
 72
21
 73
17
 74
0
 42
0.0000001
 43
0.0000001
 44
0.0000000001
 40
0.0
 40
0.0
 40
0.0
 40
0.0
 40
0.029226528
 40
0.0600178546
 40
0.0936867567
 40
0.1312336002
 40
0.1733656016
 40
0.2205587407
 40
0.2731207069
 40
0.3312469698
 40
0.3950459525
 40
0.4645708492
 40
0.5398245047
 40
0.6207772053
 40
0.7994990386
 40
1.0
 40
1.0
 40
1.0
 40
1.0
 10
6.9208380323
 20
4.2514513615
 30
0.0
 10
6.9208380323
 20
4.2513416415
 30
0.0
 10
6.920810301
 20
4.2511155192
 30
0.0
 10
6.9206882057
 20
4.2507829721
 30
0.0
 10
6.9204876808
 20
4.2504543508
 30
0.0
 10
6.9202105188
 20
4.2501296467
 30
0.0
 10
6.9198575681
 20
4.2498083667
 30
0.0
 10
6.9194293175
 20
4.2494904458
 30
0.0
 10
6.9189262602
 20
4.2491760627
 30
0.0
 10
6.918349
 20
4.2488656567
 30
0.0
 10
6.9176983455
 20
4.2485596643
 30
0.0
 10
6.9169752426
 20
4.2482586635
 30
0.0
 10
6.9161808227
 20
4.2479631522
 30
0.0
 10
6.9149883026
 20
4.2475639888
 30
0.0
 10
6.9133266552
 20
4.2470883233
 30
0.0
 10
6.9119415325
 20
4.2467576512
 30
0.0
 10
6.9112064904
 20
4.2465955444
 30
0.0
  0
SPLINE
  5
476
100
AcDbEntity
  8
0
100
AcDbSpline
 62
7
  6
CONTINUOUS
 70
0
 71
3
 72
27
 73
23
 74
0
 42
0.0000001
 43
0.0000001
 44
0.0000000001
 40
0.0
 40
0.0
 40
0.0
 40
0.0
 40
0.1936802204
 40
0.3799129566
 40
0.5515784071
 40
0.6298797467
 40
0.7021526111
 40
0.7677140212
 40
0.8259487192
 40
0.8763170272
 40
0.8984054296
 40
0.9183654125
 40
0.9361543601
 40
0.9517403384
 40
0.9651007956
 40
0.9762252136
 40
0.9851293386
 40
0.9918709947
 40
0.994482351
 40
0.9966414949
 40
0.9984322798
 40
1.0
 40
1.0
 40
1.0
 40
1.0
 10
6.8627233547
 20
4.2639502169
 30
0.0
 10
6.8617467739
 20
4.2639298958
 30
0.0
 10
6.8598313827
 20
4.26387838
 30
0.0
 10
6.8570516964
 20
4.2637684394
 30
0.0
 10
6.8548548571
 20
4.2636505482
 30
0.0
 10
6.8532333324
 20
4.2635415824
 30
0.0
 10
6.8521465249
 20
4.2634573894
 30
0.0
 10
6.851161604
 20
4.2633690964
 30
0.0
 10
6.8502879807
 20
4.2632775893
 30
0.0
 10
6.8496338133
 20
4.2631963991
 30
0.0
 10
6.8491725556
 20
4.2631293635
 30
0.0
 10
6.8488746473
 20
4.2630810782
 30
0.0
 10
6.848610029
 20
4.2630326878
 30
0.0
 10
6.8483793004
 20
4.2629843413
 30
0.0
 10
6.8481829879
 20
4.2629362028
 30
0.0
 10
6.8480213762
 20
4.2628884696
 30
0.0
 10
6.8478948067
 20
4.2628412969
 30
0.0
 10
6.8478120433
 20
4.262799863
 30
0.0
 10
6.847765092
 20
4.2627654413
 30
0.0
 10
6.8477416718
 20
4.2627417934
 30
0.0
 10
6.8477269374
 20
4.262717774
 30
0.0
 10
6.8477233547
 20
4.2627007372
 30
0.0
 10
6.8477233547
 20
4.2626928307
 30
0.0
  0
SPLINE
  5
477
100
AcDbEntity
  8
0
100
AcDbSpline
 62
7
  6
CONTINUOUS
 70
0
 71
3
 72
21
 73
17
 74
0
 42
0.0000001
 43
0.0000001
 44
0.0000000001
 40
0.0
 40
0.0
 40
0.0
 40
0.0
 40
0.2006704059
 40
0.3795529173
 40
0.4605757647
 40
0.5358883211
 40
0.6054588536
 40
0.6692884556
 40
0.7274262098
 40
0.779980276
 40
0.8271417303
 40
0.8692182949
 40
0.9066830337
 40
0.940244785
 40
0.9709093009
 40
1.0
 40
1.0
 40
1.0
 40
1.0
 10
6.8461030158
 20
4.2465448093
 30
0.0
 10
6.8453581421
 20
4.2467069563
 30
0.0
 10
6.8439543716
 20
4.2470379536
 30
0.0
 10
6.8422700556
 20
4.2475147382
 30
0.0
 10
6.8410610284
 20
4.2479152359
 30
0.0
 10
6.8402555566
 20
4.248211891
 30
0.0
 10
6.8395223421
 20
4.248514205
 30
0.0
 10
6.838862543
 20
4.2488216528
 30
0.0
 10
6.8382771439
 20
4.2491336729
 30
0.0
 10
6.8377669602
 20
4.2494497766
 30
0.0
 10
6.837332636
 20
4.2497695613
 30
0.0
 10
6.8369746519
 20
4.2500927974
 30
0.0
 10
6.8366935205
 20
4.2504195768
 30
0.0
 10
6.8364900789
 20
4.2507503927
 30
0.0
 10
6.8363661759
 20
4.2510852979
 30
0.0
 10
6.8363380323
 20
4.2513131241
 30
0.0
 10
6.8363380323
 20
4.2514236354
 30
0.0
  0
LINE
  5
478
100
AcDbEntity
  8
0
100
AcDbLine
 62
7
  6
CONTINUOUS
 10
7.1317257195
 20
3.0837675576
 11
7.1443356621
 21
3.077863078
  0
SPLINE
  5
479
100
AcDbEntity
  8
0
100
AcDbSpline
 62
7
  6
CONTINUOUS
 70
0
 71
3
 72
29
 73
25
 74
0
 42
0.0000001
 43
0.0000001
 44
0.0000000001
 40
0.0
 40
0.0
 40
0.0
 40
0.0
 40
0.0743857938
 40
0.1466056574
 40
0.2164719225
 40
0.2838369274
 40
0.3486073052
 40
0.4107924441
 40
0.4409698041
 40
0.4705773891
 40
0.499666552
 40
0.528302546
 40
0.5565646194
 40
0.584543843
 40
0.6123418063
 40
0.6400663508
 40
0.6678285657
 40
0.6957376797
 40
0.723897789
 40
0.7524036251
 40
0.8107447031
 40
0.8712966914
 40
0.9343469222
 40
1.0
 40
1.0
 40
1.0
 40
1.0
 10
7.6203955275
 20
3.1378094834
 30
0.0
 10
7.618649371
 20
3.1356133665
 30
0.0
 10
7.6151248711
 20
3.1313499994
 30
0.0
 10
7.6096404924
 20
3.1252968969
 30
0.0
 10
7.6040277053
 20
3.119731043
 30
0.0
 10
7.5982843198
 20
3.1147152366
 30
0.0
 10
7.5924111833
 20
3.1103174589
 30
0.0
 10
7.5873610311
 20
3.1071955994
 30
0.0
 10
7.5832671094
 20
3.1050924568
 30
0.0
 10
7.5802020577
 20
3.1037302638
 30
0.0
 10
7.5771150102
 20
3.1025749608
 30
0.0
 10
7.5740087729
 20
3.1016340168
 30
0.0
 10
7.5708870032
 20
3.1009130467
 30
0.0
 10
7.5677535141
 20
3.1004170989
 30
0.0
 10
7.5646125709
 20
3.1001495818
 30
0.0
 10
7.561468615
 20
3.1001121777
 30
0.0
 10
7.5583262124
 20
3.1003055831
 30
0.0
 10
7.5551898304
 20
3.1007278007
 30
0.0
 10
7.5520637925
 20
3.1013766789
 30
0.0
 10
7.5478834802
 20
3.1025457671
 30
0.0
 10
7.5426878672
 20
3.1045678946
 30
0.0
 10
7.536610018
 20
3.1077816546
 30
0.0
 10
7.5306524253
 20
3.1117316989
 30
0.0
 10
7.5268418328
 20
3.1147481909
 30
0.0
 10
7.5249548397
 20
3.1163517606
 30
0.0
  0
SPLINE
  5
47A
100
AcDbEntity
  8
0
100
AcDbSpline
 62
7
  6
CONTINUOUS
 70
0
 71
3
 72
37
 73
33
 74
0
 42
0.0000001
 43
0.0000001
 44
0.0000000001
 40
0.0
 40
0.0
 40
0.0
 40
0.0
 40
0.0722269023
 40
0.107369492
 40
0.1418157009
 40
0.175535413
 40
0.2085040319
 40
0.240701216
 40
0.2721183873
 40
0.302758578
 40
0.3326428649
 40
0.3618112746
 40
0.3903278266
 40
0.418280842
 40
0.4457840287
 40
0.4729728404
 40
0.5000000001
 40
0.5270271598
 40
0.5542159715
 40
0.5817191581
 40
0.6096721736
 40
0.6381887256
 40
0.6673571352
 40
0.6972414221
 40
0.7278816128
 40
0.759298784
 40
0.7914959681
 40
0.824464587
 40
0.8581842992
 40
0.892630508
 40
0.9277730977
 40
1.0
 40
1.0
 40
1.0
 40
1.0
 10
7.6203955275
 20
3.3108960538
 30
0.0
 10
7.618256823
 20
3.3135858729
 30
0.0
 10
7.6149833231
 20
3.3175118415
 30
0.0
 10
7.6104391305
 20
3.3225007098
 30
0.0
 10
7.6070136386
 20
3.3260270986
 30
0.0
 10
7.6035393522
 20
3.329357832
 30
0.0
 10
7.6000161877
 20
3.3324780074
 30
0.0
 10
7.5964443816
 20
3.3353717573
 30
0.0
 10
7.5928249275
 20
3.3380227665
 30
0.0
 10
7.5891594163
 20
3.3404145029
 30
0.0
 10
7.5854501966
 20
3.3425303198
 30
0.0
 10
7.5817005766
 20
3.3443542246
 30
0.0
 10
7.5779147884
 20
3.3458709336
 30
0.0
 10
7.5740981475
 20
3.3470666675
 30
0.0
 10
7.5702571356
 20
3.3479300076
 30
0.0
 10
7.5663991109
 20
3.3484515271
 30
0.0
 10
7.5625324078
 20
3.3486263009
 30
0.0
 10
7.5586657047
 20
3.3484515271
 30
0.0
 10
7.55480768
 20
3.3479300076
 30
0.0
 10
7.5509666681
 20
3.3470666675
 30
0.0
 10
7.5471500272
 20
3.3458709336
 30
0.0
 10
7.543364239
 20
3.3443542246
 30
0.0
 10
7.539614619
 20
3.3425303198
 30
0.0
 10
7.5359053993
 20
3.3404145029
 30
0.0
 10
7.5322398882
 20
3.3380227665
 30
0.0
 10
7.528620434
 20
3.3353717573
 30
0.0
 10
7.5250486279
 20
3.3324780074
 30
0.0
 10
7.5215254634
 20
3.329357832
 30
0.0
 10
7.518051177
 20
3.3260270986
 30
0.0
 10
7.5146256851
 20
3.3225007098
 30
0.0
 10
7.5100814925
 20
3.3175118415
 30
0.0
 10
7.5068079926
 20
3.3135858729
 30
0.0
 10
7.5046692881
 20
3.3108960538
 30
0.0
  0
SPLINE
  5
47B
100
AcDbEntity
  8
0
100
AcDbSpline
 62
7
  6
CONTINUOUS
 70
0
 71
3
 72
147
 73
143
 74
0
 42
0.0000001
 43
0.0000001
 44
0.0000000001
 40
0.0
 40
0.0
 40
0.0
 40
0.0
 40
0.0000009752
 40
0.0000038878
 40
0.0000087369
 40
0.0000155214
 40
0.0000348932
 40
0.0000619959
 40
0.0000968219
 40
0.0001393637
 40
0.000189614
 40
0.0002475652
 40
0.0003865406
 40
0.0005562303
 40
0.0007565666
 40
0.0009874567
 40
0.0012488027
 40
0.0015405072
 40
0.0022146001
 40
0.0030088389
 40
0.0039219346
 40
0.0049525146
 40
0.0060991268
 40
0.0073600187
 40
0.0087333672
 40
0.011809822
 40
0.0153121441
 40
0.0192228822
 40
0.0235235677
 40
0.0281953244
 40
0.0332191339
 40
0.0385761194
 40
0.0442476906
 40
0.0502157701
 40
0.0564628851
 40
0.0697281788
 40
0.0839194076
 40
0.0989256901
 40
0.1146490798
 40
0.131003651
 40
0.1479143571
 40
0.1653158357
 40
0.1831511423
 40
0.2013703207
 40
0.2199296519
 40
0.2387909476
 40
0.2579199944
 40
0.2772867257
 40
0.296864274
 40
0.3166286873
 40
0.3365585948
 40
0.3465795319
 40
0.3566347402
 40
0.3667220792
 40
0.3768395298
 40
0.3869851483
 40
0.3971571009
 40
0.4073537061
 40
0.4175733033
 40
0.4278144017
 40
0.4380756398
 40
0.443213728
 40
0.4483564715
 40
0.4535037346
 40
0.4586554626
 40
0.463811525
 40
0.4689716605
 40
0.474135886
 40
0.4793037481
 40
0.4844747547
 40
0.4896485375
 40
0.4948242296
 40
0.5000009324
 40
0.5051775885
 40
0.5103533202
 40
0.5155270231
 40
0.5206980752
 40
0.5258659527
 40
0.5310301453
 40
0.5361902262
 40
0.5413463494
 40
0.5464979778
 40
0.5516453197
 40
0.5619253281
 40
0.5721865552
 40
0.5824276202
 40
0.592647184
 40
0.6028438136
 40
0.613015761
 40
0.623161365
 40
0.633278777
 40
0.643366108
 40
0.6534213214
 40
0.6634422601
 40
0.6833721294
 40
0.7031365223
 40
0.7227140419
 40
0.7420807333
 40
0.7612097707
 40
0.7800710637
 40
0.7986303996
 40
0.8168495889
 40
0.8346848796
 40
0.852086352
 40
0.8689970791
 40
0.8853516526
 40
0.9010750198
 40
0.9160813119
 40
0.9302725428
 40
0.9435378307
 40
0.955753042
 40
0.9614246013
 40
0.9667816574
 40
0.9718054899
 40
0.9764770528
 40
0.9807776889
 40
0.9846886489
 40
0.9881908605
 40
0.9912670524
 40
0.9926404571
 40
0.993901474
 40
0.9950481703
 40
0.9960786943
 40
0.9969916146
 40
0.9977856352
 40
0.9984595258
 40
0.9987511434
 40
0.9990124183
 40
0.9992432576
 40
0.9994435681
 40
0.9996132596
 40
0.9997522589
 40
0.9998102282
 40
0.9998604994
 40
0.9999030641
 40
0.9999379142
 40
0.9999650411
 40
0.9999844366
 40
0.9999912325
 40
0.9999960924
 40
0.9999990152
 40
1.0
 40
1.0
 40
1.0
 40
1.0
 10
7.1288380323
 20
3.6061020928
 30
0.0
 10
7.1288379512
 20
3.6061023151
 30
0.0
 10
7.128837195
 20
3.6061029566
 30
0.0
 10
7.1288360177
 20
3.6061046923
 30
0.0
 10
7.1288337068
 20
3.6061073842
 30
0.0
 10
7.128829023
 20
3.606113258
 30
0.0
 10
7.1288208426
 20
3.606123271
 30
0.0
 10
7.1288084323
 20
3.6061385988
 30
0.0
 10
7.128792449
 20
3.6061582735
 30
0.0
 10
7.1287729317
 20
3.6061823106
 30
0.0
 10
7.1287498686
 20
3.606210697
 30
0.0
 10
7.1287120453
 20
3.6062572373
 30
0.0
 10
7.1286559256
 20
3.6063262506
 30
0.0
 10
7.1285779781
 20
3.6064220409
 30
0.0
 10
7.1284859184
 20
3.6065350989
 30
0.0
 10
7.1283797916
 20
3.6066653807
 30
0.0
 10
7.1282596455
 20
3.6068128351
 30
0.0
 10
7.1280715577
 20
3.6070436395
 30
0.0
 10
7.1278017754
 20
3.6073746584
 30
0.0
 10
7.1274367574
 20
3.6078225556
 30
0.0
 10
7.1270171007
 20
3.6083375027
 30
0.0
 10
7.126543433
 20
3.6089187237
 30
0.0
 10
7.1260164504
 20
3.6095653534
 30
0.0
 10
7.1254369029
 20
3.6102764292
 30
0.0
 10
7.1245614792
 20
3.6113504067
 30
0.0
 10
7.123342285
 20
3.612845779
 30
0.0
 10
7.1217338533
 20
3.6148181257
 30
0.0
 10
7.1199374563
 20
3.6170204648
 30
0.0
 10
7.1179613479
 20
3.6194423718
 30
0.0
 10
7.1158140605
 20
3.6220731588
 30
0.0
 10
7.1135041875
 20
3.6249020597
 30
0.0
 10
7.1110402856
 20
3.6279183679
 30
0.0
 10
7.1084307555
 20
3.631111544
 30
0.0
 10
7.1056837483
 20
3.6344712847
 30
0.0
 10
7.1017692499
 20
3.639256349
 30
0.0
 10
7.0965887237
 20
3.6455834336
 30
0.0
 10
7.0900565212
 20
3.6535504921
 30
0.0
 10
7.0831397195
 20
3.6619734478
 30
0.0
 10
7.0758819227
 20
3.67079556
 30
0.0
 10
7.0683209595
 20
3.6799665887
 30
0.0
 10
7.0604895414
 20
3.6894423116
 30
0.0
 10
7.0524155455
 20
3.6991836213
 30
0.0
 10
7.0441224658
 20
3.7091556671
 30
0.0
 10
7.0356298608
 20
3.7193271298
 30
0.0
 10
7.0269537779
 20
3.7296696516
 30
0.0
 10
7.0181065852
 20
3.7401567206
 30
0.0
 10
7.0090973384
 20
3.7507632832
 30
0.0
 10
6.9999314339
 20
3.7614646566
 30
0.0
 10
6.990609652
 20
3.772235286
 30
0.0
 10
6.9811281137
 20
3.7830480071
 30
0.0
 10
6.9730997648
 20
3.7920507002
 30
0.0
 10
6.9665794556
 20
3.7992412044
 30
0.0
 10
6.9616286145
 20
3.8046310053
 30
0.0
 10
6.9566209498
 20
3.8100001476
 30
0.0
 10
6.951550628
 20
3.8153404961
 30
0.0
 10
6.9464090537
 20
3.8206409911
 30
0.0
 10
6.9411859944
 20
3.8258884542
 30
0.0
 10
6.9358681117
 20
3.8310657366
 30
0.0
 10
6.9304378818
 20
3.8361499718
 30
0.0
 10
6.9248729477
 20
3.8411104078
 30
0.0
 10
6.9200991496
 20
3.8451018587
 30
0.0
 10
6.9161779272
 20
3.848178956
 30
0.0
 10
6.9131784961
 20
3.850419176
 30
0.0
 10
6.9101150869
 20
3.8525770696
 30
0.0
 10
6.9069807408
 20
3.8546368354
 30
0.0
 10
6.9037675379
 20
3.8565778886
 30
0.0
 10
6.900468203
 20
3.858375808
 30
0.0
 10
6.897076447
 20
3.8600005128
 30
0.0
 10
6.8935892167
 20
3.8614175198
 30
0.0
 10
6.8900074868
 20
3.862585768
 30
0.0
 10
6.8863398214
 20
3.8634592869
 30
0.0
 10
6.8826071553
 20
3.8640052996
 30
0.0
 10
6.8788378385
 20
3.8641919832
 30
0.0
 10
6.875068843
 20
3.8640027583
 30
0.0
 10
6.8713356382
 20
3.8634606332
 30
0.0
 10
6.8676682269
 20
3.8625855269
 30
0.0
 10
6.864086772
 20
3.8614166543
 30
0.0
 10
6.8605994272
 20
3.8599999418
 30
0.0
 10
6.8572072375
 20
3.8583761953
 30
0.0
 10
6.8539076746
 20
3.856578664
 30
0.0
 10
6.8506948253
 20
3.8546370656
 30
0.0
 10
6.8475606718
 20
3.8525769736
 30
0.0
 10
6.8434783725
 20
3.8497009218
 30
0.0
 10
6.8385329026
 20
3.8459030971
 30
0.0
 10
6.832803652
 20
3.8411096086
 30
0.0
 10
6.8272375611
 20
3.8361503752
 30
0.0
 10
6.8218071626
 20
3.831066346
 30
0.0
 10
6.8164899452
 20
3.825888377
 30
0.0
 10
6.8112670288
 20
3.8206407768
 30
0.0
 10
6.8061254489
 20
3.8153403083
 30
0.0
 10
6.8010547175
 20
3.8100003693
 30
0.0
 10
6.7960471394
 20
3.8046311576
 30
0.0
 10
6.7910964735
 20
3.7992411963
 30
0.0
 10
6.784576362
 20
3.7920505242
 30
0.0
 10
6.7765477844
 20
3.7830480545
 30
0.0
 10
6.7670663727
 20
3.7722352489
 30
0.0
 10
6.757744644
 20
3.7614646027
 30
0.0
 10
6.7485787426
 20
3.7507632516
 30
0.0
 10
6.7395694751
 20
3.740156723
 30
0.0
 10
6.730722287
 20
3.7296696524
 30
0.0
 10
6.7220462041
 20
3.7193271267
 30
0.0
 10
6.7135536086
 20
3.7091556561
 30
0.0
 10
6.7052605171
 20
3.6991836237
 30
0.0
 10
6.6971865077
 20
3.6894423255
 30
0.0
 10
6.6893551116
 20
3.6799665791
 30
0.0
 10
6.6817941528
 20
3.6707955465
 30
0.0
 10
6.6745363219
 20
3.6619734656
 30
0.0
 10
6.6676195414
 20
3.6535504959
 30
0.0
 10
6.6610873498
 20
3.6455834266
 30
0.0
 10
6.6549894459
 20
3.6381359964
 30
0.0
 10
6.6502044657
 20
3.6322851732
 30
0.0
 10
6.6466357485
 20
3.6279183655
 30
0.0
 10
6.6441718887
 20
3.6249019973
 30
0.0
 10
6.6418620826
 20
3.6220730733
 30
0.0
 10
6.6397146799
 20
3.6194424494
 30
0.0
 10
6.6377384993
 20
3.6170206079
 30
0.0
 10
6.6359423047
 20
3.6148180843
 30
0.0
 10
6.6343338453
 20
3.6128458077
 30
0.0
 10
6.6331144971
 20
3.6113506603
 30
0.0
 10
6.6322391304
 20
3.6102766618
 30
0.0
 10
6.6316596145
 20
3.6095654772
 30
0.0
 10
6.6311326642
 20
3.6089187734
 30
0.0
 10
6.630658994
 20
3.6083376004
 30
0.0
 10
6.6302393232
 20
3.6078228055
 30
0.0
 10
6.6298742897
 20
3.6073751075
 30
0.0
 10
6.629604499
 20
3.6070442543
 30
0.0
 10
6.6294164099
 20
3.6068135638
 30
0.0
 10
6.6292962634
 20
3.606666175
 30
0.0
 10
6.6291901368
 20
3.6065359393
 30
0.0
 10
6.6290980774
 20
3.6064229043
 30
0.0
 10
6.6290201331
 20
3.6063271116
 30
0.0
 10
6.6289640193
 20
3.6062580797
 30
0.0
 10
6.6289262007
 20
3.6062115161
 30
0.0
 10
6.6289031392
 20
3.606183109
 30
0.0
 10
6.6288836229
 20
3.6061590498
 30
0.0
 10
6.6288676402
 20
3.6061393524
 30
0.0
 10
6.6288552287
 20
3.606124003
 30
0.0
 10
6.6288470489
 20
3.6061139713
 30
0.0
 10
6.628842362
 20
3.6061080851
 30
0.0
 10
6.6288400528
 20
3.6061053826
 30
0.0
 10
6.6288388679
 20
3.6061036422
 30
0.0
 10
6.6288381154
 20
3.6061029926
 30
0.0
 10
6.6288380323
 20
3.6061027686
 30
0.0
  0
SPLINE
  5
47C
100
AcDbEntity
  8
0
100
AcDbSpline
 62
7
  6
CONTINUOUS
 70
0
 71
3
 72
17
 73
13
 74
0
 42
0.0000001
 43
0.0000001
 44
0.0000000001
 40
0.0
 40
0.0
 40
0.0
 40
0.0
 40
0.1249879779
 40
0.2499754577
 40
0.312484598
 40
0.3749931872
 40
0.4999873436
 40
0.6249848248
 40
0.7499839317
 40
0.8124902184
 40
0.8749983594
 40
1.0
 40
1.0
 40
1.0
 40
1.0
 10
7.8197419527
 20
3.1001373783
 30
0.0
 10
7.8146034399
 20
3.1001373783
 30
0.0
 10
7.804320846
 20
3.1006011169
 30
0.0
 10
7.7915724159
 20
3.1023175911
 30
0.0
 10
7.7814910249
 20
3.1043324983
 30
0.0
 10
7.7715000552
 20
3.1067572358
 30
0.0
 10
7.759202263
 20
3.1105211408
 30
0.0
 10
7.7448100614
 20
3.1160783754
 30
0.0
 10
7.7331377231
 20
3.1214666806
 30
0.0
 10
7.7239965117
 20
3.1261686356
 30
0.0
 10
7.7149839791
 20
3.1311128245
 30
0.0
 10
7.7083661091
 20
3.1350737671
 30
0.0
 10
7.7040157133
 20
3.1378094834
 30
0.0
  0
SPLINE
  5
47D
100
AcDbEntity
  8
0
100
AcDbSpline
 62
7
  6
CONTINUOUS
 70
0
 71
3
 72
23
 73
19
 74
0
 42
0.0000001
 43
0.0000001
 44
0.0000000001
 40
0.0
 40
0.0
 40
0.0
 40
0.0
 40
0.0071615674
 40
0.0151273941
 40
0.0243855504
 40
0.0352445411
 40
0.0478837807
 40
0.0624037705
 40
0.0972607734
 40
0.1399407226
 40
0.1902849942
 40
0.2479776736
 40
0.312584126
 40
0.3835749083
 40
0.4603401718
 40
0.6283894409
 40
0.8105639606
 40
1.0
 40
1.0
 40
1.0
 40
1.0
 10
6.2169179582
 20
3.9145593075
 30
0.0
 10
6.2168939387
 20
3.9145608092
 30
0.0
 10
6.216843516
 20
3.9145728114
 30
0.0
 10
6.216771907
 20
3.9146142996
 30
0.0
 10
6.2167018173
 20
3.9146782734
 30
0.0
 10
6.2166328213
 20
3.9147644433
 30
0.0
 10
6.2165646487
 20
3.9148727324
 30
0.0
 10
6.2164690068
 20
3.9150581066
 30
0.0
 10
6.2163555761
 20
3.9153466404
 30
0.0
 10
6.2162308983
 20
3.9157581444
 30
0.0
 10
6.2161121439
 20
3.9162507465
 30
0.0
 10
6.2160005239
 20
3.9168202038
 30
0.0
 10
6.2158972636
 20
3.9174615964
 30
0.0
 10
6.2158034271
 20
3.9181691196
 30
0.0
 10
6.2156887704
 20
3.919224247
 30
0.0
 10
6.2155785082
 20
3.9206552681
 30
0.0
 10
6.2154988368
 20
3.9224672921
 30
0.0
 10
6.2154809997
 20
3.923716171
 30
0.0
 10
6.2154809997
 20
3.9243527686
 30
0.0
  0
SPLINE
  5
47E
100
AcDbEntity
  8
0
100
AcDbSpline
 62
7
  6
CONTINUOUS
 70
0
 71
3
 72
17
 73
13
 74
0
 42
0.0000001
 43
0.0000001
 44
0.0000000001
 40
0.0
 40
0.0
 40
0.0
 40
0.0
 40
0.1249879779
 40
0.2499754577
 40
0.312484598
 40
0.3749931872
 40
0.4999873436
 40
0.6249848248
 40
0.7499839317
 40
0.8124902184
 40
0.8749983594
 40
1.0
 40
1.0
 40
1.0
 40
1.0
 10
7.8197419527
 20
3.3485681589
 30
0.0
 10
7.8146034399
 20
3.3485681589
 30
0.0
 10
7.804320846
 20
3.3481044203
 30
0.0
 10
7.7915724159
 20
3.3463879462
 30
0.0
 10
7.7814910249
 20
3.344373039
 30
0.0
 10
7.7715000552
 20
3.3419483014
 30
0.0
 10
7.759202263
 20
3.3381843964
 30
0.0
 10
7.7448100614
 20
3.3326271619
 30
0.0
 10
7.7331377231
 20
3.3272388566
 30
0.0
 10
7.7239965117
 20
3.3225369017
 30
0.0
 10
7.7149839791
 20
3.3175927127
 30
0.0
 10
7.7083661091
 20
3.3136317701
 30
0.0
 10
7.7040157133
 20
3.3108960538
 30
0.0
  0
SPLINE
  5
47F
100
AcDbEntity
  8
0
100
AcDbSpline
 62
7
  6
CONTINUOUS
 70
0
 71
3
 72
18
 73
14
 74
0
 42
0.0000001
 43
0.0000001
 44
0.0000000001
 40
0.0
 40
0.0
 40
0.0
 40
0.0
 40
0.1249980844
 40
0.1875044729
 40
0.2500090068
 40
0.3750044999
 40
0.4999983412
 40
0.624988802
 40
0.6874955077
 40
0.7500027834
 40
0.812508684
 40
0.8750158351
 40
1.0
 40
1.0
 40
1.0
 40
1.0
 10
7.9354681922
 20
3.3108960538
 30
0.0
 10
7.9311177923
 20
3.3136317726
 30
0.0
 10
7.9244999164
 20
3.3175927212
 30
0.0
 10
7.9154873715
 20
3.3225369121
 30
0.0
 10
7.9063461534
 20
3.327238873
 30
0.0
 10
7.8946738022
 20
3.3326271766
 30
0.0
 10
7.8802816152
 20
3.3381844116
 30
0.0
 10
7.8679837684
 20
3.3419483077
 30
0.0
 10
7.857992915
 20
3.3443730531
 30
0.0
 10
7.8504306641
 20
3.3458843864
 30
0.0
 10
7.8428109629
 20
3.347074892
 30
0.0
 10
7.8325945828
 20
3.3482200132
 30
0.0
 10
7.8248804598
 20
3.3485681589
 30
0.0
 10
7.8197419527
 20
3.3485681589
 30
0.0
  0
SPLINE
  5
480
100
AcDbEntity
  8
0
100
AcDbSpline
 62
7
  6
CONTINUOUS
 70
0
 71
3
 72
18
 73
14
 74
0
 42
0.0000001
 43
0.0000001
 44
0.0000000001
 40
0.0
 40
0.0
 40
0.0
 40
0.0
 40
0.1249980844
 40
0.1875044729
 40
0.2500090068
 40
0.3750044999
 40
0.4999983412
 40
0.624988802
 40
0.6874955077
 40
0.7500027834
 40
0.812508684
 40
0.8750158351
 40
1.0
 40
1.0
 40
1.0
 40
1.0
 10
7.9354681922
 20
3.1378094834
 30
0.0
 10
7.9311177923
 20
3.1350737646
 30
0.0
 10
7.9244999164
 20
3.131112816
 30
0.0
 10
7.9154873715
 20
3.1261686251
 30
0.0
 10
7.9063461534
 20
3.1214666642
 30
0.0
 10
7.8946738022
 20
3.1160783606
 30
0.0
 10
7.8802816152
 20
3.1105211256
 30
0.0
 10
7.8679837684
 20
3.1067572295
 30
0.0
 10
7.857992915
 20
3.1043324841
 30
0.0
 10
7.8504306641
 20
3.1028211508
 30
0.0
 10
7.8428109629
 20
3.1016306452
 30
0.0
 10
7.8325945828
 20
3.100485524
 30
0.0
 10
7.8248804598
 20
3.1001373783
 30
0.0
 10
7.8197419527
 20
3.1001373783
 30
0.0
  0
SPLINE
  5
481
100
AcDbEntity
  8
0
100
AcDbSpline
 62
7
  6
CONTINUOUS
 70
0
 71
3
 72
107
 73
103
 74
0
 42
0.0000001
 43
0.0000001
 44
0.0000000001
 40
0.0
 40
0.0
 40
0.0
 40
0.0
 40
0.0259694022
 40
0.0545141416
 40
0.0851092534
 40
0.1173415697
 40
0.1508871095
 40
0.1854904266
 40
0.2031234911
 40
0.2209479415
 40
0.2389442296
 40
0.2570946238
 40
0.2753830185
 40
0.2937947572
 40
0.3030426806
 40
0.3123165402
 40
0.3309358223
 40
0.3402786239
 40
0.3496415893
 40
0.3684227183
 40
0.3778390023
 40
0.3872705536
 40
0.3967165354
 40
0.4061755512
 40
0.4156468328
 40
0.4251288849
 40
0.4298739908
 40
0.4346215514
 40
0.4393710305
 40
0.4441222442
 40
0.4488751875
 40
0.4536294109
 40
0.4583845914
 40
0.4631404038
 40
0.4678965927
 40
0.4726525555
 40
0.4774082981
 40
0.4821633873
 40
0.4869172744
 40
0.4916695646
 40
0.4964206068
 40
0.5011697468
 40
0.5059166696
 40
0.5106611688
 40
0.5201419327
 40
0.5248786644
 40
0.5296122878
 40
0.5390698416
 40
0.5485139472
 40
0.5532308942
 40
0.5579439842
 40
0.5673582306
 40
0.5767558264
 40
0.595495823
 40
0.6048359892
 40
0.6141544633
 40
0.6327204372
 40
0.6419651194
 40
0.651182123
 40
0.6695263998
 40
0.7058051724
 40
0.741427048
 40
0.7762339853
 40
0.8100318078
 40
0.8425776595
 40
0.8582881391
 40
0.8735642961
 40
0.8883545272
 40
0.9026003525
 40
0.9162358293
 40
0.9291869065
 40
0.9413710891
 40
0.9526972886
 40
0.9630658064
 40
0.9678581022
 40
0.9723706756
 40
0.9765895055
 40
0.9805009936
 40
0.9840914897
 40
0.9873469696
 40
0.9902543631
 40
0.9928021081
 40
0.9939375931
 40
0.9949789736
 40
0.9959249045
 40
0.9967743047
 40
0.9975262057
 40
0.9981796484
 40
0.9987338959
 40
0.9989736611
 40
0.9991884372
 40
0.9993781615
 40
0.9995427717
 40
0.9996822099
 40
0.9997964241
 40
0.9998853622
 40
0.9999203365
 40
0.9999489722
 40
0.999971263
 40
0.9999872022
 40
0.9999967834
 40
1.0
 40
1.0
 40
1.0
 40
1.0
 10
7.154838016
 20
3.6973369313
 30
0.0
 10
7.149998939
 20
3.7011362931
 30
0.0
 10
7.1398361942
 20
3.7091057975
 30
0.0
 10
7.1239523597
 20
3.7215257976
 30
0.0
 10
7.1068747912
 20
3.7348278575
 30
0.0
 10
7.088828858
 20
3.7488145775
 30
0.0
 10
7.0699856462
 20
3.763322537
 30
0.0
 10
7.0538294871
 20
3.775650829
 30
0.0
 10
7.0405889978
 20
3.7856600828
 30
0.0
 10
7.0304594552
 20
3.7932602199
 30
0.0
 10
7.0201981837
 20
3.8008888196
 30
0.0
 10
7.0098080428
 20
3.8085280464
 30
0.0
 10
6.9992875511
 20
3.8161557031
 30
0.0
 10
6.9904223827
 20
3.8224728922
 30
0.0
 10
6.9832560754
 20
3.8274933828
 30
0.0
 10
6.9760195124
 20
3.8324989767
 30
0.0
 10
6.96871219
 20
3.8374416587
 30
0.0
 10
6.9613208996
 20
3.842295924
 30
0.0
 10
6.9538451289
 20
3.8470902988
 30
0.0
 10
6.9462651654
 20
3.8517543856
 30
0.0
 10
6.938552541
 20
3.8562259729
 30
0.0
 10
6.9326834194
 20
3.8594651658
 30
0.0
 10
6.9267255111
 20
3.8625605695
 30
0.0
 10
6.9206664158
 20
3.865475691
 30
0.0
 10
6.914494964
 20
3.8681674505
 30
0.0
 10
6.9092490235
 20
3.870175216
 30
0.0
 10
6.9049878574
 20
3.8716086957
 30
0.0
 10
6.9017588845
 20
3.8725894803
 30
0.0
 10
6.8984982533
 20
3.8734652427
 30
0.0
 10
6.8952069347
 20
3.8742237917
 30
0.0
 10
6.8918877095
 20
3.8748555259
 30
0.0
 10
6.8885448269
 20
3.8753538444
 30
0.0
 10
6.8851832232
 20
3.8757117148
 30
0.0
 10
6.8818085992
 20
3.8759215847
 30
0.0
 10
6.8784277159
 20
3.8759792816
 30
0.0
 10
6.8750477445
 20
3.8758826016
 30
0.0
 10
6.8716757948
 20
3.8756354539
 30
0.0
 10
6.8683179334
 20
3.8752455867
 30
0.0
 10
6.8649799703
 20
3.8747167415
 30
0.0
 10
6.861667617
 20
3.8740511782
 30
0.0
 10
6.8583840816
 20
3.8732610863
 30
0.0
 10
6.8551305536
 20
3.8723605582
 30
0.0
 10
6.8519085356
 20
3.8713584529
 30
0.0
 10
6.8476576549
 20
3.8698965936
 30
0.0
 10
6.8434713569
 20
3.8682610485
 30
0.0
 10
6.8393449138
 20
3.8664915032
 30
0.0
 10
6.8352590697
 20
3.8646431665
 30
0.0
 10
6.8302214519
 20
3.862196001
 30
0.0
 10
6.825264517
 20
3.8595987155
 30
0.0
 10
6.8213431335
 20
3.8574499203
 30
0.0
 10
6.8174517677
 20
3.8552616193
 30
0.0
 10
6.8126360457
 20
3.8524555093
 30
0.0
 10
6.8050273622
 20
3.8478447663
 30
0.0
 10
6.7975351273
 20
3.843078268
 30
0.0
 10
6.7901347024
 20
3.8382063554
 30
0.0
 10
6.7828134262
 20
3.8332897599
 30
0.0
 10
6.7755677424
 20
3.8283018566
 30
0.0
 10
6.7683870208
 20
3.8232631227
 30
0.0
 10
6.7612751701
 20
3.8182178552
 30
0.0
 10
6.7490008161
 20
3.809381031
 30
0.0
 10
6.7317849206
 20
3.7967029485
 30
0.0
 10
6.7115706875
 20
3.7815216182
 30
0.0
 10
6.6919232659
 20
3.7665653197
 30
0.0
 10
6.6729233412
 20
3.7519620963
 30
0.0
 10
6.657551081
 20
3.7400632087
 30
0.0
 10
6.6456667754
 20
3.7308269549
 30
0.0
 10
6.6371113293
 20
3.7241623251
 30
0.0
 10
6.628836004
 20
3.7177027466
 30
0.0
 10
6.6208724013
 20
3.7114755219
 30
0.0
 10
6.6132565224
 20
3.7055109544
 30
0.0
 10
6.6060289888
 20
3.6998426705
 30
0.0
 10
6.5992350956
 20
3.6945079878
 30
0.0
 10
6.5929247362
 20
3.6895482024
 30
0.0
 10
6.5879930822
 20
3.6856681847
 30
0.0
 10
6.5843307681
 20
3.6827853876
 30
0.0
 10
6.581813617
 20
3.6808032602
 30
0.0
 10
6.5794608348
 20
3.6789496903
 30
0.0
 10
6.5772798453
 20
3.677231054
 30
0.0
 10
6.5752781077
 20
3.6756536832
 30
0.0
 10
6.573463474
 20
3.6742232094
 30
0.0
 10
6.5718432058
 20
3.6729452143
 30
0.0
 10
6.5706172331
 20
3.671978317
 30
0.0
 10
6.5697383299
 20
3.6712852319
 30
0.0
 10
6.5691574266
 20
3.6708271026
 30
0.0
 10
6.56862979
 20
3.6704108809
 30
0.0
 10
6.5681560491
 20
3.6700370682
 30
0.0
 10
6.5677367499
 20
3.6697061232
 30
0.0
 10
6.5673723813
 20
3.6694184452
 30
0.0
 10
6.5671032619
 20
3.6692059234
 30
0.0
 10
6.5669156909
 20
3.6690578225
 30
0.0
 10
6.5667958864
 20
3.6689632525
 30
0.0
 10
6.5666900396
 20
3.6688797368
 30
0.0
 10
6.5665981767
 20
3.6688073122
 30
0.0
 10
6.5665203323
 20
3.6687460004
 30
0.0
 10
6.5664565439
 20
3.6686958172
 30
0.0
 10
6.5664121963
 20
3.6686609461
 30
0.0
 10
6.5663837646
 20
3.6686386389
 30
0.0
 10
6.5663677744
 20
3.6686260448
 30
0.0
 10
6.5663552628
 20
3.6686163437
 30
0.0
 10
6.566346456
 20
3.6686091841
 30
0.0
 10
6.5663409067
 20
3.6686052884
 30
0.0
 10
6.5663387153
 20
3.6686031066
 30
0.0
 10
6.5663380323
 20
3.6686027686
 30
0.0
  0
SPLINE
  5
482
100
AcDbEntity
  8
0
100
AcDbSpline
 62
7
  6
CONTINUOUS
 70
0
 71
3
 72
37
 73
33
 74
0
 42
0.0000001
 43
0.0000001
 44
0.0000000001
 40
0.0
 40
0.0
 40
0.0
 40
0.0
 40
0.0722269023
 40
0.107369492
 40
0.1418157009
 40
0.175535413
 40
0.2085040319
 40
0.240701216
 40
0.2721183873
 40
0.302758578
 40
0.3326428649
 40
0.3618112746
 40
0.3903278266
 40
0.418280842
 40
0.4457840287
 40
0.4729728404
 40
0.5000000001
 40
0.5270271598
 40
0.5542159715
 40
0.5817191581
 40
0.6096721736
 40
0.6381887256
 40
0.6673571352
 40
0.6972414221
 40
0.7278816128
 40
0.759298784
 40
0.7914959681
 40
0.824464587
 40
0.8581842992
 40
0.892630508
 40
0.9277730977
 40
1.0
 40
1.0
 40
1.0
 40
1.0
 10
8.1348146174
 20
3.1378094834
 30
0.0
 10
8.1326759128
 20
3.1351196643
 30
0.0
 10
8.1294024129
 20
3.1311936957
 30
0.0
 10
8.1248582203
 20
3.1262048274
 30
0.0
 10
8.1214327285
 20
3.1226784386
 30
0.0
 10
8.117958442
 20
3.1193477052
 30
0.0
 10
8.1144352776
 20
3.1162275298
 30
0.0
 10
8.1108634714
 20
3.11333378
 30
0.0
 10
8.1072440173
 20
3.1106827707
 30
0.0
 10
8.1035785062
 20
3.1082910343
 30
0.0
 10
8.0998692864
 20
3.1061752174
 30
0.0
 10
8.0961196665
 20
3.1043513126
 30
0.0
 10
8.0923338783
 20
3.1028346036
 30
0.0
 10
8.0885172374
 20
3.1016388697
 30
0.0
 10
8.0846762254
 20
3.1007755296
 30
0.0
 10
8.0808182007
 20
3.1002540101
 30
0.0
 10
8.0769514976
 20
3.1000792363
 30
0.0
 10
8.0730847946
 20
3.1002540101
 30
0.0
 10
8.0692267698
 20
3.1007755296
 30
0.0
 10
8.0653857579
 20
3.1016388697
 30
0.0
 10
8.061569117
 20
3.1028346036
 30
0.0
 10
8.0577833288
 20
3.1043513126
 30
0.0
 10
8.0540337089
 20
3.1061752174
 30
0.0
 10
8.0503244891
 20
3.1082910343
 30
0.0
 10
8.046658978
 20
3.1106827707
 30
0.0
 10
8.0430395239
 20
3.11333378
 30
0.0
 10
8.0394677178
 20
3.1162275298
 30
0.0
 10
8.0359445533
 20
3.1193477052
 30
0.0
 10
8.0324702669
 20
3.1226784386
 30
0.0
 10
8.029044775
 20
3.1262048274
 30
0.0
 10
8.0245005824
 20
3.1311936957
 30
0.0
 10
8.0212270825
 20
3.1351196643
 30
0.0
 10
8.0190883779
 20
3.1378094834
 30
0.0
  0
LINE
  5
483
100
AcDbEntity
  8
0
100
AcDbLine
 62
7
  6
CONTINUOUS
 10
7.1619025469
 20
3.6612371718
 11
7.1548379828
 21
3.6973369944
  0
SPLINE
  5
484
100
AcDbEntity
  8
0
100
AcDbSpline
 62
7
  6
CONTINUOUS
 70
0
 71
3
 72
19
 73
15
 74
0
 42
0.0000001
 43
0.0000001
 44
0.0000000001
 40
0.0
 40
0.0
 40
0.0
 40
0.0
 40
0.0221795582
 40
0.04613922
 40
0.0740050314
 40
0.1071450372
 40
0.1463354869
 40
0.1919994039
 40
0.2443256163
 40
0.3033762498
 40
0.4413706345
 40
0.6048680024
 40
0.7919358143
 40
1.0
 40
1.0
 40
1.0
 40
1.0
 10
6.2270604641
 20
4.0259936961
 30
0.0
 10
6.2270255383
 20
4.0259957968
 30
0.0
 10
6.226953067
 20
4.0260136149
 30
0.0
 10
6.2268546199
 20
4.0260796238
 30
0.0
 10
6.226765918
 20
4.026181557
 30
0.0
 10
6.2266856889
 20
4.026318459
 30
0.0
 10
6.2266133209
 20
4.0264903696
 30
0.0
 10
6.2265488756
 20
4.0266972136
 30
0.0
 10
6.2264924744
 20
4.0269386157
 30
0.0
 10
6.2264249083
 20
4.0273263255
 30
0.0
 10
6.2263666883
 20
4.0278927317
 30
0.0
 10
6.2263342783
 20
4.0286630484
 30
0.0
 10
6.2263375274
 20
4.0295445482
 30
0.0
 10
6.2263623362
 20
4.0301675105
 30
0.0
 10
6.2263801105
 20
4.0304952562
 30
0.0
  0
SPLINE
  5
485
100
AcDbEntity
  8
0
100
AcDbSpline
 62
7
  6
CONTINUOUS
 70
0
 71
3
 72
21
 73
17
 74
0
 42
0.0000001
 43
0.0000001
 44
0.0000000001
 40
0.0
 40
0.0
 40
0.0
 40
0.0
 40
0.1320816811
 40
0.1978508507
 40
0.2306075765
 40
0.2632535312
 40
0.392315081
 40
0.518761437
 40
0.5809760476
 40
0.6424687193
 40
0.7032734471
 40
0.7634521548
 40
0.8230941589
 40
0.8823079463
 40
0.9412328651
 40
1.0
 40
1.0
 40
1.0
 40
1.0
 10
7.154838016
 20
3.6973369343
 30
0.0
 10
7.1558172021
 20
3.6973369328
 30
0.0
 10
7.1572882409
 20
3.6974649876
 30
0.0
 10
7.1589587125
 20
3.6978362025
 30
0.0
 10
7.1598922524
 20
3.6981098563
 30
0.0
 10
7.1612564118
 20
3.6985768019
 30
0.0
 10
7.1631999147
 20
3.6994945179
 30
0.0
 10
7.1651188032
 20
3.7008866314
 30
0.0
 10
7.1664463014
 20
3.7021853485
 30
0.0
 10
7.1673255296
 20
3.7032363581
 30
0.0
 10
7.1680845251
 20
3.7043590406
 30
0.0
 10
7.1687159941
 20
3.7055426881
 30
0.0
 10
7.1692136865
 20
3.7067758564
 30
0.0
 10
7.1695727947
 20
3.7080467137
 30
0.0
 10
7.1697896406
 20
3.7093427095
 30
0.0
 10
7.169838033
 20
3.7102159824
 30
0.0
 10
7.1698380323
 20
3.7106516519
 30
0.0
  0
SPLINE
  5
486
100
AcDbEntity
  8
0
100
AcDbSpline
 62
7
  6
CONTINUOUS
 70
0
 71
3
 72
37
 73
33
 74
0
 42
0.0000001
 43
0.0000001
 44
0.0000000001
 40
0.0
 40
0.0
 40
0.0
 40
0.0
 40
0.0722269023
 40
0.107369492
 40
0.1418157009
 40
0.175535413
 40
0.2085040319
 40
0.240701216
 40
0.2721183873
 40
0.302758578
 40
0.3326428649
 40
0.3618112746
 40
0.3903278266
 40
0.418280842
 40
0.4457840287
 40
0.4729728404
 40
0.5000000001
 40
0.5270271598
 40
0.5542159715
 40
0.5817191581
 40
0.6096721736
 40
0.6381887256
 40
0.6673571352
 40
0.6972414221
 40
0.7278816128
 40
0.759298784
 40
0.7914959681
 40
0.824464587
 40
0.8581842992
 40
0.892630508
 40
0.9277730977
 40
1.0
 40
1.0
 40
1.0
 40
1.0
 10
8.1348146174
 20
3.3108960538
 30
0.0
 10
8.1326759128
 20
3.3135858729
 30
0.0
 10
8.1294024129
 20
3.3175118415
 30
0.0
 10
8.1248582203
 20
3.3225007098
 30
0.0
 10
8.1214327285
 20
3.3260270986
 30
0.0
 10
8.117958442
 20
3.329357832
 30
0.0
 10
8.1144352776
 20
3.3324780074
 30
0.0
 10
8.1108634714
 20
3.3353717573
 30
0.0
 10
8.1072440173
 20
3.3380227665
 30
0.0
 10
8.1035785062
 20
3.3404145029
 30
0.0
 10
8.0998692864
 20
3.3425303198
 30
0.0
 10
8.0961196665
 20
3.3443542246
 30
0.0
 10
8.0923338783
 20
3.3458709336
 30
0.0
 10
8.0885172374
 20
3.3470666675
 30
0.0
 10
8.0846762254
 20
3.3479300076
 30
0.0
 10
8.0808182007
 20
3.3484515271
 30
0.0
 10
8.0769514976
 20
3.3486263009
 30
0.0
 10
8.0730847946
 20
3.3484515271
 30
0.0
 10
8.0692267698
 20
3.3479300076
 30
0.0
 10
8.0653857579
 20
3.3470666675
 30
0.0
 10
8.061569117
 20
3.3458709336
 30
0.0
 10
8.0577833288
 20
3.3443542246
 30
0.0
 10
8.0540337089
 20
3.3425303198
 30
0.0
 10
8.0503244891
 20
3.3404145029
 30
0.0
 10
8.046658978
 20
3.3380227665
 30
0.0
 10
8.0430395239
 20
3.3353717573
 30
0.0
 10
8.0394677178
 20
3.3324780074
 30
0.0
 10
8.0359445533
 20
3.329357832
 30
0.0
 10
8.0324702669
 20
3.3260270986
 30
0.0
 10
8.029044775
 20
3.3225007098
 30
0.0
 10
8.0245005824
 20
3.3175118415
 30
0.0
 10
8.0212270825
 20
3.3135858729
 30
0.0
 10
8.0190883779
 20
3.3108960538
 30
0.0
  0
LINE
  5
487
100
AcDbEntity
  8
0
100
AcDbLine
 62
7
  6
CONTINUOUS
 10
6.231219101
 20
3.7676419157
 11
6.2304926022
 21
3.7688524448
  0
SPLINE
  5
488
100
AcDbEntity
  8
0
100
AcDbSpline
 62
7
  6
CONTINUOUS
 70
0
 71
3
 72
20
 73
16
 74
0
 42
0.0000001
 43
0.0000001
 44
0.0000000001
 40
0.0
 40
0.0
 40
0.0
 40
0.0
 40
0.0421171505
 40
0.0922326042
 40
0.1494263021
 40
0.2126785772
 40
0.3529043125
 40
0.5034250311
 40
0.653975519
 40
0.7259118208
 40
0.793815275
 40
0.8563649621
 40
0.9123090527
 40
0.9605104647
 40
1.0
 40
1.0
 40
1.0
 40
1.0
 10
6.2304926022
 20
3.7688524448
 30
0.0
 10
6.2303932971
 20
3.7690982076
 30
0.0
 10
6.230190075
 20
3.7696421509
 30
0.0
 10
6.2298889382
 20
3.7705331482
 30
0.0
 10
6.229569421
 20
3.7715580272
 30
0.0
 10
6.2291107989
 20
3.7731332504
 30
0.0
 10
6.228539709
 20
3.7752870805
 30
0.0
 10
6.2278947658
 20
3.7779887314
 30
0.0
 10
6.2274036282
 20
3.7802846115
 30
0.0
 10
6.2270566594
 20
3.7820790175
 30
0.0
 10
6.2268330758
 20
3.7833330502
 30
0.0
 10
6.2266465737
 20
3.7844912968
 30
0.0
 10
6.2265009099
 20
3.7855303524
 30
0.0
 10
6.226399078
 20
3.7864286707
 30
0.0
 10
6.2263568263
 20
3.7869792047
 30
0.0
 10
6.2263459043
 20
3.7872274951
 30
0.0
  0
LINE
  5
489
100
AcDbEntity
  8
0
100
AcDbLine
 62
7
  6
CONTINUOUS
 10
6.2263459043
 20
3.7872274951
 11
6.2263801105
 21
3.7881515288
  0
SPLINE
  5
48A
100
AcDbEntity
  8
0
100
AcDbSpline
 62
7
  6
CONTINUOUS
 70
0
 71
3
 72
34
 73
30
 74
0
 42
0.0000001
 43
0.0000001
 44
0.0000000001
 40
0.0
 40
0.0
 40
0.0
 40
0.0
 40
0.073436054
 40
0.1081701015
 40
0.1415034004
 40
0.1733979226
 40
0.2038383223
 40
0.2328391207
 40
0.26044757
 40
0.2867548147
 40
0.3119052127
 40
0.3360924285
 40
0.3595658661
 40
0.3826204317
 40
0.4055784343
 40
0.4287705644
 40
0.4525091466
 40
0.5026267162
 40
0.529464395
 40
0.5576479757
 40
0.5872481052
 40
0.6182976698
 40
0.6507982914
 40
0.6847240717
 40
0.7200294598
 40
0.7566556253
 40
0.8335896725
 40
0.914917329
 40
1.0
 40
1.0
 40
1.0
 40
1.0
 10
6.5750103922
 20
3.0862925296
 30
0.0
 10
6.5756481431
 20
3.0871900263
 30
0.0
 10
6.5766204348
 20
3.0884896534
 30
0.0
 10
6.5779778384
 20
3.0901206213
 30
0.0
 10
6.5789815332
 20
3.0912342186
 30
0.0
 10
6.5799897798
 20
3.0922551944
 30
0.0
 10
6.581002703
 20
3.0931777962
 30
0.0
 10
6.5820200796
 20
3.0939967608
 30
0.0
 10
6.5830419471
 20
3.0947068051
 30
0.0
 10
6.5840683662
 20
3.0953027729
 30
0.0
 10
6.5850988395
 20
3.0957807192
 30
0.0
 10
6.5861332122
 20
3.0961362999
 30
0.0
 10
6.5871707059
 20
3.0963660443
 30
0.0
 10
6.5882100862
 20
3.0964683263
 30
0.0
 10
6.5892499624
 20
3.0964411319
 30
0.0
 10
6.5902887346
 20
3.0962851907
 30
0.0
 10
6.5916952323
 20
3.0959016183
 30
0.0
 10
6.5930760223
 20
3.0952627095
 30
0.0
 10
6.5944110324
 20
3.0944230357
 30
0.0
 10
6.5954311784
 20
3.0936666029
 30
0.0
 10
6.5964466545
 20
3.0928036215
 30
0.0
 10
6.5974576497
 20
3.0918391342
 30
0.0
 10
6.5984639607
 20
3.0907786464
 30
0.0
 10
6.5994657354
 20
3.0896279765
 30
0.0
 10
6.6004629921
 20
3.0883929202
 30
0.0
 10
6.6018087398
 20
3.0866119694
 30
0.0
 10
6.6034709397
 20
3.0842073151
 30
0.0
 10
6.6054191646
 20
3.0811217967
 30
0.0
 10
6.6066834071
 20
3.0789704229
 30
0.0
 10
6.6073166617
 20
3.077863078
 30
0.0
  0
SPLINE
  5
48B
100
AcDbEntity
  8
0
100
AcDbSpline
 62
7
  6
CONTINUOUS
 70
0
 71
3
 72
45
 73
41
 74
0
 42
0.0000001
 43
0.0000001
 44
0.0000000001
 40
0.0
 40
0.0
 40
0.0
 40
0.0
 40
0.0205739412
 40
0.0303591981
 40
0.0398696338
 40
0.0582080638
 40
0.0758527577
 40
0.0930006462
 40
0.1098066895
 40
0.1263899917
 40
0.1428495552
 40
0.1757112427
 40
0.1923008146
 40
0.2091170355
 40
0.2262800598
 40
0.2439461962
 40
0.2623143883
 40
0.2816448961
 40
0.3022729366
 40
0.3246271903
 40
0.349259327
 40
0.3768789776
 40
0.408410567
 40
0.4450815108
 40
0.4885441145
 40
0.5134877419
 40
0.5409760823
 40
0.5712971974
 40
0.6046126083
 40
0.640757581
 40
0.6789809773
 40
0.7178737409
 40
0.7557654407
 40
0.7913662583
 40
0.8240638542
 40
0.8537821551
 40
0.8807213074
 40
0.9274547351
 40
0.9665956041
 40
1.0
 40
1.0
 40
1.0
 40
1.0
 10
6.5750103941
 20
3.0137393611
 30
0.0
 10
6.5755154173
 20
3.0133027006
 30
0.0
 10
6.5762922902
 20
3.0126934453
 30
0.0
 10
6.5773675166
 20
3.0119732632
 30
0.0
 10
6.5784136339
 20
3.011342357
 30
0.0
 10
6.5797300295
 20
3.0106692315
 30
0.0
 10
6.5813308163
 20
3.0100232387
 30
0.0
 10
6.5829328935
 20
3.009530081
 30
0.0
 10
6.5845350794
 20
3.0091727635
 30
0.0
 10
6.5861377322
 20
3.0089420211
 30
0.0
 10
6.5882723777
 20
3.0087912311
 30
0.0
 10
6.5904185237
 20
3.0088709597
 30
0.0
 10
6.5925475943
 20
3.0091835022
 30
0.0
 10
6.594149905
 20
3.009545546
 30
0.0
 10
6.5957519011
 20
3.0100439674
 30
0.0
 10
6.5973527224
 20
3.0106958167
 30
0.0
 10
6.5989517425
 20
3.0115203832
 30
0.0
 10
6.6005471734
 20
3.0125441101
 30
0.0
 10
6.6021364988
 20
3.0137995485
 30
0.0
 10
6.6037164009
 20
3.0153273261
 30
0.0
 10
6.6052815863
 20
3.0171795652
 30
0.0
 10
6.6068245658
 20
3.0194233206
 30
0.0
 10
6.6083337913
 20
3.0221472318
 30
0.0
 10
6.6097898874
 20
3.0254706845
 30
0.0
 10
6.6108747284
 20
3.0287082349
 30
0.0
 10
6.6116776177
 20
3.0317153806
 30
0.0
 10
6.6122573011
 20
3.0343383272
 30
0.0
 10
6.6127695726
 20
3.0372515432
 30
0.0
 10
6.6131902668
 20
3.0404630684
 30
0.0
 10
6.6134899293
 20
3.0439457045
 30
0.0
 10
6.6136398342
 20
3.0476192367
 30
0.0
 10
6.6136223131
 20
3.0513524993
 30
0.0
 10
6.6134396228
 20
3.0549960713
 30
0.0
 10
6.6131125195
 20
3.0584275362
 30
0.0
 10
6.6126706881
 20
3.0615783491
 30
0.0
 10
6.6121427828
 20
3.0644304601
 30
0.0
 10
6.6113892838
 20
3.0677005507
 30
0.0
 10
6.6103464501
 20
3.0712149552
 30
0.0
 10
6.6089198589
 20
3.0748182077
 30
0.0
 10
6.6078547732
 20
3.0769221056
 30
0.0
 10
6.6073166617
 20
3.077863078
 30
0.0
  0
SPLINE
  5
48C
100
AcDbEntity
  8
0
100
AcDbSpline
 62
7
  6
CONTINUOUS
 70
0
 71
3
 72
32
 73
28
 74
0
 42
0.0000001
 43
0.0000001
 44
0.0000000001
 40
0.0
 40
0.0
 40
0.0
 40
0.0
 40
0.0014021092
 40
0.0029229043
 40
0.0047013916
 40
0.0068267157
 40
0.0093516208
 40
0.0123073686
 40
0.0157132299
 40
0.0195817055
 40
0.028736499
 40
0.0398160103
 40
0.0528417989
 40
0.0678248988
 40
0.0847713205
 40
0.1036836036
 40
0.1245606064
 40
0.1473995963
 40
0.1989457384
 40
0.2582716865
 40
0.3253080106
 40
0.3999623734
 40
0.4821232219
 40
0.5716592571
 40
0.6684082804
 40
0.7721905751
 40
1.0
 40
1.0
 40
1.0
 40
1.0
 10
7.6170338403
 20
2.975595099
 30
0.0
 10
7.6170310402
 20
2.9755713897
 30
0.0
 10
7.6170344174
 20
2.9755204438
 30
0.0
 10
7.6170674257
 20
2.9754461783
 30
0.0
 10
7.6171259034
 20
2.9753737564
 30
0.0
 10
7.6172091948
 20
2.9753021156
 30
0.0
 10
7.61731748
 20
2.9752306317
 30
0.0
 10
7.6174509917
 20
2.9751591022
 30
0.0
 10
7.6176098861
 20
2.9750874738
 30
0.0
 10
7.6178707274
 20
2.9749861165
 30
0.0
 10
7.6182623936
 20
2.9748622904
 30
0.0
 10
7.6188108494
 20
2.9747205498
 30
0.0
 10
7.6194613642
 20
2.9745791488
 30
0.0
 10
7.6202138793
 20
2.9744385069
 30
0.0
 10
7.6210683428
 20
2.9742991095
 30
0.0
 10
7.6220245734
 20
2.9741613766
 30
0.0
 10
7.6230823247
 20
2.974025646
 30
0.0
 10
7.6246937876
 20
2.9738402671
 30
0.0
 10
7.6269599349
 20
2.9736191982
 30
0.0
 10
7.6299796913
 20
2.9733775745
 30
0.0
 10
7.6333952569
 20
2.9731541196
 30
0.0
 10
7.6372015343
 20
2.9729516417
 30
0.0
 10
7.6413925123
 20
2.9727735494
 30
0.0
 10
7.6459610124
 20
2.9726235404
 30
0.0
 10
7.6508986756
 20
2.97250397
 30
0.0
 10
7.65819122
 20
2.9723842817
 30
0.0
 10
7.6638374505
 20
2.972353297
 30
0.0
 10
7.6677164219
 20
2.9723532663
 30
0.0
  0
SPLINE
  5
48D
100
AcDbEntity
  8
0
100
AcDbSpline
 62
7
  6
CONTINUOUS
 70
0
 71
3
 72
38
 73
34
 74
0
 42
0.0000001
 43
0.0000001
 44
0.0000000001
 40
0.0
 40
0.0
 40
0.0
 40
0.0
 40
0.0003967236
 40
0.0007569744
 40
0.0015363141
 40
0.0020364326
 40
0.0026347551
 40
0.0041623119
 40
0.0061648677
 40
0.0086607414
 40
0.0116588847
 40
0.015164182
 40
0.019179497
 40
0.0237065747
 40
0.0287464931
 40
0.0342999014
 40
0.0469476475
 40
0.0616490188
 40
0.0784012621
 40
0.0971999684
 40
0.1180367137
 40
0.1409017199
 40
0.1657848349
 40
0.1926744487
 40
0.2524227537
 40
0.3200364445
 40
0.3953824347
 40
0.478306815
 40
0.5686372744
 40
0.6661875841
 40
0.7707558898
 40
0.8821160507
 40
1.0
 40
1.0
 40
1.0
 40
1.0
 10
7.6071239491
 20
3.0173996659
 30
0.0
 10
7.6071199928
 20
3.0174056743
 30
0.0
 10
7.6071137079
 20
3.0174181318
 30
0.0
 10
7.6071102249
 20
3.0174464759
 30
0.0
 10
7.6071248848
 20
3.0174749301
 30
0.0
 10
7.6071491785
 20
3.0174986447
 30
0.0
 10
7.6071878559
 20
3.0175267897
 30
0.0
 10
7.6072552115
 20
3.0175602187
 30
0.0
 10
7.6073578113
 20
3.0175980453
 30
0.0
 10
7.6074884645
 20
3.0176359156
 30
0.0
 10
7.6076472125
 20
3.0176738722
 30
0.0
 10
7.6078341738
 20
3.0177118059
 30
0.0
 10
7.6080493479
 20
3.0177496851
 30
0.0
 10
7.6082927389
 20
3.0177874695
 30
0.0
 10
7.6085643325
 20
3.0178251376
 30
0.0
 10
7.6089825193
 20
3.0178774708
 30
0.0
 10
7.6095757582
 20
3.0179414107
 30
0.0
 10
7.6103721461
 20
3.018014427
 30
0.0
 10
7.6112805668
 20
3.0180863429
 30
0.0
 10
7.6123006413
 20
3.0181568952
 30
0.0
 10
7.6134318881
 20
3.018225964
 30
0.0
 10
7.6146737382
 20
3.0182934345
 30
0.0
 10
7.6160255778
 20
3.0183592148
 30
0.0
 10
7.6180459056
 20
3.018447538
 30
0.0
 10
7.6208411282
 20
3.0185508872
 30
0.0
 10
7.6245152795
 20
3.0186609517
 30
0.0
 10
7.6286101532
 20
3.0187594136
 30
0.0
 10
7.6331173201
 20
3.0188452043
 30
0.0
 10
7.6380274048
 20
3.018917737
 30
0.0
 10
7.643330194
 20
3.0189748846
 30
0.0
 10
7.6490144836
 20
3.0190152996
 30
0.0
 10
7.655067579
 20
3.0190403871
 30
0.0
 10
7.6592245467
 20
3.0190461659
 30
0.0
 10
7.6613621785
 20
3.0190462943
 30
0.0
  0
SPLINE
  5
48E
100
AcDbEntity
  8
0
100
AcDbSpline
 62
7
  6
CONTINUOUS
 70
0
 71
3
 72
18
 73
14
 74
0
 42
0.0000001
 43
0.0000001
 44
0.0000000001
 40
0.0
 40
0.0
 40
0.0
 40
0.0
 40
0.1127982021
 40
0.2277697355
 40
0.3457869198
 40
0.4062604624
 40
0.4678124762
 40
0.5943461554
 40
0.7257443305
 40
0.7932043813
 40
0.8615740915
 40
0.9306193512
 40
1.0
 40
1.0
 40
1.0
 40
1.0
 10
6.5041175547
 20
3.6385203909
 30
0.0
 10
6.5039977939
 20
3.6380315414
 30
0.0
 10
6.5036858957
 20
3.6370600159
 30
0.0
 10
6.5030048931
 20
3.6356697278
 30
0.0
 10
6.5022552976
 20
3.6345890926
 30
0.0
 10
6.501545096
 20
3.6337860151
 30
0.0
 10
6.500744856
 20
3.6330165661
 30
0.0
 10
6.4995956266
 20
3.632160867
 30
0.0
 10
6.4982905021
 20
3.6315059241
 30
0.0
 10
6.4971609112
 20
3.6311197406
 30
0.0
 10
6.4962708758
 20
3.6309050602
 30
0.0
 10
6.4953562216
 20
3.6307738397
 30
0.0
 10
6.4947381599
 20
3.6307443823
 30
0.0
 10
6.4944285835
 20
3.6307443823
 30
0.0
  0
SPLINE
  5
48F
100
AcDbEntity
  8
0
100
AcDbSpline
 62
7
  6
CONTINUOUS
 70
0
 71
3
 72
18
 73
14
 74
0
 42
0.0000001
 43
0.0000001
 44
0.0000000001
 40
0.0
 40
0.0
 40
0.0
 40
0.0
 40
0.1148402421
 40
0.2314674242
 40
0.3506085665
 40
0.4114017052
 40
0.4730927587
 40
0.5993226756
 40
0.7296354176
 40
0.7962914076
 40
0.8637168549
 40
0.9317169692
 40
1.0
 40
1.0
 40
1.0
 40
1.0
 10
6.5041175547
 20
3.6396960985
 30
0.0
 10
6.5039979546
 20
3.6391893205
 30
0.0
 10
6.503686912
 20
3.6381828497
 30
0.0
 10
6.5030067829
 20
3.6367403259
 30
0.0
 10
6.5022569711
 20
3.6356172381
 30
0.0
 10
6.5015459473
 20
3.6347824192
 30
0.0
 10
6.5007471259
 20
3.6339848959
 30
0.0
 10
6.4996000431
 20
3.6330972882
 30
0.0
 10
6.4982929006
 20
3.6324155356
 30
0.0
 10
6.4971617529
 20
3.6320139742
 30
0.0
 10
6.4962714862
 20
3.6317909865
 30
0.0
 10
6.4953565478
 20
3.6316546805
 30
0.0
 10
6.4947381871
 20
3.6316240767
 30
0.0
 10
6.4944285835
 20
3.6316240767
 30
0.0
  0
SPLINE
  5
490
100
AcDbEntity
  8
0
100
AcDbSpline
 62
7
  6
CONTINUOUS
 70
0
 71
3
 72
17
 73
13
 74
0
 42
0.0000001
 43
0.0000001
 44
0.0000000001
 40
0.0
 40
0.0
 40
0.0
 40
0.0
 40
0.1167810212
 40
0.2351531921
 40
0.355665632
 40
0.4169238249
 40
0.4789055561
 40
0.6050761874
 40
0.734357735
 40
0.8001242519
 40
0.8664528199
 40
1.0
 40
1.0
 40
1.0
 40
1.0
 10
6.5038808193
 20
3.6407693685
 30
0.0
 10
6.5037325752
 20
3.6402899683
 30
0.0
 10
6.5033730171
 20
3.6393421915
 30
0.0
 10
6.5026467482
 20
3.6379926515
 30
0.0
 10
6.5018814277
 20
3.6369485258
 30
0.0
 10
6.5011722564
 20
3.6361765635
 30
0.0
 10
6.5003883529
 20
3.6354444436
 30
0.0
 10
6.4992823259
 20
3.634635272
 30
0.0
 10
6.4980398359
 20
3.6340170083
 30
0.0
 10
6.4969750746
 20
3.6336551777
 30
0.0
 10
6.4958641186
 20
3.6333881938
 30
0.0
 10
6.4950024238
 20
3.63330612
 30
0.0
 10
6.4944285835
 20
3.63330612
 30
0.0
  0
SPLINE
  5
491
100
AcDbEntity
  8
0
100
AcDbSpline
 62
7
  6
CONTINUOUS
 70
0
 71
3
 72
18
 73
14
 74
0
 42
0.0000001
 43
0.0000001
 44
0.0000000001
 40
0.0
 40
0.0
 40
0.0
 40
0.0
 40
0.1182800689
 40
0.2377167229
 40
0.3587897809
 40
0.4201438777
 40
0.482091206
 40
0.6078414984
 40
0.7363226292
 40
0.8016050675
 40
0.8674095563
 40
0.9336099429
 40
1.0
 40
1.0
 40
1.0
 40
1.0
 10
6.5041175547
 20
3.6443828251
 30
0.0
 10
6.5039982027
 20
3.6438442123
 30
0.0
 10
6.5036884971
 20
3.6427757021
 30
0.0
 10
6.5030097949
 20
3.6412406526
 30
0.0
 10
6.5022597186
 20
3.6400423936
 30
0.0
 10
6.50154737
 20
3.6391512649
 30
0.0
 10
6.5007509816
 20
3.6383041172
 30
0.0
 10
6.499607802
 20
3.6373601856
 30
0.0
 10
6.4982972442
 20
3.6366306212
 30
0.0
 10
6.4971632964
 20
3.6362016422
 30
0.0
 10
6.4962726168
 20
3.6359638935
 30
0.0
 10
6.4953571554
 20
3.6358185455
 30
0.0
 10
6.4947382378
 20
3.635785902
 30
0.0
 10
6.4944285835
 20
3.635785902
 30
0.0
  0
SPLINE
  5
492
100
AcDbEntity
  8
0
100
AcDbSpline
 62
7
  6
CONTINUOUS
 70
0
 71
3
 72
17
 73
13
 74
0
 42
0.0000001
 43
0.0000001
 44
0.0000000001
 40
0.0
 40
0.0
 40
0.0
 40
0.0
 40
0.1197132984
 40
0.2403300436
 40
0.362227333
 40
0.4857963481
 40
0.6113731947
 40
0.7391095614
 40
0.8038239157
 40
0.8689537882
 40
0.9344022715
 40
1.0
 40
1.0
 40
1.0
 40
1.0
 10
6.5041175547
 20
3.647880998
 30
0.0
 10
6.5039982977
 20
3.6473285751
 30
0.0
 10
6.5036891345
 20
3.6462331827
 30
0.0
 10
6.5030108881
 20
3.6446579376
 30
0.0
 10
6.5021083122
 20
3.6431768522
 30
0.0
 10
6.5009748562
 20
3.6418315469
 30
0.0
 10
6.4996112151
 20
3.6406749976
 30
0.0
 10
6.4982991462
 20
3.6399244932
 30
0.0
 10
6.4971639866
 20
3.6394835914
 30
0.0
 10
6.4962731248
 20
3.6392394312
 30
0.0
 10
6.4953574305
 20
3.6390901562
 30
0.0
 10
6.4947382608
 20
3.6390566257
 30
0.0
 10
6.4944285835
 20
3.6390566257
 30
0.0
  0
SPLINE
  5
493
100
AcDbEntity
  8
0
100
AcDbSpline
 62
7
  6
CONTINUOUS
 70
0
 71
3
 72
17
 73
13
 74
0
 42
0.0000001
 43
0.0000001
 44
0.0000000001
 40
0.0
 40
0.0
 40
0.0
 40
0.0
 40
0.1209495705
 40
0.2425867973
 40
0.3651988042
 40
0.4890862118
 40
0.6145087986
 40
0.7415862495
 40
0.8057967352
 40
0.8703273849
 40
0.9351072499
 40
1.0
 40
1.0
 40
1.0
 40
1.0
 10
6.5041148914
 20
3.6521270656
 30
0.0
 10
6.5039953085
 20
3.6515629017
 30
0.0
 10
6.5036858815
 20
3.6504447036
 30
0.0
 10
6.5030074361
 20
3.6488356253
 30
0.0
 10
6.5021051995
 20
3.6473227688
 30
0.0
 10
6.5009725572
 20
3.6459484924
 30
0.0
 10
6.4996100302
 20
3.6447667518
 30
0.0
 10
6.498297578
 20
3.6439988617
 30
0.0
 10
6.4971621918
 20
3.6435480338
 30
0.0
 10
6.4962719209
 20
3.6432985814
 30
0.0
 10
6.4953568305
 20
3.6431460653
 30
0.0
 10
6.4947379979
 20
3.643111803
 30
0.0
 10
6.4944285835
 20
3.643111803
 30
0.0
  0
SPLINE
  5
494
100
AcDbEntity
  8
0
100
AcDbSpline
 62
7
  6
CONTINUOUS
 70
0
 71
3
 72
17
 73
13
 74
0
 42
0.0000001
 43
0.0000001
 44
0.0000000001
 40
0.0
 40
0.0
 40
0.0
 40
0.0
 40
0.1220095055
 40
0.2445219816
 40
0.3677480933
 40
0.4919107338
 40
0.6172032067
 40
0.7437160771
 40
0.8074938929
 40
0.8715093802
 40
0.9357140054
 40
1.0
 40
1.0
 40
1.0
 40
1.0
 10
6.5041175547
 20
3.6571390484
 30
0.0
 10
6.5039984425
 20
3.6565634254
 30
0.0
 10
6.5036900732
 20
3.655422824
 30
0.0
 10
6.5030127287
 20
3.6537803613
 30
0.0
 10
6.502111367
 20
3.652235898
 30
0.0
 10
6.5009792635
 20
3.6508325568
 30
0.0
 10
6.4996167246
 20
3.6496253224
 30
0.0
 10
6.4983023937
 20
3.6488397552
 30
0.0
 10
6.4971651658
 20
3.6483787335
 30
0.0
 10
6.4962740034
 20
3.6481238007
 30
0.0
 10
6.4953579076
 20
3.6479679185
 30
0.0
 10
6.4947383006
 20
3.6479328956
 30
0.0
 10
6.4944285835
 20
3.6479328956
 30
0.0
  0
SPLINE
  5
495
100
AcDbEntity
  8
0
100
AcDbSpline
 62
7
  6
CONTINUOUS
 70
0
 71
3
 72
17
 73
13
 74
0
 42
0.0000001
 43
0.0000001
 44
0.0000000001
 40
0.0
 40
0.0
 40
0.0
 40
0.0
 40
0.1229007703
 40
0.2461518692
 40
0.3698992872
 40
0.494299269
 40
0.6194868477
 40
0.7455250795
 40
0.8089366181
 40
0.8725148379
 40
0.9362303525
 40
1.0
 40
1.0
 40
1.0
 40
1.0
 10
6.5041175547
 20
3.6628735501
 30
0.0
 10
6.5039984961
 20
3.662288606
 30
0.0
 10
6.5036904217
 20
3.6611298399
 30
0.0
 10
6.5030134197
 20
3.6594603995
 30
0.0
 10
6.5021125315
 20
3.6578905148
 30
0.0
 10
6.5009809748
 20
3.6564639079
 30
0.0
 10
6.4996189106
 20
3.655236352
 30
0.0
 10
6.4983037085
 20
3.6544366674
 30
0.0
 10
6.4971656475
 20
3.6539675399
 30
0.0
 10
6.4962743648
 20
3.6537082761
 30
0.0
 10
6.4953581047
 20
3.6535497362
 30
0.0
 10
6.4947383171
 20
3.6535141126
 30
0.0
 10
6.4944285835
 20
3.6535141126
 30
0.0
  0
SPLINE
  5
496
100
AcDbEntity
  8
0
100
AcDbSpline
 62
7
  6
CONTINUOUS
 70
0
 71
3
 72
17
 73
13
 74
0
 42
0.0000001
 43
0.0000001
 44
0.0000000001
 40
0.0
 40
0.0
 40
0.0
 40
0.0
 40
0.123629849
 40
0.2474863039
 40
0.3716624401
 40
0.4962594643
 40
0.6213635778
 40
0.7470137221
 40
0.8101245003
 40
0.8733430461
 40
0.9366557902
 40
1.0
 40
1.0
 40
1.0
 40
1.0
 10
6.5041175547
 20
3.6693247482
 30
0.0
 10
6.5039985388
 20
3.6687320403
 30
0.0
 10
6.5036907006
 20
3.6675581438
 30
0.0
 10
6.5030139756
 20
3.6658662445
 30
0.0
 10
6.5021134751
 20
3.664275203
 30
0.0
 10
6.5009823744
 20
3.662829239
 30
0.0
 10
6.4996207186
 20
3.6615847757
 30
0.0
 10
6.4983048075
 20
3.6607733201
 30
0.0
 10
6.4971660521
 20
3.6602974314
 30
0.0
 10
6.4962746694
 20
3.660034559
 30
0.0
 10
6.4953582712
 20
3.659873804
 30
0.0
 10
6.4947383311
 20
3.6598376795
 30
0.0
 10
6.4944285835
 20
3.6598376795
 30
0.0
  0
SPLINE
  5
497
100
AcDbEntity
  8
0
100
AcDbSpline
 62
7
  6
CONTINUOUS
 70
0
 71
3
 72
28
 73
24
 74
0
 42
0.0000001
 43
0.0000001
 44
0.0000000001
 40
0.0
 40
0.0
 40
0.0
 40
0.0
 40
0.0141175582
 40
0.028668313
 40
0.0596799231
 40
0.0764505173
 40
0.0941998702
 40
0.1130142243
 40
0.1329640783
 40
0.1541062439
 40
0.1764853059
 40
0.2001366295
 40
0.2250875167
 40
0.2789545684
 40
0.3381919562
 40
0.4028263341
 40
0.4728326536
 40
0.548146003
 40
0.6286684593
 40
0.7142732023
 40
0.8048114002
 40
0.9001217566
 40
1.0
 40
1.0
 40
1.0
 40
1.0
 10
7.2434320179
 20
2.5032860371
 30
0.0
 10
7.2435314189
 20
2.503556531
 30
0.0
 10
7.2437667729
 20
2.5040940981
 30
0.0
 10
7.2443803696
 20
2.5051489429
 30
0.0
 10
7.2451960721
 20
2.5061380189
 30
0.0
 10
7.246172429
 20
2.5070534907
 30
0.0
 10
7.2470231701
 20
2.5077346983
 30
0.0
 10
7.247972287
 20
2.5083917874
 30
0.0
 10
7.2490194247
 20
2.5090247312
 30
0.0
 10
7.2501639524
 20
2.5096331717
 30
0.0
 10
7.2514052284
 20
2.5102168831
 30
0.0
 10
7.2527425703
 20
2.5107755767
 30
0.0
 10
7.2547032898
 20
2.5115053911
 30
0.0
 10
7.257395814
 20
2.5123446497
 30
0.0
 10
7.2609175168
 20
2.5132234704
 30
0.0
 10
7.2648003166
 20
2.5139960813
 30
0.0
 10
7.2690352573
 20
2.5146606176
 30
0.0
 10
7.2736126637
 20
2.5152153768
 30
0.0
 10
7.2785218229
 20
2.515658953
 30
0.0
 10
7.2837511721
 20
2.5159902085
 30
0.0
 10
7.2892884936
 20
2.5162082581
 30
0.0
 10
7.2951204524
 20
2.516312485
 30
0.0
 10
7.2991050736
 20
2.5163060687
 30
0.0
 10
7.301143765
 20
2.5162850043
 30
0.0
  0
SPLINE
  5
498
100
AcDbEntity
  8
0
100
AcDbSpline
 62
7
  6
CONTINUOUS
 70
0
 71
3
 72
17
 73
13
 74
0
 42
0.0000001
 43
0.0000001
 44
0.0000000001
 40
0.0
 40
0.0
 40
0.0
 40
0.0
 40
0.1242020703
 40
0.2485343474
 40
0.3730483816
 40
0.4978018866
 40
0.6228419985
 40
0.7481876819
 40
0.811061694
 40
0.873996697
 40
0.9369916342
 40
1.0
 40
1.0
 40
1.0
 40
1.0
 10
6.5041175547
 20
3.6764749604
 30
0.0
 10
6.5039985717
 20
3.6758760687
 30
0.0
 10
6.5036909155
 20
3.6746901209
 30
0.0
 10
6.5030144058
 20
3.6729803407
 30
0.0
 10
6.5021142099
 20
3.6713724589
 30
0.0
 10
6.5009834725
 20
3.6699110912
 30
0.0
 10
6.4996221497
 20
3.6686531739
 30
0.0
 10
6.498305685
 20
3.6678323354
 30
0.0
 10
6.4971663764
 20
3.6673510553
 30
0.0
 10
6.4962749144
 20
3.667085308
 30
0.0
 10
6.4953584054
 20
3.6669227876
 30
0.0
 10
6.4947383423
 20
3.6668862638
 30
0.0
 10
6.4944285835
 20
3.6668862638
 30
0.0
  0
SPLINE
  5
499
100
AcDbEntity
  8
0
100
AcDbSpline
 62
7
  6
CONTINUOUS
 70
0
 71
3
 72
17
 73
13
 74
0
 42
0.0000001
 43
0.0000001
 44
0.0000000001
 40
0.0
 40
0.0
 40
0.0
 40
0.0
 40
0.1246215974
 40
0.2493031328
 40
0.3740657098
 40
0.4989349511
 40
0.6239289691
 40
0.7490515395
 40
0.8117515733
 40
0.8744779933
 40
0.9372389688
 40
1.0
 40
1.0
 40
1.0
 40
1.0
 10
6.5041175547
 20
3.6843045884
 30
0.0
 10
6.5039985955
 20
3.6837011114
 30
0.0
 10
6.503691071
 20
3.6825062267
 30
0.0
 10
6.5030147181
 20
3.680783191
 30
0.0
 10
6.5021147455
 20
3.6791628274
 30
0.0
 10
6.5009842774
 20
3.677690045
 30
0.0
 10
6.499623206
 20
3.676422158
 30
0.0
 10
6.4983063371
 20
3.6755943575
 30
0.0
 10
6.4971666181
 20
3.6751090758
 30
0.0
 10
6.4962750974
 20
3.674841196
 30
0.0
 10
6.4953585058
 20
3.674677366
 30
0.0
 10
6.4947383507
 20
3.674640546
 30
0.0
 10
6.4944285835
 20
3.674640546
 30
0.0
  0
SPLINE
  5
49A
100
AcDbEntity
  8
0
100
AcDbSpline
 62
7
  6
CONTINUOUS
 70
0
 71
3
 72
9
 73
5
 74
0
 42
0.0000001
 43
0.0000001
 44
0.0000000001
 40
0.0
 40
0.0
 40
0.0
 40
0.0
 40
0.4881536325
 40
1.0
 40
1.0
 40
1.0
 40
1.0
 10
7.2074440447
 20
2.7492659726
 30
0.0
 10
7.2094075635
 20
2.7489597663
 30
0.0
 10
7.2134800487
 20
2.7486284939
 30
0.0
 10
7.2175573523
 20
2.7488369012
 30
0.0
 10
7.2196286759
 20
2.7490637024
 30
0.0
  0
SPLINE
  5
49B
100
AcDbEntity
  8
0
100
AcDbSpline
 62
7
  6
CONTINUOUS
 70
0
 71
3
 72
17
 73
13
 74
0
 42
0.0000001
 43
0.0000001
 44
0.0000000001
 40
0.0
 40
0.0
 40
0.0
 40
0.0
 40
0.1248914921
 40
0.2497979125
 40
0.3747207867
 40
0.4996650151
 40
0.6246298502
 40
0.7496090377
 40
0.8121968978
 40
0.8747887373
 40
0.9373986746
 40
1.0
 40
1.0
 40
1.0
 40
1.0
 10
6.5041148914
 20
3.6927837543
 30
0.0
 10
6.5039955436
 20
3.6921779598
 30
0.0
 10
6.5036874095
 20
3.6909786326
 30
0.0
 10
6.503010468
 20
3.6892491035
 30
0.0
 10
6.5021103227
 20
3.6876227748
 30
0.0
 10
6.5009801188
 20
3.686144678
 30
0.0
 10
6.4996197456
 20
3.6848722691
 30
0.0
 10
6.4983034564
 20
3.6840413221
 30
0.0
 10
6.4971643515
 20
3.6835542818
 30
0.0
 10
6.4962735446
 20
3.6832854942
 30
0.0
 10
6.4953577173
 20
3.6831211107
 30
0.0
 10
6.4947380721
 20
3.6830841658
 30
0.0
 10
6.4944285835
 20
3.6830841658
 30
0.0
  0
SPLINE
  5
49C
100
AcDbEntity
  8
0
100
AcDbSpline
 62
7
  6
CONTINUOUS
 70
0
 71
3
 72
17
 73
13
 74
0
 42
0.0000001
 43
0.0000001
 44
0.0000000001
 40
0.0
 40
0.0
 40
0.0
 40
0.0
 40
0.1250138191
 40
0.2500221743
 40
0.3750177129
 40
0.4999959456
 40
0.6249475321
 40
0.7498615798
 40
0.8123986564
 40
0.8749295318
 40
0.9374710429
 40
1.0
 40
1.0
 40
1.0
 40
1.0
 10
6.5041175547
 20
3.7019144466
 30
0.0
 10
6.5039986174
 20
3.7013066424
 30
0.0
 10
6.5036912147
 20
3.7001033238
 30
0.0
 10
6.5030150075
 20
3.6983677817
 30
0.0
 10
6.5021152437
 20
3.6967356436
 30
0.0
 10
6.5009850296
 20
3.6952520949
 30
0.0
 10
6.4996241987
 20
3.6939748051
 30
0.0
 10
6.4983069532
 20
3.6931404313
 30
0.0
 10
6.4971668471
 20
3.6926513705
 30
0.0
 10
6.496275271
 20
3.692381478
 30
0.0
 10
6.4953586012
 20
3.6922164116
 30
0.0
 10
6.4947383587
 20
3.6921793119
 30
0.0
 10
6.4944285835
 20
3.6921793119
 30
0.0
  0
SPLINE
  5
49D
100
AcDbEntity
  8
0
100
AcDbSpline
 62
7
  6
CONTINUOUS
 70
0
 71
3
 72
17
 73
13
 74
0
 42
0.0000001
 43
0.0000001
 44
0.0000000001
 40
0.0
 40
0.0
 40
0.0
 40
0.0
 40
0.1249893799
 40
0.2499773625
 40
0.3749583684
 40
0.4999297877
 40
0.6248839994
 40
0.7498110378
 40
0.8123582766
 40
0.8749013515
 40
0.9374565584
 40
1.0
 40
1.0
 40
1.0
 40
1.0
 10
6.5041175547
 20
3.7116464095
 30
0.0
 10
6.5039986161
 20
3.711038876
 30
0.0
 10
6.5036912058
 20
3.7098360852
 30
0.0
 10
6.5030149895
 20
3.7081013256
 30
0.0
 10
6.5021152127
 20
3.7064699242
 30
0.0
 10
6.5009849827
 20
3.7049870491
 30
0.0
 10
6.4996241367
 20
3.7037103475
 30
0.0
 10
6.4983069146
 20
3.7028763851
 30
0.0
 10
6.4971668328
 20
3.7023875609
 30
0.0
 10
6.4962752601
 20
3.7021177943
 30
0.0
 10
6.4953585952
 20
3.7019528053
 30
0.0
 10
6.4947383582
 20
3.7019157231
 30
0.0
 10
6.4944285835
 20
3.7019157231
 30
0.0
  0
SPLINE
  5
49E
100
AcDbEntity
  8
0
100
AcDbSpline
 62
7
  6
CONTINUOUS
 70
0
 71
3
 72
17
 73
13
 74
0
 42
0.0000001
 43
0.0000001
 44
0.0000000001
 40
0.0
 40
0.0
 40
0.0
 40
0.0
 40
0.124818027
 40
0.2496632016
 40
0.3745423758
 40
0.4994661068
 40
0.6244387953
 40
0.7494569253
 40
0.8120753843
 40
0.8747039382
 40
0.9373550921
 40
1.0
 40
1.0
 40
1.0
 40
1.0
 10
6.5041175547
 20
3.7219613857
 30
0.0
 10
6.5039986065
 20
3.7213557465
 30
0.0
 10
6.5036911432
 20
3.7201566476
 30
0.0
 10
6.5030148633
 20
3.7184273624
 30
0.0
 10
6.5021149953
 20
3.7168011149
 30
0.0
 10
6.5009846541
 20
3.7153229521
 30
0.0
 10
6.4996237025
 20
3.7140503661
 30
0.0
 10
6.4983066448
 20
3.7132192815
 30
0.0
 10
6.4971667324
 20
3.7127321117
 30
0.0
 10
6.496275184
 20
3.7124632263
 30
0.0
 10
6.4953585533
 20
3.7122987786
 30
0.0
 10
6.4947383547
 20
3.7122618188
 30
0.0
 10
6.4944285835
 20
3.7122618188
 30
0.0
  0
SPLINE
  5
49F
100
AcDbEntity
  8
0
100
AcDbSpline
 62
7
  6
CONTINUOUS
 70
0
 71
3
 72
17
 73
13
 74
0
 42
0.0000001
 43
0.0000001
 44
0.0000000001
 40
0.0
 40
0.0
 40
0.0
 40
0.0
 40
0.1244985049
 40
0.2490775326
 40
0.3737671187
 40
0.4986023108
 40
0.6236097758
 40
0.7487978034
 40
0.811548919
 40
0.8743366003
 40
0.9371663046
 40
1.0
 40
1.0
 40
1.0
 40
1.0
 10
6.5041175547
 20
3.7328311026
 30
0.0
 10
6.5039985886
 20
3.7322289756
 30
0.0
 10
6.5036910256
 20
3.731036722
 30
0.0
 10
6.5030146268
 20
3.7293175884
 30
0.0
 10
6.5021145886
 20
3.727700899
 30
0.0
 10
6.5009840413
 20
3.7262314765
 30
0.0
 10
6.4996228955
 20
3.724966524
 30
0.0
 10
6.498306145
 20
3.7241407735
 30
0.0
 10
6.4971665469
 20
3.7236566702
 30
0.0
 10
6.4962750434
 20
3.7233894182
 30
0.0
 10
6.4953584761
 20
3.7232259738
 30
0.0
 10
6.4947383482
 20
3.7231892411
 30
0.0
 10
6.4944285835
 20
3.7231892411
 30
0.0
  0
SPLINE
  5
4A0
100
AcDbEntity
  8
0
100
AcDbSpline
 62
7
  6
CONTINUOUS
 70
0
 71
3
 72
17
 73
13
 74
0
 42
0.0000001
 43
0.0000001
 44
0.0000000001
 40
0.0
 40
0.0
 40
0.0
 40
0.0
 40
0.1240284731
 40
0.2482163369
 40
0.3726277364
 40
0.4973335953
 40
0.6223929768
 40
0.7478310173
 40
0.8107769252
 40
0.873798064
 40
0.9368895712
 40
1.0
 40
1.0
 40
1.0
 40
1.0
 10
6.5041175547
 20
3.7442257671
 30
0.0
 10
6.5039985618
 20
3.7436287599
 30
0.0
 10
6.5036908507
 20
3.7424464848
 30
0.0
 10
6.5030142759
 20
3.740742153
 30
0.0
 10
6.5021139875
 20
3.7391394022
 30
0.0
 10
6.5009831395
 20
3.7376827275
 30
0.0
 10
6.4996217145
 20
3.736428909
 30
0.0
 10
6.4983054175
 20
3.7356109306
 30
0.0
 10
6.4971662774
 20
3.7351312941
 30
0.0
 10
6.4962748395
 20
3.7348664229
 30
0.0
 10
6.4953583644
 20
3.7347044406
 30
0.0
 10
6.4947383389
 20
3.7346680386
 30
0.0
 10
6.4944285835
 20
3.7346680386
 30
0.0
  0
LINE
  5
4A1
100
AcDbEntity
  8
0
100
AcDbLine
 62
7
  6
CONTINUOUS
 10
6.4944285835
 20
3.7443956945
 11
6.5041175547
 21
3.7442257671
  0
SPLINE
  5
4A2
100
AcDbEntity
  8
0
100
AcDbSpline
 62
7
  6
CONTINUOUS
 70
0
 71
3
 72
17
 73
13
 74
0
 42
0.0000001
 43
0.0000001
 44
0.0000000001
 40
0.0
 40
0.0
 40
0.0
 40
0.0
 40
0.1234044227
 40
0.2470740348
 40
0.3711181252
 40
0.4956547407
 40
0.6207850046
 40
0.7465551634
 40
0.8097586529
 40
0.8730880125
 40
0.9365247933
 40
1.0
 40
1.0
 40
1.0
 40
1.0
 10
6.5041148914
 20
3.7561080315
 30
0.0
 10
6.5039954582
 20
3.7555183746
 30
0.0
 10
6.5036868525
 20
3.7543504978
 30
0.0
 10
6.5030093535
 20
3.752667625
 30
0.0
 10
6.5021084178
 20
3.7510852297
 30
0.0
 10
6.5009772673
 20
3.7496473112
 30
0.0
 10
6.49961602
 20
3.7484099904
 30
0.0
 10
6.4983011661
 20
3.7476035241
 30
0.0
 10
6.4971635041
 20
3.7471305511
 30
0.0
 10
6.4962729041
 20
3.7468692626
 30
0.0
 10
6.4953573662
 20
3.7467094839
 30
0.0
 10
6.4947380427
 20
3.7466735804
 30
0.0
 10
6.4944285835
 20
3.7466735804
 30
0.0
  0
SPLINE
  5
4A3
100
AcDbEntity
  8
0
100
AcDbSpline
 62
7
  6
CONTINUOUS
 70
0
 71
3
 72
17
 73
13
 74
0
 42
0.0000001
 43
0.0000001
 44
0.0000000001
 40
0.0
 40
0.0
 40
0.0
 40
0.0
 40
0.1891899941
 40
0.3683457453
 40
0.5299650417
 40
0.669867623
 40
0.7864955482
 40
0.8798440913
 40
0.9180055084
 40
0.950656305
 40
0.9779377811
 40
1.0
 40
1.0
 40
1.0
 40
1.0
 10
6.4944285835
 20
3.7567862928
 30
0.0
 10
6.4950422308
 20
3.7567862928
 30
0.0
 10
6.4962370035
 20
3.756776534
 30
0.0
 10
6.4979555223
 20
3.7567337414
 30
0.0
 10
6.4995132789
 20
3.7566668167
 30
0.0
 10
6.5008669655
 20
3.7565808339
 30
0.0
 10
6.501997495
 20
3.7564805906
 30
0.0
 10
6.5027967527
 20
3.7563837016
 30
0.0
 10
6.5033225586
 20
3.7562993749
 30
0.0
 10
6.5036350475
 20
3.7562390947
 30
0.0
 10
6.5038939308
 20
3.7561778621
 30
0.0
 10
6.5040474535
 20
3.756131968
 30
0.0
 10
6.5041148914
 20
3.7561080315
 30
0.0
  0
SPLINE
  5
4A4
100
AcDbEntity
  8
0
100
AcDbSpline
 62
7
  6
CONTINUOUS
 70
0
 71
3
 72
17
 73
13
 74
0
 42
0.0000001
 43
0.0000001
 44
0.0000000001
 40
0.0
 40
0.0
 40
0.0
 40
0.0
 40
0.1226219988
 40
0.2456419038
 40
0.3692259368
 40
0.4935512651
 40
0.6187713169
 40
0.7449579839
 40
0.8084842521
 40
0.8721995266
 40
0.9360684096
 40
1.0
 40
1.0
 40
1.0
 40
1.0
 10
6.5041175547
 20
3.7684636576
 30
0.0
 10
6.5039984795
 20
3.7678816488
 30
0.0
 10
6.5036903136
 20
3.7667286029
 30
0.0
 10
6.503013205
 20
3.7650676562
 30
0.0
 10
6.5021121686
 20
3.7635057744
 30
0.0
 10
6.5009804396
 20
3.7620864908
 30
0.0
 10
6.499618224
 20
3.7608653316
 30
0.0
 10
6.4983032939
 20
3.7600700944
 30
0.0
 10
6.4971654954
 20
3.7596035208
 30
0.0
 10
6.4962742505
 20
3.7593456211
 30
0.0
 10
6.4953580423
 20
3.7591879183
 30
0.0
 10
6.4947383119
 20
3.7591524839
 30
0.0
 10
6.4944285835
 20
3.7591524839
 30
0.0
  0
SPLINE
  5
4A5
100
AcDbEntity
  8
0
100
AcDbSpline
 62
7
  6
CONTINUOUS
 70
0
 71
3
 72
18
 73
14
 74
0
 42
0.0000001
 43
0.0000001
 44
0.0000000001
 40
0.0
 40
0.0
 40
0.0
 40
0.0
 40
0.1876067961
 40
0.3653511698
 40
0.5258786773
 40
0.6651279327
 40
0.781647778
 40
0.8313908434
 40
0.8755760819
 40
0.9143395851
 40
0.9478547964
 40
0.9763258221
 40
1.0
 40
1.0
 40
1.0
 40
1.0
 10
6.4944285835
 20
3.7696502528
 30
0.0
 10
6.4950428281
 20
3.7696502528
 30
0.0
 10
6.4962391047
 20
3.7696331659
 30
0.0
 10
6.497959501
 20
3.7695582198
 30
0.0
 10
6.4995188673
 20
3.7694410623
 30
0.0
 10
6.5008738092
 20
3.7692903435
 30
0.0
 10
6.5018627767
 20
3.769137149
 30
0.0
 10
6.5025383848
 20
3.7690012712
 30
0.0
 10
6.50296122
 20
3.7689010483
 30
0.0
 10
6.5033284219
 20
3.7687977952
 30
0.0
 10
6.503641097
 20
3.7686920503
 30
0.0
 10
6.5039003209
 20
3.7685844153
 30
0.0
 10
6.5040517623
 20
3.7685046386
 30
0.0
 10
6.5041175547
 20
3.7684636576
 30
0.0
  0
SPLINE
  5
4A6
100
AcDbEntity
  8
0
100
AcDbSpline
 62
7
  6
CONTINUOUS
 70
0
 71
3
 72
17
 73
13
 74
0
 42
0.0000001
 43
0.0000001
 44
0.0000000001
 40
0.0
 40
0.0
 40
0.0
 40
0.0
 40
0.1216752953
 40
0.2439111933
 40
0.3669426085
 40
0.4910172543
 40
0.6163498693
 40
0.7430407651
 40
0.8069555314
 40
0.8711343044
 40
0.9355214252
 40
1.0
 40
1.0
 40
1.0
 40
1.0
 10
6.5041175547
 20
3.7812404493
 30
0.0
 10
6.5039984221
 20
3.7806682748
 30
0.0
 10
6.5036899402
 20
3.7795343936
 30
0.0
 10
6.5030124662
 20
3.7779019157
 30
0.0
 10
6.5021109273
 20
3.7763668633
 30
0.0
 10
6.5009786217
 20
3.7749721371
 30
0.0
 10
6.4996159115
 20
3.7737724271
 30
0.0
 10
6.4983019086
 20
3.7729920787
 30
0.0
 10
6.4971649887
 20
3.7725340527
 30
0.0
 10
6.496273871
 20
3.7722807218
 30
0.0
 10
6.4953578355
 20
3.7721258225
 30
0.0
 10
6.4947382946
 20
3.7720910216
 30
0.0
 10
6.4944285835
 20
3.7720910216
 30
0.0
  0
SPLINE
  5
4A7
100
AcDbEntity
  8
0
100
AcDbSpline
 62
7
  6
CONTINUOUS
 70
0
 71
3
 72
18
 73
14
 74
0
 42
0.0000001
 43
0.0000001
 44
0.0000000001
 40
0.0
 40
0.0
 40
0.0
 40
0.0
 40
0.1851715314
 40
0.3607667234
 40
0.5196680106
 40
0.6579923728
 40
0.7744377723
 40
0.8245184934
 40
0.8693238513
 40
0.9090261262
 40
0.943848232
 40
0.9740607095
 40
1.0
 40
1.0
 40
1.0
 40
1.0
 10
6.4944285835
 20
3.7829311952
 30
0.0
 10
6.4950428949
 20
3.7829311952
 30
0.0
 10
6.4962399058
 20
3.7829068233
 30
0.0
 10
6.4979611006
 20
3.7827999373
 30
0.0
 10
6.4995213846
 20
3.7826328041
 30
0.0
 10
6.5008774061
 20
3.7824177359
 30
0.0
 10
6.5018658425
 20
3.782199278
 30
0.0
 10
6.5025399819
 20
3.7820059878
 30
0.0
 10
6.5029631621
 20
3.7818629709
 30
0.0
 10
6.5033308143
 20
3.7817155212
 30
0.0
 10
6.5036440557
 20
3.7815643293
 30
0.0
 10
6.5039039804
 20
3.7814101565
 30
0.0
 10
6.5040531935
 20
3.7812975717
 30
0.0
 10
6.5041175547
 20
3.7812404493
 30
0.0
  0
SPLINE
  5
4A8
100
AcDbEntity
  8
0
100
AcDbSpline
 62
7
  6
CONTINUOUS
 70
0
 71
3
 72
17
 73
13
 74
0
 42
0.0000001
 43
0.0000001
 44
0.0000000001
 40
0.0
 40
0.0
 40
0.0
 40
0.0
 40
0.1205574868
 40
0.2418699641
 40
0.364253388
 40
0.4880376633
 40
0.6135076319
 40
0.74079412
 40
0.8051653607
 40
0.8698875651
 40
0.9348814498
 40
1.0
 40
1.0
 40
1.0
 40
1.0
 10
6.5041175547
 20
3.7944095019
 30
0.0
 10
6.5039983521
 20
3.7938486816
 30
0.0
 10
6.5036894866
 20
3.7927369259
 30
0.0
 10
6.503011575
 20
3.7911373387
 30
0.0
 10
6.5021094444
 20
3.7896332953
 30
0.0
 10
6.5009764759
 20
3.7882669621
 30
0.0
 10
6.49961322
 20
3.7870920497
 30
0.0
 10
6.4983003172
 20
3.7863288671
 30
0.0
 10
6.4971644101
 20
3.7858806919
 30
0.0
 10
6.4962734394
 20
3.7856326336
 30
0.0
 10
6.495357601
 20
3.7854809684
 30
0.0
 10
6.494738275
 20
3.7854468981
 30
0.0
 10
6.4944285835
 20
3.7854468981
 30
0.0
  0
SPLINE
  5
4A9
100
AcDbEntity
  8
0
100
AcDbSpline
 62
7
  6
CONTINUOUS
 70
0
 71
3
 72
19
 73
15
 74
0
 42
0.0000001
 43
0.0000001
 44
0.0000000001
 40
0.0
 40
0.0
 40
0.0
 40
0.0
 40
0.1821691182
 40
0.3551246721
 40
0.5120487256
 40
0.6492815726
 40
0.7101030612
 40
0.765729816
 40
0.8162618427
 40
0.8618621501
 40
0.9027387984
 40
0.9391597782
 40
0.9714487324
 40
1.0
 40
1.0
 40
1.0
 40
1.0
 10
6.4944285835
 20
3.7965997643
 30
0.0
 10
6.4950429841
 20
3.7965997643
 30
0.0
 10
6.4962409663
 20
3.7965681445
 30
0.0
 10
6.497963252
 20
3.796429528
 30
0.0
 10
6.4995245948
 20
3.7962126314
 30
0.0
 10
6.5006984509
 20
3.7959714387
 30
0.0
 10
6.5015248404
 20
3.7957489567
 30
0.0
 10
6.5020619353
 20
3.7955788914
 30
0.0
 10
6.5025419046
 20
3.7954004304
 30
0.0
 10
6.5029654224
 20
3.7952148817
 30
0.0
 10
6.5033334645
 20
3.7950234414
 30
0.0
 10
6.503647112
 20
3.7948269882
 30
0.0
 10
6.5039074093
 20
3.7946264442
 30
0.0
 10
6.5040543601
 20
3.7944821593
 30
0.0
 10
6.5041175547
 20
3.7944095019
 30
0.0
  0
SPLINE
  5
4AA
100
AcDbEntity
  8
0
100
AcDbSpline
 62
7
  6
CONTINUOUS
 70
0
 71
3
 72
17
 73
13
 74
0
 42
0.0000001
 43
0.0000001
 44
0.0000000001
 40
0.0
 40
0.0
 40
0.0
 40
0.0
 40
0.1192605225
 40
0.2395047098
 40
0.3611424217
 40
0.4845974088
 40
0.6102326742
 40
0.7382103388
 40
0.8031081413
 40
0.8684556966
 40
0.934146721
 40
1.0
 40
1.0
 40
1.0
 40
1.0
 10
6.5041175547
 20
3.8079347199
 30
0.0
 10
6.5039982679
 20
3.80738674
 30
0.0
 10
6.5036889422
 20
3.8063000052
 30
0.0
 10
6.5030105147
 20
3.8047376453
 30
0.0
 10
6.5021077006
 20
3.8032687156
 30
0.0
 10
6.5009739879
 20
3.8019345463
 30
0.0
 10
6.4996101497
 20
3.8007877205
 30
0.0
 10
6.4982985288
 20
3.8000439179
 30
0.0
 10
6.4971637641
 20
3.7996068603
 30
0.0
 10
6.49627296
 20
3.799364762
 30
0.0
 10
6.4953573413
 20
3.7992167511
 30
0.0
 10
6.4947382533
 20
3.799183506
 30
0.0
 10
6.4944285835
 20
3.799183506
 30
0.0
  0
SPLINE
  5
4AB
100
AcDbEntity
  8
0
100
AcDbSpline
 62
7
  6
CONTINUOUS
 70
0
 71
3
 72
19
 73
15
 74
0
 42
0.0000001
 43
0.0000001
 44
0.0000000001
 40
0.0
 40
0.0
 40
0.0
 40
0.0
 40
0.1787924121
 40
0.2653762312
 40
0.3488194077
 40
0.5035608465
 40
0.639638027
 40
0.7003347172
 40
0.756166483
 40
0.8072575187
 40
0.8537976476
 40
0.8960246296
 40
0.9342399382
 40
1.0
 40
1.0
 40
1.0
 40
1.0
 10
6.4944285835
 20
3.8106184955
 30
0.0
 10
6.4950430948
 20
3.8106184955
 30
0.0
 10
6.4959555987
 20
3.8105890026
 30
0.0
 10
6.4971505714
 20
3.8104899721
 30
0.0
 10
6.4982593575
 20
3.8103596077
 30
0.0
 10
6.4995285734
 20
3.8101433384
 30
0.0
 10
6.5007016776
 20
3.8098476125
 30
0.0
 10
6.5015264522
 20
3.8095754088
 30
0.0
 10
6.5020637809
 20
3.8093668307
 30
0.0
 10
6.5025440222
 20
3.8091478862
 30
0.0
 10
6.5029677662
 20
3.8089202195
 30
0.0
 10
6.5033362109
 20
3.8086850887
 30
0.0
 10
6.5037346376
 20
3.8083787845
 30
0.0
 10
6.5039867296
 20
3.8081190266
 30
0.0
 10
6.5041175547
 20
3.8079347199
 30
0.0
  0
SPLINE
  5
4AC
100
AcDbEntity
  8
0
100
AcDbSpline
 62
7
  6
CONTINUOUS
 70
0
 71
3
 72
18
 73
14
 74
0
 42
0.0000001
 43
0.0000001
 44
0.0000000001
 40
0.0
 40
0.0
 40
0.0
 40
0.0
 40
0.1177634092
 40
0.2367764821
 40
0.3575563172
 40
0.4188243494
 40
0.4807313997
 40
0.6065510709
 40
0.7353074643
 40
0.8007977236
 40
0.8668481282
 40
0.9333220218
 40
1.0
 40
1.0
 40
1.0
 40
1.0
 10
6.5041175547
 20
3.8217790317
 30
0.0
 10
6.5039981671
 20
3.8212453401
 30
0.0
 10
6.5036882687
 20
3.8201864198
 30
0.0
 10
6.5030093559
 20
3.8186656562
 30
0.0
 10
6.5022593118
 20
3.8174790007
 30
0.0
 10
6.5015471574
 20
3.8165965721
 30
0.0
 10
6.5007504004
 20
3.8157570779
 30
0.0
 10
6.499606611
 20
3.8148218254
 30
0.0
 10
6.4982965664
 20
3.8140996682
 30
0.0
 10
6.4971630539
 20
3.813674937
 30
0.0
 10
6.4962724382
 20
3.8134394711
 30
0.0
 10
6.4953570591
 20
3.813295522
 30
0.0
 10
6.4947382297
 20
3.8132631941
 30
0.0
 10
6.4944285835
 20
3.8132631941
 30
0.0
  0
SPLINE
  5
4AD
100
AcDbEntity
  8
0
100
AcDbSpline
 62
7
  6
CONTINUOUS
 70
0
 71
3
 72
18
 73
14
 74
0
 42
0.0000001
 43
0.0000001
 44
0.0000000001
 40
0.0
 40
0.0
 40
0.0
 40
0.0
 40
0.1751559769
 40
0.2600758712
 40
0.342025937
 40
0.494456794
 40
0.6293562232
 40
0.7460033531
 40
0.7977339258
 40
0.8453119791
 40
0.8889957192
 40
0.9291059114
 40
1.0
 40
1.0
 40
1.0
 40
1.0
 10
6.4944285835
 20
3.8249489644
 30
0.0
 10
6.4950432258
 20
3.8249489644
 30
0.0
 10
6.4959564191
 20
3.8249140696
 30
0.0
 10
6.4971511604
 20
3.8247970906
 30
0.0
 10
6.4982612085
 20
3.8246429023
 30
0.0
 10
6.4995332789
 20
3.8243866666
 30
0.0
 10
6.5008936719
 20
3.8239808351
 30
0.0
 10
6.5018785338
 20
3.8235704018
 30
0.0
 10
6.5025461837
 20
3.8232107174
 30
0.0
 10
6.5029701133
 20
3.8229414445
 30
0.0
 10
6.5033386477
 20
3.8226633146
 30
0.0
 10
6.5037404548
 20
3.8222980015
 30
0.0
 10
6.5039894102
 20
3.8219922645
 30
0.0
 10
6.5041175547
 20
3.8217790317
 30
0.0
  0
SPLINE
  5
4AE
100
AcDbEntity
  8
0
100
AcDbSpline
 62
7
  6
CONTINUOUS
 70
0
 71
3
 72
18
 73
14
 74
0
 42
0.0000001
 43
0.0000001
 44
0.0000000001
 40
0.0
 40
0.0
 40
0.0
 40
0.0
 40
0.1160798566
 40
0.2337191138
 40
0.3535550067
 40
0.4145491787
 40
0.4763313745
 40
0.6023864776
 40
0.7320390267
 40
0.7982008167
 40
0.8650435347
 40
0.9323969753
 40
1.0
 40
1.0
 40
1.0
 40
1.0
 10
6.5041148914
 20
3.8359012759
 30
0.0
 10
6.5039949766
 20
3.8353838316
 30
0.0
 10
6.5036837281
 20
3.8343566457
 30
0.0
 10
6.5030034333
 20
3.8328832796
 30
0.0
 10
6.5022532575
 20
3.8317351793
 30
0.0
 10
6.5015417419
 20
3.8308816881
 30
0.0
 10
6.500743931
 20
3.8300678171
 30
0.0
 10
6.4995986805
 20
3.8291617019
 30
0.0
 10
6.4982911416
 20
3.828464271
 30
0.0
 10
6.4971598766
 20
3.8280537649
 30
0.0
 10
6.4962702145
 20
3.8278259783
 30
0.0
 10
6.4953559087
 20
3.8276867374
 30
0.0
 10
6.4947379209
 20
3.8276554719
 30
0.0
 10
6.4944285835
 20
3.8276554719
 30
0.0
  0
SPLINE
  5
4AF
100
AcDbEntity
  8
0
100
AcDbSpline
 62
7
  6
CONTINUOUS
 70
0
 71
3
 72
15
 73
11
 74
0
 42
0.0000001
 43
0.0000001
 44
0.0000000001
 40
0.0
 40
0.0
 40
0.0
 40
0.0
 40
0.1713527259
 40
0.3349043202
 40
0.4849879187
 40
0.6187651204
 40
0.7357062809
 40
0.8367962744
 40
0.9239887608
 40
1.0
 40
1.0
 40
1.0
 40
1.0
 10
6.4944285835
 20
3.8395436784
 30
0.0
 10
6.4950428202
 20
3.8395436784
 30
0.0
 10
6.4962440486
 20
3.8394908077
 30
0.0
 10
6.4979693896
 20
3.8392591138
 30
0.0
 10
6.4995343132
 20
3.8388963906
 30
0.0
 10
6.5008958606
 20
3.8384288665
 30
0.0
 10
6.5020357352
 20
3.8378817353
 30
0.0
 10
6.502951495
 20
3.8372753169
 30
0.0
 10
6.5036476753
 20
3.8366256044
 30
0.0
 10
6.5039883067
 20
3.836142559
 30
0.0
 10
6.5041148914
 20
3.8359012759
 30
0.0
  0
SPLINE
  5
4B0
100
AcDbEntity
  8
0
100
AcDbSpline
 62
7
  6
CONTINUOUS
 70
0
 71
3
 72
18
 73
14
 74
0
 42
0.0000001
 43
0.0000001
 44
0.0000000001
 40
0.0
 40
0.0
 40
0.0
 40
0.0
 40
0.1141845221
 40
0.2302790468
 40
0.349057393
 40
0.4097468164
 40
0.4713921687
 40
0.5977181266
 40
0.7283796148
 40
0.7952947258
 40
0.8630248394
 40
0.9313624243
 40
1.0
 40
1.0
 40
1.0
 40
1.0
 10
6.5041175547
 20
3.8502723809
 30
0.0
 10
6.5039979041
 20
3.8497714346
 30
0.0
 10
6.503686592
 20
3.8487763299
 30
0.0
 10
6.5030061845
 20
3.847350786
 30
0.0
 10
6.5022564371
 20
3.8462414972
 30
0.0
 10
6.5015456744
 20
3.8454170007
 30
0.0
 10
6.5007463953
 20
3.8446285986
 30
0.0
 10
6.4995986095
 20
3.843751355
 30
0.0
 10
6.4982921163
 20
3.8430783325
 30
0.0
 10
6.4971614769
 20
3.842681778
 30
0.0
 10
6.4962712856
 20
3.8424614928
 30
0.0
 10
6.4953564404
 20
3.8423268415
 30
0.0
 10
6.4947381781
 20
3.8422966107
 30
0.0
 10
6.4944285835
 20
3.8422966107
 30
0.0
  0
SPLINE
  5
4B1
100
AcDbEntity
  8
0
100
AcDbSpline
 62
7
  6
CONTINUOUS
 70
0
 71
3
 72
15
 73
11
 74
0
 42
0.0000001
 43
0.0000001
 44
0.0000000001
 40
0.0
 40
0.0
 40
0.0
 40
0.0
 40
0.1676078136
 40
0.3279258826
 40
0.4757038055
 40
0.6083926568
 40
0.7256477382
 40
0.8285647216
 40
0.9191365633
 40
1.0
 40
1.0
 40
1.0
 40
1.0
 10
6.4944285835
 20
3.8543872534
 30
0.0
 10
6.4950435424
 20
3.8543872534
 30
0.0
 10
6.4962476304
 20
3.8543273524
 30
0.0
 10
6.4979761524
 20
3.854064942
 30
0.0
 10
6.4995437311
 20
3.8536541066
 30
0.0
 10
6.5009072462
 20
3.853124493
 30
0.0
 10
6.5020482869
 20
3.8525045247
 30
0.0
 10
6.5029640713
 20
3.8518173415
 30
0.0
 10
6.5036585945
 20
3.8510813713
 30
0.0
 10
6.5039929094
 20
3.8505416187
 30
0.0
 10
6.5041175547
 20
3.8502723809
 30
0.0
  0
SPLINE
  5
4B2
100
AcDbEntity
  8
0
100
AcDbSpline
 62
7
  6
CONTINUOUS
 70
0
 71
3
 72
18
 73
14
 74
0
 42
0.0000001
 43
0.0000001
 44
0.0000000001
 40
0.0
 40
0.0
 40
0.0
 40
0.0
 40
0.1120666006
 40
0.2264472496
 40
0.3440659783
 40
0.4044274518
 40
0.4659319941
 40
0.5925777992
 40
0.7243643463
 40
0.7921103864
 40
0.8608151626
 40
0.9302307329
 40
1.0
 40
1.0
 40
1.0
 40
1.0
 10
6.5041175547
 20
3.86484332
 30
0.0
 10
6.5039977338
 20
3.8643607317
 30
0.0
 10
6.503685517
 20
3.8634014116
 30
0.0
 10
6.503004197
 20
3.8620293902
 30
0.0
 10
6.5022546907
 20
3.8609636015
 30
0.0
 10
6.5015447901
 20
3.8601716136
 30
0.0
 10
6.5007440469
 20
3.8594119922
 30
0.0
 10
6.4995940785
 20
3.8585674687
 30
0.0
 10
6.4982896735
 20
3.8579218671
 30
0.0
 10
6.4971606222
 20
3.8575410436
 30
0.0
 10
6.4962706672
 20
3.8573292635
 30
0.0
 10
6.4953561104
 20
3.8571998181
 30
0.0
 10
6.4947381506
 20
3.8571707606
 30
0.0
 10
6.4944285835
 20
3.8571707606
 30
0.0
  0
SPLINE
  5
4B3
100
AcDbEntity
  8
0
100
AcDbSpline
 62
7
  6
CONTINUOUS
 70
0
 71
3
 72
15
 73
11
 74
0
 42
0.0000001
 43
0.0000001
 44
0.0000000001
 40
0.0
 40
0.0
 40
0.0
 40
0.0
 40
0.1638333155
 40
0.3209172663
 40
0.466432624
 40
0.5981146095
 40
0.7157778605
 40
0.8205824496
 40
0.9144945145
 40
1.0
 40
1.0
 40
1.0
 40
1.0
 10
6.4944285835
 20
3.8694143851
 30
0.0
 10
6.4950437246
 20
3.8694143851
 30
0.0
 10
6.4962497939
 20
3.8693476605
 30
0.0
 10
6.4979802282
 20
3.8690554688
 30
0.0
 10
6.4995494439
 20
3.8685979797
 30
0.0
 10
6.5009141667
 20
3.8680081682
 30
0.0
 10
6.5020558359
 20
3.867317665
 30
0.0
 10
6.5029713537
 20
3.8665524913
 30
0.0
 10
6.5036643949
 20
3.8657336408
 30
0.0
 10
6.5039940539
 20
3.8651396606
 30
0.0
 10
6.5041175547
 20
3.86484332
 30
0.0
  0
SPLINE
  5
4B4
100
AcDbEntity
  8
0
100
AcDbSpline
 62
7
  6
CONTINUOUS
 70
0
 71
3
 72
17
 73
13
 74
0
 42
0.0000001
 43
0.0000001
 44
0.0000000001
 40
0.0
 40
0.0
 40
0.0
 40
0.0
 40
0.1097274659
 40
0.2222307175
 40
0.3385988891
 40
0.398616921
 40
0.4599857118
 40
0.5870218896
 40
0.7200751813
 40
0.788743995
 40
0.8585256822
 40
1.0
 40
1.0
 40
1.0
 40
1.0
 10
6.5041175547
 20
3.8795773704
 30
0.0
 10
6.50399753
 20
3.8791143901
 30
0.0
 10
6.5036842429
 20
3.878193303
 30
0.0
 10
6.503001887
 20
3.8768785796
 30
0.0
 10
6.502252712
 20
3.8758593598
 30
0.0
 10
6.5015438023
 20
3.8751021154
 30
0.0
 10
6.5007414615
 20
3.874373355
 30
0.0
 10
6.4995892023
 20
3.8735639384
 30
0.0
 10
6.49828716
 20
3.8729475197
 30
0.0
 10
6.4971596476
 20
3.8725834431
 30
0.0
 10
6.4959688911
 20
3.872312047
 30
0.0
 10
6.4950452482
 20
3.8722290518
 30
0.0
 10
6.4944285835
 20
3.8722290518
 30
0.0
  0
SPLINE
  5
4B5
100
AcDbEntity
  8
0
100
AcDbSpline
 62
7
  6
CONTINUOUS
 70
0
 71
3
 72
15
 73
11
 74
0
 42
0.0000001
 43
0.0000001
 44
0.0000000001
 40
0.0
 40
0.0
 40
0.0
 40
0.0
 40
0.1601487672
 40
0.3140932074
 40
0.4574439388
 40
0.588208691
 40
0.7063369327
 40
0.8130153008
 40
0.9101369867
 40
1.0
 40
1.0
 40
1.0
 40
1.0
 10
6.4944285835
 20
3.8845920992
 30
0.0
 10
6.4950439201
 20
3.8845920992
 30
0.0
 10
6.4962521101
 20
3.8845186828
 30
0.0
 10
6.4979845272
 20
3.8841973333
 30
0.0
 10
6.4995553176
 20
3.8836942125
 30
0.0
 10
6.5009210187
 20
3.8830456154
 30
0.0
 10
6.5020629354
 20
3.8822864081
 30
0.0
 10
6.5029777678
 20
3.8814455367
 30
0.0
 10
6.5036691239
 20
3.8805465527
 30
0.0
 10
6.5039949388
 20
3.8799001442
 30
0.0
 10
6.5041175547
 20
3.8795773704
 30
0.0
  0
SPLINE
  5
4B6
100
AcDbEntity
  8
0
100
AcDbSpline
 62
7
  6
CONTINUOUS
 70
0
 71
3
 72
17
 73
13
 74
0
 42
0.0000001
 43
0.0000001
 44
0.0000000001
 40
0.0
 40
0.0
 40
0.0
 40
0.0
 40
0.1071200456
 40
0.2175419356
 40
0.3325341387
 40
0.392177449
 40
0.4534002236
 40
0.5808664383
 40
0.7152944868
 40
0.7849595665
 40
0.8559011289
 40
1.0
 40
1.0
 40
1.0
 40
1.0
 10
6.5041175547
 20
3.894434147
 30
0.0
 10
6.5039972852
 20
3.8939919643
 30
0.0
 10
6.5036827285
 20
3.8931114495
 30
0.0
 10
6.5029992041
 20
3.8918576694
 30
0.0
 10
6.5022504791
 20
3.8908879687
 30
0.0
 10
6.5015427061
 20
3.8901675966
 30
0.0
 10
6.5007386318
 20
3.8894717162
 30
0.0
 10
6.4995840406
 20
3.888699717
 30
0.0
 10
6.4982844978
 20
3.8881141212
 30
0.0
 10
6.4971587434
 20
3.8877677565
 30
0.0
 10
6.4959675127
 20
3.8875090925
 30
0.0
 10
6.4950450215
 20
3.8874302104
 30
0.0
 10
6.4944285835
 20
3.8874302104
 30
0.0
  0
SPLINE
  5
4B7
100
AcDbEntity
  8
0
100
AcDbSpline
 62
7
  6
CONTINUOUS
 70
0
 71
3
 72
15
 73
11
 74
0
 42
0.0000001
 43
0.0000001
 44
0.0000000001
 40
0.0
 40
0.0
 40
0.0
 40
0.0
 40
0.1565944623
 40
0.307527265
 40
0.4488314685
 40
0.5787713924
 40
0.6974056196
 40
0.8059136719
 40
0.906081553
 40
1.0
 40
1.0
 40
1.0
 40
1.0
 10
6.4944285835
 20
3.8998787945
 30
0.0
 10
6.4950441268
 20
3.8998787945
 30
0.0
 10
6.4962545523
 20
3.8997988361
 30
0.0
 10
6.4979889893
 20
3.8994490379
 30
0.0
 10
6.499561254
 20
3.8989014601
 30
0.0
 10
6.5009276851
 20
3.8981957135
 30
0.0
 10
6.5020695081
 20
3.8973699073
 30
0.0
 10
6.5029833611
 20
3.8964558918
 30
0.0
 10
6.5036729875
 20
3.8954796629
 30
0.0
 10
6.5039956328
 20
3.8947826089
 30
0.0
 10
6.5041175547
 20
3.894434147
 30
0.0
  0
SPLINE
  5
4B8
100
AcDbEntity
  8
0
100
AcDbSpline
 62
7
  6
CONTINUOUS
 70
0
 71
3
 72
16
 73
12
 74
0
 42
0.0000001
 43
0.0000001
 44
0.0000000001
 40
0.0
 40
0.0
 40
0.0
 40
0.0
 40
0.1042571103
 40
0.212415828
 40
0.3259374439
 40
0.4461802295
 40
0.5741549866
 40
0.7101039389
 40
0.7808571414
 40
0.8530594119
 40
1.0
 40
1.0
 40
1.0
 40
1.0
 10
6.5041175547
 20
3.9093729284
 30
0.0
 10
6.5039969891
 20
3.9089526678
 30
0.0
 10
6.5036809424
 20
3.9081149706
 30
0.0
 10
6.5029960101
 20
3.90692556
 30
0.0
 10
6.502085879
 20
3.9058093985
 30
0.0
 10
6.5009457877
 20
3.9047987152
 30
0.0
 10
6.4995787187
 20
3.9039334736
 30
0.0
 10
6.4982817516
 20
3.903380107
 30
0.0
 10
6.4971578268
 20
3.9030523694
 30
0.0
 10
6.4959661217
 20
3.9028071438
 30
0.0
 10
6.4950447938
 20
3.9027325712
 30
0.0
 10
6.4944285835
 20
3.9027325712
 30
0.0
  0
SPLINE
  5
4B9
100
AcDbEntity
  8
0
100
AcDbSpline
 62
7
  6
CONTINUOUS
 70
0
 71
3
 72
14
 73
10
 74
0
 42
0.0000001
 43
0.0000001
 44
0.0000000001
 40
0.0
 40
0.0
 40
0.0
 40
0.0
 40
0.3007261528
 40
0.4402225968
 40
0.5695291461
 40
0.6887883394
 40
0.7991451712
 40
0.9022562854
 40
1.0
 40
1.0
 40
1.0
 40
1.0
 10
6.4944285835
 20
3.9152325712
 30
0.0
 10
6.4956363615
 20
3.9152325712
 30
0.0
 10
6.4974199937
 20
3.9149844995
 30
0.0
 10
6.4995668207
 20
3.914178146
 30
0.0
 10
6.5009341584
 20
3.913417025
 30
0.0
 10
6.5020755002
 20
3.9125269875
 30
0.0
 10
6.502988214
 20
3.9115425891
 30
0.0
 10
6.5036761562
 20
3.9104921274
 30
0.0
 10
6.5039961844
 20
3.9097462536
 30
0.0
 10
6.5041175547
 20
3.9093729284
 30
0.0
  0
SPLINE
  5
4BA
100
AcDbEntity
  8
0
100
AcDbSpline
 62
7
  6
CONTINUOUS
 70
0
 71
3
 72
16
 73
12
 74
0
 42
0.0000001
 43
0.0000001
 44
0.0000000001
 40
0.0
 40
0.0
 40
0.0
 40
0.0
 40
0.1011115716
 40
0.206813301
 40
0.3187666451
 40
0.4384776621
 40
0.501655825
 40
0.5671262208
 40
0.7047142282
 40
0.8500581869
 40
1.0
 40
1.0
 40
1.0
 40
1.0
 10
6.5041148914
 20
3.9243527686
 30
0.0
 10
6.5039935496
 20
3.9239558987
 30
0.0
 10
6.5036749827
 20
3.9231639986
 30
0.0
 10
6.5029879121
 20
3.9220438081
 30
0.0
 10
6.5020762984
 20
3.9209934408
 30
0.0
 10
6.501142274
 20
3.9202153201
 30
0.0
 10
6.5002878996
 20
3.9196577124
 30
0.0
 10
6.4993280263
 20
3.9191333825
 30
0.0
 10
6.4979950144
 20
3.9185985719
 30
0.0
 10
6.4962581173
 20
3.9181951457
 30
0.0
 10
6.4950440093
 20
3.9181027686
 30
0.0
 10
6.4944285835
 20
3.9181027686
 30
0.0
  0
SPLINE
  5
4BB
100
AcDbEntity
  8
0
100
AcDbSpline
 62
7
  6
CONTINUOUS
 70
0
 71
3
 72
16
 73
12
 74
0
 42
0.0000001
 43
0.0000001
 44
0.0000000001
 40
0.0
 40
0.0
 40
0.0
 40
0.0
 40
0.1499409505
 40
0.2952846771
 40
0.4328724466
 40
0.4983431033
 40
0.5615212727
 40
0.6812324386
 40
0.7931861694
 40
0.8988883424
 40
1.0
 40
1.0
 40
1.0
 40
1.0
 10
6.4944285835
 20
3.9306027686
 30
0.0
 10
6.4950440057
 20
3.9306027686
 30
0.0
 10
6.4962581093
 20
3.9305103929
 30
0.0
 10
6.4979950014
 20
3.9301069694
 30
0.0
 10
6.4993280127
 20
3.92957216
 30
0.0
 10
6.5002878875
 20
3.9290478324
 30
0.0
 10
6.501142264
 20
3.9284902248
 30
0.0
 10
6.502076291
 20
3.9277121037
 30
0.0
 10
6.5029879088
 20
3.9266617345
 30
0.0
 10
6.5036749816
 20
3.9255415409
 30
0.0
 10
6.5039935495
 20
3.9247496388
 30
0.0
 10
6.5041148914
 20
3.9243527686
 30
0.0
  0
SPLINE
  5
4BC
100
AcDbEntity
  8
0
100
AcDbSpline
 62
7
  6
CONTINUOUS
 70
0
 71
3
 72
14
 73
10
 74
0
 42
0.0000001
 43
0.0000001
 44
0.0000000001
 40
0.0
 40
0.0
 40
0.0
 40
0.0
 40
0.097743632
 40
0.2008543109
 40
0.3112107547
 40
0.430469787
 40
0.5597760534
 40
0.6992727381
 40
1.0
 40
1.0
 40
1.0
 40
1.0
 10
6.5041175547
 20
3.9393326088
 30
0.0
 10
6.5039961845
 20
3.9389592839
 30
0.0
 10
6.5036761573
 20
3.938213412
 30
0.0
 10
6.5029882174
 20
3.9371629533
 30
0.0
 10
6.5020755077
 20
3.9361785565
 30
0.0
 10
6.5009341693
 20
3.9352885201
 30
0.0
 10
6.4995668341
 20
3.9345273964
 30
0.0
 10
6.4974200035
 20
3.9337210399
 30
0.0
 10
6.495636366
 20
3.933472966
 30
0.0
 10
6.4944285835
 20
3.933472966
 30
0.0
  0
SPLINE
  5
4BD
100
AcDbEntity
  8
0
100
AcDbSpline
 62
7
  6
CONTINUOUS
 70
0
 71
3
 72
16
 73
12
 74
0
 42
0.0000001
 43
0.0000001
 44
0.0000000001
 40
0.0
 40
0.0
 40
0.0
 40
0.0
 40
0.1469397421
 40
0.2191417508
 40
0.2898949809
 40
0.425843687
 40
0.5538186993
 40
0.6740616305
 40
0.7875836304
 40
0.8957428014
 40
1.0
 40
1.0
 40
1.0
 40
1.0
 10
6.4944285835
 20
3.945972966
 30
0.0
 10
6.4950447903
 20
3.945972966
 30
0.0
 10
6.4959661137
 20
3.9458983955
 30
0.0
 10
6.4971578141
 20
3.9456531699
 30
0.0
 10
6.4982817379
 20
3.9453254359
 30
0.0
 10
6.4995787052
 20
3.9447720694
 30
0.0
 10
6.5009457769
 20
3.943906831
 30
0.0
 10
6.5020858716
 20
3.9428961464
 30
0.0
 10
6.5029960068
 20
3.9417799829
 30
0.0
 10
6.5036809414
 20
3.9405905691
 30
0.0
 10
6.503996989
 20
3.9397528698
 30
0.0
 10
6.5041175547
 20
3.9393326088
 30
0.0
  0
SPLINE
  5
4BE
100
AcDbEntity
  8
0
100
AcDbSpline
 62
7
  6
CONTINUOUS
 70
0
 71
3
 72
15
 73
11
 74
0
 42
0.0000001
 43
0.0000001
 44
0.0000000001
 40
0.0
 40
0.0
 40
0.0
 40
0.0
 40
0.0939183666
 40
0.1940858217
 40
0.3025934827
 40
0.4212275392
 40
0.5511671639
 40
0.6924716036
 40
0.8434046383
 40
1.0
 40
1.0
 40
1.0
 40
1.0
 10
6.5041175547
 20
3.9542713902
 30
0.0
 10
6.5039956329
 20
3.9539229286
 30
0.0
 10
6.5036729886
 20
3.9532258764
 30
0.0
 10
6.5029833646
 20
3.9522496502
 30
0.0
 10
6.5020695156
 20
3.9513356362
 30
0.0
 10
6.500927696
 20
3.9505098311
 30
0.0
 10
6.4995612674
 20
3.949804082
 30
0.0
 10
6.4979890022
 20
3.9492565028
 30
0.0
 10
6.4962545603
 20
3.9489067024
 30
0.0
 10
6.4950441303
 20
3.9488267428
 30
0.0
 10
6.4944285835
 20
3.9488267428
 30
0.0
  0
SPLINE
  5
4BF
100
AcDbEntity
  8
0
100
AcDbSpline
 62
7
  6
CONTINUOUS
 70
0
 71
3
 72
17
 73
13
 74
0
 42
0.0000001
 43
0.0000001
 44
0.0000000001
 40
0.0
 40
0.0
 40
0.0
 40
0.0
 40
0.144098041
 40
0.2150393461
 40
0.2847044492
 40
0.4191322482
 40
0.5465987052
 40
0.6078213993
 40
0.6674649271
 40
0.7824575127
 40
0.8928798639
 40
1.0
 40
1.0
 40
1.0
 40
1.0
 10
6.4944285835
 20
3.9612753268
 30
0.0
 10
6.4950450179
 20
3.9612753268
 30
0.0
 10
6.4959675047
 20
3.9611964469
 30
0.0
 10
6.4971587307
 20
3.960937783
 30
0.0
 10
6.4982844841
 20
3.960591422
 30
0.0
 10
6.499584027
 20
3.9600058263
 30
0.0
 10
6.5007386201
 20
3.9592338306
 30
0.0
 10
6.501542696
 20
3.9585379496
 30
0.0
 10
6.5022504719
 20
3.9578175773
 30
0.0
 10
6.5029992008
 20
3.9568478737
 30
0.0
 10
6.5036827275
 20
3.9555940903
 30
0.0
 10
6.5039972851
 20
3.9547135733
 30
0.0
 10
6.5041175547
 20
3.9542713902
 30
0.0
  0
SPLINE
  5
4C0
100
AcDbEntity
  8
0
100
AcDbSpline
 62
7
  6
CONTINUOUS
 70
0
 71
3
 72
15
 73
11
 74
0
 42
0.0000001
 43
0.0000001
 44
0.0000000001
 40
0.0
 40
0.0
 40
0.0
 40
0.0
 40
0.0898629358
 40
0.1869842057
 40
0.2936621789
 40
0.4117902401
 40
0.5425546767
 40
0.6859056409
 40
0.8398503143
 40
1.0
 40
1.0
 40
1.0
 40
1.0
 10
6.5041175547
 20
3.9691281668
 30
0.0
 10
6.5039949389
 20
3.9688053933
 30
0.0
 10
6.503669125
 20
3.9681589864
 30
0.0
 10
6.5029777712
 20
3.967260005
 30
0.0
 10
6.5020629429
 20
3.9664191349
 30
0.0
 10
6.5009210297
 20
3.9656599286
 30
0.0
 10
6.4995553308
 20
3.9650113292
 30
0.0
 10
6.4979845402
 20
3.9645082071
 30
0.0
 10
6.496252118
 20
3.9641868556
 30
0.0
 10
6.4950439237
 20
3.964113438
 30
0.0
 10
6.4944285835
 20
3.964113438
 30
0.0
  0
SPLINE
  5
4C1
100
AcDbEntity
  8
0
100
AcDbSpline
 62
7
  6
CONTINUOUS
 70
0
 71
3
 72
17
 73
13
 74
0
 42
0.0000001
 43
0.0000001
 44
0.0000000001
 40
0.0
 40
0.0
 40
0.0
 40
0.0
 40
0.1414735018
 40
0.2112549357
 40
0.2799237688
 40
0.4129768076
 40
0.5400132158
 40
0.601381923
 40
0.661400169
 40
0.7777687218
 40
0.8902724416
 40
1.0
 40
1.0
 40
1.0
 40
1.0
 10
6.4944285835
 20
3.9764764854
 30
0.0
 10
6.4950452446
 20
3.9764764854
 30
0.0
 10
6.4959688831
 20
3.9763934925
 30
0.0
 10
6.4971596348
 20
3.9761220964
 30
0.0
 10
6.4982871463
 20
3.9757580238
 30
0.0
 10
6.4995891886
 20
3.9751416052
 30
0.0
 10
6.5007414498
 20
3.9743321923
 30
0.0
 10
6.5015437922
 20
3.9736034312
 30
0.0
 10
6.5022527049
 20
3.9728461867
 30
0.0
 10
6.5030018837
 20
3.9718269638
 30
0.0
 10
6.5036842419
 20
3.9705122368
 30
0.0
 10
6.5039975299
 20
3.9695911475
 30
0.0
 10
6.5041175547
 20
3.9691281668
 30
0.0
  0
SPLINE
  5
4C2
100
AcDbEntity
  8
0
100
AcDbSpline
 62
7
  6
CONTINUOUS
 70
0
 71
3
 72
15
 73
11
 74
0
 42
0.0000001
 43
0.0000001
 44
0.0000000001
 40
0.0
 40
0.0
 40
0.0
 40
0.0
 40
0.0855054111
 40
0.1794170703
 40
0.2842212603
 40
0.4018843204
 40
0.5335659734
 40
0.6790815606
 40
0.8361657458
 40
1.0
 40
1.0
 40
1.0
 40
1.0
 10
6.5041175547
 20
3.9838622172
 30
0.0
 10
6.503994054
 20
3.9835658769
 30
0.0
 10
6.503664396
 20
3.9829718982
 30
0.0
 10
6.5029713572
 20
3.98215305
 30
0.0
 10
6.5020558434
 20
3.9813878775
 30
0.0
 10
6.5009141778
 20
3.9806973752
 30
0.0
 10
6.4995494571
 20
3.9801075616
 30
0.0
 10
6.4979802411
 20
3.9796500713
 30
0.0
 10
6.4962498018
 20
3.9793578778
 30
0.0
 10
6.4950437282
 20
3.9792911521
 30
0.0
 10
6.4944285835
 20
3.9792911521
 30
0.0
  0
SPLINE
  5
4C3
100
AcDbEntity
  8
0
100
AcDbSpline
 62
7
  6
CONTINUOUS
 70
0
 71
3
 72
18
 73
14
 74
0
 42
0.0000001
 43
0.0000001
 44
0.0000000001
 40
0.0
 40
0.0
 40
0.0
 40
0.0
 40
0.069769084
 40
0.1391840318
 40
0.2078885586
 40
0.2756346145
 40
0.4074209061
 40
0.5340669309
 40
0.595571387
 40
0.6559330717
 40
0.7735521807
 40
0.8879333048
 40
1.0
 40
1.0
 40
1.0
 40
1.0
 10
6.4944285835
 20
3.9915347766
 30
0.0
 10
6.4947381498
 20
3.9915347766
 30
0.0
 10
6.495356106
 20
3.9915057194
 30
0.0
 10
6.4962706584
 20
3.9913762762
 30
0.0
 10
6.4971606094
 20
3.991164496
 30
0.0
 10
6.4982896599
 20
3.9907836767
 30
0.0
 10
6.4995940648
 20
3.9901380752
 30
0.0
 10
6.5007440353
 20
3.9892935555
 30
0.0
 10
6.50154478
 20
3.9885339335
 30
0.0
 10
6.5022546836
 20
3.9877419453
 30
0.0
 10
6.5030041938
 20
3.9866761534
 30
0.0
 10
6.503685516
 20
3.9853041284
 30
0.0
 10
6.5039977337
 20
3.9843448059
 30
0.0
 10
6.5041175547
 20
3.9838622172
 30
0.0
  0
SPLINE
  5
4C4
100
AcDbEntity
  8
0
100
AcDbSpline
 62
7
  6
CONTINUOUS
 70
0
 71
3
 72
15
 73
11
 74
0
 42
0.0000001
 43
0.0000001
 44
0.0000000001
 40
0.0
 40
0.0
 40
0.0
 40
0.0
 40
0.0808633654
 40
0.1714348121
 40
0.2743513917
 40
0.3916062712
 40
0.5242947727
 40
0.6720729218
 40
0.8323912267
 40
1.0
 40
1.0
 40
1.0
 40
1.0
 10
6.5041175547
 20
3.9984331563
 30
0.0
 10
6.5039929095
 20
3.9981639187
 30
0.0
 10
6.5036585957
 20
3.9976241676
 30
0.0
 10
6.5029640749
 20
3.9968881995
 30
0.0
 10
6.5020482944
 20
3.9962010173
 30
0.0
 10
6.5009072573
 20
3.9955810498
 30
0.0
 10
6.4995437443
 20
3.9950514342
 30
0.0
 10
6.4979761653
 20
3.9946405978
 30
0.0
 10
6.4962476383
 20
3.9943781857
 30
0.0
 10
6.495043546
 20
3.9943182838
 30
0.0
 10
6.4944285835
 20
3.9943182838
 30
0.0
  0
SPLINE
  5
4C5
100
AcDbEntity
  8
0
100
AcDbSpline
 62
7
  6
CONTINUOUS
 70
0
 71
3
 72
18
 73
14
 74
0
 42
0.0000001
 43
0.0000001
 44
0.0000000001
 40
0.0
 40
0.0
 40
0.0
 40
0.0
 40
0.0686373956
 40
0.1369743672
 40
0.2047042348
 40
0.2716193579
 40
0.4022805875
 40
0.5286067551
 40
0.5902520184
 40
0.6509416503
 40
0.7697203759
 40
0.8858153818
 40
1.0
 40
1.0
 40
1.0
 40
1.0
 10
6.4944285835
 20
4.0064089265
 30
0.0
 10
6.4947381773
 20
4.0064089265
 30
0.0
 10
6.495356436
 20
4.006378696
 30
0.0
 10
6.4962712768
 20
4.006244047
 30
0.0
 10
6.4971614641
 20
4.0060237618
 30
0.0
 10
6.4982921027
 20
4.0056272116
 30
0.0
 10
6.4995985958
 20
4.0049541893
 30
0.0
 10
6.5007463837
 20
4.0040769495
 30
0.0
 10
6.5015456643
 20
4.0032885468
 30
0.0
 10
6.50225643
 20
4.00246405
 30
0.0
 10
6.5030061813
 20
4.0013547578
 30
0.0
 10
6.503686591
 20
3.9999292102
 30
0.0
 10
6.503997904
 20
3.998934103
 30
0.0
 10
6.5041175547
 20
3.9984331563
 30
0.0
  0
SPLINE
  5
4C6
100
AcDbEntity
  8
0
100
AcDbSpline
 62
7
  6
CONTINUOUS
 70
0
 71
3
 72
15
 73
11
 74
0
 42
0.0000001
 43
0.0000001
 44
0.0000000001
 40
0.0
 40
0.0
 40
0.0
 40
0.0
 40
0.0760111712
 40
0.163203274
 40
0.2642928595
 40
0.3812338079
 40
0.5150106435
 40
0.6650944658
 40
0.828646297
 40
1.0
 40
1.0
 40
1.0
 40
1.0
 10
6.5041148914
 20
4.0128042613
 30
0.0
 10
6.5039883068
 20
4.0125629784
 30
0.0
 10
6.5036476764
 20
4.0120799343
 30
0.0
 10
6.5029514987
 20
4.0114302237
 30
0.0
 10
6.5020357426
 20
4.0108238061
 30
0.0
 10
6.5008958716
 20
4.0102766756
 30
0.0
 10
6.4995343262
 20
4.0098091497
 30
0.0
 10
6.4979694024
 20
4.0094464257
 30
0.0
 10
6.4962440565
 20
4.0092147303
 30
0.0
 10
6.4950428237
 20
4.0091618588
 30
0.0
 10
6.4944285835
 20
4.0091618588
 30
0.0
  0
SPLINE
  5
4C7
100
AcDbEntity
  8
0
100
AcDbSpline
 62
7
  6
CONTINUOUS
 70
0
 71
3
 72
18
 73
14
 74
0
 42
0.0000001
 43
0.0000001
 44
0.0000000001
 40
0.0
 40
0.0
 40
0.0
 40
0.0
 40
0.0676028478
 40
0.134955685
 40
0.2017981605
 40
0.2679599597
 40
0.3976122473
 40
0.5236675506
 40
0.5854496552
 40
0.646444033
 40
0.7662803033
 40
0.8839200458
 40
1.0
 40
1.0
 40
1.0
 40
1.0
 10
6.4944285835
 20
4.0210500653
 30
0.0
 10
6.4947379201
 20
4.0210500653
 30
0.0
 10
6.4953559043
 20
4.0210188002
 30
0.0
 10
6.4962702057
 20
4.0208795616
 30
0.0
 10
6.4971598638
 20
4.0206517749
 30
0.0
 10
6.498291128
 20
4.0202412733
 30
0.0
 10
6.4995986668
 20
4.0195438426
 30
0.0
 10
6.5007439194
 20
4.0186377314
 30
0.0
 10
6.5015417318
 20
4.0178238597
 30
0.0
 10
6.5022532505
 20
4.0169703682
 30
0.0
 10
6.50300343
 20
4.0158222645
 30
0.0
 10
6.5036837271
 20
4.0143488945
 30
0.0
 10
6.5039949765
 20
4.0133217061
 30
0.0
 10
6.5041148914
 20
4.0128042613
 30
0.0
  0
SPLINE
  5
4C8
100
AcDbEntity
  8
0
100
AcDbSpline
 62
7
  6
CONTINUOUS
 70
0
 71
3
 72
18
 73
14
 74
0
 42
0.0000001
 43
0.0000001
 44
0.0000000001
 40
0.0
 40
0.0
 40
0.0
 40
0.0
 40
0.0708940241
 40
0.1110040377
 40
0.1546875813
 40
0.2022654183
 40
0.2539957919
 40
0.3706426981
 40
0.5055417432
 40
0.6579728211
 40
0.7399228217
 40
0.8248430222
 40
1.0
 40
1.0
 40
1.0
 40
1.0
 10
6.5041175547
 20
4.0269265055
 30
0.0
 10
6.5039894103
 20
4.0267132729
 30
0.0
 10
6.5037404556
 20
4.0264075365
 30
0.0
 10
6.5033386497
 20
4.0260422244
 30
0.0
 10
6.5029701171
 20
4.0257640955
 30
0.0
 10
6.5025461896
 20
4.0254948233
 30
0.0
 10
6.501878542
 20
4.0251351393
 30
0.0
 10
6.5008936831
 20
4.0247247064
 30
0.0
 10
6.4995332919
 20
4.0243188732
 30
0.0
 10
6.4982612224
 20
4.0240626376
 30
0.0
 10
6.4971511728
 20
4.0239084476
 30
0.0
 10
6.4959564271
 20
4.0237914686
 30
0.0
 10
6.4950432293
 20
4.0237565728
 30
0.0
 10
6.4944285835
 20
4.0237565728
 30
0.0
  0
SPLINE
  5
4C9
100
AcDbEntity
  8
0
100
AcDbSpline
 62
7
  6
CONTINUOUS
 70
0
 71
3
 72
18
 73
14
 74
0
 42
0.0000001
 43
0.0000001
 44
0.0000000001
 40
0.0
 40
0.0
 40
0.0
 40
0.0
 40
0.0666778029
 40
0.1331510985
 40
0.1992012628
 40
0.2646915281
 40
0.3934476575
 40
0.5192675212
 40
0.5811744781
 40
0.6424427144
 40
0.7632229276
 40
0.882236492
 40
1.0
 40
1.0
 40
1.0
 40
1.0
 10
6.4944285835
 20
4.0354423431
 30
0.0
 10
6.4947382289
 20
4.0354423431
 30
0.0
 10
6.4953570547
 20
4.0354100156
 30
0.0
 10
6.4962724294
 20
4.0352660688
 30
0.0
 10
6.497163041
 20
4.0350306029
 30
0.0
 10
6.4982965528
 20
4.0346058763
 30
0.0
 10
6.4996065972
 20
4.0338837194
 30
0.0
 10
6.5007503888
 20
4.0329484709
 30
0.0
 10
6.5015471472
 20
4.0321089761
 30
0.0
 10
6.5022593048
 20
4.0312265471
 30
0.0
 10
6.5030093527
 20
4.030039888
 30
0.0
 10
6.5036882677
 20
4.0285191205
 30
0.0
 10
6.503998167
 20
4.0274601975
 30
0.0
 10
6.5041175547
 20
4.0269265055
 30
0.0
  0
SPLINE
  5
4CA
100
AcDbEntity
  8
0
100
AcDbSpline
 62
7
  6
CONTINUOUS
 70
0
 71
3
 72
19
 73
15
 74
0
 42
0.0000001
 43
0.0000001
 44
0.0000000001
 40
0.0
 40
0.0
 40
0.0
 40
0.0
 40
0.0657600005
 40
0.1039751377
 40
0.146201926
 40
0.1927418365
 40
0.2438326691
 40
0.2996641619
 40
0.3603608912
 40
0.4964376712
 40
0.6511793286
 40
0.7346224355
 40
0.8212065665
 40
1.0
 40
1.0
 40
1.0
 40
1.0
 10
6.5041175547
 20
4.0407708173
 30
0.0
 10
6.5039867298
 20
4.0405865108
 30
0.0
 10
6.5037346384
 20
4.0403267534
 30
0.0
 10
6.5033362129
 20
4.04002045
 30
0.0
 10
6.50296777
 20
4.0397853201
 30
0.0
 10
6.5025440281
 20
4.039557654
 30
0.0
 10
6.5020637891
 20
4.0393387101
 30
0.0
 10
6.5015264622
 20
4.0391301318
 30
0.0
 10
6.5007016897
 20
4.0388579285
 30
0.0
 10
6.4995285864
 20
4.0385622009
 30
0.0
 10
6.4982593714
 20
4.0383459318
 30
0.0
 10
6.4971505839
 20
4.0382155659
 30
0.0
 10
6.4959556068
 20
4.0381165355
 30
0.0
 10
6.4950430984
 20
4.0380870418
 30
0.0
 10
6.4944285835
 20
4.0380870418
 30
0.0
  0
SPLINE
  5
4CB
100
AcDbEntity
  8
0
100
AcDbSpline
 62
7
  6
CONTINUOUS
 70
0
 71
3
 72
17
 73
13
 74
0
 42
0.0000001
 43
0.0000001
 44
0.0000000001
 40
0.0
 40
0.0
 40
0.0
 40
0.0
 40
0.0658531058
 40
0.1315435387
 40
0.1968908561
 40
0.2617886617
 40
0.3897660597
 40
0.5154015101
 40
0.6388566054
 40
0.7604946948
 40
0.8807393777
 40
1.0
 40
1.0
 40
1.0
 40
1.0
 10
6.4944285835
 20
4.0495220312
 30
0.0
 10
6.4947382525
 20
4.0495220312
 30
0.0
 10
6.4953573369
 20
4.0494887865
 30
0.0
 10
6.4962729512
 20
4.049340778
 30
0.0
 10
6.4971637512
 20
4.0490986797
 30
0.0
 10
6.4982985152
 20
4.0486616268
 30
0.0
 10
6.4996101359
 20
4.0479178246
 30
0.0
 10
6.5009739773
 20
4.0467710026
 30
0.0
 10
6.5021076932
 20
4.0454368317
 30
0.0
 10
6.5030105116
 20
4.0439678992
 30
0.0
 10
6.5036889412
 20
4.0424055351
 30
0.0
 10
6.5039982678
 20
4.0413187977
 30
0.0
 10
6.5041175547
 20
4.0407708173
 30
0.0
  0
SPLINE
  5
4CC
100
AcDbEntity
  8
0
100
AcDbSpline
 62
7
  6
CONTINUOUS
 70
0
 71
3
 72
19
 73
15
 74
0
 42
0.0000001
 43
0.0000001
 44
0.0000000001
 40
0.0
 40
0.0
 40
0.0
 40
0.0
 40
0.0285512678
 40
0.0608401631
 40
0.0972609785
 40
0.1381374354
 40
0.1837375223
 40
0.234269342
 40
0.2898958176
 40
0.3507173416
 40
0.4879497736
 40
0.6448740443
 40
0.8178298418
 40
1.0
 40
1.0
 40
1.0
 40
1.0
 10
6.5041175547
 20
4.0542960353
 30
0.0
 10
6.5040543601
 20
4.0542233779
 30
0.0
 10
6.5039074094
 20
4.0540790932
 30
0.0
 10
6.5036471128
 20
4.0538785495
 30
0.0
 10
6.5033334665
 20
4.0536820971
 30
0.0
 10
6.5029654262
 20
4.0534906575
 30
0.0
 10
6.5025419105
 20
4.0533051092
 30
0.0
 10
6.5020619436
 20
4.0531266487
 30
0.0
 10
6.5015248503
 20
4.0529565833
 30
0.0
 10
6.500698463
 20
4.0527341016
 30
0.0
 10
6.4995246077
 20
4.0524929076
 30
0.0
 10
6.4979632649
 20
4.0522760106
 30
0.0
 10
6.4962409741
 20
4.0521373932
 30
0.0
 10
6.4950429876
 20
4.0521057729
 30
0.0
 10
6.4944285835
 20
4.0521057729
 30
0.0
  0
SPLINE
  5
4CD
100
AcDbEntity
  8
0
100
AcDbSpline
 62
7
  6
CONTINUOUS
 70
0
 71
3
 72
17
 73
13
 74
0
 42
0.0000001
 43
0.0000001
 44
0.0000000001
 40
0.0
 40
0.0
 40
0.0
 40
0.0
 40
0.0651183789
 40
0.1301116778
 40
0.1948336463
 40
0.2592048878
 40
0.3864911071
 40
0.5119612543
 40
0.6357456347
 40
0.7581294357
 40
0.8794424124
 40
1.0
 40
1.0
 40
1.0
 40
1.0
 10
6.4944285835
 20
4.0632586391
 30
0.0
 10
6.4947382742
 20
4.0632586391
 30
0.0
 10
6.4953575965
 20
4.0632245692
 30
0.0
 10
6.4962734306
 20
4.0630729064
 30
0.0
 10
6.4971643972
 20
4.0628248481
 30
0.0
 10
6.4983003036
 20
4.0623766778
 30
0.0
 10
6.4996132062
 20
4.0616134956
 30
0.0
 10
6.5009764654
 20
4.0604385871
 30
0.0
 10
6.502109437
 20
4.0590722522
 30
0.0
 10
6.5030115719
 20
4.0575682059
 30
0.0
 10
6.5036894855
 20
4.0559686145
 30
0.0
 10
6.503998352
 20
4.0548568561
 30
0.0
 10
6.5041175547
 20
4.0542960353
 30
0.0
  0
SPLINE
  5
4CE
100
AcDbEntity
  8
0
100
AcDbSpline
 62
7
  6
CONTINUOUS
 70
0
 71
3
 72
18
 73
14
 74
0
 42
0.0000001
 43
0.0000001
 44
0.0000000001
 40
0.0
 40
0.0
 40
0.0
 40
0.0
 40
0.0259392909
 40
0.0561517117
 40
0.0909736589
 40
0.1306757439
 40
0.1754808777
 40
0.2255613882
 40
0.3420065362
 40
0.4803304719
 40
0.639231971
 40
0.8148274108
 40
1.0
 40
1.0
 40
1.0
 40
1.0
 10
6.5041175547
 20
4.0674650879
 30
0.0
 10
6.5040531935
 20
4.0674079655
 30
0.0
 10
6.5039039805
 20
4.0672953809
 30
0.0
 10
6.5036440565
 20
4.0671412083
 30
0.0
 10
6.5033308163
 20
4.066990017
 30
0.0
 10
6.502963166
 20
4.0668425679
 30
0.0
 10
6.5025399878
 20
4.0666995513
 30
0.0
 10
6.5018658507
 20
4.0665062613
 30
0.0
 10
6.5008774173
 20
4.0662878036
 30
0.0
 10
6.4995213975
 20
4.0660727345
 30
0.0
 10
6.4979611134
 20
4.065905601
 30
0.0
 10
6.4962399137
 20
4.0657987143
 30
0.0
 10
6.4950428984
 20
4.065774342
 30
0.0
 10
6.4944285835
 20
4.065774342
 30
0.0
  0
SPLINE
  5
4CF
100
AcDbEntity
  8
0
100
AcDbSpline
 62
7
  6
CONTINUOUS
 70
0
 71
3
 72
17
 73
13
 74
0
 42
0.0000001
 43
0.0000001
 44
0.0000000001
 40
0.0
 40
0.0
 40
0.0
 40
0.0
 40
0.0644784035
 40
0.1288649423
 40
0.1930434795
 40
0.2569582436
 40
0.3836488765
 40
0.5089816623
 40
0.633056405
 40
0.7560882017
 40
0.8783246027
 40
1.0
 40
1.0
 40
1.0
 40
1.0
 10
6.4944285835
 20
4.0766145156
 30
0.0
 10
6.4947382938
 20
4.0766145156
 30
0.0
 10
6.495357831
 20
4.0765797151
 30
0.0
 10
6.4962738622
 20
4.0764248183
 30
0.0
 10
6.4971649757
 20
4.0761714874
 30
0.0
 10
6.4983018949
 20
4.0757134663
 30
0.0
 10
6.4996158977
 20
4.0749331185
 30
0.0
 10
6.5009786112
 20
4.0737334123
 30
0.0
 10
6.5021109199
 20
4.0723386844
 30
0.0
 10
6.5030124631
 20
4.0708036291
 30
0.0
 10
6.5036899392
 20
4.0691711468
 30
0.0
 10
6.503998422
 20
4.0680372629
 30
0.0
 10
6.5041175547
 20
4.0674650879
 30
0.0
  0
SPLINE
  5
4D0
100
AcDbEntity
  8
0
100
AcDbSpline
 62
7
  6
CONTINUOUS
 70
0
 71
3
 72
18
 73
14
 74
0
 42
0.0000001
 43
0.0000001
 44
0.0000000001
 40
0.0
 40
0.0
 40
0.0
 40
0.0
 40
0.0236741789
 40
0.0521451502
 40
0.0856602078
 40
0.1244235228
 40
0.1686085366
 40
0.2183513883
 40
0.3348709733
 40
0.4741197902
 40
0.6346475129
 40
0.8123921336
 40
1.0
 40
1.0
 40
1.0
 40
1.0
 10
6.5041175547
 20
4.0802418796
 30
0.0
 10
6.5040517623
 20
4.0802008986
 30
0.0
 10
6.5039003211
 20
4.080121122
 30
0.0
 10
6.5036410978
 20
4.0800134872
 30
0.0
 10
6.5033284239
 20
4.0799077427
 30
0.0
 10
6.5029612239
 20
4.0798044899
 30
0.0
 10
6.5025383907
 20
4.0797042673
 30
0.0
 10
6.5018627849
 20
4.0795683897
 30
0.0
 10
6.5008738204
 20
4.0794151953
 30
0.0
 10
6.4995188802
 20
4.0792644759
 30
0.0
 10
6.4979595138
 20
4.0791473182
 30
0.0
 10
6.4962391125
 20
4.0790723716
 30
0.0
 10
6.4950428316
 20
4.0790552844
 30
0.0
 10
6.4944285835
 20
4.0790552844
 30
0.0
  0
SPLINE
  5
4D1
100
AcDbEntity
  8
0
100
AcDbSpline
 62
7
  6
CONTINUOUS
 70
0
 71
3
 72
17
 73
13
 74
0
 42
0.0000001
 43
0.0000001
 44
0.0000000001
 40
0.0
 40
0.0
 40
0.0
 40
0.0
 40
0.0639314221
 40
0.1277997285
 40
0.1915147707
 40
0.2550410356
 40
0.3812274304
 40
0.5064476506
 40
0.6307730787
 40
0.7543574884
 40
0.8773778989
 40
1.0
 40
1.0
 40
1.0
 40
1.0
 10
6.4944285835
 20
4.0895530533
 30
0.0
 10
6.4947383111
 20
4.0895530533
 30
0.0
 10
6.4953580379
 20
4.0895176193
 30
0.0
 10
6.4962742417
 20
4.0893599191
 30
0.0
 10
6.4971654824
 20
4.0891020194
 30
0.0
 10
6.4983032803
 20
4.0886354508
 30
0.0
 10
6.4996182102
 20
4.0878402141
 30
0.0
 10
6.5009804291
 20
4.0866190588
 30
0.0
 10
6.5021121612
 20
4.0851997736
 30
0.0
 10
6.5030132019
 20
4.0836378886
 30
0.0
 10
6.5036903126
 20
4.0819769376
 30
0.0
 10
6.5039984794
 20
4.0808238889
 30
0.0
 10
6.5041175547
 20
4.0802418796
 30
0.0
  0
SPLINE
  5
4D2
100
AcDbEntity
  8
0
100
AcDbSpline
 62
7
  6
CONTINUOUS
 70
0
 71
3
 72
17
 73
13
 74
0
 42
0.0000001
 43
0.0000001
 44
0.0000000001
 40
0.0
 40
0.0
 40
0.0
 40
0.0
 40
0.0220622202
 40
0.0493436431
 40
0.0819942894
 40
0.1201555196
 40
0.2135036221
 40
0.330131283
 40
0.4700334203
 40
0.6316529318
 40
0.8108089304
 40
1.0
 40
1.0
 40
1.0
 40
1.0
 10
6.5041148914
 20
4.0925975057
 30
0.0
 10
6.5040474535
 20
4.0925735693
 30
0.0
 10
6.5038939309
 20
4.0925276752
 30
0.0
 10
6.5036350483
 20
4.0924664426
 30
0.0
 10
6.5033225607
 20
4.0924061627
 30
0.0
 10
6.5027967572
 20
4.0923218363
 30
0.0
 10
6.5019975024
 20
4.0922249474
 30
0.0
 10
6.5008669767
 20
4.0921247042
 30
0.0
 10
6.4995132917
 20
4.092038721
 30
0.0
 10
6.4979555351
 20
4.0919717963
 30
0.0
 10
6.4962370113
 20
4.0919290033
 30
0.0
 10
6.4950422343
 20
4.0919192444
 30
0.0
 10
6.4944285835
 20
4.0919192444
 30
0.0
  0
SPLINE
  5
4D3
100
AcDbEntity
  8
0
100
AcDbSpline
 62
7
  6
CONTINUOUS
 70
0
 71
3
 72
17
 73
13
 74
0
 42
0.0000001
 43
0.0000001
 44
0.0000000001
 40
0.0
 40
0.0
 40
0.0
 40
0.0
 40
0.0634750401
 40
0.1269112495
 40
0.1902403787
 40
0.2534438635
 40
0.3792137489
 40
0.504344177
 40
0.6288808902
 40
0.7529253556
 40
0.8765954743
 40
1.0
 40
1.0
 40
1.0
 40
1.0
 10
6.4944285835
 20
4.1020319568
 30
0.0
 10
6.4947380419
 20
4.1020319568
 30
0.0
 10
6.4953573618
 20
4.1019960537
 30
0.0
 10
6.4962728953
 20
4.1018362777
 30
0.0
 10
6.4971634912
 20
4.1015749891
 30
0.0
 10
6.4983011526
 20
4.1011020212
 30
0.0
 10
6.4996160062
 20
4.1002955553
 30
0.0
 10
6.5009772569
 20
4.0990582385
 30
0.0
 10
6.5021084104
 20
4.0976203183
 30
0.0
 10
6.5030093505
 20
4.09603792
 30
0.0
 10
6.5036868514
 20
4.0943550427
 30
0.0
 10
6.5039954581
 20
4.0931871631
 30
0.0
 10
6.5041148914
 20
4.0925975057
 30
0.0
  0
LINE
  5
4D4
100
AcDbEntity
  8
0
100
AcDbLine
 62
7
  6
CONTINUOUS
 10
6.5041175547
 20
4.1044797701
 11
6.4944285835
 21
4.1043098427
  0
SPLINE
  5
4D5
100
AcDbEntity
  8
0
100
AcDbSpline
 62
7
  6
CONTINUOUS
 70
0
 71
3
 72
17
 73
13
 74
0
 42
0.0000001
 43
0.0000001
 44
0.0000000001
 40
0.0
 40
0.0
 40
0.0
 40
0.0
 40
0.0631102626
 40
0.1262011994
 40
0.1892221082
 40
0.2521680101
 40
0.3776057759
 40
0.5026653189
 40
0.6273712741
 40
0.7517830501
 40
0.8759714235
 40
1.0
 40
1.0
 40
1.0
 40
1.0
 10
6.4944285835
 20
4.1140374986
 30
0.0
 10
6.494738338
 20
4.1140374986
 30
0.0
 10
6.4953583599
 20
4.114001097
 30
0.0
 10
6.4962748308
 20
4.1138391173
 30
0.0
 10
6.4971662644
 20
4.1135742462
 30
0.0
 10
6.4983054039
 20
4.1130946148
 30
0.0
 10
6.4996217006
 20
4.1122766369
 30
0.0
 10
6.500983129
 20
4.1110228224
 30
0.0
 10
6.5021139802
 20
4.109566146
 30
0.0
 10
6.5030142728
 20
4.1079633921
 30
0.0
 10
6.5036908496
 20
4.1062590558
 30
0.0
 10
6.5039985617
 20
4.1050767778
 30
0.0
 10
6.5041175547
 20
4.1044797701
 30
0.0
  0
SPLINE
  5
4D6
100
AcDbEntity
  8
0
100
AcDbSpline
 62
7
  6
CONTINUOUS
 70
0
 71
3
 72
17
 73
13
 74
0
 42
0.0000001
 43
0.0000001
 44
0.0000000001
 40
0.0
 40
0.0
 40
0.0
 40
0.0
 40
0.0628335299
 40
0.1256626661
 40
0.1884501184
 40
0.2512012269
 40
0.3763889789
 40
0.501396603
 40
0.6262318902
 40
0.7509218526
 40
0.8755013913
 40
1.0
 40
1.0
 40
1.0
 40
1.0
 10
6.4944285835
 20
4.1255162961
 30
0.0
 10
6.4947383474
 20
4.1255162961
 30
0.0
 10
6.4953584717
 20
4.1254795638
 30
0.0
 10
6.4962750346
 20
4.1253161221
 30
0.0
 10
6.4971665339
 20
4.1250488702
 30
0.0
 10
6.4983061315
 20
4.124564772
 30
0.0
 10
6.4996228817
 20
4.123739022
 30
0.0
 10
6.5009840308
 20
4.1224740735
 30
0.0
 10
6.5021145813
 20
4.1210046493
 30
0.0
 10
6.5030146237
 20
4.1193879567
 30
0.0
 10
6.5036910245
 20
4.1176688186
 30
0.0
 10
6.5039985885
 20
4.1164765621
 30
0.0
 10
6.5041175547
 20
4.1158744346
 30
0.0
  0
SPLINE
  5
4D7
100
AcDbEntity
  8
0
100
AcDbSpline
 62
7
  6
CONTINUOUS
 70
0
 71
3
 72
17
 73
13
 74
0
 42
0.0000001
 43
0.0000001
 44
0.0000000001
 40
0.0
 40
0.0
 40
0.0
 40
0.0
 40
0.0626447429
 40
0.1252953301
 40
0.1879236554
 40
0.2505421067
 40
0.3755599606
 40
0.5005328066
 40
0.6254566319
 40
0.7503361824
 40
0.875181869
 40
1.0
 40
1.0
 40
1.0
 40
1.0
 10
6.4944285835
 20
4.1364437184
 30
0.0
 10
6.4947383539
 20
4.1364437184
 30
0.0
 10
6.4953585489
 20
4.136406759
 30
0.0
 10
6.4962751752
 20
4.136242314
 30
0.0
 10
6.4971667195
 20
4.1359734286
 30
0.0
 10
6.4983066313
 20
4.1354862641
 30
0.0
 10
6.4996236887
 20
4.13465518
 30
0.0
 10
6.5009846437
 20
4.133382598
 30
0.0
 10
6.502114988
 20
4.1319044335
 30
0.0
 10
6.5030148603
 20
4.1302781828
 30
0.0
 10
6.5036911421
 20
4.128548893
 30
0.0
 10
6.5039986064
 20
4.1273497913
 30
0.0
 10
6.5041175547
 20
4.1267441515
 30
0.0
  0
SPLINE
  5
4D8
100
AcDbEntity
  8
0
100
AcDbSpline
 62
7
  6
CONTINUOUS
 70
0
 71
3
 72
17
 73
13
 74
0
 42
0.0000001
 43
0.0000001
 44
0.0000000001
 40
0.0
 40
0.0
 40
0.0
 40
0.0
 40
0.0625432767
 40
0.1250979176
 40
0.1876407642
 40
0.250187995
 40
0.375114757
 40
0.5000691254
 40
0.6250406387
 40
0.7500220208
 40
0.8750105159
 40
1.0
 40
1.0
 40
1.0
 40
1.0
 10
6.4944285835
 20
4.1467898141
 30
0.0
 10
6.4947383574
 20
4.1467898141
 30
0.0
 10
6.4953585907
 20
4.1467527323
 30
0.0
 10
6.4962752514
 20
4.146587746
 30
0.0
 10
6.4971668198
 20
4.1463179795
 30
0.0
 10
6.4983069011
 20
4.1458291604
 30
0.0
 10
6.4996241229
 20
4.1449951987
 30
0.0
 10
6.5009849723
 20
4.1437185011
 30
0.0
 10
6.5021152054
 20
4.1422356242
 30
0.0
 10
6.5030149865
 20
4.1406042196
 30
0.0
 10
6.5036912048
 20
4.1388694554
 30
0.0
 10
6.503998616
 20
4.1376666617
 30
0.0
 10
6.5041175547
 20
4.1370591277
 30
0.0
  0
SPLINE
  5
4D9
100
AcDbEntity
  8
0
100
AcDbSpline
 62
7
  6
CONTINUOUS
 70
0
 71
3
 72
17
 73
13
 74
0
 42
0.0000001
 43
0.0000001
 44
0.0000000001
 40
0.0
 40
0.0
 40
0.0
 40
0.0
 40
0.0625287923
 40
0.1250697377
 40
0.1876003849
 40
0.2501374534
 40
0.3750512247
 40
0.5000029675
 40
0.6249812941
 40
0.749977209
 40
0.8749860767
 40
1.0
 40
1.0
 40
1.0
 40
1.0
 10
6.4944285835
 20
4.1565262253
 30
0.0
 10
6.4947383579
 20
4.1565262253
 30
0.0
 10
6.4953585967
 20
4.156489126
 30
0.0
 10
6.4962752623
 20
4.1563240624
 30
0.0
 10
6.4971668341
 20
4.1560541698
 30
0.0
 10
6.4983069397
 20
4.1555651142
 30
0.0
 10
6.4996241849
 20
4.154730741
 30
0.0
 10
6.5009850191
 20
4.1534534552
 30
0.0
 10
6.5021152364
 20
4.1519699048
 30
0.0
 10
6.5030150044
 20
4.1503377635
 30
0.0
 10
6.5036912137
 20
4.1486022168
 30
0.0
 10
6.5039986173
 20
4.1473988954
 30
0.0
 10
6.5041175547
 20
4.1467910906
 30
0.0
  0
SPLINE
  5
4DA
100
AcDbEntity
  8
0
100
AcDbSpline
 62
7
  6
CONTINUOUS
 70
0
 71
3
 72
17
 73
13
 74
0
 42
0.0000001
 43
0.0000001
 44
0.0000000001
 40
0.0
 40
0.0
 40
0.0
 40
0.0
 40
0.062601161
 40
0.1252105337
 40
0.1878021452
 40
0.2503899977
 40
0.3753689091
 40
0.500333901
 40
0.6252782233
 40
0.7502014725
 40
0.8751084037
 40
1.0
 40
1.0
 40
1.0
 40
1.0
 10
6.4944285835
 20
4.1656213714
 30
0.0
 10
6.4947380713
 20
4.1656213714
 30
0.0
 10
6.4953577128
 20
4.1655844269
 30
0.0
 10
6.4962735359
 20
4.1654200461
 30
0.0
 10
6.4971643386
 20
4.1651512586
 30
0.0
 10
6.4983034429
 20
4.1646642234
 30
0.0
 10
6.4996197318
 20
4.1638332769
 30
0.0
 10
6.5009801084
 20
4.1625608721
 30
0.0
 10
6.5021103154
 20
4.1610827735
 30
0.0
 10
6.503010465
 20
4.1594564417
 30
0.0
 10
6.5036874084
 20
4.157726908
 30
0.0
 10
6.5039955435
 20
4.1565275779
 30
0.0
 10
6.5041148914
 20
4.1559217829
 30
0.0
  0
SPLINE
  5
4DB
100
AcDbEntity
  8
0
100
AcDbSpline
 62
7
  6
CONTINUOUS
 70
0
 71
3
 72
17
 73
13
 74
0
 42
0.0000001
 43
0.0000001
 44
0.0000000001
 40
0.0
 40
0.0
 40
0.0
 40
0.0
 40
0.0627608658
 40
0.1255212737
 40
0.1882474647
 40
0.2509474912
 40
0.3760697859
 40
0.5010639624
 40
0.6259332986
 40
0.7506962519
 40
0.8753782986
 40
1.0
 40
1.0
 40
1.0
 40
1.0
 10
6.4944285835
 20
4.1740649912
 30
0.0
 10
6.4947383499
 20
4.1740649912
 30
0.0
 10
6.4953585013
 20
4.1740281716
 30
0.0
 10
6.4962750886
 20
4.1738643443
 30
0.0
 10
6.4971666052
 20
4.1735964646
 30
0.0
 10
6.4983063235
 20
4.173111188
 30
0.0
 10
6.4996231922
 20
4.172283388
 30
0.0
 10
6.500984267
 20
4.1710155051
 30
0.0
 10
6.5021147381
 20
4.1695427209
 30
0.0
 10
6.503014715
 20
4.1679223542
 30
0.0
 10
6.50369107
 20
4.1661993139
 30
0.0
 10
6.5039985954
 20
4.1650044263
 30
0.0
 10
6.5041175547
 20
4.1644009488
 30
0.0
  0
SPLINE
  5
4DC
100
AcDbEntity
  8
0
100
AcDbSpline
 62
7
  6
CONTINUOUS
 70
0
 71
3
 72
17
 73
13
 74
0
 42
0.0000001
 43
0.0000001
 44
0.0000000001
 40
0.0
 40
0.0
 40
0.0
 40
0.0
 40
0.0630081979
 40
0.1260025643
 40
0.1889373353
 40
0.2518113401
 40
0.3771567584
 40
0.5021970277
 40
0.6269506217
 40
0.751465039
 40
0.8757978261
 40
1.0
 40
1.0
 40
1.0
 40
1.0
 10
6.4944285835
 20
4.1818192734
 30
0.0
 10
6.4947383415
 20
4.1818192734
 30
0.0
 10
6.4953584009
 20
4.18178275
 30
0.0
 10
6.4962749056
 20
4.1816202323
 30
0.0
 10
6.4971663634
 20
4.181354485
 30
0.0
 10
6.4983056714
 20
4.18087321
 30
0.0
 10
6.4996221359
 20
4.1800523721
 30
0.0
 10
6.500983462
 20
4.1787944587
 30
0.0
 10
6.5021142025
 20
4.1773330893
 30
0.0
 10
6.5030144028
 20
4.1757252044
 30
0.0
 10
6.5036909145
 20
4.1740154197
 30
0.0
 10
6.5039985716
 20
4.172829469
 30
0.0
 10
6.5041175547
 20
4.1722305769
 30
0.0
  0
SPLINE
  5
4DD
100
AcDbEntity
  8
0
100
AcDbSpline
 62
7
  6
CONTINUOUS
 70
0
 71
3
 72
17
 73
13
 74
0
 42
0.0000001
 43
0.0000001
 44
0.0000000001
 40
0.0
 40
0.0
 40
0.0
 40
0.0
 40
0.063344043
 40
0.126656215
 40
0.1898745301
 40
0.2529853031
 40
0.3786351734
 40
0.5037394504
 40
0.6283365718
 40
0.7525130845
 40
0.8763700478
 40
1.0
 40
1.0
 40
1.0
 40
1.0
 10
6.4944285835
 20
4.1888678577
 30
0.0
 10
6.4947383302
 20
4.1888678577
 30
0.0
 10
6.4953582668
 20
4.1888317336
 30
0.0
 10
6.4962746607
 20
4.1886709812
 30
0.0
 10
6.4971660391
 20
4.1884081089
 30
0.0
 10
6.4983047939
 20
4.1879322252
 30
0.0
 10
6.4996207047
 20
4.1871207702
 30
0.0
 10
6.500982364
 20
4.1858763108
 30
0.0
 10
6.5021134677
 20
4.1844303452
 30
0.0
 10
6.5030139725
 20
4.1828393005
 30
0.0
 10
6.5036906995
 20
4.1811473967
 30
0.0
 10
6.5039985387
 20
4.1799734974
 30
0.0
 10
6.5041175547
 20
4.179380789
 30
0.0
  0
SPLINE
  5
4DE
100
AcDbEntity
  8
0
100
AcDbSpline
 62
7
  6
CONTINUOUS
 70
0
 71
3
 72
17
 73
13
 74
0
 42
0.0000001
 43
0.0000001
 44
0.0000000001
 40
0.0
 40
0.0
 40
0.0
 40
0.0
 40
0.0637694795
 40
0.1274844186
 40
0.1910624066
 40
0.2544739414
 40
0.3805119005
 40
0.5056996463
 40
0.6300997273
 40
0.7538475219
 40
0.8770991271
 40
1.0
 40
1.0
 40
1.0
 40
1.0
 10
6.4944285835
 20
4.1951914247
 30
0.0
 10
6.4947383163
 20
4.1951914247
 30
0.0
 10
6.4953581003
 20
4.1951558014
 30
0.0
 10
6.4962743561
 20
4.1949972641
 30
0.0
 10
6.4971656346
 20
4.1947380004
 30
0.0
 10
6.4983036949
 20
4.1942688779
 30
0.0
 10
6.4996188968
 20
4.1934691938
 30
0.0
 10
6.5009809644
 20
4.1922416418
 30
0.0
 10
6.5021125242
 20
4.1908150332
 30
0.0
 10
6.5030134167
 20
4.1892451454
 30
0.0
 10
6.5036904207
 20
4.1875757006
 30
0.0
 10
6.503998496
 20
4.1864169317
 30
0.0
 10
6.5041175547
 20
4.1858319871
 30
0.0
  0
SPLINE
  5
4DF
100
AcDbEntity
  8
0
100
AcDbSpline
 62
7
  6
CONTINUOUS
 70
0
 71
3
 72
17
 73
13
 74
0
 42
0.0000001
 43
0.0000001
 44
0.0000000001
 40
0.0
 40
0.0
 40
0.0
 40
0.0
 40
0.0642858254
 40
0.1284898713
 40
0.1925051252
 40
0.2562829389
 40
0.3827955382
 40
0.5080881825
 40
0.6322509243
 40
0.7554774129
 40
0.8779903925
 40
1.0
 40
1.0
 40
1.0
 40
1.0
 10
6.4944285835
 20
4.2007726416
 30
0.0
 10
6.4947382998
 20
4.2007726416
 30
0.0
 10
6.4953579032
 20
4.200737619
 30
0.0
 10
6.4962739947
 20
4.2005817395
 30
0.0
 10
6.4971651529
 20
4.2003268067
 30
0.0
 10
6.4983023801
 20
4.1998657899
 30
0.0
 10
6.4996167108
 20
4.1990802232
 30
0.0
 10
6.500979253
 20
4.1978729926
 30
0.0
 10
6.5021113597
 20
4.1964696498
 30
0.0
 10
6.5030127256
 20
4.1949251835
 30
0.0
 10
6.5036900721
 20
4.1932827164
 30
0.0
 10
6.5039984424
 20
4.1921421123
 30
0.0
 10
6.5041175547
 20
4.1915664888
 30
0.0
  0
SPLINE
  5
4E0
100
AcDbEntity
  8
0
100
AcDbSpline
 62
7
  6
CONTINUOUS
 70
0
 71
3
 72
17
 73
13
 74
0
 42
0.0000001
 43
0.0000001
 44
0.0000000001
 40
0.0
 40
0.0
 40
0.0
 40
0.0
 40
0.0648925799
 40
0.1296718626
 40
0.1942022777
 40
0.2584127635
 40
0.3854899451
 40
0.5109127083
 40
0.6348002196
 40
0.7574126023
 40
0.8790503283
 40
1.0
 40
1.0
 40
1.0
 40
1.0
 10
6.4944285835
 20
4.2055937342
 30
0.0
 10
6.4947379971
 20
4.2055937342
 30
0.0
 10
6.4953568261
 20
4.2055594723
 30
0.0
 10
6.4962719122
 20
4.2054069587
 30
0.0
 10
6.497162179
 20
4.2051575063
 30
0.0
 10
6.4982975644
 20
4.2047066833
 30
0.0
 10
6.4996100165
 20
4.2039387936
 30
0.0
 10
6.5009725467
 20
4.2027570568
 30
0.0
 10
6.5021051922
 20
4.2013827788
 30
0.0
 10
6.503007433
 20
4.1998699193
 30
0.0
 10
6.5036858805
 20
4.1982608368
 30
0.0
 10
6.5039953084
 20
4.197142636
 30
0.0
 10
6.5041148914
 20
4.1965784716
 30
0.0
  0
SPLINE
  5
4E1
100
AcDbEntity
  8
0
100
AcDbSpline
 62
7
  6
CONTINUOUS
 70
0
 71
3
 72
17
 73
13
 74
0
 42
0.0000001
 43
0.0000001
 44
0.0000000001
 40
0.0
 40
0.0
 40
0.0
 40
0.0
 40
0.0655975559
 40
0.1310454495
 40
0.1961750848
 40
0.2608894414
 40
0.3886255409
 40
0.5142025703
 40
0.6377716925
 40
0.7596693593
 40
0.8802866014
 40
1.0
 40
1.0
 40
1.0
 40
1.0
 10
6.4944285835
 20
4.2096489115
 30
0.0
 10
6.4947382599
 20
4.2096489115
 30
0.0
 10
6.4953574261
 20
4.2096153814
 30
0.0
 10
6.496273116
 20
4.2094661088
 30
0.0
 10
6.4971639737
 20
4.2092219486
 30
0.0
 10
6.4982991325
 20
4.2087810516
 30
0.0
 10
6.4996112013
 20
4.2080305476
 30
0.0
 10
6.5009748456
 20
4.2068740021
 30
0.0
 10
6.5021083048
 20
4.2055286952
 30
0.0
 10
6.503010885
 20
4.204047607
 30
0.0
 10
6.5036891335
 20
4.2024723576
 30
0.0
 10
6.5039982976
 20
4.2013769626
 30
0.0
 10
6.5041175547
 20
4.2008245392
 30
0.0
  0
SPLINE
  5
4E2
100
AcDbEntity
  8
0
100
AcDbSpline
 62
7
  6
CONTINUOUS
 70
0
 71
3
 72
18
 73
14
 74
0
 42
0.0000001
 43
0.0000001
 44
0.0000000001
 40
0.0
 40
0.0
 40
0.0
 40
0.0
 40
0.0663898826
 40
0.1325896737
 40
0.198393923
 40
0.2636763663
 40
0.3921572323
 40
0.5179077146
 40
0.5798549488
 40
0.641209249
 40
0.762282685
 40
0.8817198319
 40
1.0
 40
1.0
 40
1.0
 40
1.0
 10
6.4944285835
 20
4.2129196352
 30
0.0
 10
6.494738237
 20
4.2129196352
 30
0.0
 10
6.495357151
 20
4.212886992
 30
0.0
 10
6.496272608
 20
4.2127416464
 30
0.0
 10
6.4971632835
 20
4.2125038978
 30
0.0
 10
6.4982972306
 20
4.2120749234
 30
0.0
 10
6.4996077882
 20
4.2113453593
 30
0.0
 10
6.5007509701
 20
4.2104014317
 30
0.0
 10
6.5015473599
 20
4.2095542834
 30
0.0
 10
6.5022597116
 20
4.2086631544
 30
0.0
 10
6.5030097917
 20
4.2074648917
 30
0.0
 10
6.5036884961
 20
4.2059298381
 30
0.0
 10
6.5039982026
 20
4.2048613254
 30
0.0
 10
6.5041175547
 20
4.2043227122
 30
0.0
  0
SPLINE
  5
4E3
100
AcDbEntity
  8
0
100
AcDbSpline
 62
7
  6
CONTINUOUS
 70
0
 71
3
 72
18
 73
14
 74
0
 42
0.0000001
 43
0.0000001
 44
0.0000000001
 40
0.0
 40
0.0
 40
0.0
 40
0.0
 40
0.0670674053
 40
0.1339250113
 40
0.2003394168
 40
0.2661641623
 40
0.3954620584
 40
0.5215515811
 40
0.583469957
 40
0.6446584306
 40
0.7650251386
 40
0.8832797677
 40
1.0
 40
1.0
 40
1.0
 40
1.0
 10
6.4944285835
 20
4.2153994172
 30
0.0
 10
6.4947243291
 20
4.2153994172
 30
0.0
 10
6.4953153009
 20
4.2153705195
 30
0.0
 10
6.4961906155
 20
4.2152417668
 30
0.0
 10
6.4970442878
 20
4.2150308032
 30
0.0
 10
6.4981342185
 20
4.2146494711
 30
0.0
 10
6.499401796
 20
4.2139991691
 30
0.0
 10
6.5005230417
 20
4.2131507175
 30
0.0
 10
6.5013127767
 20
4.2123852065
 30
0.0
 10
6.5020237327
 20
4.2115794448
 30
0.0
 10
6.5027845438
 20
4.2104918939
 30
0.0
 10
6.5034950836
 20
4.2090902051
 30
0.0
 10
6.5038376259
 20
4.2081086341
 30
0.0
 10
6.5039758564
 20
4.2076128449
 30
0.0
  0
SPLINE
  5
4E4
100
AcDbEntity
  8
0
100
AcDbSpline
 62
7
  6
CONTINUOUS
 70
0
 71
3
 72
18
 73
14
 74
0
 42
0.0000001
 43
0.0000001
 44
0.0000000001
 40
0.0
 40
0.0
 40
0.0
 40
0.0
 40
0.0682828515
 40
0.136282355
 40
0.2037075574
 40
0.2703635585
 40
0.4006760409
 40
0.5269061645
 40
0.5885971283
 40
0.6493904746
 40
0.7685319962
 40
0.8851596612
 40
1.0
 40
1.0
 40
1.0
 40
1.0
 10
6.4944285835
 20
4.2170814606
 30
0.0
 10
6.4947381863
 20
4.2170814606
 30
0.0
 10
6.4953565434
 20
4.217050857
 30
0.0
 10
6.4962714774
 20
4.2169145534
 30
0.0
 10
6.4971617401
 20
4.2166915656
 30
0.0
 10
6.4982928869
 20
4.2162900086
 30
0.0
 10
6.4996000293
 20
4.2156082561
 30
0.0
 10
6.5007471143
 20
4.2147206523
 30
0.0
 10
6.5015459372
 20
4.2139231284
 30
0.0
 10
6.502256964
 20
4.2130883092
 30
0.0
 10
6.5030067797
 20
4.211965218
 30
0.0
 10
6.503686911
 20
4.2105226904
 30
0.0
 10
6.5039979545
 20
4.2095162172
 30
0.0
 10
6.5041175547
 20
4.2090094387
 30
0.0
  0
SPLINE
  5
4E5
100
AcDbEntity
  8
0
100
AcDbSpline
 62
7
  6
CONTINUOUS
 70
0
 71
3
 72
15
 73
11
 74
0
 42
0.0000001
 43
0.0000001
 44
0.0000000001
 40
0.0
 40
0.0
 40
0.0
 40
0.0
 40
0.1013172847
 40
0.2063317147
 40
0.316413345
 40
0.4330520294
 40
0.5578957049
 40
0.6927815816
 40
0.8396214411
 40
1.0
 40
1.0
 40
1.0
 40
1.0
 10
7.1924488724
 20
2.7732576637
 30
0.0
 10
7.1934414201
 20
2.7725319108
 30
0.0
 10
7.1954220238
 20
2.770997751
 30
0.0
 10
7.1983505894
 20
2.7685126771
 30
0.0
 10
7.2013320955
 20
2.7658066284
 30
0.0
 10
7.204430579
 20
2.7628733728
 30
0.0
 10
7.2077225765
 20
2.7597070956
 30
0.0
 10
7.2112993478
 20
2.7563080594
 30
0.0
 10
7.215265066
 20
2.7526933307
 30
0.0
 10
7.2181118756
 20
2.7502833637
 30
0.0
 10
7.2196286759
 20
2.7490637024
 30
0.0
  0
SPLINE
  5
4E6
100
AcDbEntity
  8
0
100
AcDbSpline
 62
7
  6
CONTINUOUS
 70
0
 71
3
 72
18
 73
14
 74
0
 42
0.0000001
 43
0.0000001
 44
0.0000000001
 40
0.0
 40
0.0
 40
0.0
 40
0.0
 40
0.0693804668
 40
0.1384251073
 40
0.2067945693
 40
0.2742546347
 40
0.4056525531
 40
0.5321864485
 40
0.5937383751
 40
0.6542121279
 40
0.7722296922
 40
0.8872017028
 40
1.0
 40
1.0
 40
1.0
 40
1.0
 10
6.4944285835
 20
4.2179611549
 30
0.0
 10
6.4947381591
 20
4.2179611549
 30
0.0
 10
6.4953562172
 20
4.2179316978
 30
0.0
 10
6.496270867
 20
4.2178004796
 30
0.0
 10
6.4971608985
 20
4.217585799
 30
0.0
 10
6.4982904884
 20
4.2171996198
 30
0.0
 10
6.4995956128
 20
4.216544677
 30
0.0
 10
6.5007448444
 20
4.2156889818
 30
0.0
 10
6.5015450859
 20
4.2149195321
 30
0.0
 10
6.5022552905
 20
4.2141164544
 30
0.0
 10
6.5030048898
 20
4.2130358159
 30
0.0
 10
6.5036858947
 20
4.2116455241
 30
0.0
 10
6.5039977938
 20
4.2106739962
 30
0.0
 10
6.5041175547
 20
4.2101851463
 30
0.0
  0
SPLINE
  5
4E7
100
AcDbEntity
  8
0
100
AcDbSpline
 62
7
  6
CONTINUOUS
 70
0
 71
3
 72
22
 73
18
 74
0
 42
0.0000001
 43
0.0000001
 44
0.0000000001
 40
0.0
 40
0.0
 40
0.0
 40
0.0
 40
0.0111443026
 40
0.0227890083
 40
0.0352642758
 40
0.0488358068
 40
0.0799712679
 40
0.1172461662
 40
0.1610916006
 40
0.2116097252
 40
0.2686889982
 40
0.3320621621
 40
0.4013420592
 40
0.4760380168
 40
0.6392348402
 40
0.8160718553
 40
1.0
 40
1.0
 40
1.0
 40
1.0
 10
6.2288352567
 20
3.9139884221
 30
0.0
 10
6.2287942855
 20
3.9139909115
 30
0.0
 10
6.2287108149
 20
3.9140043852
 30
0.0
 10
6.2285880553
 20
3.9140487169
 30
0.0
 10
6.2284664936
 20
3.9141168953
 30
0.0
 10
6.2282986639
 20
3.9142450767
 30
0.0
 10
6.2280942391
 20
3.9144703578
 30
0.0
 10
6.2278677593
 20
3.9148174683
 30
0.0
 10
6.227650092
 20
3.9152516278
 30
0.0
 10
6.2274430456
 20
3.9157700966
 30
0.0
 10
6.2272484246
 20
3.9163693743
 30
0.0
 10
6.2270681587
 20
3.9170448247
 30
0.0
 10
6.2269040744
 20
3.9177909213
 30
0.0
 10
6.2267033358
 20
3.9189045748
 30
0.0
 10
6.2265093478
 20
3.9204208138
 30
0.0
 10
6.226368811
 20
3.9223462981
 30
0.0
 10
6.2263372936
 20
3.9236753226
 30
0.0
 10
6.2263372936
 20
3.9243527686
 30
0.0
  0
SPLINE
  5
4E8
100
AcDbEntity
  8
0
100
AcDbSpline
 62
7
  6
CONTINUOUS
 70
0
 71
3
 72
27
 73
23
 74
0
 42
0.0000001
 43
0.0000001
 44
0.0000000001
 40
0.0
 40
0.0
 40
0.0
 40
0.0
 40
0.0023530189
 40
0.0048445232
 40
0.0076147295
 40
0.0107660475
 40
0.0184562975
 40
0.0282484024
 40
0.0402723647
 40
0.0545796106
 40
0.0711784192
 40
0.090049476
 40
0.134451049
 40
0.1873462904
 40
0.2481264416
 40
0.3160501211
 40
0.3902661618
 40
0.4698329567
 40
0.5537359683
 40
0.6409060649
 40
0.8206093503
 40
1.0
 40
1.0
 40
1.0
 40
1.0
 10
6.215898839
 20
3.9835646426
 30
0.0
 10
6.2158893062
 20
3.9835652353
 30
0.0
 10
6.2158697547
 20
3.9835692035
 30
0.0
 10
6.2158418615
 20
3.9835831763
 30
0.0
 10
6.2158151922
 20
3.9836048468
 30
0.0
 10
6.2157787047
 20
3.9836465991
 30
0.0
 10
6.2157369091
 20
3.9837199519
 30
0.0
 10
6.2156933758
 20
3.983831712
 30
0.0
 10
6.2156534448
 20
3.9839729895
 30
0.0
 10
6.2156173109
 20
3.9841435415
 30
0.0
 10
6.2155851199
 20
3.9843430775
 30
0.0
 10
6.2155455178
 20
3.9846649145
 30
0.0
 10
6.2155093577
 20
3.9851352854
 30
0.0
 10
6.2154848745
 20
3.9857765652
 30
0.0
 10
6.2154781301
 20
3.9865137559
 30
0.0
 10
6.2154892996
 20
3.9873374133
 30
0.0
 10
6.2155183647
 20
3.9882369252
 30
0.0
 10
6.2155649891
 20
3.9892006319
 30
0.0
 10
6.2156285834
 20
3.9902160548
 30
0.0
 10
6.2157360295
 20
3.9916358758
 30
0.0
 10
6.2159057094
 20
3.9934395286
 30
0.0
 10
6.2160751518
 20
3.9948874087
 30
0.0
 10
6.2161686269
 20
3.9956095544
 30
0.0
  0
LINE
  5
4E9
100
AcDbEntity
  8
0
100
AcDbLine
 62
7
  6
CONTINUOUS
 10
6.2263801105
 20
3.7881515288
 11
6.2265246966
 21
3.788375758
  0
SPLINE
  5
4EA
100
AcDbEntity
  8
0
100
AcDbSpline
 62
7
  6
CONTINUOUS
 70
0
 71
3
 72
16
 73
12
 74
0
 42
0.0000001
 43
0.0000001
 44
0.0000000001
 40
0.0
 40
0.0
 40
0.0
 40
0.0
 40
0.2020594227
 40
0.3808961416
 40
0.5359817526
 40
0.6674705289
 40
0.7762130319
 40
0.8642803952
 40
0.9360490116
 40
0.9683755557
 40
1.0
 40
1.0
 40
1.0
 40
1.0
 10
6.2263801105
 20
3.8208952669
 30
0.0
 10
6.2263909755
 20
3.8210326717
 30
0.0
 10
6.2264162835
 20
3.8212913581
 30
0.0
 10
6.2264696414
 20
3.8216532413
 30
0.0
 10
6.2265357987
 20
3.8219640331
 30
0.0
 10
6.2266141866
 20
3.8222224996
 30
0.0
 10
6.2267047062
 20
3.8224281926
 30
0.0
 10
6.226807319
 20
3.8225814879
 30
0.0
 10
6.2269096911
 20
3.8226680013
 30
0.0
 10
6.2269960178
 20
3.8227032912
 30
0.0
 10
6.2270394462
 20
3.8227106079
 30
0.0
 10
6.2270609819
 20
3.8227118665
 30
0.0
  0
SPLINE
  5
4EB
100
AcDbEntity
  8
0
100
AcDbSpline
 62
7
  6
CONTINUOUS
 70
0
 71
3
 72
19
 73
15
 74
0
 42
0.0000001
 43
0.0000001
 44
0.0000000001
 40
0.0
 40
0.0
 40
0.0
 40
0.0
 40
0.1996788539
 40
0.379995459
 40
0.5387122666
 40
0.6742995832
 40
0.7331894234
 40
0.7861348466
 40
0.8332687217
 40
0.8748529789
 40
0.9113623794
 40
0.9435531571
 40
0.9725746856
 40
1.0
 40
1.0
 40
1.0
 40
1.0
 10
6.2263801105
 20
3.8693894718
 30
0.0
 10
6.2263984544
 20
3.8697332416
 30
0.0
 10
6.2264456627
 20
3.8703868971
 30
0.0
 10
6.2265556061
 20
3.8713095685
 30
0.0
 10
6.2266993115
 20
3.872115624
 30
0.0
 10
6.2268510013
 20
3.8727063627
 30
0.0
 10
6.2269911919
 20
3.8731094974
 30
0.0
 10
6.2270981904
 20
3.8733620841
 30
0.0
 10
6.2272115709
 20
3.8735787877
 30
0.0
 10
6.2273311313
 20
3.8737591434
 30
0.0
 10
6.2274567052
 20
3.8739028556
 30
0.0
 10
6.2275885429
 20
3.8740094842
 30
0.0
 10
6.2277267436
 20
3.8740779936
 30
0.0
 10
6.2278235737
 20
3.8740972608
 30
0.0
 10
6.2278707769
 20
3.874100006
 30
0.0
  0
LINE
  5
4EC
100
AcDbEntity
  8
0
100
AcDbLine
 62
7
  6
CONTINUOUS
 10
6.2176716117
 20
3.8458593806
 11
6.2173560668
 21
3.8466995009
  0
SPLINE
  5
4ED
100
AcDbEntity
  8
0
100
AcDbSpline
 62
7
  6
CONTINUOUS
 70
0
 71
3
 72
20
 73
16
 74
0
 42
0.0000001
 43
0.0000001
 44
0.0000000001
 40
0.0
 40
0.0
 40
0.0
 40
0.0
 40
0.0409943803
 40
0.089855069
 40
0.1457910368
 40
0.2078818812
 40
0.2750954413
 40
0.3463050723
 40
0.4958248753
 40
0.6461732472
 40
0.7867695311
 40
0.8502259357
 40
0.9075683182
 40
0.9577798621
 40
1.0
 40
1.0
 40
1.0
 40
1.0
 10
6.2173560668
 20
3.8466995009
 30
0.0
 10
6.2172877742
 20
3.8469255156
 30
0.0
 10
6.2171532206
 20
3.8474254763
 30
0.0
 10
6.2169649265
 20
3.8482438807
 30
0.0
 10
6.2167753537
 20
3.8491862969
 30
0.0
 10
6.2165879124
 20
3.8502366608
 30
0.0
 10
6.2164059602
 20
3.8513771572
 30
0.0
 10
6.2161712063
 20
3.8530189209
 30
0.0
 10
6.2159156507
 20
3.8551411266
 30
0.0
 10
6.2156799401
 20
3.8576672783
 30
0.0
 10
6.2155480096
 20
3.8597045866
 30
0.0
 10
6.2154921876
 20
3.8612091404
 30
0.0
 10
6.215476911
 20
3.8621940604
 30
0.0
 10
6.2154867905
 20
3.8630567283
 30
0.0
 10
6.2155119222
 20
3.8635887165
 30
0.0
 10
6.2155305318
 20
3.8638311701
 30
0.0
  0
SPLINE
  5
4EE
100
AcDbEntity
  8
0
100
AcDbSpline
 62
7
  6
CONTINUOUS
 70
0
 71
3
 72
17
 73
13
 74
0
 42
0.0000001
 43
0.0000001
 44
0.0000000001
 40
0.0
 40
0.0
 40
0.0
 40
0.0
 40
0.2127444376
 40
0.3999019538
 40
0.5610238114
 40
0.6959002802
 40
0.8048186514
 40
0.8888532581
 40
0.922450459
 40
0.9512954997
 40
0.9765651291
 40
1.0
 40
1.0
 40
1.0
 40
1.0
 10
6.2155305318
 20
3.8638311701
 30
0.0
 10
6.2155381851
 20
3.8639308815
 30
0.0
 10
6.2155549167
 20
3.8641181478
 30
0.0
 10
6.2155871833
 20
3.8643799538
 30
0.0
 10
6.215624804
 20
3.8646040131
 30
0.0
 10
6.2156675541
 20
3.8647896995
 30
0.0
 10
6.2157151358
 20
3.8649364337
 30
0.0
 10
6.2157616079
 20
3.8650331214
 30
0.0
 10
6.2158030728
 20
3.8650883918
 30
0.0
 10
6.2158333276
 20
3.8651168106
 30
0.0
 10
6.2158653102
 20
3.8651351521
 30
0.0
 10
6.2158880785
 20
3.8651402551
 30
0.0
 10
6.2158990747
 20
3.8651409155
 30
0.0
  0
SPLINE
  5
4EF
100
AcDbEntity
  8
0
100
AcDbSpline
 62
7
  6
CONTINUOUS
 70
0
 71
3
 72
27
 73
23
 74
0
 42
0.0000001
 43
0.0000001
 44
0.0000000001
 40
0.0
 40
0.0
 40
0.0
 40
0.0
 40
0.0095667587
 40
0.0201678788
 40
0.0322648705
 40
0.0461479399
 40
0.0619848229
 40
0.0798611008
 40
0.0998100817
 40
0.1218268035
 40
0.1719122949
 40
0.2296605994
 40
0.2943688154
 40
0.3651494574
 40
0.4409540632
 40
0.5205892742
 40
0.6027364568
 40
0.6859749036
 40
0.7688157627
 40
0.8497459704
 40
0.9272767484
 40
1.0
 40
1.0
 40
1.0
 40
1.0
 10
6.2298130831
 20
3.8533703871
 30
0.0
 10
6.2297594495
 20
3.8533737099
 30
0.0
 10
6.2296470796
 20
3.8533978641
 30
0.0
 10
6.2294835365
 20
3.8534789951
 30
0.0
 10
6.2293192439
 20
3.8536039556
 30
0.0
 10
6.2291541083
 20
3.8537718213
 30
0.0
 10
6.2289881932
 20
3.8539819713
 30
0.0
 10
6.2288219167
 20
3.8542337144
 30
0.0
 10
6.228655841
 20
3.8545261898
 30
0.0
 10
6.2284255321
 20
3.8549893441
 30
0.0
 10
6.2281471085
 20
3.8556644018
 30
0.0
 10
6.2278365556
 20
3.8565829503
 30
0.0
 10
6.22754231
 20
3.8576281475
 30
0.0
 10
6.2272696312
 20
3.8587835409
 30
0.0
 10
6.2270236153
 20
3.8600304421
 30
0.0
 10
6.2268089812
 20
3.8613478248
 30
0.0
 10
6.2266299953
 20
3.8627126323
 30
0.0
 10
6.226490328
 20
3.8641001165
 30
0.0
 10
6.2263929159
 20
3.8654843572
 30
0.0
 10
6.2263398288
 20
3.8668389467
 30
0.0
 10
6.2263321656
 20
3.8681377257
 30
0.0
 10
6.2263583442
 20
3.868981566
 30
0.0
 10
6.2263801105
 20
3.8693894718
 30
0.0
  0
SPLINE
  5
4F0
100
AcDbEntity
  8
0
100
AcDbSpline
 62
7
  6
CONTINUOUS
 70
0
 71
3
 72
27
 73
23
 74
0
 42
0.0000001
 43
0.0000001
 44
0.0000000001
 40
0.0
 40
0.0
 40
0.0
 40
0.0
 40
0.062871922
 40
0.1257172358
 40
0.188483373
 40
0.251118785
 40
0.3135823613
 40
0.3758573961
 40
0.4069346103
 40
0.4379771488
 40
0.4689950682
 40
0.4999999998
 40
0.5310049315
 40
0.562022851
 40
0.5930653896
 40
0.6241426038
 40
0.6864176388
 40
0.7488812151
 40
0.811516627
 40
0.8742827642
 40
0.937128078
 40
1.0
 40
1.0
 40
1.0
 40
1.0
 10
7.8244147858
 20
6.3458527686
 30
0.0
 10
7.827544949
 20
6.3469507119
 30
0.0
 10
7.8337990425
 20
6.3491600492
 30
0.0
 10
7.8431925107
 20
6.3524245953
 30
0.0
 10
7.8526257651
 20
6.3555345883
 30
0.0
 10
7.8621255648
 20
6.3583697815
 30
0.0
 10
7.8717129847
 20
6.3607959381
 30
0.0
 10
7.8797900704
 20
6.3623598582
 30
0.0
 10
7.8862912932
 20
6.3632684049
 30
0.0
 10
7.8911812944
 20
6.3637656466
 30
0.0
 10
7.8960834363
 20
6.3640684695
 30
0.0
 10
7.9009919527
 20
6.3641700116
 30
0.0
 10
7.9059004691
 20
6.3640684695
 30
0.0
 10
7.910802611
 20
6.3637656466
 30
0.0
 10
7.9156926123
 20
6.3632684049
 30
0.0
 10
7.9221938351
 20
6.3623598581
 30
0.0
 10
7.9302709208
 20
6.3607959381
 30
0.0
 10
7.9398583406
 20
6.3583697815
 30
0.0
 10
7.9493581403
 20
6.3555345882
 30
0.0
 10
7.9587913947
 20
6.3524245953
 30
0.0
 10
7.9681848629
 20
6.3491600492
 30
0.0
 10
7.9744389565
 20
6.3469507119
 30
0.0
 10
7.9775691197
 20
6.3458527686
 30
0.0
  0
SPLINE
  5
4F1
100
AcDbEntity
  8
0
100
AcDbSpline
 62
7
  6
CONTINUOUS
 70
0
 71
3
 72
25
 73
21
 74
0
 42
0.0000001
 43
0.0000001
 44
0.0000000001
 40
0.0
 40
0.0
 40
0.0
 40
0.0
 40
0.0095329598
 40
0.019483929
 40
0.0302284978
 40
0.0420647151
 40
0.0552120589
 40
0.0698261514
 40
0.0860144633
 40
0.1038467064
 40
0.1445952803
 40
0.1922502295
 40
0.2467885404
 40
0.308064699
 40
0.3758450199
 40
0.4498262429
 40
0.5296426948
 40
0.614876401
 40
0.7996704573
 40
1.0
 40
1.0
 40
1.0
 40
1.0
 10
6.8483380323
 20
4.2523870633
 30
0.0
 10
6.8483380323
 20
4.2523318694
 30
0.0
 10
6.8483507206
 20
4.2522187056
 30
0.0
 10
6.8484069643
 20
4.2520517924
 30
0.0
 10
6.848499648
 20
4.2518867534
 30
0.0
 10
6.8486280811
 20
4.2517237448
 30
0.0
 10
6.8487918147
 20
4.2515625761
 30
0.0
 10
6.8489906345
 20
4.2514032033
 30
0.0
 10
6.8492243463
 20
4.2512456715
 30
0.0
 10
6.8495991464
 20
4.2510285189
 30
0.0
 10
6.8501571007
 20
4.2507670921
 30
0.0
 10
6.8509323076
 20
4.2504757614
 30
0.0
 10
6.8518370159
 20
4.2501961973
 30
0.0
 10
6.8528664758
 20
4.2499301729
 30
0.0
 10
6.8540152204
 20
4.2496794667
 30
0.0
 10
6.855276831
 20
4.2494457709
 30
0.0
 10
6.8566441027
 20
4.2492306384
 30
0.0
 10
6.8586520718
 20
4.2489633206
 30
0.0
 10
6.8613624126
 20
4.248690835
 30
0.0
 10
6.8635878199
 20
4.2485445182
 30
0.0
 10
6.8647461956
 20
4.2484856968
 30
0.0
  0
SPLINE
  5
4F2
100
AcDbEntity
  8
0
100
AcDbSpline
 62
7
  6
CONTINUOUS
 70
0
 71
3
 72
25
 73
21
 74
0
 42
0.0000001
 43
0.0000001
 44
0.0000000001
 40
0.0
 40
0.0
 40
0.0
 40
0.0
 40
0.200405433
 40
0.3852583556
 40
0.4705125776
 40
0.5503424439
 40
0.624329365
 40
0.6921073105
 40
0.7533730191
 40
0.8078931998
 40
0.8555231996
 40
0.8962415544
 40
0.9140575052
 40
0.9302292887
 40
0.9448272238
 40
0.9579596015
 40
0.9697830832
 40
0.9805184493
 40
0.9904651687
 40
1.0
 40
1.0
 40
1.0
 40
1.0
 10
6.895429869
 20
4.24843516
 30
0.0
 10
6.8965881707
 20
4.2484901658
 30
0.0
 10
6.8988134805
 20
4.248629153
 30
0.0
 10
6.9015239526
 20
4.2488927449
 30
0.0
 10
6.9035320926
 20
4.2491535044
 30
0.0
 10
6.9048994454
 20
4.2493641771
 30
0.0
 10
6.9061611211
 20
4.2495937677
 30
0.0
 10
6.9073099059
 20
4.2498407446
 30
0.0
 10
6.9083393756
 20
4.2501034338
 30
0.0
 10
6.9092440632
 20
4.2503800715
 30
0.0
 10
6.910019223
 20
4.2506688977
 30
0.0
 10
6.910577151
 20
4.2509285368
 30
0.0
 10
6.9109519195
 20
4.251144495
 30
0.0
 10
6.9111855925
 20
4.2513012744
 30
0.0
 10
6.9113843755
 20
4.2514600087
 30
0.0
 10
6.9115480766
 20
4.2516206544
 30
0.0
 10
6.9116764819
 20
4.2517832581
 30
0.0
 10
6.9117691411
 20
4.251948011
 30
0.0
 10
6.9118253613
 20
4.2521147535
 30
0.0
 10
6.9118380323
 20
4.2522278368
 30
0.0
 10
6.9118380323
 20
4.2522830082
 30
0.0
  0
SPLINE
  5
4F3
100
AcDbEntity
  8
0
100
AcDbSpline
 62
7
  6
CONTINUOUS
 70
0
 71
3
 72
21
 73
17
 74
0
 42
0.0000001
 43
0.0000001
 44
0.0000000001
 40
0.0
 40
0.0
 40
0.0
 40
0.0
 40
0.1900874367
 40
0.3683597564
 40
0.5299374912
 40
0.6031818749
 40
0.6708352884
 40
0.7325720204
 40
0.78815641
 40
0.8374624626
 40
0.8805002911
 40
0.9174824649
 40
0.9489267532
 40
0.9758365199
 40
0.9881324324
 40
1.0
 40
1.0
 40
1.0
 40
1.0
 10
6.2263801105
 20
3.9262513403
 30
0.0
 10
6.2264064644
 20
3.9268306264
 30
0.0
 10
6.2264814623
 20
3.9279523126
 30
0.0
 10
6.226665525
 20
3.9295590404
 30
0.0
 10
6.2268769884
 20
3.9308022906
 30
0.0
 10
6.2270796015
 20
3.9317027099
 30
0.0
 10
6.2272392048
 20
3.9323001097
 30
0.0
 10
6.2274101504
 20
3.9328381351
 30
0.0
 10
6.2275911366
 20
3.933313487
 30
0.0
 10
6.2277808321
 20
3.9337234587
 30
0.0
 10
6.227977987
 20
3.9340659501
 30
0.0
 10
6.2281817546
 20
3.9343395118
 30
0.0
 10
6.2283915742
 20
3.9345431544
 30
0.0
 10
6.2285783757
 20
3.9346563043
 30
0.0
 10
6.2287272355
 20
3.9347043184
 30
0.0
 10
6.2288005872
 20
3.9347150922
 30
0.0
 10
6.2288367291
 20
3.934717203
 30
0.0
  0
SPLINE
  5
4F4
100
AcDbEntity
  8
0
100
AcDbSpline
 62
7
  6
CONTINUOUS
 70
0
 71
3
 72
17
 73
13
 74
0
 42
0.0000001
 43
0.0000001
 44
0.0000000001
 40
0.0
 40
0.0
 40
0.0
 40
0.0
 40
0.2004091416
 40
0.3786487025
 40
0.5342014343
 40
0.6670552954
 40
0.7776950591
 40
0.8674630771
 40
0.90542923
 40
0.9395295399
 40
0.9706604988
 40
1.0
 40
1.0
 40
1.0
 40
1.0
 10
6.2161686269
 20
3.9326844818
 30
0.0
 10
6.2161952102
 20
3.9327953996
 30
0.0
 10
6.2162488394
 20
3.9330041804
 30
0.0
 10
6.2163368594
 20
3.9332953099
 30
0.0
 10
6.2164274123
 20
3.9335451423
 30
0.0
 10
6.2165200429
 20
3.9337528298
 30
0.0
 10
6.2166143846
 20
3.9339177537
 30
0.0
 10
6.2166987381
 20
3.934025225
 30
0.0
 10
6.2167680083
 20
3.9340863255
 30
0.0
 10
6.216817542
 20
3.9341183819
 30
0.0
 10
6.2168675752
 20
3.9341391106
 30
0.0
 10
6.2169017866
 20
3.9341452519
 30
0.0
 10
6.2169184542
 20
3.9341462594
 30
0.0
  0
SPLINE
  5
4F5
100
AcDbEntity
  8
0
100
AcDbSpline
 62
7
  6
CONTINUOUS
 70
0
 71
3
 72
14
 73
10
 74
0
 42
0.0000001
 43
0.0000001
 44
0.0000000001
 40
0.0
 40
0.0
 40
0.0
 40
0.0
 40
0.2951034226
 40
0.4366789264
 40
0.5712197226
 40
0.6966175317
 40
0.8109563273
 40
0.9125533286
 40
1.0
 40
1.0
 40
1.0
 40
1.0
 10
6.2154809997
 20
3.9243527686
 30
0.0
 10
6.2154809997
 20
3.9251765783
 30
0.0
 10
6.2155033196
 20
3.9263958073
 30
0.0
 10
6.2155803651
 20
3.9279886424
 30
0.0
 10
6.215658752
 20
3.9291068676
 30
0.0
 10
6.215757071
 20
3.9301471756
 30
0.0
 10
6.2158735466
 20
3.9310930619
 30
0.0
 10
6.2160060795
 20
3.9319297228
 30
0.0
 10
6.2161117315
 20
3.9324470888
 30
0.0
 10
6.2161686269
 20
3.9326844818
 30
0.0
  0
SPLINE
  5
4F6
100
AcDbEntity
  8
0
100
AcDbSpline
 62
7
  6
CONTINUOUS
 70
0
 71
3
 72
27
 73
23
 74
0
 42
0.0000001
 43
0.0000001
 44
0.0000000001
 40
0.0
 40
0.0
 40
0.0
 40
0.0
 40
0.0628719219
 40
0.1257172354
 40
0.1884833723
 40
0.251118784
 40
0.3135823602
 40
0.3758573953
 40
0.4069346098
 40
0.4379771488
 40
0.4689950686
 40
0.5000000006
 40
0.5310049325
 40
0.5620228519
 40
0.5930653905
 40
0.6241426047
 40
0.6864176396
 40
0.7488812158
 40
0.8115166275
 40
0.8742827645
 40
0.9371280781
 40
1.0
 40
1.0
 40
1.0
 40
1.0
 10
7.6619147858
 20
6.3458527686
 30
0.0
 10
7.665044949
 20
6.3469507118
 30
0.0
 10
7.6712990425
 20
6.3491600492
 30
0.0
 10
7.6806925107
 20
6.3524245952
 30
0.0
 10
7.690125765
 20
6.3555345882
 30
0.0
 10
7.6996255647
 20
6.3583697815
 30
0.0
 10
7.7092129846
 20
6.3607959381
 30
0.0
 10
7.7172900703
 20
6.3623598581
 30
0.0
 10
7.7237912931
 20
6.3632684049
 30
0.0
 10
7.7286812944
 20
6.3637656465
 30
0.0
 10
7.7335834364
 20
6.3640684695
 30
0.0
 10
7.7384919528
 20
6.3641700115
 30
0.0
 10
7.7434004693
 20
6.3640684695
 30
0.0
 10
7.7483026112
 20
6.3637656466
 30
0.0
 10
7.7531926124
 20
6.3632684049
 30
0.0
 10
7.7596938352
 20
6.3623598581
 30
0.0
 10
7.7677709209
 20
6.3607959381
 30
0.0
 10
7.7773583407
 20
6.3583697815
 30
0.0
 10
7.7868581404
 20
6.3555345882
 30
0.0
 10
7.7962913948
 20
6.3524245953
 30
0.0
 10
7.8056848629
 20
6.3491600492
 30
0.0
 10
7.8119389565
 20
6.3469507118
 30
0.0
 10
7.8150691197
 20
6.3458527686
 30
0.0
  0
SPLINE
  5
4F7
100
AcDbEntity
  8
0
100
AcDbSpline
 62
7
  6
CONTINUOUS
 70
0
 71
3
 72
14
 73
10
 74
0
 42
0.0000001
 43
0.0000001
 44
0.0000000001
 40
0.0
 40
0.0
 40
0.0
 40
0.0
 40
0.3054905564
 40
0.4508687676
 40
0.5875716371
 40
0.7130054409
 40
0.8248342701
 40
0.9210418701
 40
1.0
 40
1.0
 40
1.0
 40
1.0
 10
6.9037757745
 20
4.257972368
 30
0.0
 10
6.904598314
 20
4.2579456751
 30
0.0
 10
6.9058130665
 20
4.2579255008
 30
0.0
 10
6.9073959351
 20
4.2579412086
 30
0.0
 10
6.9084933656
 20
4.2579734702
 30
0.0
 10
6.9094995474
 20
4.2580255912
 30
0.0
 10
6.9103952663
 20
4.2580963136
 30
0.0
 10
6.911163566
 20
4.2581839989
 30
0.0
 10
6.9116297044
 20
4.2582598145
 30
0.0
 10
6.9118380323
 20
4.2583027596
 30
0.0
  0
SPLINE
  5
4F8
100
AcDbEntity
  8
0
100
AcDbSpline
 62
7
  6
CONTINUOUS
 70
0
 71
3
 72
23
 73
19
 74
0
 42
0.0000001
 43
0.0000001
 44
0.0000000001
 40
0.0
 40
0.0
 40
0.0
 40
0.0
 40
0.1996690472
 40
0.3860930647
 40
0.5543613433
 40
0.630286066
 40
0.700067476
 40
0.7632564292
 40
0.819456976
 40
0.8683271756
 40
0.9096038072
 40
0.943120952
 40
0.9569675185
 40
0.9688997551
 40
0.9789819464
 40
0.9873359891
 40
0.9941958364
 40
1.0
 40
1.0
 40
1.0
 40
1.0
 10
6.2161686269
 20
3.9956095544
 30
0.0
 10
6.2162356061
 20
3.9961270056
 30
0.0
 10
6.2163739145
 20
3.9971264785
 30
0.0
 10
6.2166009413
 20
3.9985573115
 30
0.0
 10
6.2168029979
 20
3.999664449
 30
0.0
 10
6.2169688543
 20
4.0004680116
 30
0.0
 10
6.2170885836
 20
4.0010006304
 30
0.0
 10
6.2172071031
 20
4.001480594
 30
0.0
 10
6.21732356
 20
4.0019046398
 30
0.0
 10
6.2174370706
 20
4.0022699478
 30
0.0
 10
6.2175467942
 20
4.0025740153
 30
0.0
 10
6.2176391951
 20
4.002786771
 30
0.0
 10
6.2177124032
 20
4.0029234413
 30
0.0
 10
6.2177624002
 20
4.0030028198
 30
0.0
 10
6.217810973
 20
4.0030657807
 30
0.0
 10
6.2178582909
 20
4.0031123583
 30
0.0
 10
6.2179047297
 20
4.0031426224
 30
0.0
 10
6.2179374304
 20
4.0031516567
 30
0.0
 10
6.2179525709
 20
4.0031525555
 30
0.0
  0
SPLINE
  5
4F9
100
AcDbEntity
  8
0
100
AcDbSpline
 62
7
  6
CONTINUOUS
 70
0
 71
3
 72
49
 73
45
 74
0
 42
0.0000001
 43
0.0000001
 44
0.0000000001
 40
0.0
 40
0.0
 40
0.0
 40
0.0
 40
0.0124377022
 40
0.0249131381
 40
0.0374597144
 40
0.0501128973
 40
0.0629052607
 40
0.0758668006
 40
0.0890250085
 40
0.1024042467
 40
0.1160256318
 40
0.1299068904
 40
0.1584920294
 40
0.1882464224
 40
0.2191938047
 40
0.2513119435
 40
0.2845382864
 40
0.3187757542
 40
0.3538983378
 40
0.3897564508
 40
0.4261820498
 40
0.4629934581
 40
0.5
 40
0.5370065419
 40
0.5738179502
 40
0.6102435492
 40
0.6461016622
 40
0.6812242458
 40
0.7154617136
 40
0.7486880565
 40
0.7808061953
 40
0.8117535776
 40
0.8415079706
 40
0.8700931096
 40
0.8839743682
 40
0.8975957533
 40
0.9109749915
 40
0.9241331994
 40
0.9370947393
 40
0.9498871027
 40
0.9625402856
 40
0.9750868619
 40
0.9875622978
 40
1.0
 40
1.0
 40
1.0
 40
1.0
 10
7.4954840046
 20
2.7838930061
 30
0.0
 10
7.4976814013
 20
2.7838930061
 30
0.0
 10
7.5020845466
 20
2.7837317205
 30
0.0
 10
7.5086684521
 20
2.7830073
 30
0.0
 10
7.5152204494
 20
2.7818017989
 30
0.0
 10
7.5217238365
 20
2.7801184377
 30
0.0
 10
7.5281630854
 20
2.7779615698
 30
0.0
 10
7.5345224781
 20
2.7753365186
 30
0.0
 10
7.5407866431
 20
2.7722498784
 30
0.0
 10
7.5469405076
 20
2.7687094374
 30
0.0
 10
7.5529694182
 20
2.7647236919
 30
0.0
 10
7.5608981446
 20
2.7587718294
 30
0.0
 10
7.5704188525
 20
2.7502339143
 30
0.0
 10
7.5809983987
 20
2.7384976614
 30
0.0
 10
7.5907496252
 20
2.72528272
 30
0.0
 10
7.5995808876
 20
2.7107171835
 30
0.0
 10
7.6074103441
 20
2.6949401412
 30
0.0
 10
7.6141645771
 20
2.6781022786
 30
0.0
 10
7.6197800847
 20
2.6603642538
 30
0.0
 10
7.6242038845
 20
2.6418954079
 30
0.0
 10
7.6273940928
 20
2.6228721272
 30
0.0
 10
7.629320404
 20
2.6034761872
 30
0.0
 10
7.6299645421
 20
2.5838930061
 30
0.0
 10
7.629320404
 20
2.564309825
 30
0.0
 10
7.6273940928
 20
2.5449138849
 30
0.0
 10
7.6242038845
 20
2.5258906042
 30
0.0
 10
7.6197800847
 20
2.5074217584
 30
0.0
 10
7.6141645771
 20
2.4896837336
 30
0.0
 10
7.6074103441
 20
2.472845871
 30
0.0
 10
7.5995808876
 20
2.4570688287
 30
0.0
 10
7.5907496252
 20
2.4425032922
 30
0.0
 10
7.5809983987
 20
2.4292883508
 30
0.0
 10
7.5704188525
 20
2.4175520979
 30
0.0
 10
7.5608981446
 20
2.4090141828
 30
0.0
 10
7.5529694182
 20
2.4030623203
 30
0.0
 10
7.5469405076
 20
2.3990765748
 30
0.0
 10
7.5407866431
 20
2.3955361338
 30
0.0
 10
7.5345224781
 20
2.3924494936
 30
0.0
 10
7.5281630854
 20
2.3898244424
 30
0.0
 10
7.5217238365
 20
2.3876675745
 30
0.0
 10
7.5152204494
 20
2.3859842133
 30
0.0
 10
7.5086684521
 20
2.3847787122
 30
0.0
 10
7.5020845466
 20
2.3840542917
 30
0.0
 10
7.4976814013
 20
2.3838930061
 30
0.0
 10
7.4954840046
 20
2.3838930061
 30
0.0
  0
SPLINE
  5
4FA
100
AcDbEntity
  8
0
100
AcDbSpline
 62
7
  6
CONTINUOUS
 70
0
 71
3
 72
19
 73
15
 74
0
 42
0.0000001
 43
0.0000001
 44
0.0000000001
 40
0.0
 40
0.0
 40
0.0
 40
0.0
 40
0.0436240326
 40
0.0941938989
 40
0.1508884857
 40
0.2128013524
 40
0.3483377935
 40
0.4926660769
 40
0.6376035943
 40
0.7752786945
 40
0.8390671552
 40
0.8983214004
 40
0.9522207669
 40
1.0
 40
1.0
 40
1.0
 40
1.0
 10
6.2263801105
 20
4.0620071123
 30
0.0
 10
6.2264009537
 20
4.0622613183
 30
0.0
 10
6.2264570715
 20
4.0628092967
 30
0.0
 10
6.2265700835
 20
4.0636842994
 30
0.0
 10
6.2267168953
 20
4.0646625437
 30
0.0
 10
6.2269620692
 20
4.066128148
 30
0.0
 10
6.2273346049
 20
4.0680916556
 30
0.0
 10
6.2278528671
 20
4.0705208836
 30
0.0
 10
6.2284254428
 20
4.0729507338
 30
0.0
 10
6.2289330089
 20
4.0749116472
 30
0.0
 10
6.2293442135
 20
4.0763795358
 30
0.0
 10
6.2296381005
 20
4.0773715017
 30
0.0
 10
6.2299212078
 20
4.0782688883
 30
0.0
 10
6.2301123464
 20
4.078831895
 30
0.0
 10
6.2302062112
 20
4.0790950068
 30
0.0
  0
SPLINE
  5
4FB
100
AcDbEntity
  8
0
100
AcDbSpline
 62
7
  6
CONTINUOUS
 70
0
 71
3
 72
18
 73
14
 74
0
 42
0.0000001
 43
0.0000001
 44
0.0000000001
 40
0.0
 40
0.0
 40
0.0
 40
0.0
 40
0.2097271013
 40
0.3966444292
 40
0.5596243867
 40
0.6318462936
 40
0.6977501247
 40
0.8103351211
 40
0.856977703
 40
0.8972198456
 40
0.9312058923
 40
0.9592322185
 40
1.0
 40
1.0
 40
1.0
 40
1.0
 10
6.2302062112
 20
4.0790950068
 30
0.0
 10
6.2302590776
 20
4.0792431959
 30
0.0
 10
6.2303615245
 20
4.0795225928
 30
0.0
 10
6.2305150496
 20
4.0799133875
 30
0.0
 10
6.2306394529
 20
4.0802046769
 30
0.0
 10
6.2307345943
 20
4.0804095797
 30
0.0
 10
6.2308179872
 20
4.0805781639
 30
0.0
 10
6.2308989024
 20
4.0807266127
 30
0.0
 10
6.2309798298
 20
4.0808526052
 30
0.0
 10
6.2310333883
 20
4.0809257627
 30
0.0
 10
6.2310840029
 20
4.0809839036
 30
0.0
 10
6.2311405759
 20
4.0810353617
 30
0.0
 10
6.231189222
 20
4.0810619583
 30
0.0
 10
6.2312197592
 20
4.0810636495
 30
0.0
  0
SPLINE
  5
4FC
100
AcDbEntity
  8
0
100
AcDbSpline
 62
7
  6
CONTINUOUS
 70
0
 71
3
 72
27
 73
23
 74
0
 42
0.0000001
 43
0.0000001
 44
0.0000000001
 40
0.0
 40
0.0
 40
0.0
 40
0.0
 40
0.0720369218
 40
0.1492145573
 40
0.2300460121
 40
0.3130003606
 40
0.3965505705
 40
0.4792091865
 40
0.5595558593
 40
0.6362564367
 40
0.7080732362
 40
0.7738754451
 40
0.832648992
 40
0.8835148386
 40
0.9057567256
 40
0.925774417
 40
0.9435214729
 40
0.9589798003
 40
0.9721768641
 40
0.983214014
 40
0.9923289065
 40
1.0
 40
1.0
 40
1.0
 40
1.0
 10
6.2263801105
 20
4.0304952562
 30
0.0
 10
6.2264023175
 20
4.0309047376
 30
0.0
 10
6.2264635412
 20
4.0317521317
 30
0.0
 10
6.2265957859
 20
4.033055163
 30
0.0
 10
6.2267694447
 20
4.0344159983
 30
0.0
 10
6.2269809021
 20
4.0358081606
 30
0.0
 10
6.2272258795
 20
4.0372053748
 30
0.0
 10
6.2274995794
 20
4.0385821166
 30
0.0
 10
6.2277968282
 20
4.0399140501
 30
0.0
 10
6.2281121817
 20
4.0411783115
 30
0.0
 10
6.2284400169
 20
4.0423536708
 30
0.0
 10
6.2287745407
 20
4.0434206999
 30
0.0
 10
6.2291099462
 20
4.0443617061
 30
0.0
 10
6.2293965295
 20
4.0450561618
 30
0.0
 10
6.2296248842
 20
4.045534731
 30
0.0
 10
6.2297850978
 20
4.0458365728
 30
0.0
 10
6.2299412825
 20
4.046096407
 30
0.0
 10
6.2300928179
 20
4.0463131064
 30
0.0
 10
6.2302391022
 20
4.0464858808
 30
0.0
 10
6.2303801107
 20
4.0466141376
 30
0.0
 10
6.2305161632
 20
4.0466976355
 30
0.0
 10
6.2306105765
 20
4.0467229556
 30
0.0
 10
6.2306541732
 20
4.0467254685
 30
0.0
  0
SPLINE
  5
4FD
100
AcDbEntity
  8
0
100
AcDbSpline
 62
7
  6
CONTINUOUS
 70
0
 71
3
 72
24
 73
20
 74
0
 42
0.0000001
 43
0.0000001
 44
0.0000000001
 40
0.0
 40
0.0
 40
0.0
 40
0.0
 40
0.173615556
 40
0.3466391097
 40
0.4303107487
 40
0.5107858375
 40
0.5871800938
 40
0.6586939197
 40
0.7246199816
 40
0.7843511016
 40
0.8373930511
 40
0.8833907623
 40
0.9221769405
 40
0.9389023402
 40
0.9539113712
 40
0.9673089659
 40
0.9792653994
 40
0.9900387175
 40
1.0
 40
1.0
 40
1.0
 40
1.0
 10
6.2263801105
 20
3.9828241686
 30
0.0
 10
6.2264153742
 20
3.9835955732
 30
0.0
 10
6.2265266297
 20
3.985134098
 30
0.0
 10
6.2267581786
 20
3.9870348256
 30
0.0
 10
6.2269975172
 20
3.9885154353
 30
0.0
 10
6.2271972207
 20
3.9895666648
 30
0.0
 10
6.2274164142
 20
3.9905587088
 30
0.0
 10
6.2276522816
 20
3.9914802947
 30
0.0
 10
6.2279018584
 20
3.9923212726
 30
0.0
 10
6.2281620848
 20
3.9930726135
 30
0.0
 10
6.228429838
 20
3.9937265964
 30
0.0
 10
6.228702007
 20
3.9942765014
 30
0.0
 10
6.2289404758
 20
3.9946613205
 30
0.0
 10
6.2291341182
 20
3.9949084728
 30
0.0
 10
6.2292715537
 20
3.995055226
 30
0.0
 10
6.2294082043
 20
3.9951723392
 30
0.0
 10
6.2295440334
 20
3.9952594185
 30
0.0
 10
6.2296789804
 20
3.9953158021
 30
0.0
 10
6.2297706205
 20
3.9953326614
 30
0.0
 10
6.2298148503
 20
3.9953352577
 30
0.0
  0
SPLINE
  5
4FE
100
AcDbEntity
  8
0
100
AcDbSpline
 62
7
  6
CONTINUOUS
 70
0
 71
3
 72
38
 73
34
 74
0
 42
0.0000001
 43
0.0000001
 44
0.0000000001
 40
0.0
 40
0.0
 40
0.0
 40
0.0
 40
0.0428392354
 40
0.0848249151
 40
0.1258579574
 40
0.1658738717
 40
0.2048145065
 40
0.242653088
 40
0.2793852003
 40
0.3150259897
 40
0.3496015089
 40
0.3831492776
 40
0.415712212
 40
0.4473390232
 40
0.4780825081
 40
0.5079991053
 40
0.5371515424
 40
0.5656070058
 40
0.5934408814
 40
0.6207331487
 40
0.6475726136
 40
0.6740526225
 40
0.700273715
 40
0.7263393466
 40
0.7523561469
 40
0.7784305874
 40
0.8046659271
 40
0.831160905
 40
0.858006337
 40
0.8852852613
 40
0.9130688477
 40
0.9414202756
 40
1.0
 40
1.0
 40
1.0
 40
1.0
 10
7.301143765
 20
2.5162850043
 30
0.0
 10
7.300528723
 20
2.513853702
 30
0.0
 10
7.2993449786
 20
2.5090308855
 30
0.0
 10
7.2976629821
 20
2.5018574096
 30
0.0
 10
7.2960630565
 20
2.4948346507
 30
0.0
 10
7.2945211747
 20
2.4879815477
 30
0.0
 10
7.2930250767
 20
2.4813098312
 30
0.0
 10
7.2915553862
 20
2.4748292097
 30
0.0
 10
7.2900911167
 20
2.4685455126
 30
0.0
 10
7.2886112796
 20
2.4624618095
 30
0.0
 10
7.2870948969
 20
2.4565793204
 30
0.0
 10
7.2855214567
 20
2.4508984398
 30
0.0
 10
7.2838713788
 20
2.4454192015
 30
0.0
 10
7.2821264065
 20
2.4401418579
 30
0.0
 10
7.2802693028
 20
2.4350673285
 30
0.0
 10
7.2782845205
 20
2.4301971442
 30
0.0
 10
7.2761572884
 20
2.4255339759
 30
0.0
 10
7.2738743171
 20
2.4210812667
 30
0.0
 10
7.2714233349
 20
2.4168437315
 30
0.0
 10
7.2687938688
 20
2.4128267588
 30
0.0
 10
7.2659767426
 20
2.4090369679
 30
0.0
 10
7.2629648326
 20
2.405481427
 30
0.0
 10
7.2597527045
 20
2.4021680759
 30
0.0
 10
7.2563370944
 20
2.3991050202
 30
0.0
 10
7.2527167783
 20
2.3963005645
 30
0.0
 10
7.2488925688
 20
2.3937630255
 30
0.0
 10
7.2448675942
 20
2.3914999941
 30
0.0
 10
7.240646734
 20
2.3895189523
 30
0.0
 10
7.2362368744
 20
2.3878260189
 30
0.0
 10
7.2316464313
 20
2.3864270845
 30
0.0
 10
7.2268848714
 20
2.3853263299
 30
0.0
 10
7.2202525353
 20
2.3842496243
 30
0.0
 10
7.215157143
 20
2.383921194
 30
0.0
 10
7.2117278723
 20
2.3838955401
 30
0.0
  0
SPLINE
  5
4FF
100
AcDbEntity
  8
0
100
AcDbSpline
 62
7
  6
CONTINUOUS
 70
0
 71
3
 72
22
 73
18
 74
0
 42
0.0000001
 43
0.0000001
 44
0.0000000001
 40
0.0
 40
0.0
 40
0.0
 40
0.0
 40
0.0575185275
 40
0.1164236403
 40
0.1765404035
 40
0.2377014385
 40
0.3624610871
 40
0.4258266976
 40
0.4896330552
 40
0.5537385937
 40
0.61800534
 40
0.6822998437
 40
0.7464935207
 40
0.8104645793
 40
0.8741016809
 40
0.937306185
 40
1.0
 40
1.0
 40
1.0
 40
1.0
 10
7.2196286759
 20
2.7490637024
 30
0.0
 10
7.2235091924
 20
2.7459435742
 30
0.0
 10
7.2311372314
 20
2.7393411179
 30
0.0
 10
7.2419825134
 20
2.7285576369
 30
0.0
 10
7.2522862795
 20
2.7168304168
 30
0.0
 10
7.2652609681
 20
2.6999245207
 30
0.0
 10
7.2766808255
 20
2.6815251383
 30
0.0
 10
7.2863120062
 20
2.6619443017
 30
0.0
 10
7.2926178448
 20
2.646618859
 30
0.0
 10
7.2978929445
 20
2.6308270395
 30
0.0
 10
7.30206915
 20
2.6146650931
 30
0.0
 10
7.3050864235
 20
2.5982388715
 30
0.0
 10
7.3068939161
 20
2.5816608617
 30
0.0
 10
7.3074505385
 20
2.5650500932
 30
0.0
 10
7.3067259092
 20
2.5485303052
 30
0.0
 10
7.3047028212
 20
2.5322305503
 30
0.0
 10
7.3024753131
 20
2.521546465
 30
0.0
 10
7.301143765
 20
2.5162850043
 30
0.0
  0
SPLINE
  5
500
100
AcDbEntity
  8
0
100
AcDbSpline
 62
7
  6
CONTINUOUS
 70
0
 71
3
 72
57
 73
53
 74
0
 42
0.0000001
 43
0.0000001
 44
0.0000000001
 40
0.0
 40
0.0
 40
0.0
 40
0.0
 40
0.0301484678
 40
0.0626177863
 40
0.1336656044
 40
0.2113227058
 40
0.2520355506
 40
0.293686606
 40
0.3360386275
 40
0.3788554649
 40
0.4219018965
 40
0.4649433355
 40
0.5077459458
 40
0.5500770198
 40
0.591705642
 40
0.6324035285
 40
0.6719462239
 40
0.7101142381
 40
0.7466943825
 40
0.7814810986
 40
0.8142777831
 40
0.8448980656
 40
0.8731670824
 40
0.8989226394
 40
0.9108109499
 40
0.9220162682
 40
0.9325225318
 40
0.9423143117
 40
0.9513775249
 40
0.959698752
 40
0.9672660216
 40
0.9740680595
 40
0.9800950646
 40
0.9828150288
 40
0.9853379637
 40
0.9876629852
 40
0.9897892109
 40
0.9917157864
 40
0.9934420467
 40
0.9949674183
 40
0.9962913388
 40
0.9974132843
 40
0.9983329417
 40
0.9987168663
 40
0.9990501768
 40
0.9993328869
 40
0.9995650436
 40
0.9997467655
 40
0.9998783658
 40
0.9999607964
 40
0.9999847859
 40
1.0
 40
1.0
 40
1.0
 40
1.0
 10
7.6677164219
 20
2.9723532663
 30
0.0
 10
7.6712450775
 20
2.9723533012
 30
0.0
 10
7.6785740496
 20
2.9723901695
 30
0.0
 10
7.6942174239
 20
2.972593316
 30
0.0
 10
7.7154174673
 20
2.9730755388
 30
0.0
 10
7.7375776737
 20
2.9737337881
 30
0.0
 10
7.7562976084
 20
2.9743253311
 30
0.0
 10
7.7708871357
 20
2.9747947765
 30
0.0
 10
7.7857228204
 20
2.9752712783
 30
0.0
 10
7.8007220471
 20
2.9757433748
 30
0.0
 10
7.8158022864
 20
2.9762064283
 30
0.0
 10
7.8308813993
 20
2.9766516048
 30
0.0
 10
7.8458773227
 20
2.9770769785
 30
0.0
 10
7.8607084507
 20
2.9774797547
 30
0.0
 10
7.8752938238
 20
2.977857086
 30
0.0
 10
7.8895533364
 20
2.9782105765
 30
0.0
 10
7.9034083099
 20
2.9785385427
 30
0.0
 10
7.9167817613
 20
2.9788423725
 30
0.0
 10
7.9295989329
 20
2.9791232912
 30
0.0
 10
7.9417877777
 20
2.9793812814
 30
0.0
 10
7.9532793413
 20
2.9796187255
 30
0.0
 10
7.9640083052
 20
2.9798361968
 30
0.0
 10
7.9739133661
 20
2.9800349833
 30
0.0
 10
7.9816264179
 20
2.9801903569
 30
0.0
 10
7.9873426686
 20
2.9803067983
 30
0.0
 10
7.9912744536
 20
2.9803878085
 30
0.0
 10
7.9949608799
 20
2.9804650788
 30
0.0
 10
7.9983966066
 20
2.980538846
 30
0.0
 10
8.0015766065
 20
2.9806091118
 30
0.0
 10
8.004496257
 20
2.98067588
 30
0.0
 10
8.0071512591
 20
2.9807393298
 30
0.0
 10
8.0095377351
 20
2.980799669
 30
0.0
 10
8.0113569662
 20
2.9808489382
 30
0.0
 10
8.0126754725
 20
2.9808871321
 30
0.0
 10
8.0135608329
 20
2.9809140555
 30
0.0
 10
8.0143766894
 20
2.9809402526
 30
0.0
 10
8.0151227322
 20
2.9809657293
 30
0.0
 10
8.0157986762
 20
2.9809904893
 30
0.0
 10
8.0164042709
 20
2.9810145414
 30
0.0
 10
8.0169392976
 20
2.9810378968
 30
0.0
 10
8.0174035523
 20
2.9810605503
 30
0.0
 10
8.0177968527
 20
2.9810825146
 30
0.0
 10
8.0180801403
 20
2.9811011295
 30
0.0
 10
8.0182711484
 20
2.9811160491
 30
0.0
 10
8.0183877281
 20
2.9811263749
 30
0.0
 10
8.0184864953
 20
2.9811365039
 30
0.0
 10
8.0185674059
 20
2.9811464188
 30
0.0
 10
8.0186305909
 20
2.9811560522
 30
0.0
 10
8.0186758716
 20
2.9811653328
 30
0.0
 10
8.0187028256
 20
2.9811734803
 30
0.0
 10
8.0187151587
 20
2.9811805689
 30
0.0
 10
8.0187180112
 20
2.9811847452
 30
0.0
 10
8.0187181015
 20
2.9811865237
 30
0.0
  0
SPLINE
  5
501
100
AcDbEntity
  8
0
100
AcDbSpline
 62
7
  6
CONTINUOUS
 70
0
 71
3
 72
63
 73
59
 74
0
 42
0.0000001
 43
0.0000001
 44
0.0000000001
 40
0.0
 40
0.0
 40
0.0
 40
0.0
 40
0.0301921033
 40
0.0626477852
 40
0.0971795434
 40
0.13358267
 40
0.2111383422
 40
0.251838678
 40
0.2935105869
 40
0.378814011
 40
0.421963498
 40
0.4651221435
 40
0.5080483349
 40
0.5505024526
 40
0.5922471447
 40
0.6330491148
 40
0.6726803907
 40
0.7109180398
 40
0.7475480784
 40
0.7823636086
 40
0.8151680638
 40
0.8457764301
 40
0.874013816
 40
0.8871929638
 40
0.8997207077
 40
0.9115787879
 40
0.9227497402
 40
0.9332180905
 40
0.9429690065
 40
0.9519885847
 40
0.9602635014
 40
0.9677817908
 40
0.9745323194
 40
0.9805059893
 40
0.9831988256
 40
0.9856943261
 40
0.9879915289
 40
0.9900894736
 40
0.9919872618
 40
0.9936843077
 40
0.9951801303
 40
0.9964742533
 40
0.9975662259
 40
0.998455723
 40
0.9988244677
 40
0.9991425108
 40
0.9994098418
 40
0.9996264712
 40
0.9997157904
 40
0.9997924656
 40
0.9998565304
 40
0.9999080439
 40
0.9999471225
 40
0.9999740442
 40
0.9999832057
 40
0.9999898701
 40
0.9999948857
 40
1.0
 40
1.0
 40
1.0
 40
1.0
 10
7.6613621785
 20
3.0190462943
 30
0.0
 10
7.6650725289
 20
3.0190460096
 30
0.0
 10
7.6727714038
 20
3.0190277772
 30
0.0
 10
7.6847137727
 20
3.0189622413
 30
0.0
 10
7.697419132
 20
3.0188528021
 30
0.0
 10
7.7156662807
 20
3.01865446
 30
0.0
 10
7.7346708168
 20
3.018394769
 30
0.0
 10
7.7543223998
 20
3.018101794
 30
0.0
 10
7.7749257971
 20
3.0177804722
 30
0.0
 10
7.7958300033
 20
3.0174461038
 30
0.0
 10
7.8169169222
 20
3.0171105876
 30
0.0
 10
7.8327967679
 20
3.0168621119
 30
0.0
 10
7.8485912198
 20
3.0166182215
 30
0.0
 10
7.8642120249
 20
3.0163832505
 30
0.0
 10
7.8795718865
 20
3.0161572971
 30
0.0
 10
7.8945849556
 20
3.015941453
 30
0.0
 10
7.9091671686
 20
3.0157378033
 30
0.0
 10
7.9232367792
 20
3.0155443655
 30
0.0
 10
7.9367146928
 20
3.0153635475
 30
0.0
 10
7.9495250037
 20
3.0151939606
 30
0.0
 10
7.9615953823
 20
3.015035277
 30
0.0
 10
7.9728574515
 20
3.0148886242
 30
0.0
 10
7.9817079257
 20
3.0147720244
 30
0.0
 10
7.9883366254
 20
3.0146836419
 30
0.0
 10
7.9929526246
 20
3.0146218587
 30
0.0
 10
7.9973218438
 20
3.0145624702
 30
0.0
 10
8.0014379848
 20
3.0145050837
 30
0.0
 10
8.00529518
 20
3.0144499977
 30
0.0
 10
8.0088879989
 20
3.0143974421
 30
0.0
 10
8.012211269
 20
3.0143472533
 30
0.0
 10
8.0152601701
 20
3.0142992758
 30
0.0
 10
8.0180302212
 20
3.0142533386
 30
0.0
 10
8.0205174592
 20
3.0142092508
 30
0.0
 10
8.0224117373
 20
3.0141731512
 30
0.0
 10
8.0237831694
 20
3.014145294
 30
0.0
 10
8.0247028691
 20
3.0141256821
 30
0.0
 10
8.025549455
 20
3.0141065612
 30
0.0
 10
8.0263225774
 20
3.0140878775
 30
0.0
 10
8.027021932
 20
3.0140695667
 30
0.0
 10
8.0276472747
 20
3.0140516673
 30
0.0
 10
8.0281984127
 20
3.0140342311
 30
0.0
 10
8.0286751689
 20
3.0140173151
 30
0.0
 10
8.029077381
 20
3.0140009749
 30
0.0
 10
8.0293658768
 20
3.0139871564
 30
0.0
 10
8.0295592725
 20
3.0139760703
 30
0.0
 10
8.0296762779
 20
3.0139684232
 30
0.0
 10
8.0297745527
 20
3.0139609164
 30
0.0
 10
8.0298447136
 20
3.0139544582
 30
0.0
 10
8.029891441
 20
3.0139492005
 30
0.0
 10
8.0299194803
 20
3.0139455536
 30
0.0
 10
8.0299428288
 20
3.0139419458
 30
0.0
 10
8.029961518
 20
3.0139384067
 30
0.0
 10
8.0299755186
 20
3.0139349121
 30
0.0
 10
8.0299843094
 20
3.0139318752
 30
0.0
 10
8.0299888456
 20
3.0139291978
 30
0.0
 10
8.0299907601
 20
3.0139274315
 30
0.0
 10
8.0299914911
 20
3.0139253526
 30
0.0
 10
8.0299909547
 20
3.0139241144
 30
0.0
 10
8.0299905934
 20
3.0139236002
 30
0.0
  0
LINE
  5
502
100
AcDbEntity
  8
0
100
AcDbLine
 62
7
  6
CONTINUOUS
 10
6.2179521115
 20
3.8455530012
 11
6.2176716117
 21
3.8458593806
  0
SPLINE
  5
503
100
AcDbEntity
  8
0
100
AcDbSpline
 62
7
  6
CONTINUOUS
 70
0
 71
3
 72
21
 73
17
 74
0
 42
0.0000001
 43
0.0000001
 44
0.0000000001
 40
0.0
 40
0.0
 40
0.0
 40
0.0
 40
0.0111678518
 40
0.0226294048
 40
0.0476546235
 40
0.0772190671
 40
0.112534487
 40
0.154222126
 40
0.2025470073
 40
0.2575400932
 40
0.3190769932
 40
0.3869139921
 40
0.4607038728
 40
0.6243518953
 40
0.8058035251
 40
1.0
 40
1.0
 40
1.0
 40
1.0
 10
6.2278697401
 20
3.9746055905
 30
0.0
 10
6.2278374863
 20
3.9746075326
 30
0.0
 10
6.2277723423
 20
3.9746176262
 30
0.0
 10
6.2276415952
 20
3.9746634943
 30
0.0
 10
6.2274811626
 20
3.9747731318
 30
0.0
 10
6.2273087977
 20
3.9749702068
 30
0.0
 10
6.2271482779
 20
3.9752347517
 30
0.0
 10
6.2269997658
 20
3.9755662766
 30
0.0
 10
6.2268638297
 20
3.9759636578
 30
0.0
 10
6.2267414414
 20
3.9764249822
 30
0.0
 10
6.2266335843
 20
3.976947625
 30
0.0
 10
6.2265411768
 20
3.977528309
 30
0.0
 10
6.2264360403
 20
3.978405464
 30
0.0
 10
6.2263529722
 20
3.9796153918
 30
0.0
 10
6.226325807
 20
3.9811760095
 30
0.0
 10
6.226354452
 20
3.9822628815
 30
0.0
 10
6.2263801105
 20
3.9828241686
 30
0.0
  0
SPLINE
  5
504
100
AcDbEntity
  8
0
100
AcDbSpline
 62
7
  6
CONTINUOUS
 70
0
 71
3
 72
25
 73
21
 74
0
 42
0.0000001
 43
0.0000001
 44
0.0000000001
 40
0.0
 40
0.0
 40
0.0
 40
0.0
 40
0.0052092135
 40
0.011157226
 40
0.018384957
 40
0.027198445
 40
0.0377622777
 40
0.0501649998
 40
0.0644562906
 40
0.0806636294
 40
0.1188535767
 40
0.1647287892
 40
0.2181827883
 40
0.2790525415
 40
0.347122411
 40
0.4221432265
 40
0.5038267145
 40
0.5918539588
 40
0.7855051463
 40
1.0
 40
1.0
 40
1.0
 40
1.0
 10
6.8477233547
 20
4.2618426203
 30
0.0
 10
6.8477233547
 20
4.2618298204
 30
0.0
 10
6.847729444
 20
4.2618022128
 30
0.0
 10
6.8477547051
 20
4.261763976
 30
0.0
 10
6.8477946881
 20
4.2617271406
 30
0.0
 10
6.8478494248
 20
4.261691057
 30
0.0
 10
6.8479190597
 20
4.2616554793
 30
0.0
 10
6.8480036813
 20
4.261620366
 30
0.0
 10
6.8481032945
 20
4.2615857347
 30
0.0
 10
6.8482651124
 20
4.261537607
 30
0.0
 10
6.8485049597
 20
4.2614805045
 30
0.0
 10
6.84883701
 20
4.2614175029
 30
0.0
 10
6.8492260706
 20
4.2613572606
 30
0.0
 10
6.8496706152
 20
4.2613000782
 30
0.0
 10
6.8501689093
 20
4.2612462517
 30
0.0
 10
6.8507189509
 20
4.26119605
 30
0.0
 10
6.8513185241
 20
4.2611496958
 30
0.0
 10
6.8522094802
 20
4.2610914593
 30
0.0
 10
6.8534272448
 20
4.2610311796
 30
0.0
 10
6.854429609
 20
4.260997774
 30
0.0
 10
6.8549564694
 20
4.2609836687
 30
0.0
  0
SPLINE
  5
505
100
AcDbEntity
  8
0
100
AcDbSpline
 62
7
  6
CONTINUOUS
 70
0
 71
3
 72
18
 73
14
 74
0
 42
0.0000001
 43
0.0000001
 44
0.0000000001
 40
0.0
 40
0.0
 40
0.0
 40
0.0
 40
0.0193413539
 40
0.040431029
 40
0.0656245083
 40
0.0963379006
 40
0.1333515203
 40
0.1770915321
 40
0.2854796648
 40
0.4222811935
 40
0.5873979956
 40
0.7803172302
 40
1.0
 40
1.0
 40
1.0
 40
1.0
 10
6.2265245556
 20
4.0603297936
 30
0.0
 10
6.226513358
 20
4.0603304674
 30
0.0
 10
6.2264899735
 20
4.0603367596
 30
0.0
 10
6.2264593896
 20
4.0603606195
 30
0.0
 10
6.2264330231
 20
4.0603971306
 30
0.0
 10
6.2264100579
 20
4.0604461093
 30
0.0
 10
6.2263902174
 20
4.0605077657
 30
0.0
 10
6.2263661734
 20
4.0606149068
 30
0.0
 10
6.2263463497
 20
4.0607816598
 30
0.0
 10
6.2263358866
 20
4.0610194957
 30
0.0
 10
6.2263379522
 20
4.0613065974
 30
0.0
 10
6.2263526083
 20
4.0616413975
 30
0.0
 10
6.2263696982
 20
4.0618801234
 30
0.0
 10
6.2263801105
 20
4.0620071123
 30
0.0
  0
SPLINE
  5
506
100
AcDbEntity
  8
0
100
AcDbSpline
 62
7
  6
CONTINUOUS
 70
0
 71
3
 72
14
 73
10
 74
0
 42
0.0000001
 43
0.0000001
 44
0.0000000001
 40
0.0
 40
0.0
 40
0.0
 40
0.0
 40
0.0789837062
 40
0.1752056595
 40
0.2870387149
 40
0.4124689379
 40
0.5491632676
 40
0.6945307485
 40
1.0
 40
1.0
 40
1.0
 40
1.0
 10
6.8483380323
 20
4.258406
 30
0.0
 10
6.8485463224
 20
4.2583623912
 30
0.0
 10
6.8490123882
 20
4.2582850779
 30
0.0
 10
6.8497806262
 20
4.258194907
 30
0.0
 10
6.8506762743
 20
4.2581212796
 30
0.0
 10
6.8516823979
 20
4.2580658884
 30
0.0
 10
6.8527798058
 20
4.2580300546
 30
0.0
 10
6.8543627217
 20
4.2580091907
 30
0.0
 10
6.8555776131
 20
4.2580254085
 30
0.0
 10
6.85640029
 20
4.2580494271
 30
0.0
  0
SPLINE
  5
507
100
AcDbEntity
  8
0
100
AcDbSpline
 62
7
  6
CONTINUOUS
 70
0
 71
3
 72
25
 73
21
 74
0
 42
0.0000001
 43
0.0000001
 44
0.0000000001
 40
0.0
 40
0.0
 40
0.0
 40
0.0
 40
0.2144909326
 40
0.4081386404
 40
0.4961643577
 40
0.577846488
 40
0.6528661423
 40
0.7209350795
 40
0.7818041682
 40
0.835257821
 40
0.881133074
 40
0.9193235499
 40
0.9355313869
 40
0.949823369
 40
0.9622270176
 40
0.9727920718
 40
0.9816071604
 40
0.9888369784
 40
0.9947876519
 40
1.0
 40
1.0
 40
1.0
 40
1.0
 10
6.8549564694
 20
4.2604811594
 30
0.0
 10
6.854429608
 20
4.260495274
 30
0.0
 10
6.853427242
 20
4.2605287014
 30
0.0
 10
6.852209476
 20
4.2605890205
 30
0.0
 10
6.8513185195
 20
4.2606472951
 30
0.0
 10
6.8507189462
 20
4.2606936796
 30
0.0
 10
6.8501689046
 20
4.260743914
 30
0.0
 10
6.8496706107
 20
4.2607977756
 30
0.0
 10
6.8492260664
 20
4.2608549953
 30
0.0
 10
6.848837006
 20
4.2609152769
 30
0.0
 10
6.8485049557
 20
4.2609783197
 30
0.0
 10
6.8482651091
 20
4.2610354595
 30
0.0
 10
6.8481032925
 20
4.2610836182
 30
0.0
 10
6.8480036792
 20
4.2611182722
 30
0.0
 10
6.8479190576
 20
4.2611534086
 30
0.0
 10
6.8478494223
 20
4.2611890098
 30
0.0
 10
6.8477946854
 20
4.2612251175
 30
0.0
 10
6.8477547023
 20
4.2612619778
 30
0.0
 10
6.8477294426
 20
4.2613002399
 30
0.0
 10
6.8477233547
 20
4.2613278625
 30
0.0
 10
6.8477233547
 20
4.2613406703
 30
0.0
  0
SPLINE
  5
508
100
AcDbEntity
  8
0
100
AcDbSpline
 62
7
  6
CONTINUOUS
 70
0
 71
3
 72
14
 73
10
 74
0
 42
0.0000001
 43
0.0000001
 44
0.0000000001
 40
0.0
 40
0.0
 40
0.0
 40
0.0
 40
0.3054687096
 40
0.4508359198
 40
0.587529992
 40
0.7129600157
 40
0.8247930528
 40
0.9210153372
 40
1.0
 40
1.0
 40
1.0
 40
1.0
 10
6.85640029
 20
4.257544998
 30
0.0
 10
6.8555776123
 20
4.2575209636
 30
0.0
 10
6.8543627188
 20
4.2575047351
 30
0.0
 10
6.8527798006
 20
4.2575256129
 30
0.0
 10
6.8516823916
 20
4.2575614704
 30
0.0
 10
6.8506762678
 20
4.2576168981
 30
0.0
 10
6.8497806201
 20
4.257690574
 30
0.0
 10
6.8490123829
 20
4.2577808042
 30
0.0
 10
6.8485463199
 20
4.2578581681
 30
0.0
 10
6.8483380323
 20
4.257901805
 30
0.0
  0
SPLINE
  5
509
100
AcDbEntity
  8
0
100
AcDbSpline
 62
7
  6
CONTINUOUS
 70
0
 71
3
 72
30
 73
26
 74
0
 42
0.0000001
 43
0.0000001
 44
0.0000000001
 40
0.0
 40
0.0
 40
0.0
 40
0.0
 40
0.0078427221
 40
0.0124130726
 40
0.0175256176
 40
0.0232351767
 40
0.0295778067
 40
0.0442352098
 40
0.0615805237
 40
0.0816024637
 40
0.1042396908
 40
0.1293972437
 40
0.1867782065
 40
0.2526003803
 40
0.3254860064
 40
0.4038691231
 40
0.4860165965
 40
0.5700449644
 40
0.6539477492
 40
0.7356401834
 40
0.8130217347
 40
0.8840636606
 40
0.9469080763
 40
0.9747615572
 40
1.0
 40
1.0
 40
1.0
 40
1.0
 10
6.2306526655
 20
3.8019801588
 30
0.0
 10
6.2306011
 20
3.8019833716
 30
0.0
 10
6.2305205595
 20
3.8020084327
 30
0.0
 10
6.2304208294
 20
3.8020666199
 30
0.0
 10
6.2303399259
 20
3.8021282261
 30
0.0
 10
6.2302571074
 20
3.8022053935
 30
0.0
 10
6.2301382109
 20
3.8023353101
 30
0.0
 10
6.2299867658
 20
3.8025381862
 30
0.0
 10
6.2298061658
 20
3.8028297642
 30
0.0
 10
6.2296199283
 20
3.8031786838
 30
0.0
 10
6.2294291549
 20
3.8035828105
 30
0.0
 10
6.2291582687
 20
3.8042206821
 30
0.0
 10
6.2288212624
 20
3.8051387021
 30
0.0
 10
6.2284321113
 20
3.8063707865
 30
0.0
 10
6.2280519793
 20
3.8077497671
 30
0.0
 10
6.2276899531
 20
3.8092444418
 30
0.0
 10
6.2273549534
 20
3.8108205133
 30
0.0
 10
6.2270554435
 20
3.812440694
 30
0.0
 10
6.2267992781
 20
3.8140652638
 30
0.0
 10
6.2265934359
 20
3.8156528443
 30
0.0
 10
6.22644362
 20
3.8171616293
 30
0.0
 10
6.226354115
 20
3.8185508054
 30
0.0
 10
6.2263304173
 20
3.8196165455
 30
0.0
 10
6.2263472482
 20
3.8203802202
 30
0.0
 10
6.2263670044
 20
3.8207295211
 30
0.0
 10
6.2263801105
 20
3.8208952669
 30
0.0
  0
SPLINE
  5
50A
100
AcDbEntity
  8
0
100
AcDbSpline
 62
7
  6
CONTINUOUS
 70
0
 71
3
 72
14
 73
10
 74
0
 42
0.0000001
 43
0.0000001
 44
0.0000000001
 40
0.0
 40
0.0
 40
0.0
 40
0.0
 40
0.0789590485
 40
0.1751669535
 40
0.2869957394
 40
0.4124293602
 40
0.5491319776
 40
0.6945099399
 40
1.0
 40
1.0
 40
1.0
 40
1.0
 10
6.9118380323
 20
4.2577984968
 30
0.0
 10
6.9116297069
 20
4.2577555241
 30
0.0
 10
6.9111635712
 20
4.2576796589
 30
0.0
 10
6.9103952723
 20
4.2575919158
 30
0.0
 10
6.9094995538
 20
4.2575211469
 30
0.0
 10
6.9084933717
 20
4.2574689915
 30
0.0
 10
6.9073959402
 20
4.2574367085
 30
0.0
 10
6.9058130692
 20
4.2574209903
 30
0.0
 10
6.9045983147
 20
4.2574411779
 30
0.0
 10
6.9037757745
 20
4.2574678883
 30
0.0
  0
SPLINE
  5
50B
100
AcDbEntity
  8
0
100
AcDbSpline
 62
7
  6
CONTINUOUS
 70
0
 71
3
 72
32
 73
28
 74
0
 42
0.0000001
 43
0.0000001
 44
0.0000000001
 40
0.0
 40
0.0
 40
0.0
 40
0.0
 40
0.0559155692
 40
0.1126224427
 40
0.141363653
 40
0.170419707
 40
0.1998433067
 40
0.2297003717
 40
0.2909898344
 40
0.3226382589
 40
0.3550724781
 40
0.3883763509
 40
0.4225906956
 40
0.4576675417
 40
0.4934224747
 40
0.5295206701
 40
0.5655343292
 40
0.6010598049
 40
0.6358177714
 40
0.6696810077
 40
0.7026417976
 40
0.7347622019
 40
0.7661328945
 40
0.8269800562
 40
0.8859164649
 40
0.9434657061
 40
1.0
 40
1.0
 40
1.0
 40
1.0
 10
7.1410594245
 20
3.018817429
 30
0.0
 10
7.1424288824
 20
3.019413892
 30
0.0
 10
7.1451524352
 20
3.0206972813
 30
0.0
 10
7.1484528334
 20
3.0225404829
 30
0.0
 10
7.1510282178
 20
3.0241924558
 30
0.0
 10
7.1529323225
 20
3.0255367489
 30
0.0
 10
7.15479193
 20
3.0269914075
 30
0.0
 10
7.1572197829
 20
3.0291094119
 30
0.0
 10
7.1594960469
 20
3.0314871907
 30
0.0
 10
7.1615394352
 20
3.0341442987
 30
0.0
 10
7.1629550711
 20
3.0363308527
 30
0.0
 10
7.1642009487
 20
3.0386969352
 30
0.0
 10
7.1652328889
 20
3.0412412898
 30
0.0
 10
7.1660009578
 20
3.0439465245
 30
0.0
 10
7.1664569894
 20
3.0467733457
 30
0.0
 10
7.1665666337
 20
3.0496601319
 30
0.0
 10
7.1663208739
 20
3.0525322565
 30
0.0
 10
7.1657394963
 20
3.0553184006
 30
0.0
 10
7.1648637382
 20
3.0579650064
 30
0.0
 10
7.1637436601
 20
3.060441708
 30
0.0
 10
7.1624276012
 20
3.0627381241
 30
0.0
 10
7.1609566495
 20
3.0648571589
 30
0.0
 10
7.1588546388
 20
3.0674324339
 30
0.0
 10
7.1559823859
 20
3.0702876264
 30
0.0
 10
7.1522578863
 20
3.0732278527
 30
0.0
 10
7.1483721104
 20
3.075740911
 30
0.0
 10
7.145687887
 20
3.0771905291
 30
0.0
 10
7.1443356621
 20
3.077863078
 30
0.0
  0
SPLINE
  5
50C
100
AcDbEntity
  8
0
100
AcDbSpline
 62
7
  6
CONTINUOUS
 70
0
 71
3
 72
23
 73
19
 74
0
 42
0.0000001
 43
0.0000001
 44
0.0000000001
 40
0.0
 40
0.0
 40
0.0
 40
0.0
 40
0.0101422163
 40
0.0206486023
 40
0.0318602573
 40
0.0440577139
 40
0.0721782954
 40
0.1061821411
 40
0.1466143004
 40
0.1937091146
 40
0.2475144743
 40
0.3079594182
 40
0.3748893103
 40
0.4480799231
 40
0.5272541108
 40
0.6120852056
 40
0.7971921234
 40
1.0
 40
1.0
 40
1.0
 40
1.0
 10
6.9118380323
 20
4.2517747632
 30
0.0
 10
6.9118380323
 20
4.2517244879
 30
0.0
 10
6.9118275987
 20
4.2516218573
 30
0.0
 10
6.9117811423
 20
4.251470008
 30
0.0
 10
6.9117043842
 20
4.2513195862
 30
0.0
 10
6.9115550641
 20
4.2511113806
 30
0.0
 10
6.9112847905
 20
4.250856574
 30
0.0
 10
6.9108617327
 20
4.2505724178
 30
0.0
 10
6.9103256431
 20
4.2502953649
 30
0.0
 10
6.9096780541
 20
4.2500265698
 30
0.0
 10
6.9089210675
 20
4.2497671301
 30
0.0
 10
6.9080577662
 20
4.2495184437
 30
0.0
 10
6.907091887
 20
4.2492818689
 30
0.0
 10
6.9060278192
 20
4.249058696
 30
0.0
 10
6.904870533
 20
4.248850158
 30
0.0
 10
6.9031601865
 20
4.2485854838
 30
0.0
 10
6.900833015
 20
4.248304453
 30
0.0
 10
6.8989167058
 20
4.2481409906
 30
0.0
 10
6.8979138706
 20
4.2480702921
 30
0.0
  0
SPLINE
  5
50D
100
AcDbEntity
  8
0
100
AcDbSpline
 62
7
  6
CONTINUOUS
 70
0
 71
3
 72
26
 73
22
 74
0
 42
0.0000001
 43
0.0000001
 44
0.0000000001
 40
0.0
 40
0.0
 40
0.0
 40
0.0
 40
0.2033323473
 40
0.298341747
 40
0.388349548
 40
0.4729820035
 40
0.5519027868
 40
0.6248130122
 40
0.6914646848
 40
0.7516602135
 40
0.8052676669
 40
0.8295860985
 40
0.8522490492
 40
0.8732685056
 40
0.8926697482
 40
0.9267677606
 40
0.9551195617
 40
0.9674852343
 40
0.9788963929
 40
0.9896253396
 40
1.0
 40
1.0
 40
1.0
 40
1.0
 10
6.8614374615
 20
4.2481933318
 30
0.0
 10
6.8604880895
 20
4.2482713686
 30
0.0
 10
6.8590965889
 20
4.248406245
 30
0.0
 10
6.8572911272
 20
4.2486312647
 30
0.0
 10
6.8560408134
 20
4.2488123112
 30
0.0
 10
6.8548691302
 20
4.2490084919
 30
0.0
 10
6.8537813493
 20
4.2492187805
 30
0.0
 10
6.8527822928
 20
4.2494421107
 30
0.0
 10
6.8518762731
 20
4.2496773049
 30
0.0
 10
6.8510671537
 20
4.2499231965
 30
0.0
 10
6.8504579456
 20
4.2501425156
 30
0.0
 10
6.8500230483
 20
4.2503242245
 30
0.0
 10
6.8497338414
 20
4.2504580122
 30
0.0
 10
6.8494711131
 20
4.2505936072
 30
0.0
 10
6.8491692973
 20
4.2507692877
 30
0.0
 10
6.8488543106
 20
4.2509897534
 30
0.0
 10
6.8486020382
 20
4.2512371514
 30
0.0
 10
6.8484627966
 20
4.2514386606
 30
0.0
 10
6.8483911182
 20
4.2515843249
 30
0.0
 10
6.8483477668
 20
4.2517311693
 30
0.0
 10
6.8483380323
 20
4.2518302843
 30
0.0
 10
6.8483380323
 20
4.2518788876
 30
0.0
  0
ENDSEC
  0
SECTION
  2
OBJECTS
  0
DICTIONARY
  5
C
100
AcDbDictionary
280
0
281
1
  3
ACAD_GROUP
350
D
  3
ACAD_MLINESTYLE
350
17
  3
ACAD_LAYOUT
350
1A
  3
ACAD_PLOTSETTINGS
350
19
  3
ACAD_PLOTSTYLENAME
350
E
  0
DICTIONARY
  5
D
102
{ACAD_REACTORS
330
C
102
}
100
AcDbDictionary
280
0
281
1
  0
ACDBDICTIONARYWDFLT
  5
E
102
{ACAD_REACTORS
330
C
102
}
100
AcDbDictionary
281
1
  3
Normal
350
F
100
AcDbDictionaryWithDefault
340
F
  0
DICTIONARY
  5
17
102
{ACAD_REACTORS
330
C
102
}
100
AcDbDictionary
280
0
281
1
  3
Standard
350
18
  0
DICTIONARY
  5
19
102
{ACAD_REACTORS
330
C
102
}
100
AcDbDictionary
281
1
  0
DICTIONARY
  5
1A
102
{ACAD_REACTORS
330
C
102
}
100
AcDbDictionary
281
1
  3
Model
350
50E
  3
Layout1
350
50F
  0
ACDBPLACEHOLDER
  5
F
102
{ACAD_REACTORS
330
E
102
}
  0
MLINESTYLE
  5
18
102
{ACAD_REACTORS
330
17
102
}
100
AcDbMlineStyle
  2
STANDARD
 70
0
  3

 62
256
 51
90.0
 52
90.0
 71
2
 49
0.5
 62
256
  6
BYLAYER
 49
-0.5
 62
256
  6
BYLAYER
  0
LAYOUT
  5
50E
102
{ACAD_REACTORS
330
1A
102
}
100
AcDbPlotSettings
  1

  2
none_device
  4
ANSI_A_(11.00_x_8.50_Inches)
  6

 40
0.0
 41
0.0
 42
0.0
 43
0.0
 44
279.4
 45
215.9
 46
0.0
 47
0.0
 48
0.0
 49
0.0
140
0.0
141
0.0
142
1.0
143
1.0
 70
1024
 72
0
 73
0
 74
0
  7

 75
0
147
1.0
148
0.0
149
0.0
100
AcDbLayout
  1
Model
 70
0
 71
0
 10
0.0
 20
0.0
 11
11.0
 21
8.5
 12
0.0
 22
0.0
 32
0.0
 14
0.0
 24
0.0
 34
0.0
 15
0.0
 25
0.0
 35
0.0
146
0.0
 13
0.0
 23
0.0
 33
0.0
 16
1.0
 26
0.0
 36
0.0
 17
0.0
 27
1.0
 37
0.0
 76
0
330
202
345
0
346
0
  0
LAYOUT
  5
50F
102
{ACAD_REACTORS
330
1A
102
}
100
AcDbPlotSettings
  1

  2
none_device
  4
ANSI_A_(11.00_x_8.50_Inches)
  6

 40
0.0
 41
0.0
 42
0.0
 43
0.0
 44
279.4
 45
215.9
 46
0.0
 47
0.0
 48
0.0
 49
0.0
140
0.0
141
0.0
142
1.0
143
1.0
 70
0
 72
0
 73
0
 74
0
  7

 75
0
147
1.0
148
0.0
149
0.0
100
AcDbLayout
  1
Layout1
 70
0
 71
1
 10
0.0
 20
0.0
 11
11.0
 21
8.5
 12
0.0
 22
0.0
 32
0.0
 14
0.0
 24
0.0
 34
0.0
 15
0.0
 25
0.0
 35
0.0
146
0.0
 13
0.0
 23
0.0
 33
0.0
 16
1.0
 26
0.0
 36
0.0
 17
0.0
 27
1.0
 37
0.0
 76
0
330
203
345
0
346
0
  0
ENDSEC
  0
EOF
