999
DXF file: 9455_right.dxf
999
Pro/ENGINEER 2018400 by Parametric Technology Corporation
  0
SECTION
  2
HEADER
  9
$ACADVER
  1
AC1027
  9
$DWGCODEPAGE
  3
ANSI_1252
  9
$EXTMAX
 10
11.0
 20
8.5
 30
0.0
  9
$EXTMIN
 10
0.0
 20
0.0
 30
0.0
  9
$LIMMIN
 10
0.0
 20
0.0
  9
$LIMMAX
 10
11.0
 20
8.5
  9
$VIEWCTR
 10
5.5
 20
4.25
  9
$VIEWSIZE
 40
8.5
  9
$CLAYER
  8
0
  9
$LTSCALE
 40
0.605
  9
$CELTYPE
  6
BYLAYER
  9
$DIMSCALE
 40
1.0
  9
$DIMASZ
 40
0.1
  9
$DIMEXO
 40
0.0625
  9
$DIMDLI
 40
0.418
  9
$DIMEXE
 40
0.125
  9
$DIMCEN
 40
0.099
  9
$DIMLFAC
 40
1.0
  9
$DIMBLK
  1
_FILLED
  9
$DIMALT
 70
1
  9
$DIMALTD
 70
1
  9
$DIMALTTD
 70
2
  9
$DIMALTF
 40
25.4
  9
$DIMTXT
 40
0.08
  9
$DIMTOL
 70
1
  9
$DIMLIM
 70
0
  9
$DIMTFAC
 40
1.0
  9
$DIMTP
 40
0.01
  9
$DIMTM
 40
0.01
  9
$DIMGAP
 40
0.09
  9
$DIMDSEP
 70
46
  9
$AUNITS
 70
0
  9
$PDMODE
 70
3
  9
$PDSIZE
 40
0.3125
  9
$HANDSEED
  5
4A9
  9
$TILEMODE
 70
1
  9
$MEASUREMENT
 70
0
  9
$INSUNITS
 70
1
  0
ENDSEC
  0
SECTION
  2
CLASSES
  0
CLASS
  1
ACDBDICTIONARYWDFLT
  2
AcDbDictionaryWithDefault
  3
AutoCAD 2000
 90
0
 91
1
280
0
281
0
  0
CLASS
  1
ACDBPLACEHOLDER
  2
AcDbPlaceHolder
  3
AutoCAD 2000
 90
0
 91
1
280
0
281
0
  0
CLASS
  1
LAYOUT
  2
AcDbLayout
  3
AutoCAD 2000
 90
0
 91
0
280
0
281
0
  0
ENDSEC
  0
SECTION
  2
TABLES
  0
TABLE
  2
VPORT
  5
8
100
AcDbSymbolTable
 70
2
  0
VPORT
  5
1F4
100
AcDbSymbolTableRecord
100
AcDbViewportTableRecord
  2
*ACTIVE
 70
0
 10
0.0
 20
0.0
 11
1.0
 21
1.0
 12
5.5
 22
4.25
 13
0.0
 23
0.0
 14
1.0
 24
1.0
 15
0.0
 25
0.0
 16
0.0
 26
0.0
 36
1.0
 17
0.0
 27
0.0
 37
0.0
 40
8.5
 41
1.2941176471
 42
50.0
 43
0.0
 44
0.0
 50
0.0
 51
0.0
 71
0
 72
100
 73
1
 74
1
 75
0
 76
0
 77
0
 78
0
  0
ENDTAB
  0
TABLE
  2
LTYPE
  5
5
100
AcDbSymbolTable
 70
6
  0
LTYPE
  5
14
100
AcDbSymbolTableRecord
100
AcDbLinetypeTableRecord
  2
BYBLOCK
 70
0
  3

 72
65
 73
0
 40
0.0
  0
LTYPE
  5
15
100
AcDbSymbolTableRecord
100
AcDbLinetypeTableRecord
  2
BYLAYER
 70
0
  3

 72
65
 73
0
 40
0.0
  0
LTYPE
  5
16
100
AcDbSymbolTableRecord
100
AcDbLinetypeTableRecord
  2
CONTINUOUS
 70
64
  3
Solid line
 72
65
 73
0
 40
0.0
  0
LTYPE
  5
1F5
100
AcDbSymbolTableRecord
100
AcDbLinetypeTableRecord
  2
CENTER
 70
64
  3
____ _ ____ _ ____ _ ____ _ ____ _ ____ _ ____
 72
65
 73
4
 40
0.6
 49
0.375
 74
0
 49
-0.075
 74
0
 49
0.075
 74
0
 49
-0.075
 74
0
  0
LTYPE
  5
1F6
100
AcDbSymbolTableRecord
100
AcDbLinetypeTableRecord
  2
HIDDEN
 70
64
  3
- - - - - - - - - - - - - - - - - - - -
 72
65
 73
2
 40
0.2
 49
0.1
 74
0
 49
-0.1
 74
0
  0
LTYPE
  5
1F7
100
AcDbSymbolTableRecord
100
AcDbLinetypeTableRecord
  2
PHANTOM
 70
64
  3
_____ _ _ _____ _ _ _____ _ _ _____
 72
65
 73
6
 40
0.8
 49
0.45
 74
0
 49
-0.05
 74
0
 49
0.1
 74
0
 49
-0.05
 74
0
 49
0.1
 74
0
 49
-0.05
 74
0
  0
LTYPE
  5
1F8
100
AcDbSymbolTableRecord
100
AcDbLinetypeTableRecord
  2
DOT
 70
64
  3
. . . . . . . . . . . . . . . . . . . .
 72
65
 73
2
 40
0.2
 49
0.1
 74
0
 49
-0.1
 74
0
  0
LTYPE
  5
1F9
100
AcDbSymbolTableRecord
100
AcDbLinetypeTableRecord
  2
DASHED
 70
64
  3
- - - - - - - - - - - - - - - - - - - -
 72
65
 73
2
 40
0.2
 49
0.1
 74
0
 49
-0.1
 74
0
  0
ENDTAB
  0
TABLE
  2
LAYER
  5
2
100
AcDbSymbolTable
 70
36
  0
LAYER
  5
10
100
AcDbSymbolTableRecord
100
AcDbLayerTableRecord
  2
0
 70
0
 62
7
  6
CONTINUOUS
370
-3
390
F
  0
LAYER
  5
1FA
100
AcDbSymbolTableRecord
100
AcDbLayerTableRecord
  2
DEFAULT_1
 70
0
 62
7
  6
CENTER
370
-3
390
F
  0
LAYER
  5
1FB
100
AcDbSymbolTableRecord
100
AcDbLayerTableRecord
  2
DEFAULT_2
 70
0
 62
8
  6
HIDDEN
370
-3
390
F
  0
LAYER
  5
1FC
100
AcDbSymbolTableRecord
100
AcDbLayerTableRecord
  2
DEFAULT_3
 70
0
 62
7
  6
PHANTOM
370
-3
390
F
  0
LAYER
  5
1FD
100
AcDbSymbolTableRecord
100
AcDbLayerTableRecord
  2
DEFAULT_COORDINATE_SYSTEM
 70
0
 62
7
  6
CONTINUOUS
370
-3
390
F
  0
LAYER
  5
1FE
100
AcDbSymbolTableRecord
100
AcDbLayerTableRecord
  2
DEFAULT_DATUM_AXES
 70
0
 62
7
  6
CONTINUOUS
370
-3
390
F
  0
LAYER
  5
1FF
100
AcDbSymbolTableRecord
100
AcDbLayerTableRecord
  2
DEFAULT_DATUM_PLANES
 70
0
 62
7
  6
CONTINUOUS
370
-3
390
F
  0
ENDTAB
  0
TABLE
  2
STYLE
  5
3
100
AcDbSymbolTable
 70
1
  0
STYLE
  5
11
100
AcDbSymbolTableRecord
100
AcDbTextStyleTableRecord
  2
STANDARD
 70
0
 40
0.0
 41
0.8
 50
0.0
 71
0
 42
0.2
  3
txt
  4

  0
STYLE
  5
200
100
AcDbSymbolTableRecord
100
AcDbTextStyleTableRecord
  2
TEXTSTYLE_1
 70
0
 40
0.0
 41
0.8
 50
0.0
 71
0
 42
0.2
  3
gdt
  4

  0
ENDTAB
  0
TABLE
  2
VIEW
  5
6
100
AcDbSymbolTable
 70
0
  0
ENDTAB
  0
TABLE
  2
UCS
  5
7
100
AcDbSymbolTable
 70
0
  0
ENDTAB
  0
TABLE
  2
APPID
  5
9
100
AcDbSymbolTable
 70
1
  0
APPID
  5
201
100
AcDbSymbolTableRecord
100
AcDbRegAppTableRecord
  2
ACAD
 70
0
  0
ENDTAB
  0
TABLE
  2
BLOCK_RECORD
  5
1
100
AcDbSymbolTable
 70
0
  0
BLOCK_RECORD
  5
202
100
AcDbSymbolTableRecord
100
AcDbBlockTableRecord
  2
*Model_Space
  0
BLOCK_RECORD
  5
203
100
AcDbSymbolTableRecord
100
AcDbBlockTableRecord
  2
*Paper_Space
  0
BLOCK_RECORD
  5
204
100
AcDbSymbolTableRecord
100
AcDbBlockTableRecord
  2
_FILLED
  0
ENDTAB
  0
TABLE
  2
DIMSTYLE
  5
A
100
AcDbSymbolTable
 70
1
100
AcDbDimStyleTable
 71
0
  0
DIMSTYLE
105
205
100
AcDbSymbolTableRecord
100
AcDbDimStyleTableRecord
  2
STANDARD
 70
0
  3

  4

 40
1.0
 41
0.1
 42
0.0625
 43
0.38
 44
0.125
 45
0.0
 46
0.0
 47
0.01
 48
0.01
140
0.08
141
0.09
142
0.0
143
25.4
144
1.0
145
0.0
146
1.0
147
0.09
 71
1.0
 72
0.0
 73
1
 74
1
 75
0
 76
0
 77
0
 78
4
 79
1
170
1
171
1
172
0
173
0
174
0
175
0
176
0
177
0
178
0
270
2
179
2
271
2
272
2
273
2
274
2
275
0
280
0
281
0
282
0
283
1
284
4
285
0
286
0
287
3
288
0
340
11
278
46
341
204
342
204
343
204
344
204
  0
ENDTAB
  0
ENDSEC
  0
SECTION
  2
BLOCKS
  0
BLOCK
  5
20
100
AcDbEntity
  8
0
100
AcDbBlockBegin
  2
*Model_Space
 70
0
 10
0.0
 20
0.0
 30
0.0
  3
*Model_Space
  1

  0
ENDBLK
  5
21
100
AcDbEntity
  8
0
100
AcDbBlockEnd
  0
BLOCK
  5
1C
100
AcDbEntity
  8
0
100
AcDbBlockBegin
  2
*Paper_Space
 70
0
 10
0.0
 20
0.0
 30
0.0
  3
*Paper_Space
  1

  0
ENDBLK
  5
1D
100
AcDbEntity
  8
0
100
AcDbBlockEnd
  0
BLOCK
  5
206
100
AcDbEntity
  8
0
100
AcDbBlockBegin
  2
_FILLED
 70
64
 10
0.0
 20
0.0
  3
_FILLED
  1

  0
SOLID
  5
207
100
AcDbEntity
  8
0
  6
BYBLOCK
 62
0
100
AcDbTrace
 10
0.0
 20
0.0
 11
-1.0
 21
0.2
 12
-1.0
 22
-0.2
 13
-1.0
 23
-0.2
  0
ENDBLK
  5
208
100
AcDbEntity
  8
0
  6
BYBLOCK
 62
0
100
AcDbBlockEnd
  0
ENDSEC
  0
SECTION
  2
ENTITIES
  0
MTEXT
  5
209
100
AcDbEntity
  8
0
100
AcDbMText
 62
2
  6
CONTINUOUS
  7
STANDARD
 71
3
 72
1
 10
4.8312888199
 20
0.4647680261
 30
0.0
 11
1.0
 21
0.0
 31
0.0
 73
2
 44
0.9
  1
SCALE  .500
 40
0.08
 41
0.704
  0
LINE
  5
20A
100
AcDbEntity
  8
0
100
AcDbLine
 62
7
  6
CONTINUOUS
 10
0.0
 20
0.0
 11
0.0
 21
8.5
  0
LINE
  5
20B
100
AcDbEntity
  8
0
100
AcDbLine
 62
7
  6
CONTINUOUS
 10
0.0
 20
0.0
 11
11.0
 21
0.0
  0
LINE
  5
20C
100
AcDbEntity
  8
0
100
AcDbLine
 62
7
  6
CONTINUOUS
 10
0.0
 20
8.5
 11
11.0
 21
8.5
  0
LINE
  5
20D
100
AcDbEntity
  8
0
100
AcDbLine
 62
7
  6
CONTINUOUS
 10
11.0
 20
0.0
 11
11.0
 21
8.5
  0
LINE
  5
20E
100
AcDbEntity
  8
0
100
AcDbLine
 62
7
  6
CONTINUOUS
 10
6.4051678242
 20
0.5597680261
 11
7.4501678242
 21
0.5597680261
  0
LINE
  5
20F
100
AcDbEntity
  8
0
100
AcDbLine
 62
7
  6
CONTINUOUS
 10
6.3401680688
 20
0.5687680261
 11
7.5151675795
 21
0.5687680261
  0
LINE
  5
210
100
AcDbEntity
  8
0
100
AcDbLine
 62
7
  6
CONTINUOUS
 10
6.3401678242
 20
0.6237680261
 11
7.5151678242
 21
0.6237680261
  0
LINE
  5
211
100
AcDbEntity
  8
0
100
AcDbLine
 62
7
  6
CONTINUOUS
 10
7.5001676586
 20
0.6387680261
 11
6.3551678242
 21
0.6387680261
  0
LINE
  5
212
100
AcDbEntity
  8
0
100
AcDbLine
 62
7
  6
CONTINUOUS
 10
6.4926678887
 20
0.7587680261
 11
7.3626677596
 21
0.7587680261
  0
LINE
  5
213
100
AcDbEntity
  8
0
100
AcDbLine
 62
7
  6
CONTINUOUS
 10
6.6626681437
 20
0.9237680261
 11
7.1926675046
 21
0.9237680261
  0
LINE
  5
214
100
AcDbEntity
  8
0
100
AcDbLine
 62
7
  6
CONTINUOUS
 10
6.6523184494
 20
0.9404371449
 11
7.203017199
 21
0.9404371449
  0
LINE
  5
215
100
AcDbEntity
  8
0
100
AcDbLine
 62
7
  6
CONTINUOUS
 10
6.5830049438
 20
1.5217155427
 11
7.2723307045
 21
1.5217155427
  0
LINE
  5
216
100
AcDbEntity
  8
0
100
AcDbLine
 62
7
  6
CONTINUOUS
 10
7.2576678242
 20
1.5487680261
 11
6.5976678242
 21
1.5487680261
  0
LINE
  5
217
100
AcDbEntity
  8
0
100
AcDbLine
 62
7
  6
CONTINUOUS
 10
6.6096411904
 20
1.5641102449
 11
7.2456944579
 21
1.5641102449
  0
LINE
  5
218
100
AcDbEntity
  8
0
100
AcDbLine
 62
7
  6
CONTINUOUS
 10
2.1776678242
 20
5.4203680261
 11
2.2064455698
 21
5.1026617143
  0
LINE
  5
219
100
AcDbEntity
  8
0
100
AcDbLine
 62
7
  6
CONTINUOUS
 10
2.2089178242
 20
5.4803680261
 11
2.2089178242
 21
5.6678680261
  0
LINE
  5
21A
100
AcDbEntity
  8
0
100
AcDbLine
 62
7
  6
CONTINUOUS
 10
2.6464178242
 20
5.4803680261
 11
2.6464178242
 21
5.6678680261
  0
LINE
  5
21B
100
AcDbEntity
  8
0
100
AcDbLine
 62
7
  6
CONTINUOUS
 10
2.6776678242
 20
5.4203680261
 11
2.6488900785
 21
5.1026617143
  0
LINE
  5
21C
100
AcDbEntity
  8
0
100
AcDbLine
 62
7
  6
CONTINUOUS
 10
6.6244250141
 20
2.1525678427
 11
7.2309106342
 21
2.1525678427
  0
LINE
  5
21D
100
AcDbEntity
  8
0
100
AcDbLine
 62
7
  6
CONTINUOUS
 10
7.2009178242
 20
2.1737680261
 11
6.6544178242
 21
2.1737680261
  0
LINE
  5
21E
100
AcDbEntity
  8
0
100
AcDbLine
 62
7
  6
CONTINUOUS
 10
7.2276678242
 20
2.1797680261
 11
7.2238219824
 21
2.1797680261
  0
LINE
  5
21F
100
AcDbEntity
  8
0
100
AcDbLine
 62
7
  6
CONTINUOUS
 10
6.6315136659
 20
2.1797680261
 11
6.6276678242
 21
2.1797680261
  0
LINE
  5
220
100
AcDbEntity
  8
0
100
AcDbLine
 62
7
  6
CONTINUOUS
 10
7.2246678242
 20
2.2492783354
 11
7.1534194636
 21
2.2492783354
  0
LINE
  5
221
100
AcDbEntity
  8
0
100
AcDbLine
 62
7
  6
CONTINUOUS
 10
6.9989161847
 20
2.2492783354
 11
6.8564194636
 21
2.2492783354
  0
LINE
  5
222
100
AcDbEntity
  8
0
100
AcDbLine
 62
7
  6
CONTINUOUS
 10
6.7019161847
 20
2.2492783354
 11
6.6306678242
 21
2.2492783354
  0
LINE
  5
223
100
AcDbEntity
  8
0
100
AcDbLine
 62
7
  6
CONTINUOUS
 10
7.1898592226
 20
2.3652680261
 11
6.6654764257
 21
2.3652680261
  0
LINE
  5
224
100
AcDbEntity
  8
0
100
AcDbLine
 62
7
  6
CONTINUOUS
 10
7.287171357
 20
3.243335047
 11
7.1153623478
 21
3.200492064
  0
LINE
  5
225
100
AcDbEntity
  8
0
100
AcDbLine
 62
7
  6
CONTINUOUS
 10
7.3104289568
 20
3.2918494233
 11
7.1329826116
 21
3.2476006915
  0
LINE
  5
226
100
AcDbEntity
  8
0
100
AcDbLine
 62
7
  6
CONTINUOUS
 10
7.1362354502
 20
2.806782232
 11
6.7191001981
 21
2.806782232
  0
LINE
  5
227
100
AcDbEntity
  8
0
100
AcDbLine
 62
7
  6
CONTINUOUS
 10
7.1114178242
 20
2.8287680261
 11
6.7439178242
 21
2.8287680261
  0
LINE
  5
228
100
AcDbEntity
  8
0
100
AcDbLine
 62
7
  6
CONTINUOUS
 10
6.7769178108
 20
2.8387680261
 11
7.0784178375
 21
2.8387680261
  0
LINE
  5
229
100
AcDbEntity
  8
0
100
AcDbLine
 62
7
  6
CONTINUOUS
 10
6.7239178242
 20
3.4387680261
 11
6.7151828142
 21
3.4364274872
  0
LINE
  5
22A
100
AcDbEntity
  8
0
100
AcDbLine
 62
7
  6
CONTINUOUS
 10
7.0784178242
 20
2.9837680261
 11
6.7769178242
 21
2.9837680261
  0
LINE
  5
22B
100
AcDbEntity
  8
0
100
AcDbLine
 62
7
  6
CONTINUOUS
 10
6.5293094998
 20
3.0137680261
 11
7.3260261485
 21
3.0137680261
  0
LINE
  5
22C
100
AcDbEntity
  8
0
100
AcDbLine
 62
7
  6
CONTINUOUS
 10
6.7492361394
 20
3.0187680261
 11
7.1060995089
 21
3.0187680261
  0
LINE
  5
22D
100
AcDbEntity
  8
0
100
AcDbLine
 62
7
  6
CONTINUOUS
 10
6.5646648389
 20
3.0637680261
 11
6.8078337997
 21
3.0637680261
  0
LINE
  5
22E
100
AcDbEntity
  8
0
100
AcDbLine
 62
7
  6
CONTINUOUS
 10
7.0474896441
 20
3.0637680261
 11
7.2906708094
 21
3.0637680261
  0
LINE
  5
22F
100
AcDbEntity
  8
0
100
AcDbLine
 62
7
  6
CONTINUOUS
 10
7.0551082495
 20
3.4659444818
 11
7.0551928054
 21
3.465956242
  0
LINE
  5
230
100
AcDbEntity
  8
0
100
AcDbLine
 62
7
  6
CONTINUOUS
 10
6.89924671
 20
3.504937236
 11
6.8992940044
 21
3.5049417257
  0
LINE
  5
231
100
AcDbEntity
  8
0
100
AcDbLine
 62
7
  6
CONTINUOUS
 10
7.0422344481
 20
3.46636491
 11
7.0423628464
 21
3.4663694699
  0
LINE
  5
232
100
AcDbEntity
  8
0
100
AcDbLine
 62
7
  6
CONTINUOUS
 10
7.0640905591
 20
3.4500398161
 11
7.0641671879
 21
3.4500418283
  0
LINE
  5
233
100
AcDbEntity
  8
0
100
AcDbLine
 62
7
  6
CONTINUOUS
 10
6.6526678242
 20
3.2912680261
 11
7.2026678242
 21
3.2912680261
  0
LINE
  5
234
100
AcDbEntity
  8
0
100
AcDbLine
 62
7
  6
CONTINUOUS
 10
6.6576678242
 20
3.2962680261
 11
7.197667824
 21
3.2962680261
  0
LINE
  5
235
100
AcDbEntity
  8
0
100
AcDbLine
 62
7
  6
CONTINUOUS
 10
6.6564178242
 20
3.3037680261
 11
7.1989178242
 21
3.3037680261
  0
LINE
  5
236
100
AcDbEntity
  8
0
100
AcDbLine
 62
7
  6
CONTINUOUS
 10
6.6489178242
 20
3.3112680261
 11
7.2064178242
 21
3.3112680261
  0
LINE
  5
237
100
AcDbEntity
  8
0
100
AcDbLine
 62
7
  6
CONTINUOUS
 10
6.6489178242
 20
3.3542731286
 11
7.2064178242
 21
3.3542731286
  0
LINE
  5
238
100
AcDbEntity
  8
0
100
AcDbLine
 62
7
  6
CONTINUOUS
 10
6.6689178242
 20
3.3787680261
 11
7.1864178242
 21
3.3787680261
  0
LINE
  5
239
100
AcDbEntity
  8
0
100
AcDbLine
 62
7
  6
CONTINUOUS
 10
6.7151828142
 20
3.4364274872
 11
7.1401528341
 21
3.4364274872
  0
LINE
  5
23A
100
AcDbEntity
  8
0
100
AcDbLine
 62
7
  6
CONTINUOUS
 10
6.7239178242
 20
3.4387680261
 11
7.1314178242
 21
3.4387680261
  0
LINE
  5
23B
100
AcDbEntity
  8
0
100
AcDbLine
 62
7
  6
CONTINUOUS
 10
6.8084729636
 20
3.4819275201
 11
6.591002621
 21
3.4819275201
  0
LINE
  5
23C
100
AcDbEntity
  8
0
100
AcDbLine
 62
7
  6
CONTINUOUS
 10
7.0468626847
 20
3.4819275201
 11
7.2643330273
 21
3.4819275201
  0
LINE
  5
23D
100
AcDbEntity
  8
0
100
AcDbLine
 62
7
  6
CONTINUOUS
 10
6.8975038587
 20
3.5047680261
 11
6.6076678242
 21
3.5047680261
  0
LINE
  5
23E
100
AcDbEntity
  8
0
100
AcDbLine
 62
7
  6
CONTINUOUS
 10
6.9578317896
 20
3.5047680261
 11
7.2476678242
 21
3.5047680261
  0
LINE
  5
23F
100
AcDbEntity
  8
0
100
AcDbLine
 62
7
  6
CONTINUOUS
 10
7.2357810458
 20
3.5194700176
 11
6.6195546025
 21
3.5194700176
  0
LINE
  5
240
100
AcDbEntity
  8
0
100
AcDbLine
 62
7
  6
CONTINUOUS
 10
7.0870887799
 20
3.4499568418
 11
7.0873266407
 21
3.4499515458
  0
LINE
  5
241
100
AcDbEntity
  8
0
100
AcDbLine
 62
7
  6
CONTINUOUS
 10
7.0740514375
 20
3.4597780567
 11
7.0741149421
 21
3.4597765514
  0
LINE
  5
242
100
AcDbEntity
  8
0
100
AcDbLine
 62
7
  6
CONTINUOUS
 10
6.7397437817
 20
3.2005492977
 11
6.5681642913
 21
3.243335047
  0
LINE
  5
243
100
AcDbEntity
  8
0
100
AcDbLine
 62
7
  6
CONTINUOUS
 10
6.7220091133
 20
3.2476864537
 11
6.5449066914
 21
3.2918494233
  0
LINE
  5
244
100
AcDbEntity
  8
0
100
AcDbLine
 62
7
  6
CONTINUOUS
 10
6.6276678242
 20
4.0697680261
 11
7.2276678242
 21
4.0697680261
  0
LINE
  5
245
100
AcDbEntity
  8
0
100
AcDbLine
 62
7
  6
CONTINUOUS
 10
7.1314178242
 20
3.4387680261
 11
7.1401528341
 21
3.4364274872
  0
LINE
  5
246
100
AcDbEntity
  8
0
100
AcDbLine
 62
7
  6
CONTINUOUS
 10
6.8232722423
 20
4.0947680261
 11
6.7362959702
 21
4.0947680261
  0
LINE
  5
247
100
AcDbEntity
  8
0
100
AcDbLine
 62
7
  6
CONTINUOUS
 10
6.6319003884
 20
4.0947680261
 11
6.6276678242
 21
4.0947680261
  0
LINE
  5
248
100
AcDbEntity
  8
0
100
AcDbLine
 62
7
  6
CONTINUOUS
 10
7.032063406
 20
4.0947680261
 11
7.1190396781
 21
4.0947680261
  0
LINE
  5
249
100
AcDbEntity
  8
0
100
AcDbLine
 62
7
  6
CONTINUOUS
 10
7.2234352599
 20
4.0947680261
 11
7.2276678242
 21
4.0947680261
  0
LINE
  5
24A
100
AcDbEntity
  8
0
100
AcDbLine
 62
7
  6
CONTINUOUS
 10
7.1776678242
 20
4.1447680261
 11
6.6776679085
 21
4.1447680261
  0
LINE
  5
24B
100
AcDbEntity
  8
0
100
AcDbLine
 62
7
  6
CONTINUOUS
 10
7.0731459406
 20
3.4512133573
 11
7.0736030288
 21
3.4509675997
  0
LINE
  5
24C
100
AcDbEntity
  8
0
100
AcDbLine
 62
7
  6
CONTINUOUS
 10
7.073200656
 20
3.4505731527
 11
7.073585216
 21
3.4503658694
  0
LINE
  5
24D
100
AcDbEntity
  8
0
100
AcDbLine
 62
7
  6
CONTINUOUS
 10
7.0732006656
 20
3.4505731707
 11
7.0735852152
 21
3.4503658681
  0
LINE
  5
24E
100
AcDbEntity
  8
0
100
AcDbLine
 62
7
  6
CONTINUOUS
 10
7.0774617272
 20
3.4668032882
 11
7.0779634312
 21
3.4665190337
  0
LINE
  5
24F
100
AcDbEntity
  8
0
100
AcDbLine
 62
7
  6
CONTINUOUS
 10
7.0815497446
 20
3.4644500519
 11
7.0819574441
 21
3.4642108043
  0
LINE
  5
250
100
AcDbEntity
  8
0
100
AcDbLine
 62
7
  6
CONTINUOUS
 10
7.090334037
 20
3.4591132028
 11
7.090604233
 21
3.4589420574
  0
LINE
  5
251
100
AcDbEntity
  8
0
100
AcDbLine
 62
7
  6
CONTINUOUS
 10
7.0908367941
 20
3.458794431
 11
7.0913564167
 21
3.4584635109
  0
LINE
  5
252
100
AcDbEntity
  8
0
100
AcDbLine
 62
7
  6
CONTINUOUS
 10
7.0940452238
 20
3.4567266098
 11
7.0943231658
 21
3.45654554
  0
LINE
  5
253
100
AcDbEntity
  8
0
100
AcDbLine
 62
7
  6
CONTINUOUS
 10
7.0941857225
 20
3.4566354788
 11
7.0947571084
 21
3.4562608789
  0
LINE
  5
254
100
AcDbEntity
  8
0
100
AcDbLine
 62
7
  6
CONTINUOUS
 10
7.0738847307
 20
3.4600836275
 11
7.0736523269
 21
3.4602449124
  0
LINE
  5
255
100
AcDbEntity
  8
0
100
AcDbLine
 62
7
  6
CONTINUOUS
 10
7.0775727448
 20
3.4587430326
 11
7.0785669201
 21
3.4580413471
  0
LINE
  5
256
100
AcDbEntity
  8
0
100
AcDbLine
 62
7
  6
CONTINUOUS
 10
7.1061043642
 20
3.4484199318
 11
7.1072479826
 21
3.4475878636
  0
LINE
  5
257
100
AcDbEntity
  8
0
100
AcDbLine
 62
7
  6
CONTINUOUS
 10
7.0527453462
 20
3.463948075
 11
7.0528392801
 21
3.4638780918
  0
LINE
  5
258
100
AcDbEntity
  8
0
100
AcDbLine
 62
7
  6
CONTINUOUS
 10
2.6190123067
 20
5.0753680261
 11
2.2363233416
 21
5.0753680261
  0
LINE
  5
259
100
AcDbEntity
  8
0
100
AcDbLine
 62
7
  6
CONTINUOUS
 10
2.6488900785
 20
5.1026617143
 11
2.2064455698
 21
5.1026617143
  0
LINE
  5
25A
100
AcDbEntity
  8
0
100
AcDbLine
 62
7
  6
CONTINUOUS
 10
2.6776678242
 20
5.4203680261
 11
2.1776678242
 21
5.4203680261
  0
LINE
  5
25B
100
AcDbEntity
  8
0
100
AcDbLine
 62
7
  6
CONTINUOUS
 10
2.6776678242
 20
5.4803680261
 11
2.1776679083
 21
5.4803680261
  0
LINE
  5
25C
100
AcDbEntity
  8
0
100
AcDbLine
 62
7
  6
CONTINUOUS
 10
6.3401678242
 20
0.6237680261
 11
6.3401678242
 21
0.5687680261
  0
LINE
  5
25D
100
AcDbEntity
  8
0
100
AcDbLine
 62
7
  6
CONTINUOUS
 10
7.1464178242
 20
5.6678680261
 11
6.7089178242
 21
5.6678680261
  0
LINE
  5
25E
100
AcDbEntity
  8
0
100
AcDbLine
 62
7
  6
CONTINUOUS
 10
2.2089178242
 20
5.6678680261
 11
2.6464178242
 21
5.6678680261
  0
LINE
  5
25F
100
AcDbEntity
  8
0
100
AcDbLine
 62
7
  6
CONTINUOUS
 10
6.6276678242
 20
4.0947680261
 11
6.6276678242
 21
4.0697680261
  0
LINE
  5
260
100
AcDbEntity
  8
0
100
AcDbLine
 62
7
  6
CONTINUOUS
 10
6.6306678242
 20
2.1802501729
 11
6.6306678242
 21
2.267867572
  0
LINE
  5
261
100
AcDbEntity
  8
0
100
AcDbLine
 62
7
  6
CONTINUOUS
 10
6.6319003884
 20
4.0947680261
 11
6.6319003884
 21
4.0697680261
  0
LINE
  5
262
100
AcDbEntity
  8
0
100
AcDbLine
 62
7
  6
CONTINUOUS
 10
6.6489178242
 20
3.3542731286
 11
6.6489178242
 21
3.3112680261
  0
LINE
  5
263
100
AcDbEntity
  8
0
100
AcDbLine
 62
7
  6
CONTINUOUS
 10
6.6526678242
 20
3.2912680261
 11
6.6526678242
 21
3.2649776754
  0
LINE
  5
264
100
AcDbEntity
  8
0
100
AcDbLine
 62
7
  6
CONTINUOUS
 10
6.7051678242
 20
3.3037680261
 11
6.7051678242
 21
3.2962680261
  0
LINE
  5
265
100
AcDbEntity
  8
0
100
AcDbLine
 62
7
  6
CONTINUOUS
 10
6.7089178242
 20
5.6678680261
 11
6.7089178242
 21
4.1447680261
  0
LINE
  5
266
100
AcDbEntity
  8
0
100
AcDbLine
 62
7
  6
CONTINUOUS
 10
6.7617256485
 20
3.4490231372
 11
6.7622527334
 21
3.4494141696
  0
LINE
  5
267
100
AcDbEntity
  8
0
100
AcDbLine
 62
7
  6
CONTINUOUS
 10
6.752007445
 20
3.4488254131
 11
6.752292318
 21
3.4490293167
  0
LINE
  5
268
100
AcDbEntity
  8
0
100
AcDbLine
 62
7
  6
CONTINUOUS
 10
6.7548216864
 20
3.4508175856
 11
6.7553169141
 21
3.4511637885
  0
LINE
  5
269
100
AcDbEntity
  8
0
100
AcDbLine
 62
7
  6
CONTINUOUS
 10
6.7572672083
 20
3.4538077472
 11
6.7566980818
 21
3.4534122229
  0
LINE
  5
26A
100
AcDbEntity
  8
0
100
AcDbLine
 62
7
  6
CONTINUOUS
 10
6.7572688567
 20
3.4538050541
 11
6.7566980818
 21
3.4534122229
  0
LINE
  5
26B
100
AcDbEntity
  8
0
100
AcDbLine
 62
7
  6
CONTINUOUS
 10
6.7570442313
 20
3.4538673656
 11
6.7571678242
 21
3.4539518521
  0
LINE
  5
26C
100
AcDbEntity
  8
0
100
AcDbLine
 62
7
  6
CONTINUOUS
 10
6.7617504486
 20
3.4568516436
 11
6.7614685536
 21
3.4566639575
  0
LINE
  5
26D
100
AcDbEntity
  8
0
100
AcDbLine
 62
7
  6
CONTINUOUS
 10
6.7614574967
 20
3.4566925285
 11
6.7616665832
 21
3.4568314817
  0
LINE
  5
26E
100
AcDbEntity
  8
0
100
AcDbLine
 62
7
  6
CONTINUOUS
 10
6.7687046109
 20
3.4614229799
 11
6.7689661615
 21
3.4615837493
  0
LINE
  5
26F
100
AcDbEntity
  8
0
100
AcDbLine
 62
7
  6
CONTINUOUS
 10
6.7727254217
 20
3.4638055511
 11
6.7731502312
 21
3.4640618234
  0
LINE
  5
270
100
AcDbEntity
  8
0
100
AcDbLine
 62
7
  6
CONTINUOUS
 10
6.7727250872
 20
3.4638061842
 11
6.773150935
 21
3.4640604861
  0
LINE
  5
271
100
AcDbEntity
  8
0
100
AcDbLine
 62
7
  6
CONTINUOUS
 10
6.7757454919
 20
3.4655727356
 11
6.77540615
 21
3.4653746569
  0
LINE
  5
272
100
AcDbEntity
  8
0
100
AcDbLine
 62
7
  6
CONTINUOUS
 10
6.7757455555
 20
3.465572612
 11
6.7754053753
 21
3.4653761576
  0
LINE
  5
273
100
AcDbEntity
  8
0
100
AcDbLine
 62
7
  6
CONTINUOUS
 10
6.7774253675
 20
3.4665553647
 11
6.7776678242
 21
3.4666950075
  0
LINE
  5
274
100
AcDbEntity
  8
0
100
AcDbLine
 62
7
  6
CONTINUOUS
 10
6.7801538282
 20
3.4639734838
 11
6.7799211446
 21
3.463839741
  0
LINE
  5
275
100
AcDbEntity
  8
0
100
AcDbLine
 62
7
  6
CONTINUOUS
 10
6.7362959702
 20
4.0947680261
 11
6.7362959702
 21
4.0697680261
  0
LINE
  5
276
100
AcDbEntity
  8
0
100
AcDbLine
 62
7
  6
CONTINUOUS
 10
6.7476678242
 20
3.4467671746
 11
6.7476678242
 21
3.4472740707
  0
LINE
  5
277
100
AcDbEntity
  8
0
100
AcDbLine
 62
7
  6
CONTINUOUS
 10
6.7518170429
 20
3.4485025002
 11
6.7518170429
 21
3.4491184415
  0
LINE
  5
278
100
AcDbEntity
  8
0
100
AcDbLine
 62
7
  6
CONTINUOUS
 10
6.7520168737
 20
3.4487997511
 11
6.7520168737
 21
3.4494149521
  0
LINE
  5
279
100
AcDbEntity
  8
0
100
AcDbLine
 62
7
  6
CONTINUOUS
 10
6.7521678242
 20
3.4500148748
 11
6.7521678242
 21
3.450515144
  0
LINE
  5
27A
100
AcDbEntity
  8
0
100
AcDbLine
 62
7
  6
CONTINUOUS
 10
6.7554608289
 20
3.4499033207
 11
6.7554608289
 21
3.4505157888
  0
LINE
  5
27B
100
AcDbEntity
  8
0
100
AcDbLine
 62
7
  6
CONTINUOUS
 10
6.7560569855
 20
3.4529616125
 11
6.7560569855
 21
3.4531890031
  0
LINE
  5
27C
100
AcDbEntity
  8
0
100
AcDbLine
 62
7
  6
CONTINUOUS
 10
6.7571678242
 20
3.4537355193
 11
6.7571678242
 21
3.4539518521
  0
LINE
  5
27D
100
AcDbEntity
  8
0
100
AcDbLine
 62
7
  6
CONTINUOUS
 10
6.7579478464
 20
3.4504804568
 11
6.7579478464
 21
3.4510915052
  0
LINE
  5
27E
100
AcDbEntity
  8
0
100
AcDbLine
 62
7
  6
CONTINUOUS
 10
6.7594971665
 20
3.4543376529
 11
6.7594971665
 21
3.4546265917
  0
LINE
  5
27F
100
AcDbEntity
  8
0
100
AcDbLine
 62
7
  6
CONTINUOUS
 10
6.7616678242
 20
3.4567938
 11
6.7616678242
 21
3.4569627037
  0
LINE
  5
280
100
AcDbEntity
  8
0
100
AcDbLine
 62
7
  6
CONTINUOUS
 10
6.7631222798
 20
3.4548597176
 11
6.7631222798
 21
3.4554602044
  0
LINE
  5
281
100
AcDbEntity
  8
0
100
AcDbLine
 62
7
  6
CONTINUOUS
 10
6.7646593735
 20
3.4574000748
 11
6.7646593735
 21
3.4579946003
  0
LINE
  5
282
100
AcDbEntity
  8
0
100
AcDbLine
 62
7
  6
CONTINUOUS
 10
6.7671904705
 20
3.4504943003
 11
6.7671904705
 21
3.4511053147
  0
LINE
  5
283
100
AcDbEntity
  8
0
100
AcDbLine
 62
7
  6
CONTINUOUS
 10
6.7686685928
 20
3.454024118
 11
6.7686685928
 21
3.4546265917
  0
LINE
  5
284
100
AcDbEntity
  8
0
100
AcDbLine
 62
7
  6
CONTINUOUS
 10
6.769990847
 20
3.4606367617
 11
6.769990847
 21
3.460048326
  0
LINE
  5
285
100
AcDbEntity
  8
0
100
AcDbLine
 62
7
  6
CONTINUOUS
 10
6.771617352
 20
3.4504804568
 11
6.771617352
 21
3.4510915052
  0
LINE
  5
286
100
AcDbEntity
  8
0
100
AcDbLine
 62
7
  6
CONTINUOUS
 10
6.7736841967
 20
3.4574000748
 11
6.7736841967
 21
3.4579946003
  0
LINE
  5
287
100
AcDbEntity
  8
0
100
AcDbLine
 62
7
  6
CONTINUOUS
 10
6.7754070135
 20
3.4641480082
 11
6.7754070135
 21
3.4646163826
  0
LINE
  5
288
100
AcDbEntity
  8
0
100
AcDbLine
 62
7
  6
CONTINUOUS
 10
6.7759169598
 20
3.4538859489
 11
6.7759169598
 21
3.4544887524
  0
LINE
  5
289
100
AcDbEntity
  8
0
100
AcDbLine
 62
7
  6
CONTINUOUS
 10
6.7769178242
 20
2.9837680261
 11
6.7769178242
 21
2.8387680261
  0
LINE
  5
28A
100
AcDbEntity
  8
0
100
AcDbLine
 62
7
  6
CONTINUOUS
 10
6.7776678242
 20
3.4667092979
 11
6.7776678242
 21
3.4666827242
  0
LINE
  5
28B
100
AcDbEntity
  8
0
100
AcDbLine
 62
7
  6
CONTINUOUS
 10
6.7781879257
 20
3.4642835964
 11
6.7781879257
 21
3.4648625477
  0
LINE
  5
28C
100
AcDbEntity
  8
0
100
AcDbLine
 62
7
  6
CONTINUOUS
 10
6.7801443995
 20
3.4639734838
 11
6.7801443995
 21
3.4640321164
  0
LINE
  5
28D
100
AcDbEntity
  8
0
100
AcDbLine
 62
7
  6
CONTINUOUS
 10
6.7802087019
 20
3.4609937052
 11
6.7802087019
 21
3.4604060826
  0
LINE
  5
28E
100
AcDbEntity
  8
0
100
AcDbLine
 62
7
  6
CONTINUOUS
 10
6.7839188551
 20
3.4640368873
 11
6.7839188551
 21
3.4646163826
  0
LINE
  5
28F
100
AcDbEntity
  8
0
100
AcDbLine
 62
7
  6
CONTINUOUS
 10
6.789900222
 20
3.4637245961
 11
6.789900222
 21
3.4643047817
  0
LINE
  5
290
100
AcDbEntity
  8
0
100
AcDbLine
 62
7
  6
CONTINUOUS
 10
6.7941710884
 20
3.4638203141
 11
6.7941710884
 21
3.464400288
  0
LINE
  5
291
100
AcDbEntity
  8
0
100
AcDbLine
 62
7
  6
CONTINUOUS
 10
6.8232722423
 20
4.0947680261
 11
6.8232722423
 21
4.0697680261
  0
LINE
  5
292
100
AcDbEntity
  8
0
100
AcDbLine
 62
7
  6
CONTINUOUS
 10
6.8926678242
 20
3.4748509902
 11
6.8926678242
 21
3.4889242335
  0
LINE
  5
293
100
AcDbEntity
  8
0
100
AcDbLine
 62
7
  6
CONTINUOUS
 10
6.8926678242
 20
3.4905322196
 11
6.8926678242
 21
3.4987258882
  0
LINE
  5
294
100
AcDbEntity
  8
0
100
AcDbLine
 62
7
  6
CONTINUOUS
 10
6.9026678242
 20
3.5045784017
 11
6.9026678242
 21
3.5040756041
  0
LINE
  5
295
100
AcDbEntity
  8
0
100
AcDbLine
 62
7
  6
CONTINUOUS
 10
6.9026678242
 20
3.4804758573
 11
6.9026678242
 21
3.4759486912
  0
LINE
  5
296
100
AcDbEntity
  8
0
100
AcDbLine
 62
7
  6
CONTINUOUS
 10
6.9026678242
 20
3.4894399131
 11
6.9026678242
 21
3.489968275
  0
LINE
  5
297
100
AcDbEntity
  8
0
100
AcDbLine
 62
7
  6
CONTINUOUS
 10
6.9026678242
 20
3.4992245568
 11
6.9026678242
 21
3.4997355495
  0
LINE
  5
298
100
AcDbEntity
  8
0
100
AcDbLine
 62
7
  6
CONTINUOUS
 10
6.9093010737
 20
3.488588893
 11
6.9093010737
 21
3.4891188216
  0
LINE
  5
299
100
AcDbEntity
  8
0
100
AcDbLine
 62
7
  6
CONTINUOUS
 10
6.9145920642
 20
3.4981645392
 11
6.9145920642
 21
3.4986773583
  0
LINE
  5
29A
100
AcDbEntity
  8
0
100
AcDbLine
 62
7
  6
CONTINUOUS
 10
6.9164178242
 20
3.4664616667
 11
6.9164178242
 21
3.4670358584
  0
LINE
  5
29B
100
AcDbEntity
  8
0
100
AcDbLine
 62
7
  6
CONTINUOUS
 10
6.9414178242
 20
3.4663434304
 11
6.9414178242
 21
3.4669178784
  0
LINE
  5
29C
100
AcDbEntity
  8
0
100
AcDbLine
 62
7
  6
CONTINUOUS
 10
6.9432435841
 20
3.4980435457
 11
6.9432435841
 21
3.4985565741
  0
LINE
  5
29D
100
AcDbEntity
  8
0
100
AcDbLine
 62
7
  6
CONTINUOUS
 10
6.9485345746
 20
3.4884176586
 11
6.9485345746
 21
3.4889479035
  0
LINE
  5
29E
100
AcDbEntity
  8
0
100
AcDbLine
 62
7
  6
CONTINUOUS
 10
6.9526678242
 20
3.5040756041
 11
6.9526678242
 21
3.5045784017
  0
LINE
  5
29F
100
AcDbEntity
  8
0
100
AcDbLine
 62
7
  6
CONTINUOUS
 10
6.9551678242
 20
3.4757089454
 11
6.9551678242
 21
3.4802400139
  0
LINE
  5
2A0
100
AcDbEntity
  8
0
100
AcDbLine
 62
7
  6
CONTINUOUS
 10
6.9551678242
 20
3.4892114331
 11
6.9551678242
 21
3.4897402148
  0
LINE
  5
2A1
100
AcDbEntity
  8
0
100
AcDbLine
 62
7
  6
CONTINUOUS
 10
6.9551678242
 20
3.4990036067
 11
6.9551678242
 21
3.499514979
  0
LINE
  5
2A2
100
AcDbEntity
  8
0
100
AcDbLine
 62
7
  6
CONTINUOUS
 10
6.9626678242
 20
3.4987258882
 11
6.9626678242
 21
3.4905322196
  0
LINE
  5
2A3
100
AcDbEntity
  8
0
100
AcDbLine
 62
7
  6
CONTINUOUS
 10
6.9626678242
 20
3.4889242335
 11
6.9626678242
 21
3.4748509902
  0
LINE
  5
2A4
100
AcDbEntity
  8
0
100
AcDbLine
 62
7
  6
CONTINUOUS
 10
7.032063406
 20
4.0947680261
 11
7.032063406
 21
4.0697680261
  0
LINE
  5
2A5
100
AcDbEntity
  8
0
100
AcDbLine
 62
7
  6
CONTINUOUS
 10
6.7617216561
 20
3.4490033416
 11
6.7617256485
 21
3.4491447155
  0
LINE
  5
2A6
100
AcDbEntity
  8
0
100
AcDbLine
 62
7
  6
CONTINUOUS
 10
6.6654764257
 20
2.3652680261
 11
6.7191001981
 21
2.806782232
  0
LINE
  5
2A7
100
AcDbEntity
  8
0
100
AcDbLine
 62
7
  6
CONTINUOUS
 10
7.1898592226
 20
2.3652680261
 11
7.1362354502
 21
2.806782232
  0
LINE
  5
2A8
100
AcDbEntity
  8
0
100
AcDbLine
 62
7
  6
CONTINUOUS
 10
7.0494772314
 20
3.4663378906
 11
7.0494772314
 21
3.4669123507
  0
LINE
  5
2A9
100
AcDbEntity
  8
0
100
AcDbLine
 62
7
  6
CONTINUOUS
 10
7.0529600222
 20
3.4634592752
 11
7.0529600222
 21
3.4637407953
  0
LINE
  5
2AA
100
AcDbEntity
  8
0
100
AcDbLine
 62
7
  6
CONTINUOUS
 10
7.0554582227
 20
3.4604062405
 11
7.0554582227
 21
3.4609938627
  0
LINE
  5
2AB
100
AcDbEntity
  8
0
100
AcDbLine
 62
7
  6
CONTINUOUS
 10
7.0580921938
 20
3.466264556
 11
7.0580921938
 21
3.4668391752
  0
LINE
  5
2AC
100
AcDbEntity
  8
0
100
AcDbLine
 62
7
  6
CONTINUOUS
 10
7.0613073004
 20
3.449314106
 11
7.0613073004
 21
3.4499280302
  0
LINE
  5
2AD
100
AcDbEntity
  8
0
100
AcDbLine
 62
7
  6
CONTINUOUS
 10
7.0641671879
 20
3.4494281866
 11
7.0641671879
 21
3.4500418283
  0
LINE
  5
2AE
100
AcDbEntity
  8
0
100
AcDbLine
 62
7
  6
CONTINUOUS
 10
7.0642731825
 20
3.4495081178
 11
7.0642731825
 21
3.4501215617
  0
LINE
  5
2AF
100
AcDbEntity
  8
0
100
AcDbLine
 62
7
  6
CONTINUOUS
 10
7.0675171734
 20
3.4661220867
 11
7.0675171734
 21
3.4666970153
  0
LINE
  5
2B0
100
AcDbEntity
  8
0
100
AcDbLine
 62
7
  6
CONTINUOUS
 10
7.0680828128
 20
3.4497905991
 11
7.0680828128
 21
3.4504033451
  0
LINE
  5
2B1
100
AcDbEntity
  8
0
100
AcDbLine
 62
7
  6
CONTINUOUS
 10
7.0687846489
 20
3.4494281866
 11
7.0687846489
 21
3.4500418283
  0
LINE
  5
2B2
100
AcDbEntity
  8
0
100
AcDbLine
 62
7
  6
CONTINUOUS
 10
7.0706000144
 20
3.4591528126
 11
7.0706000144
 21
3.4597432936
  0
LINE
  5
2B3
100
AcDbEntity
  8
0
100
AcDbLine
 62
7
  6
CONTINUOUS
 10
7.0715617466
 20
3.4635228475
 11
7.0715617466
 21
3.4641034798
  0
LINE
  5
2B4
100
AcDbEntity
  8
0
100
AcDbLine
 62
7
  6
CONTINUOUS
 10
7.0716445364
 20
3.449314106
 11
7.0716445364
 21
3.4499280302
  0
LINE
  5
2B5
100
AcDbEntity
  8
0
100
AcDbLine
 62
7
  6
CONTINUOUS
 10
7.073200656
 20
3.4502215649
 11
7.073200656
 21
3.4506026086
  0
LINE
  5
2B6
100
AcDbEntity
  8
0
100
AcDbLine
 62
7
  6
CONTINUOUS
 10
7.0732164452
 20
3.4593100821
 11
7.0732164452
 21
3.4599002028
  0
LINE
  5
2B7
100
AcDbEntity
  8
0
100
AcDbLine
 62
7
  6
CONTINUOUS
 10
7.0735433764
 20
3.4591967872
 11
7.0735433764
 21
3.4597871675
  0
LINE
  5
2B8
100
AcDbEntity
  8
0
100
AcDbLine
 62
7
  6
CONTINUOUS
 10
7.0737119799
 20
3.4567762385
 11
7.0737119799
 21
3.4572005257
  0
LINE
  5
2B9
100
AcDbEntity
  8
0
100
AcDbLine
 62
7
  6
CONTINUOUS
 10
7.0741149421
 20
3.4591861468
 11
7.0741149421
 21
3.4597765514
  0
LINE
  5
2BA
100
AcDbEntity
  8
0
100
AcDbLine
 62
7
  6
CONTINUOUS
 10
7.0741655451
 20
3.4592155096
 11
7.0741655451
 21
3.459805847
  0
LINE
  5
2BB
100
AcDbEntity
  8
0
100
AcDbLine
 62
7
  6
CONTINUOUS
 10
7.0746373076
 20
3.4607761502
 11
7.0746373076
 21
3.461362934
  0
LINE
  5
2BC
100
AcDbEntity
  8
0
100
AcDbLine
 62
7
  6
CONTINUOUS
 10
7.0751310329
 20
3.4495246771
 11
7.0751310329
 21
3.45013808
  0
LINE
  5
2BD
100
AcDbEntity
  8
0
100
AcDbLine
 62
7
  6
CONTINUOUS
 10
7.0759703606
 20
3.46441404
 11
7.0759703606
 21
3.4638340967
  0
LINE
  5
2BE
100
AcDbEntity
  8
0
100
AcDbLine
 62
7
  6
CONTINUOUS
 10
7.0774617272
 20
3.4667451511
 11
7.0774617272
 21
3.4668032882
  0
LINE
  5
2BF
100
AcDbEntity
  8
0
100
AcDbLine
 62
7
  6
CONTINUOUS
 10
7.0784178242
 20
2.9837680261
 11
7.0784178242
 21
2.8387680261
  0
LINE
  5
2C0
100
AcDbEntity
  8
0
100
AcDbLine
 62
7
  6
CONTINUOUS
 10
7.0847163353
 20
3.449332206
 11
7.0847163353
 21
3.4499460854
  0
LINE
  5
2C1
100
AcDbEntity
  8
0
100
AcDbLine
 62
7
  6
CONTINUOUS
 10
7.0862980104
 20
3.4523509004
 11
7.0862980104
 21
3.4529573927
  0
LINE
  5
2C2
100
AcDbEntity
  8
0
100
AcDbLine
 62
7
  6
CONTINUOUS
 10
7.0873266407
 20
3.44933768
 11
7.0873266407
 21
3.4499515458
  0
LINE
  5
2C3
100
AcDbEntity
  8
0
100
AcDbLine
 62
7
  6
CONTINUOUS
 10
7.0873772436
 20
3.4493712206
 11
7.0873772436
 21
3.4499850033
  0
LINE
  5
2C4
100
AcDbEntity
  8
0
100
AcDbLine
 62
7
  6
CONTINUOUS
 10
7.0910558278
 20
3.457992341
 11
7.0910558278
 21
3.4585854936
  0
LINE
  5
2C5
100
AcDbEntity
  8
0
100
AcDbLine
 62
7
  6
CONTINUOUS
 10
7.0917846127
 20
3.4488906307
 11
7.0917846127
 21
3.4495056057
  0
LINE
  5
2C6
100
AcDbEntity
  8
0
100
AcDbLine
 62
7
  6
CONTINUOUS
 10
7.0938682715
 20
3.4558556631
 11
7.0938682715
 21
3.4564537985
  0
LINE
  5
2C7
100
AcDbEntity
  8
0
100
AcDbLine
 62
7
  6
CONTINUOUS
 10
7.0971518697
 20
3.4502439846
 11
7.0971518697
 21
3.4508556139
  0
LINE
  5
2C8
100
AcDbEntity
  8
0
100
AcDbLine
 62
7
  6
CONTINUOUS
 10
7.1017749966
 20
3.4514335883
 11
7.1017749966
 21
3.4515071172
  0
LINE
  5
2C9
100
AcDbEntity
  8
0
100
AcDbLine
 62
7
  6
CONTINUOUS
 10
7.1035558248
 20
3.4492272967
 11
7.1035558248
 21
3.449841436
  0
LINE
  5
2CA
100
AcDbEntity
  8
0
100
AcDbLine
 62
7
  6
CONTINUOUS
 10
7.103889684
 20
3.449314837
 11
7.103889684
 21
3.4499287594
  0
LINE
  5
2CB
100
AcDbEntity
  8
0
100
AcDbLine
 62
7
  6
CONTINUOUS
 10
7.1044360291
 20
3.4490045681
 11
7.1044360291
 21
3.44961926
  0
LINE
  5
2CC
100
AcDbEntity
  8
0
100
AcDbLine
 62
7
  6
CONTINUOUS
 10
7.1190396781
 20
4.0947680261
 11
7.1190396781
 21
4.0697680261
  0
LINE
  5
2CD
100
AcDbEntity
  8
0
100
AcDbLine
 62
7
  6
CONTINUOUS
 10
7.1464178242
 20
5.6678680261
 11
7.1464178242
 21
4.1447680261
  0
LINE
  5
2CE
100
AcDbEntity
  8
0
100
AcDbLine
 62
7
  6
CONTINUOUS
 10
7.1501678242
 20
3.3037680261
 11
7.1501678242
 21
3.2962680261
  0
LINE
  5
2CF
100
AcDbEntity
  8
0
100
AcDbLine
 62
7
  6
CONTINUOUS
 10
7.2026678242
 20
3.2912680261
 11
7.2026678242
 21
3.2649776754
  0
LINE
  5
2D0
100
AcDbEntity
  8
0
100
AcDbLine
 62
7
  6
CONTINUOUS
 10
7.2064178242
 20
3.3542731286
 11
7.2064178242
 21
3.3112680261
  0
LINE
  5
2D1
100
AcDbEntity
  8
0
100
AcDbLine
 62
7
  6
CONTINUOUS
 10
7.2234352599
 20
4.0947680261
 11
7.2234352599
 21
4.0697680261
  0
LINE
  5
2D2
100
AcDbEntity
  8
0
100
AcDbLine
 62
7
  6
CONTINUOUS
 10
7.2246678242
 20
2.1802501729
 11
7.2246678242
 21
2.267867572
  0
LINE
  5
2D3
100
AcDbEntity
  8
0
100
AcDbLine
 62
7
  6
CONTINUOUS
 10
7.2276678242
 20
4.0947680261
 11
7.2276678242
 21
4.0697680261
  0
LINE
  5
2D4
100
AcDbEntity
  8
0
100
AcDbLine
 62
7
  6
CONTINUOUS
 10
7.0905684003
 20
3.4583737207
 11
7.0905760145
 21
3.4583924266
  0
LINE
  5
2D5
100
AcDbEntity
  8
0
100
AcDbLine
 62
7
  6
CONTINUOUS
 10
7.0938728839
 20
3.4564624382
 11
7.0938682715
 21
3.456453833
  0
LINE
  5
2D6
100
AcDbEntity
  8
0
100
AcDbLine
 62
7
  6
CONTINUOUS
 10
7.5151678242
 20
0.6237680261
 11
7.5151678242
 21
0.5687680261
  0
ARC
  5
2D7
100
AcDbEntity
  8
0
100
AcDbCircle
 62
7
  6
CONTINUOUS
 10
4.36180962
 20
2.7675636799
 40
2.3408582042
100
AcDbArc
 50
345.457230208
 51
345.7564395501
  0
ARC
  5
2D8
100
AcDbEntity
  8
0
100
AcDbCircle
 62
7
  6
CONTINUOUS
 10
4.36180962
 20
2.7675636799
 40
2.3408582042
100
AcDbArc
 50
356.993944529
 51
6.0374637669
  0
ARC
  5
2D9
100
AcDbEntity
  8
0
100
AcDbCircle
 62
7
  6
CONTINUOUS
 10
4.36180962
 20
2.7675636799
 40
2.3408582042
100
AcDbArc
 50
12.2915121325
 51
17.7684982641
  0
ARC
  5
2DA
100
AcDbEntity
  8
0
100
AcDbCircle
 62
7
  6
CONTINUOUS
 10
4.6776678242
 20
5.6678680261
 40
2.46875
100
AcDbArc
 50
0.0
 51
180.0
  0
ARC
  5
2DB
100
AcDbEntity
  8
0
100
AcDbCircle
 62
7
  6
CONTINUOUS
 10
4.6776678242
 20
5.6678680261
 40
2.03125
100
AcDbArc
 50
0.0
 51
180.0
  0
ARC
  5
2DC
100
AcDbEntity
  8
0
100
AcDbCircle
 62
7
  6
CONTINUOUS
 10
2.6190123966
 20
5.1053680261
 40
0.03
100
AcDbArc
 50
270.0
 51
354.8242890856
  0
ARC
  5
2DD
100
AcDbEntity
  8
0
100
AcDbCircle
 62
7
  6
CONTINUOUS
 10
2.2363232517
 20
5.1053680261
 40
0.03
100
AcDbArc
 50
185.1757109144
 51
270.0
  0
ARC
  5
2DE
100
AcDbEntity
  8
0
100
AcDbCircle
 62
7
  6
CONTINUOUS
 10
2.6776678242
 20
5.4503680261
 40
0.03
100
AcDbArc
 50
270.0
 51
90.0
  0
ARC
  5
2DF
100
AcDbEntity
  8
0
100
AcDbCircle
 62
7
  6
CONTINUOUS
 10
2.1776678242
 20
5.4503680261
 40
0.03
100
AcDbArc
 50
90.0
 51
270.0
  0
ARC
  5
2E0
100
AcDbEntity
  8
0
100
AcDbCircle
 62
7
  6
CONTINUOUS
 10
9.4935260283
 20
2.7675636799
 40
2.3408582042
100
AcDbArc
 50
194.2435604499
 51
194.542769792
  0
ARC
  5
2E1
100
AcDbEntity
  8
0
100
AcDbCircle
 62
7
  6
CONTINUOUS
 10
9.4935260283
 20
2.7675636799
 40
2.3408582042
100
AcDbArc
 50
173.9625362331
 51
183.006055471
  0
ARC
  5
2E2
100
AcDbEntity
  8
0
100
AcDbCircle
 62
7
  6
CONTINUOUS
 10
9.4935260283
 20
2.7675636799
 40
2.3408582042
100
AcDbArc
 50
162.2315017359
 51
167.7084878675
  0
ARC
  5
2E3
100
AcDbEntity
  8
0
100
AcDbCircle
 62
7
  6
CONTINUOUS
 10
6.0291627662
 20
1.1609018387
 40
0.6610050579
100
AcDbArc
 50
340.5168569435
 51
33.0831922526
  0
ARC
  5
2E4
100
AcDbEntity
  8
0
100
AcDbCircle
 62
7
  6
CONTINUOUS
 10
7.8261728821
 20
1.1609018387
 40
0.6610050579
100
AcDbArc
 50
146.9168077474
 51
199.4831430565
  0
ARC
  5
2E5
100
AcDbEntity
  8
0
100
AcDbCircle
 62
7
  6
CONTINUOUS
 10
7.0577056019
 20
1.8472680261
 40
0.5300377778
100
AcDbArc
 50
144.8305640555
 51
212.2911569963
  0
ARC
  5
2E6
100
AcDbEntity
  8
0
100
AcDbCircle
 62
7
  6
CONTINUOUS
 10
6.7976300464
 20
1.8472680261
 40
0.5300377778
100
AcDbArc
 50
327.7088430037
 51
35.1694359445
  0
ARC
  5
2E7
100
AcDbEntity
  8
0
100
AcDbCircle
 62
7
  6
CONTINUOUS
 10
7.4226485549
 20
2.3935412775
 40
0.2345
100
AcDbArc
 50
186.9248982442
 51
212.4064597953
  0
ARC
  5
2E8
100
AcDbEntity
  8
0
100
AcDbCircle
 62
7
  6
CONTINUOUS
 10
6.4326870934
 20
2.3935412775
 40
0.2345
100
AcDbArc
 50
327.5935402047
 51
353.0751017558
  0
ARC
  5
2E9
100
AcDbEntity
  8
0
100
AcDbCircle
 62
7
  6
CONTINUOUS
 10
6.7019943054
 20
0.7429962698
 40
0.185
100
AcDbArc
 50
102.2733303409
 51
175.109441632
  0
ARC
  5
2EA
100
AcDbEntity
  8
0
100
AcDbCircle
 62
7
  6
CONTINUOUS
 10
7.1533413429
 20
0.7429962698
 40
0.185
100
AcDbArc
 50
4.890558368
 51
77.7266696591
  0
ARC
  5
2EB
100
AcDbEntity
  8
0
100
AcDbCircle
 62
7
  6
CONTINUOUS
 10
6.3677678642
 20
0.7637680261
 40
0.125
100
AcDbArc
 50
270.0
 51
357.707557224
  0
ARC
  5
2EC
100
AcDbEntity
  8
0
100
AcDbCircle
 62
7
  6
CONTINUOUS
 10
7.4875677841
 20
0.7637680261
 40
0.125
100
AcDbArc
 50
182.292442776
 51
270.0
  0
ARC
  5
2ED
100
AcDbEntity
  8
0
100
AcDbCircle
 62
7
  6
CONTINUOUS
 10
6.7991119552
 20
2.9796252339
 40
0.0619887048
100
AcDbArc
 50
132.9187712498
 51
134.2168798478
  0
ARC
  5
2EE
100
AcDbEntity
  8
0
100
AcDbCircle
 62
7
  6
CONTINUOUS
 10
6.6652976279
 20
2.1237680261
 40
0.05
100
AcDbArc
 50
90.0
 51
144.8305640555
  0
ARC
  5
2EF
100
AcDbEntity
  8
0
100
AcDbCircle
 62
7
  6
CONTINUOUS
 10
7.1900380204
 20
2.1237680261
 40
0.05
100
AcDbArc
 50
35.1694359445
 51
90.0
  0
ARC
  5
2F0
100
AcDbEntity
  8
0
100
AcDbCircle
 62
7
  6
CONTINUOUS
 10
6.6544178242
 20
2.2205180261
 40
0.04675
100
AcDbArc
 50
239.4678748052
 51
270.0
  0
ARC
  5
2F1
100
AcDbEntity
  8
0
100
AcDbCircle
 62
7
  6
CONTINUOUS
 10
7.2009178242
 20
2.2205180261
 40
0.04675
100
AcDbArc
 50
270.0
 51
300.5321251948
  0
ARC
  5
2F2
100
AcDbEntity
  8
0
100
AcDbCircle
 62
7
  6
CONTINUOUS
 10
6.7469178242
 20
2.9837680261
 40
0.03
100
AcDbArc
 50
0.0
 51
90.0
  0
ARC
  5
2F3
100
AcDbEntity
  8
0
100
AcDbCircle
 62
7
  6
CONTINUOUS
 10
7.1084178242
 20
2.9837680261
 40
0.03
100
AcDbArc
 50
90.0
 51
180.0
  0
ARC
  5
2F4
100
AcDbEntity
  8
0
100
AcDbCircle
 62
7
  6
CONTINUOUS
 10
7.2276678242
 20
2.1497680261
 40
0.03
100
AcDbArc
 50
311.6457708439
 51
90.0
  0
ARC
  5
2F5
100
AcDbEntity
  8
0
100
AcDbCircle
 62
7
  6
CONTINUOUS
 10
6.6276678242
 20
2.1497680261
 40
0.03
100
AcDbArc
 50
90.0
 51
228.3542291561
  0
ARC
  5
2F6
100
AcDbEntity
  8
0
100
AcDbCircle
 62
7
  6
CONTINUOUS
 10
7.4501678242
 20
0.5855180261
 40
0.02575
100
AcDbArc
 50
270.0
 51
319.4217882604
  0
ARC
  5
2F7
100
AcDbEntity
  8
0
100
AcDbCircle
 62
7
  6
CONTINUOUS
 10
6.4051678242
 20
0.5855180261
 40
0.02575
100
AcDbArc
 50
220.5782117396
 51
270.0
  0
ARC
  5
2F8
100
AcDbEntity
  8
0
100
AcDbCircle
 62
7
  6
CONTINUOUS
 10
7.1114178242
 20
2.8037680261
 40
0.025
100
AcDbArc
 50
6.9248982442
 51
90.0
  0
ARC
  5
2F9
100
AcDbEntity
  8
0
100
AcDbCircle
 62
7
  6
CONTINUOUS
 10
6.7439178242
 20
2.8037680261
 40
0.025
100
AcDbArc
 50
90.0
 51
173.0751017558
  0
ARC
  5
2FA
100
AcDbEntity
  8
0
100
AcDbCircle
 62
7
  6
CONTINUOUS
 10
6.5976678242
 20
1.5312680261
 40
0.0175
100
AcDbArc
 50
90.0
 51
213.0831922526
  0
ARC
  5
2FB
100
AcDbEntity
  8
0
100
AcDbCircle
 62
7
  6
CONTINUOUS
 10
7.2576678242
 20
1.5312680261
 40
0.0175
100
AcDbArc
 50
326.9168077474
 51
90.0
  0
ARC
  5
2FC
100
AcDbEntity
  8
0
100
AcDbCircle
 62
7
  6
CONTINUOUS
 10
6.3551678242
 20
0.6237680261
 40
0.015
100
AcDbArc
 50
90.0
 51
180.0
  0
ARC
  5
2FD
100
AcDbEntity
  8
0
100
AcDbCircle
 62
7
  6
CONTINUOUS
 10
7.5001678242
 20
0.6237680261
 40
0.015
100
AcDbArc
 50
0.0
 51
90.0
  0
ARC
  5
2FE
100
AcDbEntity
  8
0
100
AcDbCircle
 62
7
  6
CONTINUOUS
 10
6.6641026951
 20
0.9362680261
 40
0.0125
100
AcDbArc
 50
160.5168569435
 51
267.5670412654
  0
ARC
  5
2FF
100
AcDbEntity
  8
0
100
AcDbCircle
 62
7
  6
CONTINUOUS
 10
7.1912329532
 20
0.9362680261
 40
0.0125
100
AcDbArc
 50
272.4329587346
 51
19.4831430565
  0
ARC
  5
300
100
AcDbEntity
  8
0
100
AcDbCircle
 62
7
  6
CONTINUOUS
 10
6.6011877475
 20
1.5587680261
 40
0.01
100
AcDbArc
 50
270.0
 51
32.2911569963
  0
ARC
  5
301
100
AcDbEntity
  8
0
100
AcDbCircle
 62
7
  6
CONTINUOUS
 10
7.2541479008
 20
1.5587680261
 40
0.01
100
AcDbArc
 50
147.7088430037
 51
270.0
  0
ARC
  5
302
100
AcDbEntity
  8
0
100
AcDbCircle
 62
7
  6
CONTINUOUS
 10
6.5292993774
 20
3.2293281141
 40
0.0644399127
100
AcDbArc
 50
75.9836076734
 51
89.9909998102
  0
ARC
  5
303
100
AcDbEntity
  8
0
100
AcDbCircle
 62
7
  6
CONTINUOUS
 10
6.6739178242
 20
3.3542731286
 40
0.025
100
AcDbArc
 50
101.5369590328
 51
180.0
  0
ARC
  5
304
100
AcDbEntity
  8
0
100
AcDbCircle
 62
7
  6
CONTINUOUS
 10
6.7190769799
 20
3.2585859432
 40
0.0106181676
100
AcDbArc
 50
280.7705528146
 51
283.81174704
  0
ARC
  5
305
100
AcDbEntity
  8
0
100
AcDbCircle
 62
7
  6
CONTINUOUS
 10
6.7190980185
 20
3.2584729435
 40
0.0105032271
100
AcDbArc
 50
277.6537246505
 51
280.7730019272
  0
ARC
  5
306
100
AcDbEntity
  8
0
100
AcDbCircle
 62
7
  6
CONTINUOUS
 10
6.6564178242
 20
3.3112680261
 40
0.0075
100
AcDbArc
 50
180.0
 51
270.0
  0
ARC
  5
307
100
AcDbEntity
  8
0
100
AcDbCircle
 62
7
  6
CONTINUOUS
 10
6.6576678242
 20
3.2912680261
 40
0.005
100
AcDbArc
 50
90.0
 51
180.0
  0
ARC
  5
308
100
AcDbEntity
  8
0
100
AcDbCircle
 62
7
  6
CONTINUOUS
 10
6.7091807982
 20
3.548809539
 40
0.1090952735
100
AcDbArc
 50
305.4834566143
 51
306.0876299973
  0
ARC
  5
309
100
AcDbEntity
  8
0
100
AcDbCircle
 62
7
  6
CONTINUOUS
 10
6.713770059
 20
3.5416973715
 40
0.1011202278
100
AcDbArc
 50
305.8819241873
 51
306.1614846432
  0
ARC
  5
30A
100
AcDbEntity
  8
0
100
AcDbCircle
 62
7
  6
CONTINUOUS
 10
6.6076678242
 20
3.4872680261
 40
0.0175
100
AcDbArc
 50
90.0
 51
197.7684982641
  0
ARC
  5
30B
100
AcDbEntity
  8
0
100
AcDbCircle
 62
7
  6
CONTINUOUS
 10
6.6107289991
 20
3.5147680261
 40
0.01
100
AcDbArc
 50
270.0
 51
28.0472246731
  0
ARC
  5
30C
100
AcDbEntity
  8
0
100
AcDbCircle
 62
7
  6
CONTINUOUS
 10
6.8227653586
 20
3.3749696712
 40
0.1009106698
100
AcDbArc
 50
121.1012733968
 51
121.8327089301
  0
ARC
  5
30D
100
AcDbEntity
  8
0
100
AcDbCircle
 62
7
  6
CONTINUOUS
 10
6.9276165414
 20
3.2024084535
 40
0.303883142
100
AcDbArc
 50
54.6551144334
 51
56.6384485331
  0
ARC
  5
30E
100
AcDbEntity
  8
0
100
AcDbCircle
 62
7
  6
CONTINUOUS
 10
6.9276431246
 20
3.2024479063
 40
0.303835573
100
AcDbArc
 50
57.5705702892
 51
58.9885001114
  0
ARC
  5
30F
100
AcDbEntity
  8
0
100
AcDbCircle
 62
7
  6
CONTINUOUS
 10
6.9275931193
 20
3.2024732478
 40
0.3038096051
100
AcDbArc
 50
59.5584005292
 51
60.536957891
  0
ARC
  5
310
100
AcDbEntity
  8
0
100
AcDbCircle
 62
7
  6
CONTINUOUS
 10
6.9172962982
 20
3.222932794
 40
0.2809137833
100
AcDbArc
 50
124.2762180161
 51
124.7274490901
  0
ARC
  5
311
100
AcDbEntity
  8
0
100
AcDbCircle
 62
7
  6
CONTINUOUS
 10
6.9169435833
 20
3.2229635712
 40
0.2807225665
100
AcDbArc
 50
124.2123393081
 51
124.6718712433
  0
ARC
  5
312
100
AcDbEntity
  8
0
100
AcDbCircle
 62
7
  6
CONTINUOUS
 10
6.9170461215
 20
3.2233005427
 40
0.2804690054
100
AcDbArc
 50
123.6904003549
 51
124.2762958149
  0
ARC
  5
313
100
AcDbEntity
  8
0
100
AcDbCircle
 62
7
  6
CONTINUOUS
 10
6.9167379654
 20
3.2232659218
 40
0.2803569238
100
AcDbArc
 50
123.632716988
 51
124.2123316399
  0
ARC
  5
314
100
AcDbEntity
  8
0
100
AcDbCircle
 62
7
  6
CONTINUOUS
 10
6.9150498215
 20
3.2228584513
 40
0.2798765532
100
AcDbArc
 50
124.3713663376
 51
124.6165867774
  0
ARC
  5
315
100
AcDbEntity
  8
0
100
AcDbCircle
 62
7
  6
CONTINUOUS
 10
6.9000084978
 20
3.2182437453
 40
0.2798482589
100
AcDbArc
 50
54.9296217384
 51
55.9596049984
  0
ARC
  5
316
100
AcDbEntity
  8
0
100
AcDbCircle
 62
7
  6
CONTINUOUS
 10
6.916408955
 20
3.2242687965
 40
0.2793099253
100
AcDbArc
 50
121.7756662214
 51
123.6223539977
  0
ARC
  5
317
100
AcDbEntity
  8
0
100
AcDbCircle
 62
7
  6
CONTINUOUS
 10
6.9141584203
 20
3.2242012627
 40
0.2782647487
100
AcDbArc
 50
121.5147679859
 51
123.2302851755
  0
ARC
  5
318
100
AcDbEntity
  8
0
100
AcDbCircle
 62
7
  6
CONTINUOUS
 10
6.915744821
 20
3.225343807
 40
0.2780463117
100
AcDbArc
 50
120.3135157799
 51
121.7759760743
  0
ARC
  5
319
100
AcDbEntity
  8
0
100
AcDbCircle
 62
7
  6
CONTINUOUS
 10
6.9152853872
 20
3.2255625539
 40
0.2776390934
100
AcDbArc
 50
120.2494391289
 51
120.7931135007
  0
ARC
  5
31A
100
AcDbEntity
  8
0
100
AcDbCircle
 62
7
  6
CONTINUOUS
 10
6.9153760993
 20
3.2259732521
 40
0.2773168206
100
AcDbArc
 50
119.7735839655
 51
120.2322093297
  0
ARC
  5
31B
100
AcDbEntity
  8
0
100
AcDbCircle
 62
7
  6
CONTINUOUS
 10
6.9150586108
 20
3.2259509656
 40
0.2771893255
100
AcDbArc
 50
119.7708966429
 51
120.2493915495
  0
ARC
  5
31C
100
AcDbEntity
  8
0
100
AcDbCircle
 62
7
  6
CONTINUOUS
 10
6.9135620666
 20
3.2251655712
 40
0.2771309447
100
AcDbArc
 50
120.5476235281
 51
121.4504045987
  0
ARC
  5
31D
100
AcDbEntity
  8
0
100
AcDbCircle
 62
7
  6
CONTINUOUS
 10
6.9201465246
 20
3.2332663593
 40
0.2760779691
100
AcDbArc
 50
50.8414698475
 51
51.559506077
  0
ARC
  5
31E
100
AcDbEntity
  8
0
100
AcDbCircle
 62
7
  6
CONTINUOUS
 10
6.9201949907
 20
3.2332493131
 40
0.2755797094
100
AcDbArc
 50
51.0101836197
 51
51.4901115306
  0
ARC
  5
31F
100
AcDbEntity
  8
0
100
AcDbCircle
 62
7
  6
CONTINUOUS
 10
6.9174546652
 20
3.2350398711
 40
0.2740719256
100
AcDbArc
 50
51.7591852505
 51
54.2509517397
  0
ARC
  5
320
100
AcDbEntity
  8
0
100
AcDbCircle
 62
7
  6
CONTINUOUS
 10
6.9212203367
 20
3.2362526642
 40
0.2724180201
100
AcDbArc
 50
52.7011862307
 51
54.7186675837
  0
ARC
  5
321
100
AcDbEntity
  8
0
100
AcDbCircle
 62
7
  6
CONTINUOUS
 10
6.9216026647
 20
3.2336427444
 40
0.2722330867
100
AcDbArc
 50
92.7662466432
 51
93.8689985669
  0
ARC
  5
322
100
AcDbEntity
  8
0
100
AcDbCircle
 62
7
  6
CONTINUOUS
 10
6.9211849221
 20
3.2361238118
 40
0.2720597099
100
AcDbArc
 50
52.6342979252
 51
54.6560635934
  0
ARC
  5
323
100
AcDbEntity
  8
0
100
AcDbCircle
 62
7
  6
CONTINUOUS
 10
6.9223601146
 20
3.2378616912
 40
0.2704462035
100
AcDbArc
 50
54.7188941671
 51
55.7323807577
  0
ARC
  5
324
100
AcDbEntity
  8
0
100
AcDbCircle
 62
7
  6
CONTINUOUS
 10
6.9196302745
 20
3.2380591336
 40
0.2703503521
100
AcDbArc
 50
55.2698001097
 51
55.7492025532
  0
ARC
  5
325
100
AcDbEntity
  8
0
100
AcDbCircle
 62
7
  6
CONTINUOUS
 10
6.922411972
 20
3.2378558918
 40
0.2699370193
100
AcDbArc
 50
54.9141200409
 51
55.6720421154
  0
ARC
  5
326
100
AcDbEntity
  8
0
100
AcDbCircle
 62
7
  6
CONTINUOUS
 10
6.9197508998
 20
3.2400538212
 40
0.2679714212
100
AcDbArc
 50
56.8462125766
 51
57.87319447
  0
ARC
  5
327
100
AcDbEntity
  8
0
100
AcDbCircle
 62
7
  6
CONTINUOUS
 10
6.9118332165
 20
3.2399280911
 40
0.2676027018
100
AcDbArc
 50
56.7877177051
 51
57.8167761906
  0
ARC
  5
328
100
AcDbEntity
  8
0
100
AcDbCircle
 62
7
  6
CONTINUOUS
 10
6.9251175626
 20
3.2401768225
 40
0.2675612956
100
AcDbArc
 50
56.8160038671
 51
57.8448966087
  0
ARC
  5
329
100
AcDbEntity
  8
0
100
AcDbCircle
 62
7
  6
CONTINUOUS
 10
6.9250910497
 20
3.2400520143
 40
0.2671944579
100
AcDbArc
 50
56.7577472631
 51
57.7887133858
  0
ARC
  5
32A
100
AcDbEntity
  8
0
100
AcDbCircle
 62
7
  6
CONTINUOUS
 10
6.900565337
 20
3.2683018834
 40
0.2447413303
100
AcDbArc
 50
48.0781527952
 51
51.9366106593
  0
ARC
  5
32B
100
AcDbEntity
  8
0
100
AcDbCircle
 62
7
  6
CONTINUOUS
 10
6.9057389932
 20
3.2696988132
 40
0.2429190063
100
AcDbArc
 50
48.0636746179
 51
51.9510888366
  0
ARC
  5
32C
100
AcDbEntity
  8
0
100
AcDbCircle
 62
7
  6
CONTINUOUS
 10
6.9056599807
 20
3.2694448663
 40
0.2427050879
100
AcDbArc
 50
47.9931922363
 51
51.8878507668
  0
ARC
  5
32D
100
AcDbEntity
  8
0
100
AcDbCircle
 62
7
  6
CONTINUOUS
 10
6.9053537935
 20
3.2769257071
 40
0.2337167843
100
AcDbArc
 50
53.3027947189
 51
54.3795164026
  0
ARC
  5
32E
100
AcDbEntity
  8
0
100
AcDbCircle
 62
7
  6
CONTINUOUS
 10
6.9136269199
 20
3.2772945249
 40
0.2332599987
100
AcDbArc
 50
53.3017404332
 51
54.3805706884
  0
ARC
  5
32F
100
AcDbEntity
  8
0
100
AcDbCircle
 62
7
  6
CONTINUOUS
 10
6.9136201626
 20
3.2771214519
 40
0.2329377682
100
AcDbArc
 50
53.3258525628
 51
54.3217197486
  0
ARC
  5
330
100
AcDbEntity
  8
0
100
AcDbCircle
 62
7
  6
CONTINUOUS
 10
6.9235022855
 20
3.3254695968
 40
0.1959106447
100
AcDbArc
 50
38.4624505169
 51
38.7002070967
  0
ARC
  5
331
100
AcDbEntity
  8
0
100
AcDbCircle
 62
7
  6
CONTINUOUS
 10
6.924952903
 20
3.3269380643
 40
0.1942465304
100
AcDbArc
 50
38.2837234156
 51
39.364057703
  0
ARC
  5
332
100
AcDbEntity
  8
0
100
AcDbCircle
 62
7
  6
CONTINUOUS
 10
6.9257213616
 20
3.3272533587
 40
0.1930635263
100
AcDbArc
 50
38.6988328485
 51
39.2956180582
  0
ARC
  5
333
100
AcDbEntity
  8
0
100
AcDbCircle
 62
7
  6
CONTINUOUS
 10
6.9145600768
 20
3.3373665104
 40
0.1682705144
100
AcDbArc
 50
93.8595569195
 51
94.8498396166
  0
ARC
  5
334
100
AcDbEntity
  8
0
100
AcDbCircle
 62
7
  6
CONTINUOUS
 10
6.7970981286
 20
3.3918668368
 40
0.2660235326
100
AcDbArc
 50
12.6529736197
 51
12.8904407781
  0
ARC
  5
335
100
AcDbEntity
  8
0
100
AcDbCircle
 62
7
  6
CONTINUOUS
 10
6.9106522529
 20
3.3836103412
 40
0.1218618662
100
AcDbArc
 50
94.8572846482
 51
95.3481438449
  0
ARC
  5
336
100
AcDbEntity
  8
0
100
AcDbCircle
 62
7
  6
CONTINUOUS
 10
6.9094716373
 20
3.3959848002
 40
0.1089312303
100
AcDbArc
 50
95.3611453736
 51
95.4811016028
  0
ARC
  5
337
100
AcDbEntity
  8
0
100
AcDbCircle
 62
7
  6
CONTINUOUS
 10
6.9085780832
 20
3.4052720768
 40
0.0996010674
100
AcDbArc
 50
95.4797372517
 51
95.8351612652
  0
ARC
  5
338
100
AcDbEntity
  8
0
100
AcDbCircle
 62
7
  6
CONTINUOUS
 10
6.7313590045
 20
3.3760571231
 40
0.0625
100
AcDbArc
 50
105.0
 51
177.5140472802
  0
ARC
  5
339
100
AcDbEntity
  8
0
100
AcDbCircle
 62
7
  6
CONTINUOUS
 10
6.8026474631
 20
3.4092267609
 40
0.0617256211
100
AcDbArc
 50
115.2364515182
 51
116.1878208966
  0
ARC
  5
33A
100
AcDbEntity
  8
0
100
AcDbCircle
 62
7
  6
CONTINUOUS
 10
6.8032588937
 20
3.4163084368
 40
0.0520355141
100
AcDbArc
 50
109.8148169927
 51
111.8186463826
  0
ARC
  5
33B
100
AcDbEntity
  8
0
100
AcDbCircle
 62
7
  6
CONTINUOUS
 10
6.8025606925
 20
3.4176691076
 40
0.0499748846
100
AcDbArc
 50
109.8150499335
 51
111.90224403
  0
ARC
  5
33C
100
AcDbEntity
  8
0
100
AcDbCircle
 62
7
  6
CONTINUOUS
 10
6.7971452161
 20
3.4208683911
 40
0.0488492069
100
AcDbArc
 50
114.1231723197
 51
115.2204706365
  0
ARC
  5
33D
100
AcDbEntity
  8
0
100
AcDbCircle
 62
7
  6
CONTINUOUS
 10
6.8003521425
 20
3.4242439303
 40
0.0435845451
100
AcDbArc
 50
109.0096129892
 51
109.756096553
  0
ARC
  5
33E
100
AcDbEntity
  8
0
100
AcDbCircle
 62
7
  6
CONTINUOUS
 10
6.7987491554
 20
3.4283631958
 40
0.0386219404
100
AcDbArc
 50
107.4315964383
 51
109.8733120767
  0
ARC
  5
33F
100
AcDbEntity
  8
0
100
AcDbCircle
 62
7
  6
CONTINUOUS
 10
6.7918079729
 20
3.4322970041
 40
0.0357101487
100
AcDbArc
 50
112.8225138213
 51
114.1804675584
  0
ARC
  5
340
100
AcDbEntity
  8
0
100
AcDbCircle
 62
7
  6
CONTINUOUS
 10
6.7641960222
 20
3.4857755047
 40
0.0340401595
100
AcDbArc
 50
310.7170445509
 51
312.4235062018
  0
ARC
  5
341
100
AcDbEntity
  8
0
100
AcDbCircle
 62
7
  6
CONTINUOUS
 10
6.7891451342
 20
3.4386218526
 40
0.0288476115
100
AcDbArc
 50
112.0452642
 51
112.8203313309
  0
ARC
  5
342
100
AcDbEntity
  8
0
100
AcDbCircle
 62
7
  6
CONTINUOUS
 10
6.7676843347
 20
3.481268888
 40
0.0287947487
100
AcDbArc
 50
311.6611862826
 51
313.4802279438
  0
ARC
  5
343
100
AcDbEntity
  8
0
100
AcDbCircle
 62
7
  6
CONTINUOUS
 10
6.7738647154
 20
3.435170247
 40
0.0277928905
100
AcDbArc
 50
61.2609085663
 51
63.1876970474
  0
ARC
  5
344
100
AcDbEntity
  8
0
100
AcDbCircle
 62
7
  6
CONTINUOUS
 10
6.7393316288
 20
3.4696490631
 40
0.0230407198
100
AcDbArc
 50
303.8561096624
 51
304.0076994672
  0
ARC
  5
345
100
AcDbEntity
  8
0
100
AcDbCircle
 62
7
  6
CONTINUOUS
 10
6.7650018473
 20
3.4346590076
 40
0.0203014639
100
AcDbArc
 50
77.2118696499
 51
79.5944260911
  0
ARC
  5
346
100
AcDbEntity
  8
0
100
AcDbCircle
 62
7
  6
CONTINUOUS
 10
6.7650198101
 20
3.434198788
 40
0.0201583066
100
AcDbArc
 50
78.606569296
 51
79.5716142798
  0
ARC
  5
347
100
AcDbEntity
  8
0
100
AcDbCircle
 62
7
  6
CONTINUOUS
 10
6.7556246442
 20
3.4536429745
 40
0.018030891
100
AcDbArc
 50
19.0884247289
 51
20.55961746
  0
ARC
  5
348
100
AcDbEntity
  8
0
100
AcDbCircle
 62
7
  6
CONTINUOUS
 10
6.7635942604
 20
3.449002153
 40
0.0018726005
100
AcDbArc
 50
179.9634274288
 51
183.4814823617
  0
ARC
  5
349
100
AcDbEntity
  8
0
100
AcDbCircle
 62
7
  6
CONTINUOUS
 10
6.7331261575
 20
3.7872680261
 40
0.5695416667
100
AcDbArc
 50
331.9527753269
 51
29.736562717
  0
ARC
  5
34A
100
AcDbEntity
  8
0
100
AcDbCircle
 62
7
  6
CONTINUOUS
 10
6.6776678242
 20
4.0947680261
 40
0.05
100
AcDbArc
 50
90.0
 51
180.0
  0
ARC
  5
34B
100
AcDbEntity
  8
0
100
AcDbCircle
 62
7
  6
CONTINUOUS
 10
6.9276678242
 20
3.2021013594
 40
0.3041666667
100
AcDbArc
 50
121.4503141996
 51
121.5092690704
  0
ARC
  5
34C
100
AcDbEntity
  8
0
100
AcDbCircle
 62
7
  6
CONTINUOUS
 10
6.9276678242
 20
3.2021013594
 40
0.3041666667
100
AcDbArc
 50
51.0853165279
 51
53.7933586594
  0
ARC
  5
34D
100
AcDbEntity
  8
0
100
AcDbCircle
 62
7
  6
CONTINUOUS
 10
6.9276678242
 20
3.2021013594
 40
0.3041666667
100
AcDbArc
 50
60.583724828
 51
84.6475095744
  0
ARC
  5
34E
100
AcDbEntity
  8
0
100
AcDbCircle
 62
7
  6
CONTINUOUS
 10
6.9276678242
 20
3.2021013594
 40
0.3041666667
100
AcDbArc
 50
95.3525584537
 51
119.5478781715
  0
ARC
  5
34F
100
AcDbEntity
  8
0
100
AcDbCircle
 62
7
  6
CONTINUOUS
 10
6.9276678242
 20
3.2021013594
 40
0.3041540044
100
AcDbArc
 50
125.2405381732
 51
128.9146834721
  0
ARC
  5
350
100
AcDbEntity
  8
0
100
AcDbCircle
 62
7
  6
CONTINUOUS
 10
6.9279280722
 20
3.2024172712
 40
0.3037573118
100
AcDbArc
 50
55.0877104814
 51
56.6866070358
  0
ARC
  5
351
100
AcDbEntity
  8
0
100
AcDbCircle
 62
7
  6
CONTINUOUS
 10
6.9276678242
 20
3.2021013594
 40
0.3037455532
100
AcDbArc
 50
125.2949884568
 51
126.3418201828
  0
ARC
  5
352
100
AcDbEntity
  8
0
100
AcDbCircle
 62
7
  6
CONTINUOUS
 10
6.9279465737
 20
3.2024449654
 40
0.303724007
100
AcDbArc
 50
56.84713371
 51
57.4509903216
  0
ARC
  5
353
100
AcDbEntity
  8
0
100
AcDbCircle
 62
7
  6
CONTINUOUS
 10
6.9279484895
 20
3.2024477544
 40
0.3037206256
100
AcDbArc
 50
57.6795280594
 51
58.9754704197
  0
ARC
  5
354
100
AcDbEntity
  8
0
100
AcDbCircle
 62
7
  6
CONTINUOUS
 10
6.9279885911
 20
3.2024105929
 40
0.3037199754
100
AcDbArc
 50
54.0946957788
 51
54.4823060893
  0
ARC
  5
355
100
AcDbEntity
  8
0
100
AcDbCircle
 62
7
  6
CONTINUOUS
 10
6.9276678242
 20
3.2021013594
 40
0.3036666667
100
AcDbArc
 50
56.8385389558
 51
57.4415555534
  0
ARC
  5
356
100
AcDbEntity
  8
0
100
AcDbCircle
 62
7
  6
CONTINUOUS
 10
6.9276678242
 20
3.2021013594
 40
0.3036666667
100
AcDbArc
 50
53.9030831595
 51
54.5174294443
  0
ARC
  5
357
100
AcDbEntity
  8
0
100
AcDbCircle
 62
7
  6
CONTINUOUS
 10
6.9276678242
 20
3.2021013594
 40
0.3036666667
100
AcDbArc
 50
84.6386706815
 51
85.3205207507
  0
ARC
  5
358
100
AcDbEntity
  8
0
100
AcDbCircle
 62
7
  6
CONTINUOUS
 10
6.9276678242
 20
3.2021013594
 40
0.3036666667
100
AcDbArc
 50
94.679470013
 51
95.3613974595
  0
ARC
  5
359
100
AcDbEntity
  8
0
100
AcDbCircle
 62
7
  6
CONTINUOUS
 10
6.928031857
 20
3.2024774001
 40
0.3036403485
100
AcDbArc
 50
59.6293880078
 51
60.410656404
  0
ARC
  5
35A
100
AcDbEntity
  8
0
100
AcDbCircle
 62
7
  6
CONTINUOUS
 10
6.9284805132
 20
3.2025784401
 40
0.3034528666
100
AcDbArc
 50
123.8395100399
 51
125.5595506815
  0
ARC
  5
35B
100
AcDbEntity
  8
0
100
AcDbCircle
 62
7
  6
CONTINUOUS
 10
6.9284979222
 20
3.2025520917
 40
0.3029842197
100
AcDbArc
 50
124.9750392272
 51
125.5608281637
  0
ARC
  5
35C
100
AcDbEntity
  8
0
100
AcDbCircle
 62
7
  6
CONTINUOUS
 10
6.9284893066
 20
3.2025643883
 40
0.3029692052
100
AcDbArc
 50
124.4645613558
 51
124.860766671
  0
ARC
  5
35D
100
AcDbEntity
  8
0
100
AcDbCircle
 62
7
  6
CONTINUOUS
 10
6.9298208844
 20
3.2026151495
 40
0.3011783637
100
AcDbArc
 50
119.848700288
 51
121.4534949598
  0
ARC
  5
35E
100
AcDbEntity
  8
0
100
AcDbCircle
 62
7
  6
CONTINUOUS
 10
6.9276678242
 20
3.2021013594
 40
0.2986822913
100
AcDbArc
 50
94.8013302065
 51
96.7294591658
  0
ARC
  5
35F
100
AcDbEntity
  8
0
100
AcDbCircle
 62
7
  6
CONTINUOUS
 10
6.9276678242
 20
3.2021013594
 40
0.2986822913
100
AcDbArc
 50
83.2705408342
 51
84.7172341721
  0
ARC
  5
360
100
AcDbEntity
  8
0
100
AcDbCircle
 62
7
  6
CONTINUOUS
 10
6.9276678242
 20
3.2021013594
 40
0.2981730948
100
AcDbArc
 50
94.8095488357
 51
96.7296151851
  0
ARC
  5
361
100
AcDbEntity
  8
0
100
AcDbCircle
 62
7
  6
CONTINUOUS
 10
6.9276678242
 20
3.2021013594
 40
0.2981730948
100
AcDbArc
 50
83.2704308268
 51
84.7081869637
  0
ARC
  5
362
100
AcDbEntity
  8
0
100
AcDbCircle
 62
7
  6
CONTINUOUS
 10
6.9276678242
 20
3.2021013594
 40
0.296864108
100
AcDbArc
 50
86.9924445346
 51
92.5244827468
  0
ARC
  5
363
100
AcDbEntity
  8
0
100
AcDbCircle
 62
7
  6
CONTINUOUS
 10
6.9276678242
 20
3.2021013594
 40
0.2963517875
100
AcDbArc
 50
86.9872404062
 51
92.5288498
  0
ARC
  5
364
100
AcDbEntity
  8
0
100
AcDbCircle
 62
7
  6
CONTINUOUS
 10
6.9276678242
 20
3.2021013594
 40
0.2931139686
100
AcDbArc
 50
86.9539294039
 51
92.5568026376
  0
ARC
  5
365
100
AcDbEntity
  8
0
100
AcDbCircle
 62
7
  6
CONTINUOUS
 10
6.9276678242
 20
3.2021013594
 40
0.2905466591
100
AcDbArc
 50
94.936101857
 51
96.918800095
  0
ARC
  5
366
100
AcDbEntity
  8
0
100
AcDbCircle
 62
7
  6
CONTINUOUS
 10
6.9276678242
 20
3.2021013594
 40
0.2905466591
100
AcDbArc
 50
83.081199905
 51
84.5688722772
  0
ARC
  5
367
100
AcDbEntity
  8
0
100
AcDbCircle
 62
7
  6
CONTINUOUS
 10
6.9276678242
 20
3.2021013594
 40
0.2889504475
100
AcDbArc
 50
94.9634379523
 51
96.9572091603
  0
ARC
  5
368
100
AcDbEntity
  8
0
100
AcDbCircle
 62
7
  6
CONTINUOUS
 10
6.9276678242
 20
3.2021013594
 40
0.2889504475
100
AcDbArc
 50
83.0427908397
 51
84.5387788628
  0
ARC
  5
369
100
AcDbEntity
  8
0
100
AcDbCircle
 62
7
  6
CONTINUOUS
 10
6.9276678242
 20
3.2021013594
 40
0.2884240705
100
AcDbArc
 50
94.9725190695
 51
96.957389101
  0
ARC
  5
36A
100
AcDbEntity
  8
0
100
AcDbCircle
 62
7
  6
CONTINUOUS
 10
6.9276678242
 20
3.2021013594
 40
0.2884240705
100
AcDbArc
 50
83.0426616745
 51
84.5287816991
  0
ARC
  5
36B
100
AcDbEntity
  8
0
100
AcDbCircle
 62
7
  6
CONTINUOUS
 10
6.9276678242
 20
3.2021013594
 40
0.2876045221
100
AcDbArc
 50
85.8393277682
 51
93.6614649594
  0
ARC
  5
36C
100
AcDbEntity
  8
0
100
AcDbCircle
 62
7
  6
CONTINUOUS
 10
6.9276678242
 20
3.2021013594
 40
0.2870756772
100
AcDbArc
 50
85.8316495255
 51
93.6682192565
  0
ARC
  5
36D
100
AcDbEntity
  8
0
100
AcDbCircle
 62
7
  6
CONTINUOUS
 10
6.9276678242
 20
3.2021013594
 40
0.2805550055
100
AcDbArc
 50
84.887644479
 51
94.599957045
  0
ARC
  5
36E
100
AcDbEntity
  8
0
100
AcDbCircle
 62
7
  6
CONTINUOUS
 10
6.9356564923
 20
3.2148813545
 40
0.2921690219
100
AcDbArc
 50
124.858070986
 51
126.5997370963
  0
ARC
  5
36F
100
AcDbEntity
  8
0
100
AcDbCircle
 62
7
  6
CONTINUOUS
 10
6.9356336906
 20
3.2148821647
 40
0.2916611351
100
AcDbArc
 50
124.9221309608
 51
126.4741655642
  0
ARC
  5
370
100
AcDbEntity
  8
0
100
AcDbCircle
 62
7
  6
CONTINUOUS
 10
6.9330024102
 20
3.2206258841
 40
0.2852700385
100
AcDbArc
 50
86.2427372213
 51
87.2127151013
  0
ARC
  5
371
100
AcDbEntity
  8
0
100
AcDbCircle
 62
7
  6
CONTINUOUS
 10
6.9410403954
 20
3.2049605159
 40
0.2794500618
100
AcDbArc
 50
61.3252062543
 51
61.6816828133
  0
ARC
  5
372
100
AcDbEntity
  8
0
100
AcDbCircle
 62
7
  6
CONTINUOUS
 10
6.9410387496
 20
3.2049504442
 40
0.2789216661
100
AcDbArc
 50
61.2654406601
 51
61.6269525126
  0
ARC
  5
373
100
AcDbEntity
  8
0
100
AcDbCircle
 62
7
  6
CONTINUOUS
 10
6.9414954402
 20
3.2167823637
 40
0.2876272869
100
AcDbArc
 50
120.7490705687
 51
122.4351340213
  0
ARC
  5
374
100
AcDbEntity
  8
0
100
AcDbCircle
 62
7
  6
CONTINUOUS
 10
6.9515717839
 20
3.2147369475
 40
0.2736831113
100
AcDbArc
 50
63.6103951556
 51
64.0893358687
  0
ARC
  5
375
100
AcDbEntity
  8
0
100
AcDbCircle
 62
7
  6
CONTINUOUS
 10
6.9515699125
 20
3.2147043105
 40
0.2731846673
100
AcDbArc
 50
63.5580746423
 51
64.0915916335
  0
ARC
  5
376
100
AcDbEntity
  8
0
100
AcDbCircle
 62
7
  6
CONTINUOUS
 10
6.9518548951
 20
3.2153343827
 40
0.2730220216
100
AcDbArc
 50
64.0879908956
 51
67.1004804162
  0
ARC
  5
377
100
AcDbEntity
  8
0
100
AcDbCircle
 62
7
  6
CONTINUOUS
 10
6.9518536153
 20
3.2153024688
 40
0.2725226683
100
AcDbArc
 50
64.0902951352
 51
67.0558345621
  0
ARC
  5
378
100
AcDbEntity
  8
0
100
AcDbCircle
 62
7
  6
CONTINUOUS
 10
6.9572859357
 20
3.2444819316
 40
0.2524609201
100
AcDbArc
 50
54.9352410352
 51
55.0876610626
  0
ARC
  5
379
100
AcDbEntity
  8
0
100
AcDbCircle
 62
7
  6
CONTINUOUS
 10
6.9643990846
 20
3.2546159169
 40
0.2400797027
100
AcDbArc
 50
54.7808172064
 51
54.9352747531
  0
ARC
  5
37A
100
AcDbEntity
  8
0
100
AcDbCircle
 62
7
  6
CONTINUOUS
 10
6.9885255672
 20
3.2537709623
 40
0.2217223853
100
AcDbArc
 50
68.2740449419
 51
70.9848465653
  0
ARC
  5
37B
100
AcDbEntity
  8
0
100
AcDbCircle
 62
7
  6
CONTINUOUS
 10
6.9809121267
 20
3.2780135753
 40
0.2114417739
100
AcDbArc
 50
54.6170402349
 51
54.77994836
  0
ARC
  5
37C
100
AcDbEntity
  8
0
100
AcDbCircle
 62
7
  6
CONTINUOUS
 10
6.9378465609
 20
3.2968845141
 40
0.2088579455
100
AcDbArc
 50
85.7812219469
 51
86.1978953944
  0
ARC
  5
37D
100
AcDbEntity
  8
0
100
AcDbCircle
 62
7
  6
CONTINUOUS
 10
6.9906269383
 20
3.306831993
 40
0.1819640438
100
AcDbArc
 50
59.0168008653
 51
59.455709443
  0
ARC
  5
37E
100
AcDbEntity
  8
0
100
AcDbCircle
 62
7
  6
CONTINUOUS
 10
6.941318221
 20
3.3439429066
 40
0.1616716686
100
AcDbArc
 50
85.0458465875
 51
85.7813638117
  0
ARC
  5
37F
100
AcDbEntity
  8
0
100
AcDbCircle
 62
7
  6
CONTINUOUS
 10
7.0103860002
 20
3.3378314382
 40
0.1438926306
100
AcDbArc
 50
56.7081390222
 51
57.0942713202
  0
ARC
  5
380
100
AcDbEntity
  8
0
100
AcDbCircle
 62
7
  6
CONTINUOUS
 10
7.0103279945
 20
3.3374283337
 40
0.1437647688
100
AcDbArc
 50
56.6471474435
 51
57.4115228626
  0
ARC
  5
381
100
AcDbEntity
  8
0
100
AcDbCircle
 62
7
  6
CONTINUOUS
 10
7.0107620589
 20
3.338404203
 40
0.1432074447
100
AcDbArc
 50
56.3110708957
 51
56.7081186466
  0
ARC
  5
382
100
AcDbEntity
  8
0
100
AcDbCircle
 62
7
  6
CONTINUOUS
 10
7.0108079341
 20
3.3381563066
 40
0.1428928249
100
AcDbArc
 50
56.2490572653
 51
56.6474116878
  0
ARC
  5
383
100
AcDbEntity
  8
0
100
AcDbCircle
 62
7
  6
CONTINUOUS
 10
7.0664812907
 20
3.3558988646
 40
0.0941714084
100
AcDbArc
 50
91.9885216704
 51
93.1495457279
  0
ARC
  5
384
100
AcDbEntity
  8
0
100
AcDbCircle
 62
7
  6
CONTINUOUS
 10
7.0664730472
 20
3.3559552181
 40
0.0941150026
100
AcDbArc
 50
86.850089674
 51
88.5925905346
  0
ARC
  5
385
100
AcDbEntity
  8
0
100
AcDbCircle
 62
7
  6
CONTINUOUS
 10
7.0664775199
 20
3.3560000412
 40
0.0940701619
100
AcDbArc
 50
91.4539946486
 51
91.9883646662
  0
ARC
  5
386
100
AcDbEntity
  8
0
100
AcDbCircle
 62
7
  6
CONTINUOUS
 10
7.066480216
 20
3.3555385052
 40
0.0939181685
100
AcDbArc
 50
91.4112301193
 51
93.1573900645
  0
ARC
  5
387
100
AcDbEntity
  8
0
100
AcDbCircle
 62
7
  6
CONTINUOUS
 10
7.0664730329
 20
3.3555739039
 40
0.0938827457
100
AcDbArc
 50
86.842280489
 51
88.5890993272
  0
ARC
  5
388
100
AcDbEntity
  8
0
100
AcDbCircle
 62
7
  6
CONTINUOUS
 10
7.0691157544
 20
3.3544662229
 40
0.0931898385
100
AcDbArc
 50
84.8830959298
 51
95.1169040702
  0
ARC
  5
389
100
AcDbEntity
  8
0
100
AcDbCircle
 62
7
  6
CONTINUOUS
 10
6.9446604197
 20
3.383302633
 40
0.1221703775
100
AcDbArc
 50
84.6548011273
 51
85.0133284481
  0
ARC
  5
38A
100
AcDbEntity
  8
0
100
AcDbCircle
 62
7
  6
CONTINUOUS
 10
7.0246677926
 20
3.3645535735
 40
0.1149524018
100
AcDbArc
 50
59.4471739354
 51
59.7661761228
  0
ARC
  5
38B
100
AcDbEntity
  8
0
100
AcDbCircle
 62
7
  6
CONTINUOUS
 10
6.9461262545
 20
3.3990905845
 40
0.1063145288
100
AcDbArc
 50
84.3808341313
 51
84.6487205919
  0
ARC
  5
38C
100
AcDbEntity
  8
0
100
AcDbCircle
 62
7
  6
CONTINUOUS
 10
7.0454754318
 20
3.366557058
 40
0.1004350495
100
AcDbArc
 50
87.7164651144
 51
92.2835348856
  0
ARC
  5
38D
100
AcDbEntity
  8
0
100
AcDbCircle
 62
7
  6
CONTINUOUS
 10
7.0454755154
 20
3.3662102648
 40
0.1002075605
100
AcDbArc
 50
87.7113261642
 51
91.7800202555
  0
ARC
  5
38E
100
AcDbEntity
  8
0
100
AcDbCircle
 62
7
  6
CONTINUOUS
 10
6.9468410389
 20
3.4061643647
 40
0.0987049114
100
AcDbArc
 50
84.13531414
 51
84.6516271627
  0
ARC
  5
38F
100
AcDbEntity
  8
0
100
AcDbCircle
 62
7
  6
CONTINUOUS
 10
7.1239766438
 20
3.3760571231
 40
0.0625
100
AcDbArc
 50
2.4859527198
 51
75.0
  0
ARC
  5
390
100
AcDbEntity
  8
0
100
AcDbCircle
 62
7
  6
CONTINUOUS
 10
7.0553826345
 20
3.4173697478
 40
0.0538545892
100
AcDbArc
 50
59.7049022805
 51
60.3371586339
  0
ARC
  5
391
100
AcDbEntity
  8
0
100
AcDbCircle
 62
7
  6
CONTINUOUS
 10
7.062107272
 20
3.4151824067
 40
0.0518125717
100
AcDbArc
 50
94.4444406743
 51
98.5926434955
  0
ARC
  5
392
100
AcDbEntity
  8
0
100
AcDbCircle
 62
7
  6
CONTINUOUS
 10
7.0620926451
 20
3.4148577197
 40
0.0515622578
100
AcDbArc
 50
94.4497577078
 51
97.6901431532
  0
ARC
  5
393
100
AcDbEntity
  8
0
100
AcDbCircle
 62
7
  6
CONTINUOUS
 10
7.0620347968
 20
3.415919994
 40
0.0510721289
100
AcDbArc
 50
83.8376671366
 51
89.7510328605
  0
ARC
  5
394
100
AcDbEntity
  8
0
100
AcDbCircle
 62
7
  6
CONTINUOUS
 10
7.0620307689
 20
3.4153959973
 40
0.0510219245
100
AcDbArc
 50
83.8270304319
 51
88.7000551532
  0
ARC
  5
395
100
AcDbEntity
  8
0
100
AcDbCircle
 62
7
  6
CONTINUOUS
 10
7.072909185
 20
3.4102510066
 40
0.0495402203
100
AcDbArc
 50
88.678809849
 51
89.2665053553
  0
ARC
  5
396
100
AcDbEntity
  8
0
100
AcDbCircle
 62
7
  6
CONTINUOUS
 10
7.0729091563
 20
3.409772407
 40
0.0494284493
100
AcDbArc
 50
88.6021553692
 51
89.2648134226
  0
ARC
  5
397
100
AcDbEntity
  8
0
100
AcDbCircle
 62
7
  6
CONTINUOUS
 10
7.075703316
 20
3.4086522659
 40
0.0491633239
100
AcDbArc
 50
88.5949456311
 51
91.6374038746
  0
ARC
  5
398
100
AcDbEntity
  8
0
100
AcDbCircle
 62
7
  6
CONTINUOUS
 10
7.0564938474
 20
3.4215296598
 40
0.0477727429
100
AcDbArc
 50
64.82872437
 51
65.3464793714
  0
ARC
  5
399
100
AcDbEntity
  8
0
100
AcDbCircle
 62
7
  6
CONTINUOUS
 10
7.0861210609
 20
3.4023251767
 40
0.0476416248
100
AcDbArc
 50
88.8361006047
 51
91.6895431599
  0
ARC
  5
39A
100
AcDbEntity
  8
0
100
AcDbCircle
 62
7
  6
CONTINUOUS
 10
7.0861211392
 20
3.4018151156
 40
0.0475378518
100
AcDbArc
 50
88.5468936732
 51
91.6934095213
  0
ARC
  5
39B
100
AcDbEntity
  8
0
100
AcDbCircle
 62
7
  6
CONTINUOUS
 10
7.0890026018
 20
3.4003493299
 40
0.0473066528
100
AcDbArc
 50
83.3498853934
 51
93.4546879702
  0
ARC
  5
39C
100
AcDbEntity
  8
0
100
AcDbCircle
 62
7
  6
CONTINUOUS
 10
7.0578523202
 20
3.4244794718
 40
0.0445251561
100
AcDbArc
 50
65.3518696294
 51
65.5991831215
  0
ARC
  5
39D
100
AcDbEntity
  8
0
100
AcDbCircle
 62
7
  6
CONTINUOUS
 10
7.1091832445
 20
3.4823860035
 40
0.0377603146
100
AcDbArc
 50
232.6944270528
 51
235.2329941446
  0
ARC
  5
39E
100
AcDbEntity
  8
0
100
AcDbCircle
 62
7
  6
CONTINUOUS
 10
7.0682568558
 20
3.4399495834
 40
0.0278623933
100
AcDbArc
 50
60.3627318877
 51
60.5460869004
  0
ARC
  5
39F
100
AcDbEntity
  8
0
100
AcDbCircle
 62
7
  6
CONTINUOUS
 10
7.0652407504
 20
3.4697789183
 40
0.0211087853
100
AcDbArc
 50
245.7533954951
 51
246.303388694
  0
ARC
  5
3A0
100
AcDbEntity
  8
0
100
AcDbCircle
 62
7
  6
CONTINUOUS
 10
7.0643863074
 20
3.4677777244
 40
0.0189329368
100
AcDbArc
 50
246.2372191073
 51
249.4362528948
  0
ARC
  5
3A1
100
AcDbEntity
  8
0
100
AcDbCircle
 62
7
  6
CONTINUOUS
 10
7.0767590274
 20
3.465993599
 40
0.001072093
100
AcDbArc
 50
49.0464777695
 51
52.390389227
  0
ARC
  5
3A2
100
AcDbEntity
  8
0
100
AcDbCircle
 62
7
  6
CONTINUOUS
 10
7.0910121761
 20
3.4580974737
 40
0.0004899683
100
AcDbArc
 50
84.8886923965
 51
91.1339776593
  0
ARC
  5
3A3
100
AcDbEntity
  8
0
100
AcDbCircle
 62
7
  6
CONTINUOUS
 10
7.0910121759
 20
3.4575054495
 40
0.0004888443
100
AcDbArc
 50
84.8768908258
 51
91.1365756379
  0
ARC
  5
3A4
100
AcDbEntity
  8
0
100
AcDbCircle
 62
7
  6
CONTINUOUS
 10
7.0941630478
 20
3.4560628576
 40
0.0004865975
100
AcDbArc
 50
84.8480421106
 51
89.2241251718
  0
ARC
  5
3A5
100
AcDbEntity
  8
0
100
AcDbCircle
 62
7
  6
CONTINUOUS
 10
7.1038459847
 20
3.4494567073
 40
0.0004740704
100
AcDbArc
 50
84.7110234297
 51
89.2030731025
  0
ARC
  5
3A6
100
AcDbEntity
  8
0
100
AcDbCircle
 62
7
  6
CONTINUOUS
 10
7.3260362709
 20
3.2293281141
 40
0.0644399127
100
AcDbArc
 50
90.0090001903
 51
104.0163926032
  0
ARC
  5
3A7
100
AcDbEntity
  8
0
100
AcDbCircle
 62
7
  6
CONTINUOUS
 10
7.326025708
 20
3.2545045078
 40
0.0392635144
100
AcDbArc
 50
88.4775591545
 51
89.999357223
  0
ARC
  5
3A8
100
AcDbEntity
  8
0
100
AcDbCircle
 62
7
  6
CONTINUOUS
 10
7.1814178242
 20
3.3542731286
 40
0.025
100
AcDbArc
 50
0.0
 51
78.4630409672
  0
ARC
  5
3A9
100
AcDbEntity
  8
0
100
AcDbCircle
 62
7
  6
CONTINUOUS
 10
7.1364752068
 20
3.2583908135
 40
0.0104360041
100
AcDbArc
 50
249.6925921863
 51
255.7749881742
  0
ARC
  5
3AA
100
AcDbEntity
  8
0
100
AcDbCircle
 62
7
  6
CONTINUOUS
 10
7.1363697201
 20
3.2579668679
 40
0.0099991364
100
AcDbArc
 50
255.7639625961
 51
261.5393047215
  0
ARC
  5
3AB
100
AcDbEntity
  8
0
100
AcDbCircle
 62
7
  6
CONTINUOUS
 10
7.1989178242
 20
3.3112680261
 40
0.0075
100
AcDbArc
 50
270.0
 51
360.0
  0
ARC
  5
3AC
100
AcDbEntity
  8
0
100
AcDbCircle
 62
7
  6
CONTINUOUS
 10
7.1976678242
 20
3.2912680261
 40
0.005
100
AcDbArc
 50
0.0
 51
90.0
  0
ARC
  5
3AD
100
AcDbEntity
  8
0
100
AcDbCircle
 62
7
  6
CONTINUOUS
 10
7.2476678242
 20
3.4872680261
 40
0.0175
100
AcDbArc
 50
342.2315017359
 51
90.0
  0
ARC
  5
3AE
100
AcDbEntity
  8
0
100
AcDbCircle
 62
7
  6
CONTINUOUS
 10
7.2446066492
 20
3.5147680261
 40
0.01
100
AcDbArc
 50
151.9527753269
 51
270.0
  0
ARC
  5
3AF
100
AcDbEntity
  8
0
100
AcDbCircle
 62
7
  6
CONTINUOUS
 10
7.1222094908
 20
3.7872680261
 40
0.5695416667
100
AcDbArc
 50
150.263437283
 51
208.0472246731
  0
ARC
  5
3B0
100
AcDbEntity
  8
0
100
AcDbCircle
 62
7
  6
CONTINUOUS
 10
7.1776678242
 20
4.0947680261
 40
0.05
100
AcDbArc
 50
0.0
 51
90.0
  0
SPLINE
  5
3B1
100
AcDbEntity
  8
0
100
AcDbSpline
 62
7
  6
CONTINUOUS
 70
0
 71
3
 72
30
 73
26
 74
0
 42
0.0000001
 43
0.0000001
 44
0.0000000001
 40
0.0
 40
0.0
 40
0.0
 40
0.0
 40
0.0033645504
 40
0.0045809559
 40
0.0059715647
 40
0.0092928184
 40
0.0133429629
 40
0.0181144118
 40
0.0235912203
 40
0.029755448
 40
0.0440670554
 40
0.0608888638
 40
0.0800703705
 40
0.1014715197
 40
0.1504801557
 40
0.207158677
 40
0.2710005412
 40
0.3412692124
 40
0.4166817819
 40
0.4958331515
 40
0.5775205007
 40
0.6608195236
 40
0.7450761642
 40
0.8298556377
 40
1.0
 40
1.0
 40
1.0
 40
1.0
 10
6.9526677261
 20
3.5045784096
 30
0.0
 10
6.9526675752
 20
3.5046066175
 30
0.0
 10
6.9526380171
 20
3.5046410088
 30
0.0
 10
6.952598625
 20
3.5046703879
 30
0.0
 10
6.9525562626
 20
3.5046969509
 30
0.0
 10
6.9524903455
 20
3.5047293871
 30
0.0
 10
6.9523957
 20
3.5047671884
 30
0.0
 10
6.9522820607
 20
3.5048054472
 30
0.0
 10
6.9521499813
 20
3.5048441512
 30
0.0
 10
6.9519393733
 20
3.5048989119
 30
0.0
 10
6.9516339303
 20
3.5049663494
 30
0.0
 10
6.9512193233
 20
3.5050443441
 30
0.0
 10
6.950744355
 20
3.5051222519
 30
0.0
 10
6.9500010121
 20
3.5052303585
 30
0.0
 10
6.9489432745
 20
3.5053598488
 30
0.0
 10
6.9475291757
 20
3.5055036879
 30
0.0
 10
6.9459353096
 20
3.5056394345
 30
0.0
 10
6.9441831238
 20
3.5057650436
 30
0.0
 10
6.9423015305
 20
3.5058788051
 30
0.0
 10
6.9403233163
 20
3.5059791365
 30
0.0
 10
6.9382782388
 20
3.5060648696
 30
0.0
 10
6.9361897531
 20
3.5061353152
 30
0.0
 10
6.934074865
 20
3.5061901342
 30
0.0
 10
6.9312316385
 20
3.5062423064
 30
0.0
 10
6.9290943134
 20
3.5062577519
 30
0.0
 10
6.9276678242
 20
3.5062577519
 30
0.0
  0
SPLINE
  5
3B2
100
AcDbEntity
  8
0
100
AcDbSpline
 62
7
  6
CONTINUOUS
 70
0
 71
3
 72
31
 73
27
 74
0
 42
0.0000001
 43
0.0000001
 44
0.0000000001
 40
0.0
 40
0.0
 40
0.0
 40
0.0
 40
0.0016005245
 40
0.0034120003
 40
0.005586827
 40
0.0082111047
 40
0.0113293618
 40
0.0149645065
 40
0.0191280386
 40
0.0238265429
 40
0.0348399809
 40
0.0480141194
 40
0.0633434988
 40
0.0808172672
 40
0.1004269376
 40
0.1221653905
 40
0.1460273558
 40
0.1720086373
 40
0.2303104318
 40
0.2969299277
 40
0.3710737752
 40
0.4514200378
 40
0.5366497863
 40
0.6255639612
 40
0.8105152119
 40
1.0
 40
1.0
 40
1.0
 40
1.0
 10
6.9626674823
 20
3.503584827
 30
0.0
 10
6.9626674704
 20
3.5035660226
 30
0.0
 10
6.962659085
 20
3.5035256783
 30
0.0
 10
6.9626241527
 20
3.5034690729
 30
0.0
 10
6.9625686243
 20
3.503414096
 30
0.0
 10
6.9624927484
 20
3.5033598384
 30
0.0
 10
6.9623965076
 20
3.5033058883
 30
0.0
 10
6.9622799389
 20
3.5032521522
 30
0.0
 10
6.9621431582
 20
3.5031985945
 30
0.0
 10
6.9619219977
 20
3.5031234521
 30
0.0
 10
6.9615948366
 20
3.503032334
 30
0.0
 10
6.9611421333
 20
3.502928862
 30
0.0
 10
6.9606115868
 20
3.5028268102
 30
0.0
 10
6.9600039649
 20
3.5027264942
 30
0.0
 10
6.9593198211
 20
3.5026284243
 30
0.0
 10
6.9585595984
 20
3.5025330578
 30
0.0
 10
6.9577236197
 20
3.5024409635
 30
0.0
 10
6.9564589079
 20
3.5023185993
 30
0.0
 10
6.954691202
 20
3.5021803026
 30
0.0
 10
6.9523561475
 20
3.5020457496
 30
0.0
 10
6.9497604586
 20
3.5019389036
 30
0.0
 10
6.9469451532
 20
3.5018569413
 30
0.0
 10
6.9439557373
 20
3.5017970586
 30
0.0
 10
6.9397371076
 20
3.5017409314
 30
0.0
 10
6.934293285
 20
3.5017083374
 30
0.0
 10
6.9298940658
 20
3.5017029598
 30
0.0
 10
6.9276678242
 20
3.5017029467
 30
0.0
  0
SPLINE
  5
3B3
100
AcDbEntity
  8
0
100
AcDbSpline
 62
7
  6
CONTINUOUS
 70
0
 71
3
 72
31
 73
27
 74
0
 42
0.0000001
 43
0.0000001
 44
0.0000000001
 40
0.0
 40
0.0
 40
0.0
 40
0.0
 40
0.1894957979
 40
0.3744575455
 40
0.4633760977
 40
0.5486083986
 40
0.628955524
 40
0.7030947036
 40
0.7697139145
 40
0.8280050953
 40
0.8539835082
 40
0.8778424879
 40
0.899577604
 40
0.9191847919
 40
0.9366564163
 40
0.9519843613
 40
0.9651579462
 40
0.9761706804
 40
0.9808687505
 40
0.9850313151
 40
0.9886654992
 40
0.9917842207
 40
0.9944102068
 40
0.9965873128
 40
0.9983998789
 40
1.0
 40
1.0
 40
1.0
 40
1.0
 10
6.9276678242
 20
3.5017029467
 30
0.0
 10
6.925441445
 20
3.5017029335
 30
0.0
 10
6.921041957
 20
3.501708258
 30
0.0
 10
6.9155978102
 20
3.5017408184
 30
0.0
 10
6.9113789601
 20
3.5017969443
 30
0.0
 10
6.9083894426
 20
3.5018568573
 30
0.0
 10
6.9055741413
 20
3.501938831
 30
0.0
 10
6.902978497
 20
3.5020458045
 30
0.0
 10
6.9006436138
 20
3.5021803124
 30
0.0
 10
6.8988760751
 20
3.5023187586
 30
0.0
 10
6.8976115547
 20
3.5024411381
 30
0.0
 10
6.8967756837
 20
3.5025332528
 30
0.0
 10
6.8960155658
 20
3.5026286456
 30
0.0
 10
6.8953315159
 20
3.5027267283
 30
0.0
 10
6.8947239653
 20
3.5028270537
 30
0.0
 10
6.8941934686
 20
3.5029291165
 30
0.0
 10
6.8937407934
 20
3.5030325777
 30
0.0
 10
6.8934136525
 20
3.5031236984
 30
0.0
 10
6.8931925143
 20
3.503198832
 30
0.0
 10
6.893055763
 20
3.5032523915
 30
0.0
 10
6.892939221
 20
3.5033061455
 30
0.0
 10
6.8928429634
 20
3.5033600911
 30
0.0
 10
6.8927670126
 20
3.5034143349
 30
0.0
 10
6.8927113741
 20
3.5034692691
 30
0.0
 10
6.8926762693
 20
3.5035258243
 30
0.0
 10
6.8926679476
 20
3.5035662143
 30
0.0
 10
6.8926679941
 20
3.503585014
 30
0.0
  0
SPLINE
  5
3B4
100
AcDbEntity
  8
0
100
AcDbSpline
 62
7
  6
CONTINUOUS
 70
0
 71
3
 72
18
 73
14
 74
0
 42
0.0000001
 43
0.0000001
 44
0.0000000001
 40
0.0
 40
0.0
 40
0.0
 40
0.0
 40
0.1602896115
 40
0.3164658462
 40
0.464763177
 40
0.6019397537
 40
0.72541259
 40
0.7814209676
 40
0.8333811316
 40
0.8811989252
 40
0.9248494676
 40
0.9643992932
 40
1.0
 40
1.0
 40
1.0
 40
1.0
 10
6.9145920642
 20
3.4949235292
 30
0.0
 10
6.9139195058
 20
3.4948934966
 30
0.0
 10
6.9125929043
 20
3.4948001256
 30
0.0
 10
6.9106546
 20
3.4945616598
 30
0.0
 10
6.9088278221
 20
3.494233309
 30
0.0
 10
6.9071581836
 20
3.4938253478
 30
0.0
 10
6.905890726
 20
3.4934168613
 30
0.0
 10
6.9049882461
 20
3.4930547209
 30
0.0
 10
6.9043941921
 20
3.4927796234
 30
0.0
 10
6.9038633923
 20
3.4924938766
 30
0.0
 10
6.9033981064
 20
3.4921989965
 30
0.0
 10
6.9030003955
 20
3.4918965893
 30
0.0
 10
6.9027696662
 20
3.4916799427
 30
0.0
 10
6.9026678242
 20
3.4915704616
 30
0.0
  0
SPLINE
  5
3B5
100
AcDbEntity
  8
0
100
AcDbSpline
 62
7
  6
CONTINUOUS
 70
0
 71
3
 72
25
 73
21
 74
0
 42
0.0000001
 43
0.0000001
 44
0.0000000001
 40
0.0
 40
0.0
 40
0.0
 40
0.0
 40
0.086127574
 40
0.1713349944
 40
0.25475723
 40
0.3356128063
 40
0.4132421796
 40
0.4871184349
 40
0.5568523122
 40
0.6221885164
 40
0.6830003892
 40
0.7392867851
 40
0.7911747582
 40
0.8389302992
 40
0.8829777414
 40
0.9239224329
 40
0.9434941555
 40
0.9626107747
 40
0.9814015808
 40
1.0
 40
1.0
 40
1.0
 40
1.0
 10
6.9276678242
 20
3.4576250591
 30
0.0
 10
6.9264587753
 20
3.4576250591
 30
0.0
 10
6.9240531044
 20
3.4576883761
 30
0.0
 10
6.9204864667
 20
3.457971608
 30
0.0
 10
6.917013431
 20
3.4584364182
 30
0.0
 10
6.9136758846
 20
3.4590727236
 30
0.0
 10
6.9105103976
 20
3.4598675988
 30
0.0
 10
6.9075477776
 20
3.460806296
 30
0.0
 10
6.9048130862
 20
3.4618730968
 30
0.0
 10
6.9023261048
 20
3.4630520764
 30
0.0
 10
6.9001020597
 20
3.4643276707
 30
0.0
 10
6.89815245
 20
3.4656851059
 30
0.0
 10
6.8964859366
 20
3.467110614
 30
0.0
 10
6.895109165
 20
3.4685918158
 30
0.0
 10
6.8940279262
 20
3.4701169116
 30
0.0
 10
6.8933679278
 20
3.4714361487
 30
0.0
 10
6.8930029572
 20
3.4724941588
 30
0.0
 10
6.8928098577
 20
3.4732788388
 30
0.0
 10
6.8926937881
 20
3.4740646877
 30
0.0
 10
6.8926678242
 20
3.4745899078
 30
0.0
 10
6.8926678242
 20
3.4748509902
 30
0.0
  0
SPLINE
  5
3B6
100
AcDbEntity
  8
0
100
AcDbSpline
 62
7
  6
CONTINUOUS
 70
0
 71
3
 72
20
 73
16
 74
0
 42
0.0000001
 43
0.0000001
 44
0.0000000001
 40
0.0
 40
0.0
 40
0.0
 40
0.0
 40
0.0371016588
 40
0.0717680406
 40
0.105732852
 40
0.1409348782
 40
0.1791897565
 40
0.2219458321
 40
0.2702302921
 40
0.3247246353
 40
0.3858209212
 40
0.4537306786
 40
0.6099871286
 40
0.7927501874
 40
1.0
 40
1.0
 40
1.0
 40
1.0
 10
6.7899002197
 20
3.4643047805
 30
0.0
 10
6.7899002158
 20
3.4643546855
 30
0.0
 10
6.7898918879
 20
3.4644516037
 30
0.0
 10
6.7898487266
 20
3.4645884709
 30
0.0
 10
6.7897744143
 20
3.4647084847
 30
0.0
 10
6.7896695101
 20
3.4648097957
 30
0.0
 10
6.7895351558
 20
3.4648917154
 30
0.0
 10
6.78937217
 20
3.4649544645
 30
0.0
 10
6.7891808645
 20
3.4649983255
 30
0.0
 10
6.7889614996
 20
3.4650233122
 30
0.0
 10
6.7887144967
 20
3.4650295193
 30
0.0
 10
6.7883309528
 20
3.465011679
 30
0.0
 10
6.7877876606
 20
3.4649373104
 30
0.0
 10
6.7870693682
 20
3.4647804032
 30
0.0
 10
6.786564115
 20
3.464638136
 30
0.0
 10
6.7862975029
 20
3.4645567099
 30
0.0
  0
LINE
  5
3B7
100
AcDbEntity
  8
0
100
AcDbLine
 62
7
  6
CONTINUOUS
 10
6.7566980818
 20
3.4534122229
 11
6.7521678242
 21
3.4500148748
  0
SPLINE
  5
3B8
100
AcDbEntity
  8
0
100
AcDbSpline
 62
7
  6
CONTINUOUS
 70
0
 71
3
 72
18
 73
14
 74
0
 42
0.0000001
 43
0.0000001
 44
0.0000000001
 40
0.0
 40
0.0
 40
0.0
 40
0.0
 40
0.1920957747
 40
0.3696732263
 40
0.5303969192
 40
0.6718454177
 40
0.7914737638
 40
0.8423446733
 40
0.8868839711
 40
0.9248839706
 40
0.9562462703
 40
0.9810847683
 40
1.0
 40
1.0
 40
1.0
 40
1.0
 10
6.7596541743
 20
3.4544568984
 30
0.0
 10
6.7593568847
 20
3.4542331902
 30
0.0
 10
6.7587881595
 20
3.4537981456
 30
0.0
 10
6.7579843461
 20
3.453158341
 30
0.0
 10
6.7572711146
 20
3.4525625797
 30
0.0
 10
6.7566603659
 20
3.4520198
 30
0.0
 10
6.756225567
 20
3.4515997871
 30
0.0
 10
6.7559411705
 20
3.4512953842
 30
0.0
 10
6.7557730711
 20
3.4510989902
 30
0.0
 10
6.7556395733
 20
3.4509231896
 30
0.0
 10
6.7555416345
 20
3.4507687621
 30
0.0
 10
6.7554798067
 20
3.450636736
 30
0.0
 10
6.7554608254
 20
3.4505524265
 30
0.0
 10
6.7554608322
 20
3.4505157909
 30
0.0
  0
SPLINE
  5
3B9
100
AcDbEntity
  8
0
100
AcDbSpline
 62
7
  6
CONTINUOUS
 70
0
 71
3
 72
21
 73
17
 74
0
 42
0.0000001
 43
0.0000001
 44
0.0000000001
 40
0.0
 40
0.0
 40
0.0
 40
0.0
 40
0.2238850448
 40
0.4190326931
 40
0.5840928053
 40
0.6550953174
 40
0.7183545826
 40
0.773914529
 40
0.8219377808
 40
0.8627381861
 40
0.8806164278
 40
0.896949254
 40
0.9255688781
 40
0.9504463956
 40
0.9742656228
 40
1.0
 40
1.0
 40
1.0
 40
1.0
 10
6.7552399899
 20
3.4482912514
 30
0.0
 10
6.7549159418
 20
3.4481663529
 30
0.0
 10
6.7543064499
 20
3.4479401299
 30
0.0
 10
6.7534463243
 20
3.4476547886
 30
0.0
 10
6.7528017115
 20
3.4474745103
 30
0.0
 10
6.7523481622
 20
3.4473745978
 30
0.0
 10
6.7520579152
 20
3.4473243221
 30
0.0
 10
6.7518005937
 20
3.4472949097
 30
0.0
 10
6.7515765459
 20
3.4472863803
 30
0.0
 10
6.7514108967
 20
3.4472970878
 30
0.0
 10
6.7512962434
 20
3.4473177767
 30
0.0
 10
6.7512021808
 20
3.4473435403
 30
0.0
 10
6.7511020701
 20
3.4473878379
 30
0.0
 10
6.7510097394
 20
3.447468049
 30
0.0
 10
6.750955238
 20
3.4475728449
 30
0.0
 10
6.7509456869
 20
3.4476505996
 30
0.0
 10
6.7509456912
 20
3.4476905181
 30
0.0
  0
SPLINE
  5
3BA
100
AcDbEntity
  8
0
100
AcDbSpline
 62
7
  6
CONTINUOUS
 70
0
 71
3
 72
22
 73
18
 74
0
 42
0.0000001
 43
0.0000001
 44
0.0000000001
 40
0.0
 40
0.0
 40
0.0
 40
0.0
 40
0.0491283728
 40
0.1040837145
 40
0.1638239284
 40
0.2274273784
 40
0.3629738062
 40
0.5047882168
 40
0.5762754877
 40
0.6471379033
 40
0.7165141466
 40
0.7834108537
 40
0.8466613124
 40
0.9048983703
 40
0.9565622443
 40
0.9794176144
 40
1.0
 40
1.0
 40
1.0
 40
1.0
 10
6.7684709198
 20
3.4570366458
 30
0.0
 10
6.7682795062
 20
3.4568599169
 30
0.0
 10
6.7678656629
 20
3.4564944906
 30
0.0
 10
6.7671977311
 20
3.4559388692
 30
0.0
 10
6.7664571194
 20
3.4553509864
 30
0.0
 10
6.7653659227
 20
3.4545177837
 30
0.0
 10
6.7639022928
 20
3.4534556962
 30
0.0
 10
6.7623767169
 20
3.4524090054
 30
0.0
 10
6.7611176506
 20
3.4515809948
 30
0.0
 10
6.7601710853
 20
3.450977093
 30
0.0
 10
6.7592362704
 20
3.450400251
 30
0.0
 10
6.7583264703
 20
3.4498600091
 30
0.0
 10
6.757457339
 20
3.449367305
 30
0.0
 10
6.7566473235
 20
3.4489346868
 30
0.0
 10
6.7560155666
 20
3.4486235325
 30
0.0
 10
6.7555550142
 20
3.4484179156
 30
0.0
 10
6.7553418333
 20
3.4483305052
 30
0.0
 10
6.7552399899
 20
3.4482912514
 30
0.0
  0
SPLINE
  5
3BB
100
AcDbEntity
  8
0
100
AcDbSpline
 62
7
  6
CONTINUOUS
 70
0
 71
3
 72
22
 73
18
 74
0
 42
0.0000001
 43
0.0000001
 44
0.0000000001
 40
0.0
 40
0.0
 40
0.0
 40
0.0
 40
0.1193094587
 40
0.2630611933
 40
0.4312354314
 40
0.523912667
 40
0.6200920335
 40
0.7138291468
 40
0.7944801133
 40
0.8566227488
 40
0.9038776258
 40
0.9400299985
 40
0.9673731498
 40
0.9780829349
 40
0.986962022
 40
0.9941739543
 40
1.0
 40
1.0
 40
1.0
 40
1.0
 10
6.7763322401
 20
3.4645567099
 30
0.0
 10
6.776054882
 20
3.4644432232
 30
0.0
 10
6.7754505495
 20
3.4641753933
 30
0.0
 10
6.7744772296
 20
3.4636997453
 30
0.0
 10
6.773578849
 20
3.4632242065
 30
0.0
 10
6.7727968564
 20
3.4627851518
 30
0.0
 10
6.7721849005
 20
3.4624253974
 30
0.0
 10
6.771607533
 20
3.4620667546
 30
0.0
 10
6.7711138413
 20
3.4617359118
 30
0.0
 10
6.7707301821
 20
3.4614515728
 30
0.0
 10
6.7704480741
 20
3.46121868
 30
0.0
 10
6.7702452633
 20
3.4610280689
 30
0.0
 10
6.7701199018
 20
3.4608895275
 30
0.0
 10
6.770050912
 20
3.4607937842
 30
0.0
 10
6.7700170909
 20
3.4607353918
 30
0.0
 10
6.7699963814
 20
3.460684143
 30
0.0
 10
6.7699908475
 20
3.4606513979
 30
0.0
 10
6.7699908515
 20
3.4606367643
 30
0.0
  0
LINE
  5
3BC
100
AcDbEntity
  8
0
100
AcDbLine
 62
7
  6
CONTINUOUS
 10
6.7804608999
 20
3.4645663702
 11
6.7801444119
 21
3.464032123
  0
SPLINE
  5
3BD
100
AcDbEntity
  8
0
100
AcDbSpline
 62
7
  6
CONTINUOUS
 70
0
 71
3
 72
15
 73
11
 74
0
 42
0.0000001
 43
0.0000001
 44
0.0000000001
 40
0.0
 40
0.0
 40
0.0
 40
0.0
 40
0.173197792
 40
0.3342114279
 40
0.4820111842
 40
0.6157149193
 40
0.7345428009
 40
0.8379730048
 40
0.9260583272
 40
1.0
 40
1.0
 40
1.0
 40
1.0
 10
6.7694955048
 20
3.4544568984
 30
0.0
 10
6.7693241199
 20
3.4542903453
 30
0.0
 10
6.7689982926
 20
3.4539638563
 30
0.0
 10
6.7685461446
 20
3.4534758573
 30
0.0
 10
6.7681514168
 20
3.4530096832
 30
0.0
 10
6.7678181369
 20
3.452568712
 30
0.0
 10
6.7675502112
 20
3.4521564571
 30
0.0
 10
6.7673514945
 20
3.4517760609
 30
0.0
 10
6.7672255508
 20
3.4514308526
 30
0.0
 10
6.7671904658
 20
3.4512073424
 30
0.0
 10
6.7671904723
 20
3.4511053158
 30
0.0
  0
SPLINE
  5
3BE
100
AcDbEntity
  8
0
100
AcDbSpline
 62
7
  6
CONTINUOUS
 70
0
 71
3
 72
20
 73
16
 74
0
 42
0.0000001
 43
0.0000001
 44
0.0000000001
 40
0.0
 40
0.0
 40
0.0
 40
0.0
 40
0.1914090209
 40
0.364566312
 40
0.5181734578
 40
0.5873878447
 40
0.6514635236
 40
0.7104155069
 40
0.7643211113
 40
0.8133461182
 40
0.857754927
 40
0.8979547843
 40
0.9345139247
 40
0.968205218
 40
1.0
 40
1.0
 40
1.0
 40
1.0
 10
6.7701540367
 20
3.4482912514
 30
0.0
 10
6.7696328157
 20
3.4481422459
 30
0.0
 10
6.7686347804
 20
3.4478762462
 30
0.0
 10
6.7672001488
 20
3.4475644762
 30
0.0
 10
6.7660911578
 20
3.4473909296
 30
0.0
 10
6.7652820351
 20
3.4473140074
 30
0.0
 10
6.7647379992
 20
3.4472874253
 30
0.0
 10
6.7642366169
 20
3.4472899162
 30
0.0
 10
6.7637788606
 20
3.4473215572
 30
0.0
 10
6.7633655041
 20
3.4473821885
 30
0.0
 10
6.7629971165
 20
3.4474717878
 30
0.0
 10
6.76267408
 20
3.447590146
 30
0.0
 10
6.762396745
 20
3.4477373834
 30
0.0
 10
6.7621656666
 20
3.4479132728
 30
0.0
 10
6.7620406723
 20
3.4480521759
 30
0.0
 10
6.7619875783
 20
3.448124906
 30
0.0
  0
LINE
  5
3BF
100
AcDbEntity
  8
0
100
AcDbLine
 62
7
  6
CONTINUOUS
 10
6.7619875783
 20
3.448124906
 11
6.7617251159
 21
3.4488884375
  0
SPLINE
  5
3C0
100
AcDbEntity
  8
0
100
AcDbSpline
 62
7
  6
CONTINUOUS
 70
0
 71
3
 72
21
 73
17
 74
0
 42
0.0000001
 43
0.0000001
 44
0.0000000001
 40
0.0
 40
0.0
 40
0.0
 40
0.0
 40
0.0409164591
 40
0.0881191656
 40
0.1408341931
 40
0.1983076215
 40
0.2598267402
 40
0.3247256235
 40
0.4621184365
 40
0.6053789791
 40
0.677428798
 40
0.7485989823
 40
0.8178204007
 40
0.8838154316
 40
0.9450887484
 40
1.0
 40
1.0
 40
1.0
 40
1.0
 10
6.7830583067
 20
3.4570366458
 30
0.0
 10
6.7829400811
 20
3.4568569603
 30
0.0
 10
6.7826608437
 20
3.4564862
 30
0.0
 10
6.7821702438
 20
3.4559311934
 30
0.0
 10
6.7815869184
 20
3.455343876
 30
0.0
 10
6.7809221622
 20
3.4547329039
 30
0.0
 10
6.7801861348
 20
3.4541058961
 30
0.0
 10
6.7791014926
 20
3.4532414082
 30
0.0
 10
6.7776313229
 20
3.452172815
 30
0.0
 10
6.7760760359
 20
3.451161791
 30
0.0
 10
6.7747805671
 20
3.4503934965
 30
0.0
 10
6.7738032651
 20
3.4498526823
 30
0.0
 10
6.7728367801
 20
3.4493592391
 30
0.0
 10
6.7718989293
 20
3.4489255979
 30
0.0
 10
6.7710111646
 20
3.448565382
 30
0.0
 10
6.7704315776
 20
3.4483705942
 30
0.0
 10
6.7701540367
 20
3.4482912514
 30
0.0
  0
SPLINE
  5
3C1
100
AcDbEntity
  8
0
100
AcDbSpline
 62
7
  6
CONTINUOUS
 70
0
 71
3
 72
20
 73
16
 74
0
 42
0.0000001
 43
0.0000001
 44
0.0000000001
 40
0.0
 40
0.0
 40
0.0
 40
0.0
 40
0.1251729617
 40
0.2635580726
 40
0.4141836081
 40
0.5750061922
 40
0.6572977613
 40
0.7378659983
 40
0.811940926
 40
0.844516437
 40
0.8732545761
 40
0.9193225206
 40
0.9376818004
 40
0.9535831588
 40
1.0
 40
1.0
 40
1.0
 40
1.0
 10
6.7862975029
 20
3.4645567099
 30
0.0
 10
6.7860089299
 20
3.4644685767
 30
0.0
 10
6.7854065813
 20
3.464265591
 30
0.0
 10
6.7844760207
 20
3.4639030022
 30
0.0
 10
6.7834837734
 20
3.4634648695
 30
0.0
 10
6.7826341314
 20
3.4630407387
 30
0.0
 10
6.7819525917
 20
3.4626605769
 30
0.0
 10
6.7814650792
 20
3.4623627414
 30
0.0
 10
6.7810924905
 20
3.4621074087
 30
0.0
 10
6.7808354431
 20
3.4619060989
 30
0.0
 10
6.7806401254
 20
3.4617361408
 30
0.0
 10
6.7804835076
 20
3.4615741286
 30
0.0
 10
6.7803668512
 20
3.4614189882
 30
0.0
 10
6.7802643205
 20
3.461254638
 30
0.0
 10
6.7802087955
 20
3.4611055908
 30
0.0
 10
6.7802086967
 20
3.4609937024
 30
0.0
  0
LINE
  5
3C2
100
AcDbEntity
  8
0
100
AcDbLine
 62
7
  6
CONTINUOUS
 10
6.7941917969
 20
3.4645663702
 11
6.7941710982
 21
3.4644002923
  0
SPLINE
  5
3C3
100
AcDbEntity
  8
0
100
AcDbSpline
 62
7
  6
CONTINUOUS
 70
0
 71
3
 72
12
 73
8
 74
0
 42
0.0000001
 43
0.0000001
 44
0.0000000001
 40
0.0
 40
0.0
 40
0.0
 40
0.0
 40
0.1909602951
 40
0.4217942427
 40
0.5530917611
 40
0.6938271871
 40
1.0
 40
1.0
 40
1.0
 40
1.0
 10
6.7840077675
 20
3.4592549605
 30
0.0
 10
6.7840064951
 20
3.4590995862
 30
0.0
 10
6.7839541662
 20
3.4587563617
 30
0.0
 10
6.7837939604
 20
3.4583337234
 30
0.0
 10
6.7836150357
 20
3.4579656838
 30
0.0
 10
6.7833886042
 20
3.4575530819
 30
0.0
 10
6.7831952392
 20
3.4572447629
 30
0.0
 10
6.7830583067
 20
3.4570366458
 30
0.0
  0
LINE
  5
3C4
100
AcDbEntity
  8
0
100
AcDbLine
 62
7
  6
CONTINUOUS
 10
6.7617256467
 20
3.4491447167
 11
6.7615165984
 21
3.4494265023
  0
SPLINE
  5
3C5
100
AcDbEntity
  8
0
100
AcDbSpline
 62
7
  6
CONTINUOUS
 70
0
 71
3
 72
9
 73
5
 74
0
 42
0.0000001
 43
0.0000001
 44
0.0000000001
 40
0.0
 40
0.0
 40
0.0
 40
0.0
 40
0.2414879198
 40
1.0
 40
1.0
 40
1.0
 40
1.0
 10
6.7615165984
 20
3.4494265023
 30
0.0
 10
6.7615120465
 20
3.4494279069
 30
0.0
 10
6.7614931063
 20
3.4494334269
 30
0.0
 10
6.7614738365
 20
3.4494377937
 30
0.0
 10
6.76145913
 20
3.4494405503
 30
0.0
  0
SPLINE
  5
3C6
100
AcDbEntity
  8
0
100
AcDbSpline
 62
7
  6
CONTINUOUS
 70
0
 71
3
 72
24
 73
20
 74
0
 42
0.0000001
 43
0.0000001
 44
0.0000000001
 40
0.0
 40
0.0
 40
0.0
 40
0.0
 40
0.0639373838
 40
0.1228801454
 40
0.1804384626
 40
0.2387486926
 40
0.3620407377
 40
0.4981760466
 40
0.5702665586
 40
0.6431900793
 40
0.7148856811
 40
0.7827448198
 40
0.8443218097
 40
0.8723274429
 40
0.8985675564
 40
0.9235377916
 40
0.9480701815
 40
0.9731986653
 40
1.0
 40
1.0
 40
1.0
 40
1.0
 10
6.7759169736
 20
3.45448876
 30
0.0
 10
6.7759169504
 20
3.4545722209
 30
0.0
 10
6.7758968652
 20
3.4547335314
 30
0.0
 10
6.7758090237
 20
3.4549543574
 30
0.0
 10
6.7756793763
 20
3.4551440441
 30
0.0
 10
6.7754581456
 20
3.4553662609
 30
0.0
 10
6.7751011511
 20
3.4555877481
 30
0.0
 10
6.7746918577
 20
3.4557332551
 30
0.0
 10
6.7743371948
 20
3.4558275915
 30
0.0
 10
6.7740619015
 20
3.4558927364
 30
0.0
 10
6.7737920916
 20
3.455957163
 30
0.0
 10
6.7735395998
 20
3.4560293934
 30
0.0
 10
6.7733479671
 20
3.4561063005
 30
0.0
 10
6.7732179261
 20
3.456184139
 30
0.0
 10
6.7731372738
 20
3.4562495822
 30
0.0
 10
6.7730726448
 20
3.4563252379
 30
0.0
 10
6.7730255191
 20
3.4564113504
 30
0.0
 10
6.7729973467
 20
3.456507879
 30
0.0
 10
6.7729920078
 20
3.4565759191
 30
0.0
 10
6.7729920427
 20
3.4566109043
 30
0.0
  0
SPLINE
  5
3C7
100
AcDbEntity
  8
0
100
AcDbSpline
 62
7
  6
CONTINUOUS
 70
0
 71
3
 72
25
 73
21
 74
0
 42
0.0000001
 43
0.0000001
 44
0.0000000001
 40
0.0
 40
0.0
 40
0.0
 40
0.0
 40
0.0185984194
 40
0.0373892252
 40
0.0565058427
 40
0.0760775638
 40
0.1170222576
 40
0.1610696959
 40
0.2088252377
 40
0.2607132083
 40
0.3169996027
 40
0.3778114745
 40
0.4431476765
 40
0.5128815534
 40
0.5867578087
 40
0.6643871825
 40
0.7452427618
 40
0.8286649994
 40
0.9138724243
 40
1.0
 40
1.0
 40
1.0
 40
1.0
 10
6.9626678242
 20
3.4748509902
 30
0.0
 10
6.9626678242
 20
3.4745899078
 30
0.0
 10
6.9626418602
 20
3.4740646877
 30
0.0
 10
6.9625257906
 20
3.4732788389
 30
0.0
 10
6.9623326911
 20
3.4724941588
 30
0.0
 10
6.9619677205
 20
3.4714361488
 30
0.0
 10
6.9613077221
 20
3.4701169117
 30
0.0
 10
6.9602264835
 20
3.4685918159
 30
0.0
 10
6.9588497118
 20
3.4671106142
 30
0.0
 10
6.9571831986
 20
3.465685106
 30
0.0
 10
6.9552335888
 20
3.464327671
 30
0.0
 10
6.9530095439
 20
3.4630520766
 30
0.0
 10
6.9505225625
 20
3.461873097
 30
0.0
 10
6.9477878712
 20
3.4608062961
 30
0.0
 10
6.9448252511
 20
3.459867599
 30
0.0
 10
6.9416597641
 20
3.4590727237
 30
0.0
 10
6.9383222177
 20
3.4584364183
 30
0.0
 10
6.9348491818
 20
3.457971608
 30
0.0
 10
6.931282544
 20
3.4576883761
 30
0.0
 10
6.9288768731
 20
3.4576250591
 30
0.0
 10
6.9276678242
 20
3.4576250591
 30
0.0
  0
SPLINE
  5
3C8
100
AcDbEntity
  8
0
100
AcDbSpline
 62
7
  6
CONTINUOUS
 70
0
 71
3
 72
18
 73
14
 74
0
 42
0.0000001
 43
0.0000001
 44
0.0000000001
 40
0.0
 40
0.0
 40
0.0
 40
0.0
 40
0.0357016788
 40
0.0753493196
 40
0.1190879883
 40
0.1669794378
 40
0.2189956209
 40
0.2750405394
 40
0.3985266891
 40
0.5356441298
 40
0.6838287349
 40
0.8398625408
 40
1.0
 40
1.0
 40
1.0
 40
1.0
 10
6.9551678242
 20
3.4913436646
 30
0.0
 10
6.9550659543
 20
3.4914541419
 30
0.0
 10
6.9548352018
 20
3.4916729671
 30
0.0
 10
6.9544374381
 20
3.4919790646
 30
0.0
 10
6.9539721422
 20
3.4922781697
 30
0.0
 10
6.9534413912
 20
3.4925686619
 30
0.0
 10
6.9528474547
 20
3.4928490103
 30
0.0
 10
6.9519454018
 20
3.4932189954
 30
0.0
 10
6.950678557
 20
3.4936384937
 30
0.0
 10
6.9490093829
 20
3.4940609914
 30
0.0
 10
6.947182783
 20
3.4944052327
 30
0.0
 10
6.9452440788
 20
3.4946605354
 30
0.0
 10
6.9439166819
 20
3.4947653776
 30
0.0
 10
6.9432435841
 20
3.4948011959
 30
0.0
  0
LINE
  5
3C9
100
AcDbEntity
  8
0
100
AcDbLine
 62
7
  6
CONTINUOUS
 10
6.7942662083
 20
3.4651533661
 11
6.7941917969
 21
3.4645663702
  0
SPLINE
  5
3CA
100
AcDbEntity
  8
0
100
AcDbSpline
 62
7
  6
CONTINUOUS
 70
0
 71
3
 72
19
 73
15
 74
0
 42
0.0000001
 43
0.0000001
 44
0.0000000001
 40
0.0
 40
0.0
 40
0.0
 40
0.0
 40
0.0253074239
 40
0.0486150808
 40
0.0730089312
 40
0.1012658011
 40
0.135218681
 40
0.1759203107
 40
0.2239610409
 40
0.2796307975
 40
0.4142476341
 40
0.5798684213
 40
0.775639011
 40
1.0
 40
1.0
 40
1.0
 40
1.0
 10
6.7781879235
 20
3.4648625464
 30
0.0
 10
6.7781879203
 20
3.4648795608
 30
0.0
 10
6.7781838213
 20
3.4649126438
 30
0.0
 10
6.7781601521
 20
3.4649570138
 30
0.0
 10
6.7781200064
 20
3.464990292
 30
0.0
 10
6.7780655438
 20
3.4650125225
 30
0.0
 10
6.7779971567
 20
3.4650249829
 30
0.0
 10
6.7779145316
 20
3.4650280573
 30
0.0
 10
6.7778175236
 20
3.4650218217
 30
0.0
 10
6.7776587295
 20
3.4649996222
 30
0.0
 10
6.7774251825
 20
3.4649458454
 30
0.0
 10
6.7771058703
 20
3.4648492874
 30
0.0
 10
6.7767346407
 20
3.4647175021
 30
0.0
 10
6.776471846
 20
3.4646138325
 30
0.0
 10
6.7763322401
 20
3.4645567099
 30
0.0
  0
SPLINE
  5
3CB
100
AcDbEntity
  8
0
100
AcDbSpline
 62
7
  6
CONTINUOUS
 70
0
 71
3
 72
17
 73
13
 74
0
 42
0.0000001
 43
0.0000001
 44
0.0000000001
 40
0.0
 40
0.0
 40
0.0
 40
0.0
 40
0.0241893086
 40
0.0530833581
 40
0.0870939931
 40
0.1262887005
 40
0.2201676867
 40
0.3349515292
 40
0.4716929312
 40
0.6306140163
 40
0.8079927851
 40
1.0
 40
1.0
 40
1.0
 40
1.0
 10
6.7711101453
 20
3.4601783445
 30
0.0
 10
6.7711101961
 20
3.4601448601
 30
0.0
 10
6.7711005283
 20
3.4600713457
 30
0.0
 10
6.7710641703
 20
3.459956053
 30
0.0
 10
6.7710063351
 20
3.4598268419
 30
0.0
 10
6.7708946452
 20
3.459624103
 30
0.0
 10
6.770701087
 20
3.4593400387
 30
0.0
 10
6.7704031713
 20
3.4589657592
 30
0.0
 10
6.7700239149
 20
3.4585423171
 30
0.0
 10
6.7695655611
 20
3.4580744927
 30
0.0
 10
6.7690399838
 20
3.4575658972
 30
0.0
 10
6.7686662026
 20
3.4572169471
 30
0.0
 10
6.7684709198
 20
3.4570366458
 30
0.0
  0
SPLINE
  5
3CC
100
AcDbEntity
  8
0
100
AcDbSpline
 62
7
  6
CONTINUOUS
 70
0
 71
3
 72
9
 73
5
 74
0
 42
0.0000001
 43
0.0000001
 44
0.0000000001
 40
0.0
 40
0.0
 40
0.0
 40
0.0
 40
0.5287256749
 40
1.0
 40
1.0
 40
1.0
 40
1.0
 10
6.7520168649
 20
3.4494149457
 30
0.0
 10
6.7520168648
 20
3.4494198556
 30
0.0
 10
6.7520156835
 20
3.449429297
 30
0.0
 10
6.7520105594
 20
3.4494374757
 30
0.0
 10
6.752007445
 20
3.4494405503
 30
0.0
  0
LINE
  5
3CD
100
AcDbEntity
  8
0
100
AcDbLine
 62
7
  6
CONTINUOUS
 10
6.7631222693
 20
3.4554601976
 11
6.7627568143
 21
3.4561148217
  0
SPLINE
  5
3CE
100
AcDbEntity
  8
0
100
AcDbSpline
 62
7
  6
CONTINUOUS
 70
0
 71
3
 72
23
 73
19
 74
0
 42
0.0000001
 43
0.0000001
 44
0.0000000001
 40
0.0
 40
0.0
 40
0.0
 40
0.0
 40
0.175248299
 40
0.3449581773
 40
0.5062547965
 40
0.5824837017
 40
0.6548416284
 40
0.7224784723
 40
0.7844036943
 40
0.8395133326
 40
0.887063252
 40
0.926774666
 40
0.9436772172
 40
0.9586193964
 40
0.9716300932
 40
0.9827698541
 40
0.9921545005
 40
1.0
 40
1.0
 40
1.0
 40
1.0
 10
7.082949879
 20
3.45756617
 30
0.0
 10
7.0822352097
 20
3.4580425912
 30
0.0
 10
7.0808323006
 20
3.4589861712
 30
0.0
 10
7.0787880503
 20
3.4603924753
 30
0.0
 10
7.0771599304
 20
3.4615471891
 30
0.0
 10
7.0759357218
 20
3.4624461316
 30
0.0
 10
7.0750902614
 20
3.4630851378
 30
0.0
 10
7.0743114086
 20
3.4636957883
 30
0.0
 10
7.0736121999
 20
3.4642706753
 30
0.0
 10
7.0730057687
 20
3.4648028963
 30
0.0
 10
7.0725018606
 20
3.4652859055
 30
0.0
 10
7.072154127
 20
3.4656603947
 30
0.0
 10
7.0719332868
 20
3.4659330052
 30
0.0
 10
7.0718043914
 20
3.46611127
 30
0.0
 10
7.0717031899
 20
3.4662741877
 30
0.0
 10
7.0716297807
 20
3.4664216354
 30
0.0
 10
7.0715842209
 20
3.4665534683
 30
0.0
 10
7.0715718357
 20
3.4666379147
 30
0.0
 10
7.0715718355
 20
3.4666763664
 30
0.0
  0
SPLINE
  5
3CF
100
AcDbEntity
  8
0
100
AcDbSpline
 62
7
  6
CONTINUOUS
 70
0
 71
3
 72
14
 73
10
 74
0
 42
0.0000001
 43
0.0000001
 44
0.0000000001
 40
0.0
 40
0.0
 40
0.0
 40
0.0
 40
0.0685803058
 40
0.1515534797
 40
0.2506286383
 40
0.3665720558
 40
0.4996326288
 40
0.6497629349
 40
1.0
 40
1.0
 40
1.0
 40
1.0
 10
6.7815982098
 20
3.4663412656
 30
0.0
 10
6.781598209
 20
3.4662923844
 30
0.0
 10
6.7815820803
 20
3.466184403
 30
0.0
 10
6.781523752
 20
3.4660150209
 30
0.0
 10
6.7814302405
 20
3.4658238582
 30
0.0
 10
6.7813019397
 20
3.4656112634
 30
0.0
 10
6.7811394452
 20
3.4653775633
 30
0.0
 10
6.7808635936
 20
3.4650199952
 30
0.0
 10
6.780629029
 20
3.4647508967
 30
0.0
 10
6.7804608999
 20
3.4645663702
 30
0.0
  0
LINE
  5
3D0
100
AcDbEntity
  8
0
100
AcDbLine
 62
7
  6
CONTINUOUS
 10
7.0732006529
 20
3.4508332507
 11
7.0731459406
 21
3.4512133573
  0
LINE
  5
3D1
100
AcDbEntity
  8
0
100
AcDbLine
 62
7
  6
CONTINUOUS
 10
7.0642731773
 20
3.4501215641
 11
7.0640810132
 21
3.4504033451
  0
SPLINE
  5
3D2
100
AcDbEntity
  8
0
100
AcDbSpline
 62
7
  6
CONTINUOUS
 70
0
 71
3
 72
12
 73
8
 74
0
 42
0.0000001
 43
0.0000001
 44
0.0000000001
 40
0.0
 40
0.0
 40
0.0
 40
0.0
 40
0.2494228172
 40
0.5082917876
 40
0.7639893631
 40
0.885683528
 40
1.0
 40
1.0
 40
1.0
 40
1.0
 10
7.0717878951
 20
3.4615258457
 30
0.0
 10
7.0713612325
 20
3.4618163571
 30
0.0
 10
7.0704735752
 20
3.4623820164
 30
0.0
 10
7.0690961505
 20
3.463159516
 30
0.0
 10
7.0679145903
 20
3.4637427758
 30
0.0
 10
7.0669801317
 20
3.4641460484
 30
0.0
 10
7.0665241609
 20
3.4643216583
 30
0.0
 10
7.0663012929
 20
3.4644010184
 30
0.0
  0
SPLINE
  5
3D3
100
AcDbEntity
  8
0
100
AcDbSpline
 62
7
  6
CONTINUOUS
 70
0
 71
3
 72
13
 73
9
 74
0
 42
0.0000001
 43
0.0000001
 44
0.0000000001
 40
0.0
 40
0.0
 40
0.0
 40
0.0
 40
0.3092502227
 40
0.5838903706
 40
0.7056173397
 40
0.8157985249
 40
0.9139690746
 40
1.0
 40
1.0
 40
1.0
 40
1.0
 10
7.0607667582
 20
3.4633944974
 30
0.0
 10
7.0605316846
 20
3.463475493
 30
0.0
 10
7.0600835856
 20
3.4636164593
 30
0.0
 10
7.0595308759
 20
3.4637478546
 30
0.0
 10
7.059128331
 20
3.4638109645
 30
0.0
 10
7.0588638861
 20
3.4638357503
 30
0.0
 10
7.0586269838
 20
3.4638396433
 30
0.0
 10
7.0584789899
 20
3.463827496
 30
0.0
 10
7.0584106122
 20
3.4638170661
 30
0.0
  0
SPLINE
  5
3D4
100
AcDbEntity
  8
0
100
AcDbSpline
 62
7
  6
CONTINUOUS
 70
0
 71
3
 72
30
 73
26
 74
0
 42
0.0000001
 43
0.0000001
 44
0.0000000001
 40
0.0
 40
0.0
 40
0.0
 40
0.0
 40
0.0191790982
 40
0.0416914869
 40
0.0674081683
 40
0.0960761276
 40
0.1273549026
 40
0.1608696613
 40
0.2331025764
 40
0.3100094751
 40
0.3892886315
 40
0.4691051043
 40
0.5479733504
 40
0.624626738
 40
0.6979065988
 40
0.7666730537
 40
0.8297358465
 40
0.8587353859
 40
0.8858218097
 40
0.9108223802
 40
0.9335702551
 40
0.9539133248
 40
0.9717441907
 40
0.9870477348
 40
1.0
 40
1.0
 40
1.0
 40
1.0
 10
7.086151943
 20
3.4475700155
 30
0.0
 10
7.0860165277
 20
3.4475618357
 30
0.0
 10
7.0857206375
 20
3.4475690909
 30
0.0
 10
7.0852475573
 20
3.4476328746
 30
0.0
 10
7.0847156913
 20
3.4477490957
 30
0.0
 10
7.0841326508
 20
3.4479151518
 30
0.0
 10
7.083506393
 20
3.4481276261
 30
0.0
 10
7.0826018005
 20
3.4484762766
 30
0.0
 10
7.0814212354
 20
3.4490033119
 30
0.0
 10
7.0799808811
 20
3.4497364773
 30
0.0
 10
7.0785261687
 20
3.450556254
 30
0.0
 10
7.0770912987
 20
3.4514369245
 30
0.0
 10
7.075703611
 20
3.4523569754
 30
0.0
 10
7.074386354
 20
3.4532978103
 30
0.0
 10
7.0731608873
 20
3.4542425432
 30
0.0
 10
7.0720486455
 20
3.4551747651
 30
0.0
 10
7.0712125937
 20
3.4559472264
 30
0.0
 10
7.0706217985
 20
3.4565484892
 30
0.0
 10
7.0702352193
 20
3.4569724121
 30
0.0
 10
7.0698962327
 20
3.4573792441
 30
0.0
 10
7.0696086825
 20
3.4577660211
 30
0.0
 10
7.0693764645
 20
3.4581295496
 30
0.0
 10
7.069203446
 20
3.4584668639
 30
0.0
 10
7.0690933722
 20
3.458774815
 30
0.0
 10
7.0690627969
 20
3.4589746597
 30
0.0
 10
7.0690628036
 20
3.4590662767
 30
0.0
  0
LINE
  5
3D5
100
AcDbEntity
  8
0
100
AcDbLine
 62
7
  6
CONTINUOUS
 10
7.0873772425
 20
3.4499850039
 11
7.0870964292
 21
3.4503003931
  0
LINE
  5
3D6
100
AcDbEntity
  8
0
100
AcDbLine
 62
7
  6
CONTINUOUS
 10
7.0530232798
 20
3.4643209451
 11
7.0529600217
 21
3.4640400487
  0
SPLINE
  5
3D7
100
AcDbEntity
  8
0
100
AcDbSpline
 62
7
  6
CONTINUOUS
 70
0
 71
3
 72
12
 73
8
 74
0
 42
0.0000001
 43
0.0000001
 44
0.0000000001
 40
0.0
 40
0.0
 40
0.0
 40
0.0
 40
0.2341346439
 40
0.4865577011
 40
0.7467818925
 40
0.8754211142
 40
1.0
 40
1.0
 40
1.0
 40
1.0
 10
7.0514564231
 20
3.4609938627
 30
0.0
 10
7.0510087801
 20
3.4613441241
 30
0.0
 10
7.0500393177
 20
3.4620225898
 30
0.0
 10
7.0484680407
 20
3.4629305647
 30
0.0
 10
7.0470572559
 20
3.4635943283
 30
0.0
 10
7.0458944186
 20
3.4640442463
 30
0.0
 10
7.0453098659
 20
3.4642357597
 30
0.0
 10
7.0450196806
 20
3.4643209451
 30
0.0
  0
LINE
  5
3D8
100
AcDbEntity
  8
0
100
AcDbLine
 62
7
  6
CONTINUOUS
 10
7.0842996088
 20
3.4628330956
 11
7.0844876185
 21
3.4627201493
  0
LINE
  5
3D9
100
AcDbEntity
  8
0
100
AcDbLine
 62
7
  6
CONTINUOUS
 10
7.0841822828
 20
3.4628544105
 11
7.0815212503
 21
3.4644014949
  0
LINE
  5
3DA
100
AcDbEntity
  8
0
100
AcDbLine
 62
7
  6
CONTINUOUS
 10
7.0910558278
 20
3.4585854936
 11
7.0905781134
 21
3.4589011084
  0
SPLINE
  5
3DB
100
AcDbEntity
  8
0
100
AcDbSpline
 62
7
  6
CONTINUOUS
 70
0
 71
3
 72
44
 73
40
 74
0
 42
0.0000001
 43
0.0000001
 44
0.0000000001
 40
0.0
 40
0.0
 40
0.0
 40
0.0
 40
0.0016322411
 40
0.0028575575
 40
0.0044000692
 40
0.0084836348
 40
0.0139191178
 40
0.020691949
 40
0.028769667
 40
0.0486321878
 40
0.0730343638
 40
0.1014370206
 40
0.1332899559
 40
0.1680676197
 40
0.2052830032
 40
0.244497082
 40
0.2853202142
 40
0.3274004104
 40
0.4141128495
 40
0.5024316159
 40
0.5903971076
 40
0.6760940711
 40
0.7174595285
 40
0.7574651537
 40
0.7958008326
 40
0.8321275743
 40
0.8660678155
 40
0.8972089956
 40
0.9251028181
 40
0.9492731514
 40
0.9598111427
 40
0.9692376228
 40
0.9774970686
 40
0.9845384287
 40
0.9903171177
 40
0.9948059113
 40
0.9980013097
 40
0.9991363534
 40
1.0
 40
1.0
 40
1.0
 40
1.0
 10
7.1065607861
 20
3.4474523551
 30
0.0
 10
7.1065530622
 20
3.447445138
 30
0.0
 10
7.1065326707
 20
3.4474418785
 30
0.0
 10
7.1065047567
 20
3.4474440243
 30
0.0
 10
7.106460878
 20
3.4474524533
 30
0.0
 10
7.1063926654
 20
3.4474744056
 30
0.0
 10
7.1062946829
 20
3.4475137853
 30
0.0
 10
7.106175222
 20
3.4475685117
 30
0.0
 10
7.1059738449
 20
3.4476685226
 30
0.0
 10
7.1056756389
 20
3.4478298932
 30
0.0
 10
7.1052674607
 20
3.4480641874
 30
0.0
 10
7.1047967572
 20
3.4483453787
 30
0.0
 10
7.1042723435
 20
3.4486675686
 30
0.0
 10
7.1037026787
 20
3.4490250728
 30
0.0
 10
7.1030955413
 20
3.4494125075
 30
0.0
 10
7.102457943
 20
3.4498249614
 30
0.0
 10
7.1017961539
 20
3.4502580045
 30
0.0
 10
7.1008797146
 20
3.4508636725
 30
0.0
 10
7.0997114117
 20
3.4516461081
 30
0.0
 10
7.0983027614
 20
3.4526036299
 30
0.0
 10
7.0969058222
 20
3.4535666167
 30
0.0
 10
7.0957646449
 20
3.4543647929
 30
0.0
 10
7.0948817181
 20
3.4549902178
 30
0.0
 10
7.0942510726
 20
3.4554411346
 30
0.0
 10
7.0936491535
 20
3.4558761071
 30
0.0
 10
7.0930815134
 20
3.4562914305
 30
0.0
 10
7.0925542574
 20
3.4566830149
 30
0.0
 10
7.0920740563
 20
3.4570463256
 30
0.0
 10
7.0916481191
 20
3.4573764319
 30
0.0
 10
7.0913315744
 20
3.4576298112
 30
0.0
 10
7.0911117596
 20
3.457812533
 30
0.0
 10
7.0909729939
 20
3.4579315214
 30
0.0
 10
7.0908534978
 20
3.4580381647
 30
0.0
 10
7.0907541321
 20
3.4581317868
 30
0.0
 10
7.0906754927
 20
3.4582117969
 30
0.0
 10
7.0906183293
 20
3.4582775864
 30
0.0
 10
7.0905850568
 20
3.4583244893
 30
0.0
 10
7.0905711966
 20
3.4583552231
 30
0.0
 10
7.090568426
 20
3.4583681084
 30
0.0
 10
7.0905684209
 20
3.4583737017
 30
0.0
  0
LINE
  5
3DC
100
AcDbEntity
  8
0
100
AcDbLine
 62
7
  6
CONTINUOUS
 10
7.103345101
 20
3.4504020626
 11
7.1043483215
 21
3.4496830434
  0
LINE
  5
3DD
100
AcDbEntity
  8
0
100
AcDbLine
 62
7
  6
CONTINUOUS
 10
7.1043483215
 20
3.4496830434
 11
7.1044360291
 21
3.44961926
  0
LINE
  5
3DE
100
AcDbEntity
  8
0
100
AcDbLine
 62
7
  6
CONTINUOUS
 10
7.0741655428
 20
3.4598058482
 11
7.0738847307
 21
3.4600836275
  0
SPLINE
  5
3DF
100
AcDbEntity
  8
0
100
AcDbSpline
 62
7
  6
CONTINUOUS
 70
0
 71
3
 72
23
 73
19
 74
0
 42
0.0000001
 43
0.0000001
 44
0.0000000001
 40
0.0
 40
0.0
 40
0.0
 40
0.0
 40
0.0082346704
 40
0.0187511791
 40
0.0316470122
 40
0.0468730578
 40
0.0643184914
 40
0.0838667316
 40
0.1288268796
 40
0.1810425604
 40
0.2398612811
 40
0.3043668782
 40
0.3734392901
 40
0.4459994582
 40
0.5212011566
 40
0.677028529
 40
0.8373077486
 40
1.0
 40
1.0
 40
1.0
 40
1.0
 10
7.0971518696
 20
3.4508556139
 30
0.0
 10
7.0971518659
 20
3.4508862989
 30
0.0
 10
7.0971373341
 20
3.4509558826
 30
0.0
 10
7.0970903465
 20
3.4510642874
 30
0.0
 10
7.097017341
 20
3.4511887324
 30
0.0
 10
7.0969196357
 20
3.4513277298
 30
0.0
 10
7.0967986597
 20
3.451480252
 30
0.0
 10
7.0965984755
 20
3.4517109665
 30
0.0
 10
7.0962962862
 20
3.4520241801
 30
0.0
 10
7.0958736646
 20
3.4524234696
 30
0.0
 10
7.0953822954
 20
3.4528554161
 30
0.0
 10
7.094830806
 20
3.4533136136
 30
0.0
 10
7.0942294817
 20
3.4537916426
 30
0.0
 10
7.0935884502
 20
3.4542835575
 30
0.0
 10
7.0926813601
 20
3.4549595885
 30
0.0
 10
7.0914969254
 20
3.4558102352
 30
0.0
 10
7.0900302898
 20
3.4568262954
 30
0.0
 10
7.089032022
 20
3.457498554
 30
0.0
 10
7.0885274295
 20
3.4578345823
 30
0.0
  0
SPLINE
  5
3E0
100
AcDbEntity
  8
0
100
AcDbSpline
 62
7
  6
CONTINUOUS
 70
0
 71
3
 72
29
 73
25
 74
0
 42
0.0000001
 43
0.0000001
 44
0.0000000001
 40
0.0
 40
0.0
 40
0.0
 40
0.0
 40
0.0066354271
 40
0.0097242279
 40
0.0128865912
 40
0.0163007328
 40
0.0201142325
 40
0.0293296637
 40
0.0410961392
 40
0.0555812568
 40
0.0727718987
 40
0.0925929997
 40
0.1149415381
 40
0.1397027481
 40
0.195978006
 40
0.2604280552
 40
0.3319976561
 40
0.4093671572
 40
0.4907851376
 40
0.5746415833
 40
0.6597854324
 40
0.7453971664
 40
0.8308986774
 40
1.0
 40
1.0
 40
1.0
 40
1.0
 10
7.1015503432
 20
3.4479971104
 30
0.0
 10
7.101550344
 20
3.4479497268
 30
0.0
 10
7.1015387511
 20
3.4478783251
 30
0.0
 10
7.1014904816
 20
3.4477988966
 30
0.0
 10
7.1014404859
 20
3.4477503017
 30
0.0
 10
7.1013764266
 20
3.4477118016
 30
0.0
 10
7.1012656541
 20
3.4476712203
 30
0.0
 10
7.1010879186
 20
3.4476499384
 30
0.0
 10
7.100834521
 20
3.4476642664
 30
0.0
 10
7.1005281152
 20
3.4477157547
 30
0.0
 10
7.1001708209
 20
3.4478036601
 30
0.0
 10
7.0997651004
 20
3.447926992
 30
0.0
 10
7.0993137831
 20
3.4480846295
 30
0.0
 10
7.0986249992
 20
3.4483506638
 30
0.0
 10
7.0976716075
 20
3.4487644882
 30
0.0
 10
7.0964333844
 20
3.4493586644
 30
0.0
 10
7.0950804957
 20
3.4500603608
 30
0.0
 10
7.0936407711
 20
3.4508563875
 30
0.0
 10
7.0921419928
 20
3.4517260475
 30
0.0
 10
7.0906094454
 20
3.4526476211
 30
0.0
 10
7.0890629782
 20
3.4536038506
 30
0.0
 10
7.0875161447
 20
3.454581632
 30
0.0
 10
7.0854732423
 20
3.4558965413
 30
0.0
 10
7.0839546409
 20
3.456896364
 30
0.0
 10
7.082949879
 20
3.45756617
 30
0.0
  0
SPLINE
  5
3E1
100
AcDbEntity
  8
0
100
AcDbSpline
 62
7
  6
CONTINUOUS
 70
0
 71
3
 72
11
 73
7
 74
0
 42
0.0000001
 43
0.0000001
 44
0.0000000001
 40
0.0
 40
0.0
 40
0.0
 40
0.0
 40
0.2645708314
 40
0.5004192791
 40
0.7360395057
 40
1.0
 40
1.0
 40
1.0
 40
1.0
 10
7.1073388311
 20
3.4475309624
 30
0.0
 10
7.1072865746
 20
3.4475692173
 30
0.0
 10
7.1071790067
 20
3.4476316252
 30
0.0
 10
7.1069983544
 20
3.4476673315
 30
0.0
 10
7.106817638
 20
3.4476326715
 30
0.0
 10
7.1067099685
 20
3.4475708137
 30
0.0
 10
7.1066576957
 20
3.4475328346
 30
0.0
  0
LINE
  5
3E2
100
AcDbEntity
  8
0
100
AcDbLine
 62
7
  6
CONTINUOUS
 10
7.1066576957
 20
3.4475328346
 11
7.1065607861
 21
3.4474523551
  0
LINE
  5
3E3
100
AcDbEntity
  8
0
100
AcDbLine
 62
7
  6
CONTINUOUS
 10
7.0773102506
 20
3.4669116789
 11
7.0774133023
 21
3.4668428975
  0
SPLINE
  5
3E4
100
AcDbEntity
  8
0
100
AcDbSpline
 62
7
  6
CONTINUOUS
 70
0
 71
3
 72
25
 73
21
 74
0
 42
0.0000001
 43
0.0000001
 44
0.0000000001
 40
0.0
 40
0.0
 40
0.0
 40
0.0
 40
0.0634307216
 40
0.1266804658
 40
0.1897314801
 40
0.2525839863
 40
0.3152530722
 40
0.3777632216
 40
0.4401474113
 40
0.5024375106
 40
0.5646659949
 40
0.6268578496
 40
0.6890339614
 40
0.7201289642
 40
0.7512244286
 40
0.8134028737
 40
0.875589474
 40
0.9066947875
 40
0.9378016117
 40
1.0
 40
1.0
 40
1.0
 40
1.0
 10
7.3946027432
 20
3.2320325972
 30
0.0
 10
7.3942066546
 20
3.2341125786
 30
0.0
 10
7.3932657851
 20
3.2382397539
 30
0.0
 10
7.3914083838
 20
3.2443003913
 30
0.0
 10
7.3891102175
 20
3.2501879031
 30
0.0
 10
7.3863765226
 20
3.2558649829
 30
0.0
 10
7.3832141059
 20
3.2612944161
 30
0.0
 10
7.3796322106
 20
3.2664381416
 30
0.0
 10
7.375643346
 20
3.2712571968
 30
0.0
 10
7.3712642194
 20
3.2757119327
 30
0.0
 10
7.3665165768
 20
3.2797624623
 30
0.0
 10
7.3614282766
 20
3.2833693799
 30
0.0
 10
7.3569309363
 20
3.2859747637
 30
0.0
 10
7.3532010392
 20
3.2878004792
 30
0.0
 10
7.3493895164
 20
3.2894492582
 30
0.0
 10
7.34448486
 20
3.2911697765
 30
0.0
 10
7.3394378158
 20
3.292414111
 30
0.0
 10
7.3353433126
 20
3.2931146054
 30
0.0
 10
7.3312197166
 20
3.2936166966
 30
0.0
 10
7.3281023714
 20
3.2937680261
 30
0.0
 10
7.3260261485
 20
3.2937680261
 30
0.0
  0
SPLINE
  5
3E5
100
AcDbEntity
  8
0
100
AcDbSpline
 62
7
  6
CONTINUOUS
 70
0
 71
3
 72
13
 73
9
 74
0
 42
0.0000001
 43
0.0000001
 44
0.0000000001
 40
0.0
 40
0.0
 40
0.0
 40
0.0
 40
0.2491318146
 40
0.3744605857
 40
0.5000000272
 40
0.6255394641
 40
0.750868222
 40
1.0
 40
1.0
 40
1.0
 40
1.0
 10
7.3946027431
 20
3.075503454
 30
0.0
 10
7.3970480604
 20
3.088344555
 30
0.0
 10
7.3997943799
 20
3.1078387295
 30
0.0
 10
7.4016256774
 20
3.1340157654
 30
0.0
 10
7.4020851211
 20
3.1537680296
 30
0.0
 10
7.401625677
 20
3.1735202932
 30
0.0
 10
7.3997943793
 20
3.1996973261
 30
0.0
 10
7.3970480602
 20
3.2191914981
 30
0.0
 10
7.3946027432
 20
3.2320325972
 30
0.0
  0
SPLINE
  5
3E6
100
AcDbEntity
  8
0
100
AcDbSpline
 62
7
  6
CONTINUOUS
 70
0
 71
3
 72
25
 73
21
 74
0
 42
0.0000001
 43
0.0000001
 44
0.0000000001
 40
0.0
 40
0.0
 40
0.0
 40
0.0
 40
0.0621971113
 40
0.0933034381
 40
0.1244085297
 40
0.1865948582
 40
0.248773377
 40
0.2798688488
 40
0.3109640751
 40
0.3731409862
 40
0.4353336049
 40
0.4975627405
 40
0.5598538141
 40
0.6222383019
 40
0.6847490039
 40
0.74741825
 40
0.8102707469
 40
0.8733213535
 40
0.9365707398
 40
1.0
 40
1.0
 40
1.0
 40
1.0
 10
7.3260261485
 20
3.0137680261
 30
0.0
 10
7.3281023286
 20
3.0137680261
 30
0.0
 10
7.3312196149
 20
3.0139193447
 30
0.0
 10
7.3353431441
 20
3.0144214297
 30
0.0
 10
7.3394376187
 20
3.0151218932
 30
0.0
 10
7.344484652
 20
3.0163662137
 30
0.0
 10
7.3493893083
 20
3.0180867111
 30
0.0
 10
7.3532008454
 20
3.0197354829
 30
0.0
 10
7.3569307738
 20
3.0215612116
 30
0.0
 10
7.3614281799
 20
3.0241666015
 30
0.0
 10
7.3665165298
 20
3.0277735768
 30
0.0
 10
7.3712642465
 20
3.031824142
 30
0.0
 10
7.375643402
 20
3.0362789398
 30
0.0
 10
7.379632309
 20
3.0410980383
 30
0.0
 10
7.3832142032
 20
3.0462418057
 30
0.0
 10
7.3863766282
 20
3.0516712608
 30
0.0
 10
7.389110294
 20
3.0573483448
 30
0.0
 10
7.3914084488
 20
3.0632358328
 30
0.0
 10
7.3932658064
 20
3.0692964055
 30
0.0
 10
7.3942066635
 20
3.0734235206
 30
0.0
 10
7.3946027431
 20
3.075503454
 30
0.0
  0
SPLINE
  5
3E7
100
AcDbEntity
  8
0
100
AcDbSpline
 62
7
  6
CONTINUOUS
 70
0
 71
3
 72
25
 73
21
 74
0
 42
0.0000001
 43
0.0000001
 44
0.0000000001
 40
0.0
 40
0.0
 40
0.0
 40
0.0
 40
0.0634307215
 40
0.1266804657
 40
0.1897314801
 40
0.2525839863
 40
0.3152530721
 40
0.3777632215
 40
0.4401474113
 40
0.5024375105
 40
0.5646659948
 40
0.6268578496
 40
0.6890339614
 40
0.7201289642
 40
0.7512244286
 40
0.8134028737
 40
0.875589474
 40
0.9066947874
 40
0.9378016117
 40
1.0
 40
1.0
 40
1.0
 40
1.0
 10
6.4607329052
 20
3.232032598
 30
0.0
 10
6.4611289939
 20
3.2341125794
 30
0.0
 10
6.4620698635
 20
3.2382397546
 30
0.0
 10
6.4639272647
 20
3.2443003919
 30
0.0
 10
6.466225431
 20
3.2501879037
 30
0.0
 10
6.468959126
 20
3.2558649835
 30
0.0
 10
6.4721215427
 20
3.2612944165
 30
0.0
 10
6.475703438
 20
3.2664381421
 30
0.0
 10
6.4796923026
 20
3.2712571971
 30
0.0
 10
6.4840714292
 20
3.275711933
 30
0.0
 10
6.4888190718
 20
3.2797624625
 30
0.0
 10
6.493907372
 20
3.2833693801
 30
0.0
 10
6.4984047123
 20
3.2859747638
 30
0.0
 10
6.5021346093
 20
3.2878004793
 30
0.0
 10
6.5059461321
 20
3.2894492583
 30
0.0
 10
6.5108507885
 20
3.2911697765
 30
0.0
 10
6.5158978326
 20
3.2924141111
 30
0.0
 10
6.5199923358
 20
3.2931146054
 30
0.0
 10
6.5241159317
 20
3.2936166966
 30
0.0
 10
6.5272332769
 20
3.2937680261
 30
0.0
 10
6.5293094998
 20
3.2937680261
 30
0.0
  0
SPLINE
  5
3E8
100
AcDbEntity
  8
0
100
AcDbSpline
 62
7
  6
CONTINUOUS
 70
0
 71
3
 72
13
 73
9
 74
0
 42
0.0000001
 43
0.0000001
 44
0.0000000001
 40
0.0
 40
0.0
 40
0.0
 40
0.0
 40
0.2491318147
 40
0.3744605858
 40
0.5000000272
 40
0.6255394642
 40
0.750868222
 40
1.0
 40
1.0
 40
1.0
 40
1.0
 10
6.4607329051
 20
3.075503455
 30
0.0
 10
6.4582875878
 20
3.0883445559
 30
0.0
 10
6.4555412683
 20
3.1078387305
 30
0.0
 10
6.4537099709
 20
3.1340157663
 30
0.0
 10
6.4532505272
 20
3.1537680305
 30
0.0
 10
6.4537099713
 20
3.1735202941
 30
0.0
 10
6.4555412691
 20
3.199697327
 30
0.0
 10
6.4582875882
 20
3.2191914989
 30
0.0
 10
6.4607329052
 20
3.232032598
 30
0.0
  0
SPLINE
  5
3E9
100
AcDbEntity
  8
0
100
AcDbSpline
 62
7
  6
CONTINUOUS
 70
0
 71
3
 72
25
 73
21
 74
0
 42
0.0000001
 43
0.0000001
 44
0.0000000001
 40
0.0
 40
0.0
 40
0.0
 40
0.0
 40
0.0621971113
 40
0.0933034381
 40
0.1244085297
 40
0.1865948582
 40
0.2487733769
 40
0.2798688488
 40
0.310964075
 40
0.3731409862
 40
0.4353336048
 40
0.4975627405
 40
0.559853814
 40
0.6222383019
 40
0.6847490039
 40
0.74741825
 40
0.8102707468
 40
0.8733213535
 40
0.9365707398
 40
1.0
 40
1.0
 40
1.0
 40
1.0
 10
6.5293094998
 20
3.0137680261
 30
0.0
 10
6.5272333196
 20
3.0137680261
 30
0.0
 10
6.5241160333
 20
3.0139193448
 30
0.0
 10
6.5199925041
 20
3.0144214297
 30
0.0
 10
6.5158980295
 20
3.0151218932
 30
0.0
 10
6.5108509961
 20
3.0163662138
 30
0.0
 10
6.5059463397
 20
3.0180867112
 30
0.0
 10
6.5021348026
 20
3.019735483
 30
0.0
 10
6.4984048742
 20
3.0215612118
 30
0.0
 10
6.4939074681
 20
3.0241666017
 30
0.0
 10
6.4888191182
 20
3.027773577
 30
0.0
 10
6.4840714015
 20
3.0318241423
 30
0.0
 10
6.479692246
 20
3.0362789402
 30
0.0
 10
6.4757033389
 20
3.0410980387
 30
0.0
 10
6.4721214447
 20
3.0462418063
 30
0.0
 10
6.4689590198
 20
3.0516712614
 30
0.0
 10
6.466225354
 20
3.0573483455
 30
0.0
 10
6.4639271992
 20
3.0632358336
 30
0.0
 10
6.4620698417
 20
3.0692964064
 30
0.0
 10
6.4611289846
 20
3.0734235215
 30
0.0
 10
6.4607329051
 20
3.075503455
 30
0.0
  0
SPLINE
  5
3EA
100
AcDbEntity
  8
0
100
AcDbSpline
 62
7
  6
CONTINUOUS
 70
0
 71
3
 72
17
 73
13
 74
0
 42
0.0000001
 43
0.0000001
 44
0.0000000001
 40
0.0
 40
0.0
 40
0.0
 40
0.0
 40
0.1725193712
 40
0.3381528177
 40
0.4913241876
 40
0.6281139073
 40
0.7463782997
 40
0.8457897538
 40
0.8890276874
 40
0.9285701656
 40
0.9652135532
 40
1.0
 40
1.0
 40
1.0
 40
1.0
 10
6.9051678242
 20
3.48175268
 30
0.0
 10
6.9049966743
 20
3.4817389097
 30
0.0
 10
6.9046621904
 20
3.4816973256
 30
0.0
 10
6.9041834638
 20
3.4815945269
 30
0.0
 10
6.903750363
 20
3.4814577489
 30
0.0
 10
6.9033775181
 20
3.4812937856
 30
0.0
 10
6.903075283
 20
3.4811096372
 30
0.0
 10
6.9028787483
 20
3.4809364476
 30
0.0
 10
6.9027682437
 20
3.4807919729
 30
0.0
 10
6.9027109272
 20
3.4806872117
 30
0.0
 10
6.9026759327
 20
3.4805817684
 30
0.0
 10
6.9026678242
 20
3.4805104792
 30
0.0
 10
6.9026678242
 20
3.4804758573
 30
0.0
  0
SPLINE
  5
3EB
100
AcDbEntity
  8
0
100
AcDbSpline
 62
7
  6
CONTINUOUS
 70
0
 71
3
 72
17
 73
13
 74
0
 42
0.0000001
 43
0.0000001
 44
0.0000000001
 40
0.0
 40
0.0
 40
0.0
 40
0.0
 40
0.034789998
 40
0.0714871698
 40
0.1111186761
 40
0.1544637946
 40
0.2540841146
 40
0.3724732238
 40
0.5092606885
 40
0.662305733
 40
0.8277271351
 40
1.0
 40
1.0
 40
1.0
 40
1.0
 10
6.9551678242
 20
3.4802400139
 30
0.0
 10
6.9551678242
 20
3.4802747422
 30
0.0
 10
6.9551596758
 20
3.4803462979
 30
0.0
 10
6.9551246044
 20
3.4804522103
 30
0.0
 10
6.9550672062
 20
3.4805576071
 30
0.0
 10
6.9549566093
 20
3.4807031885
 30
0.0
 10
6.9547600903
 20
3.4808781757
 30
0.0
 10
6.9544579451
 20
3.4810650819
 30
0.0
 10
6.9540852926
 20
3.4812324189
 30
0.0
 10
6.9536523994
 20
3.4813731329
 30
0.0
 10
6.9531737449
 20
3.4814803112
 30
0.0
 10
6.9528391076
 20
3.4815249575
 30
0.0
 10
6.9526678242
 20
3.4815402814
 30
0.0
  0
LINE
  5
3EC
100
AcDbEntity
  8
0
100
AcDbLine
 62
7
  6
CONTINUOUS
 10
7.0775774013
 20
3.4574721749
 11
7.0769088187
 21
3.4578008079
  0
SPLINE
  5
3ED
100
AcDbEntity
  8
0
100
AcDbSpline
 62
7
  6
CONTINUOUS
 70
0
 71
3
 72
15
 73
11
 74
0
 42
0.0000001
 43
0.0000001
 44
0.0000000001
 40
0.0
 40
0.0
 40
0.0
 40
0.0
 40
0.1694611903
 40
0.3192910807
 40
0.4513131803
 40
0.5687702964
 40
0.6763926172
 40
0.7800990227
 40
0.8861543762
 40
1.0
 40
1.0
 40
1.0
 40
1.0
 10
7.0742985134
 20
3.4577955152
 30
0.0
 10
7.0742525367
 20
3.4577942008
 30
0.0
 10
7.0741659246
 20
3.4577880395
 30
0.0
 10
7.0740451842
 20
3.4577655406
 30
0.0
 10
7.0739421881
 20
3.4577302654
 30
0.0
 10
7.0738572835
 20
3.4576820997
 30
0.0
 10
7.0737909995
 20
3.457621004
 30
0.0
 10
7.0737442303
 20
3.4575474831
 30
0.0
 10
7.0737171383
 20
3.4574630518
 30
0.0
 10
7.0737119809
 20
3.457403115
 30
0.0
 10
7.0737119837
 20
3.4573722148
 30
0.0
  0
SPLINE
  5
3EE
100
AcDbEntity
  8
0
100
AcDbSpline
 62
7
  6
CONTINUOUS
 70
0
 71
3
 72
30
 73
26
 74
0
 42
0.0000001
 43
0.0000001
 44
0.0000000001
 40
0.0
 40
0.0
 40
0.0
 40
0.0
 40
0.1701448366
 40
0.2549245155
 40
0.3391812294
 40
0.4224801633
 40
0.50416746
 40
0.5833183202
 40
0.6587292613
 40
0.7289971499
 40
0.7928371808
 40
0.8495172129
 40
0.8985265498
 40
0.9199277695
 40
0.9391095189
 40
0.9559314009
 40
0.9702434352
 40
0.9764077248
 40
0.9818845791
 40
0.9866558577
 40
0.9907057951
 40
0.9940271185
 40
0.9954179922
 40
0.9966348487
 40
1.0
 40
1.0
 40
1.0
 40
1.0
 10
6.9276678242
 20
3.5062577519
 30
0.0
 10
6.9262413297
 20
3.5062577519
 30
0.0
 10
6.9241039969
 20
3.5062423063
 30
0.0
 10
6.9212607616
 20
3.5061901338
 30
0.0
 10
6.91914587
 20
3.5061353144
 30
0.0
 10
6.917057383
 20
3.5060648687
 30
0.0
 10
6.9150123092
 20
3.5059791353
 30
0.0
 10
6.9130341115
 20
3.5058788049
 30
0.0
 10
6.9111525411
 20
3.505765044
 30
0.0
 10
6.909400389
 20
3.5056394397
 30
0.0
 10
6.9078065309
 20
3.5055036921
 30
0.0
 10
6.9063924274
 20
3.5053598553
 30
0.0
 10
6.9053346698
 20
3.5052303633
 30
0.0
 10
6.9045913178
 20
3.5051222553
 30
0.0
 10
6.9041163457
 20
3.5050443482
 30
0.0
 10
6.9037017323
 20
3.5049663515
 30
0.0
 10
6.903396284
 20
3.5048989147
 30
0.0
 10
6.9031856714
 20
3.5048441532
 30
0.0
 10
6.9030535924
 20
3.5048054492
 30
0.0
 10
6.9029399561
 20
3.5047671901
 30
0.0
 10
6.9028453133
 20
3.5047293879
 30
0.0
 10
6.9027793965
 20
3.5046969503
 30
0.0
 10
6.9027370258
 20
3.5046703861
 30
0.0
 10
6.9026976228
 20
3.5046410112
 30
0.0
 10
6.9026680155
 20
3.5046066198
 30
0.0
 10
6.9026678863
 20
3.5045784067
 30
0.0
  0
SPLINE
  5
3EF
100
AcDbEntity
  8
0
100
AcDbSpline
 62
7
  6
CONTINUOUS
 70
0
 71
3
 72
32
 73
28
 74
0
 42
0.0000001
 43
0.0000001
 44
0.0000000001
 40
0.0
 40
0.0
 40
0.0
 40
0.0
 40
0.1541113154
 40
0.2318507048
 40
0.3100323025
 40
0.388525538
 40
0.4670298803
 40
0.544967953
 40
0.6214030331
 40
0.6950108887
 40
0.7643379861
 40
0.7970029296
 40
0.8280961593
 40
0.8574106936
 40
0.8846999825
 40
0.9096829349
 40
0.9320309108
 40
0.9513928417
 40
0.9674081955
 40
0.974052753
 40
0.9797506578
 40
0.9845336345
 40
0.9884751185
 40
0.9917116348
 40
0.9944882135
 40
0.9971389428
 40
1.0
 40
1.0
 40
1.0
 40
1.0
 10
7.0885274295
 20
3.4578345823
 30
0.0
 10
7.0879120069
 20
3.4582444166
 30
0.0
 10
7.0869822171
 20
3.4588551439
 30
0.0
 10
7.0857291364
 20
3.4596566579
 30
0.0
 10
7.0847761394
 20
3.4602539312
 30
0.0
 10
7.0838138156
 20
3.4608431267
 30
0.0
 10
7.0828454758
 20
3.4614201181
 30
0.0
 10
7.0818777345
 20
3.4619786314
 30
0.0
 10
7.0809214947
 20
3.4625098163
 30
0.0
 10
7.0799915746
 20
3.4630029251
 30
0.0
 10
7.0792383685
 20
3.4633806011
 30
0.0
 10
7.0786619929
 20
3.4636554105
 30
0.0
 10
7.0782561162
 20
3.4638416468
 30
0.0
 10
7.0778707826
 20
3.4640106772
 30
0.0
 10
7.0775092221
 20
3.4641607555
 30
0.0
 10
7.077175265
 20
3.464289889
 30
0.0
 10
7.0768732547
 20
3.4643958633
 30
0.0
 10
7.0766081342
 20
3.4644762244
 30
0.0
 10
7.0764116844
 20
3.464522797
 30
0.0
 10
7.076277052
 20
3.4645430355
 30
0.0
 10
7.0761950066
 20
3.4645490933
 30
0.0
 10
7.0761256752
 20
3.4645470639
 30
0.0
 10
7.0760688849
 20
3.4645369805
 30
0.0
 10
7.0760242792
 20
3.464518435
 30
0.0
 10
7.0759920659
 20
3.464490749
 30
0.0
 10
7.0759735513
 20
3.4644544952
 30
0.0
 10
7.0759703742
 20
3.4644277583
 30
0.0
 10
7.0759703759
 20
3.4644140314
 30
0.0
  0
LINE
  5
3F0
100
AcDbEntity
  8
0
100
AcDbLine
 62
7
  6
CONTINUOUS
 10
7.0947280769
 20
3.4562168432
 11
7.0942067431
 21
3.4565474893
  0
LINE
  5
3F1
100
AcDbEntity
  8
0
100
AcDbLine
 62
7
  6
CONTINUOUS
 10
7.0941696369
 20
3.4565494105
 11
7.0938728839
 21
3.4564624382
  0
LINE
  5
3F2
100
AcDbEntity
  8
0
100
AcDbLine
 62
7
  6
CONTINUOUS
 10
7.103889684
 20
3.4499287594
 11
7.1034119696
 21
3.4502812664
  0
SPLINE
  5
3F3
100
AcDbEntity
  8
0
100
AcDbSpline
 62
7
  6
CONTINUOUS
 70
0
 71
3
 72
16
 73
12
 74
0
 42
0.0000001
 43
0.0000001
 44
0.0000000001
 40
0.0
 40
0.0
 40
0.0
 40
0.0
 40
0.1708500811
 40
0.3310047378
 40
0.4790275734
 40
0.613651036
 40
0.7336244537
 40
0.837960591
 40
0.8841585474
 40
0.9264239459
 40
1.0
 40
1.0
 40
1.0
 40
1.0
 10
7.0554582227
 20
3.4604062405
 30
0.0
 10
7.0552775613
 20
3.4605479218
 30
0.0
 10
7.0549324402
 20
3.4608287513
 30
0.0
 10
7.0544504721
 20
3.461255794
 30
0.0
 10
7.0540249662
 20
3.4616721591
 30
0.0
 10
7.053661496
 20
3.4620735178
 30
0.0
 10
7.0533659181
 20
3.4624553733
 30
0.0
 10
7.0531735694
 20
3.4627650654
 30
0.0
 10
7.0530631554
 20
3.4629999098
 30
0.0
 10
7.0529891456
 20
3.4632046523
 30
0.0
 10
7.052960009
 20
3.4633604027
 30
0.0
 10
7.0529600217
 20
3.4634592754
 30
0.0
  0
SPLINE
  5
3F4
100
AcDbEntity
  8
0
100
AcDbSpline
 62
7
  6
CONTINUOUS
 70
0
 71
3
 72
12
 73
8
 74
0
 42
0.0000001
 43
0.0000001
 44
0.0000000001
 40
0.0
 40
0.0
 40
0.0
 40
0.0
 40
0.0989600181
 40
0.2067417191
 40
0.4464413431
 40
0.7133273878
 40
1.0
 40
1.0
 40
1.0
 40
1.0
 10
7.0613073004
 20
3.449314106
 30
0.0
 10
7.0611864653
 20
3.4493074408
 30
0.0
 10
7.0609333021
 20
3.4493053338
 30
0.0
 10
7.0603881781
 20
3.4493415483
 30
0.0
 10
7.0596451423
 20
3.4494639746
 30
0.0
 10
7.0587056764
 20
3.4497093579
 30
0.0
 10
7.0580644156
 20
3.4499281603
 30
0.0
 10
7.0577361265
 20
3.450051157
 30
0.0
  0
SPLINE
  5
3F5
100
AcDbEntity
  8
0
100
AcDbSpline
 62
7
  6
CONTINUOUS
 70
0
 71
3
 72
22
 73
18
 74
0
 42
0.0000001
 43
0.0000001
 44
0.0000000001
 40
0.0
 40
0.0
 40
0.0
 40
0.0
 40
0.1456384387
 40
0.2167826418
 40
0.2865391297
 40
0.3547545799
 40
0.421307616
 40
0.4861136175
 40
0.5491294874
 40
0.6103581851
 40
0.6698527114
 40
0.7277190862
 40
0.7841177033
 40
0.8392623337
 40
0.8934160531
 40
0.9468835836
 40
1.0
 40
1.0
 40
1.0
 40
1.0
 10
7.3796244059
 20
3.0718547068
 30
0.0
 10
7.3788483052
 20
3.0677791675
 30
0.0
 10
7.3773334555
 20
3.0617711257
 30
0.0
 10
7.3745930124
 20
3.0540780097
 30
0.0
 10
7.3722294236
 20
3.048604768
 30
0.0
 10
7.3695578541
 20
3.0434218668
 30
0.0
 10
7.3665956709
 20
3.0385632898
 30
0.0
 10
7.3633622892
 20
3.0340614877
 30
0.0
 10
7.359878815
 20
3.0299464687
 30
0.0
 10
7.356167978
 20
3.0262458268
 30
0.0
 10
7.3522539978
 20
3.0229845524
 30
0.0
 10
7.3481624956
 20
3.0201849151
 30
0.0
 10
7.3439203869
 20
3.017866324
 30
0.0
 10
7.3395559121
 20
3.0160451656
 30
0.0
 10
7.335098194
 20
3.0147345954
 30
0.0
 10
7.3305783968
 20
3.0139442888
 30
0.0
 10
7.3275392667
 20
3.0137680261
 30
0.0
 10
7.3260261485
 20
3.0137680261
 30
0.0
  0
SPLINE
  5
3F6
100
AcDbEntity
  8
0
100
AcDbSpline
 62
7
  6
CONTINUOUS
 70
0
 71
3
 72
13
 73
9
 74
0
 42
0.0000001
 43
0.0000001
 44
0.0000000001
 40
0.0
 40
0.0
 40
0.0
 40
0.0
 40
0.2488885472
 40
0.374308766
 40
0.5
 40
0.625691234
 40
0.7511114528
 40
1.0
 40
1.0
 40
1.0
 40
1.0
 10
7.3796244059
 20
3.2356813453
 30
0.0
 10
7.3821812016
 20
3.2222548375
 30
0.0
 10
7.3850515889
 20
3.2018598808
 30
0.0
 10
7.3869667277
 20
3.1744626515
 30
0.0
 10
7.3874476456
 20
3.1537680261
 30
0.0
 10
7.3869667277
 20
3.1330734006
 30
0.0
 10
7.3850515889
 20
3.1056761714
 30
0.0
 10
7.3821812016
 20
3.0852812146
 30
0.0
 10
7.3796244059
 20
3.0718547068
 30
0.0
  0
LINE
  5
3F7
100
AcDbEntity
  8
0
100
AcDbLine
 62
7
  6
CONTINUOUS
 10
7.0687846489
 20
3.4494281866
 11
7.0680828128
 21
3.4497905991
  0
LINE
  5
3F8
100
AcDbEntity
  8
0
100
AcDbLine
 62
7
  6
CONTINUOUS
 10
6.7695404473
 20
3.460702238
 11
6.7646593735
 21
3.4574000748
  0
LINE
  5
3F9
100
AcDbEntity
  8
0
100
AcDbLine
 62
7
  6
CONTINUOUS
 10
6.7646593735
 20
3.4574000748
 11
6.7634901314
 21
3.4564326537
  0
LINE
  5
3FA
100
AcDbEntity
  8
0
100
AcDbLine
 62
7
  6
CONTINUOUS
 10
6.7634901314
 20
3.4564326537
 11
6.7629216842
 21
3.4558556547
  0
LINE
  5
3FB
100
AcDbEntity
  8
0
100
AcDbLine
 62
7
  6
CONTINUOUS
 10
6.7579478464
 20
3.4504804568
 11
6.7565437243
 21
3.4499040667
  0
SPLINE
  5
3FC
100
AcDbEntity
  8
0
100
AcDbSpline
 62
7
  6
CONTINUOUS
 70
0
 71
3
 72
17
 73
13
 74
0
 42
0.0000001
 43
0.0000001
 44
0.0000000001
 40
0.0
 40
0.0
 40
0.0
 40
0.0
 40
0.2180083668
 40
0.4061417317
 40
0.564051919
 40
0.6922080515
 40
0.7923264295
 40
0.8332485615
 40
0.8692919372
 40
0.9019617558
 40
0.9332604377
 40
1.0
 40
1.0
 40
1.0
 40
1.0
 10
6.7565437243
 20
3.4499040667
 30
0.0
 10
6.7564609622
 20
3.4498761631
 30
0.0
 10
6.7563058252
 20
3.4498268941
 30
0.0
 10
6.7560872185
 20
3.44976926
 30
0.0
 10
6.7559003671
 20
3.4497335433
 30
0.0
 10
6.7557460299
 20
3.4497197942
 30
0.0
 10
6.7556374391
 20
3.4497269734
 30
0.0
 10
6.7555689891
 20
3.4497467013
 30
0.0
 10
6.7555294038
 20
3.4497664348
 30
0.0
 10
6.7554982874
 20
3.4497923662
 30
0.0
 10
6.7554681257
 20
3.4498359464
 30
0.0
 10
6.7554608377
 20
3.4498765857
 30
0.0
 10
6.7554608326
 20
3.4499033232
 30
0.0
  0
LINE
  5
3FD
100
AcDbEntity
  8
0
100
AcDbLine
 62
7
  6
CONTINUOUS
 10
6.7518170429
 20
3.4485025002
 11
6.751043556
 21
3.4474375806
  0
SPLINE
  5
3FE
100
AcDbEntity
  8
0
100
AcDbSpline
 62
7
  6
CONTINUOUS
 70
0
 71
3
 72
9
 73
5
 74
0
 42
0.0000001
 43
0.0000001
 44
0.0000000001
 40
0.0
 40
0.0
 40
0.0
 40
0.0
 40
0.4619426595
 40
1.0
 40
1.0
 40
1.0
 40
1.0
 10
6.9526677658
 20
3.5040756088
 30
0.0
 10
6.9526678045
 20
3.5040669376
 30
0.0
 10
6.9526631661
 20
3.5040480141
 30
0.0
 10
6.9526516743
 20
3.5040327208
 30
0.0
 10
6.9526447916
 20
3.5040253289
 30
0.0
  0
SPLINE
  5
3FF
100
AcDbEntity
  8
0
100
AcDbSpline
 62
7
  6
CONTINUOUS
 70
0
 71
3
 72
29
 73
25
 74
0
 42
0.0000001
 43
0.0000001
 44
0.0000000001
 40
0.0
 40
0.0
 40
0.0
 40
0.0
 40
0.0021040258
 40
0.0048597316
 40
0.008305096
 40
0.0124460307
 40
0.022776379
 40
0.0357348259
 40
0.0511737201
 40
0.068944472
 40
0.0889141097
 40
0.1109611307
 40
0.1349850066
 40
0.1608953653
 40
0.2180930711
 40
0.2820887117
 40
0.3520730241
 40
0.4267669754
 40
0.5048668676
 40
0.585271024
 40
0.667132851
 40
0.7498631658
 40
0.8330687554
 40
1.0
 40
1.0
 40
1.0
 40
1.0
 10
6.9526447916
 20
3.5040253289
 30
0.0
 10
6.9526328281
 20
3.5040124803
 30
0.0
 10
6.9525998009
 20
3.5039880353
 30
0.0
 10
6.9525377701
 20
3.5039569673
 30
0.0
 10
6.9524568797
 20
3.5039265165
 30
0.0
 10
6.9523135786
 20
3.5038837123
 30
0.0
 10
6.9520897416
 20
3.5038347488
 30
0.0
 10
6.9517709213
 20
3.5037818151
 30
0.0
 10
6.9513888978
 20
3.5037317365
 30
0.0
 10
6.9509476696
 20
3.5036844866
 30
0.0
 10
6.9504507534
 20
3.503640191
 30
0.0
 10
6.9499012515
 20
3.5035988585
 30
0.0
 10
6.9493018511
 20
3.5035605864
 30
0.0
 10
6.9484092469
 20
3.5035121577
 30
0.0
 10
6.9471828206
 20
3.5034612126
 30
0.0
 10
6.9455881936
 20
3.5034175232
 30
0.0
 10
6.943847197
 20
3.503390686
 30
0.0
 10
6.9419883616
 20
3.5033787911
 30
0.0
 10
6.9400425537
 20
3.5033789244
 30
0.0
 10
6.9380369617
 20
3.5033876222
 30
0.0
 10
6.9359927633
 20
3.5034012995
 30
0.0
 10
6.9339252012
 20
3.5034166436
 30
0.0
 10
6.9311478305
 20
3.5034354593
 30
0.0
 10
6.9290606947
 20
3.5034436804
 30
0.0
 10
6.9276678242
 20
3.5034436804
 30
0.0
  0
LINE
  5
400
100
AcDbEntity
  8
0
100
AcDbLine
 62
7
  6
CONTINUOUS
 10
6.7839188551
 20
3.4640368873
 11
6.779837686
 21
3.462010943
  0
SPLINE
  5
401
100
AcDbEntity
  8
0
100
AcDbSpline
 62
7
  6
CONTINUOUS
 70
0
 71
3
 72
16
 73
12
 74
0
 42
0.0000001
 43
0.0000001
 44
0.0000000001
 40
0.0
 40
0.0
 40
0.0
 40
0.0
 40
0.3016731368
 40
0.4455738922
 40
0.5817737619
 40
0.7079214658
 40
0.8215018362
 40
0.8727394818
 40
0.919804097
 40
0.9623469376
 40
1.0
 40
1.0
 40
1.0
 40
1.0
 10
6.779837686
 20
3.462010943
 30
0.0
 10
6.7791644387
 20
3.4616237217
 30
0.0
 10
6.7781848682
 20
3.4610252722
 30
0.0
 10
6.7769410154
 20
3.4601906248
 30
0.0
 10
6.7760908549
 20
3.459581072
 30
0.0
 10
6.7753248032
 20
3.4589892327
 30
0.0
 10
6.7747522688
 20
3.4585055817
 30
0.0
 10
6.7743520153
 20
3.458134828
 30
0.0
 10
6.774094982
 20
3.4578789126
 30
0.0
 10
6.7738732777
 20
3.4576375296
 30
0.0
 10
6.7737424056
 20
3.4574775909
 30
0.0
 10
6.7736841967
 20
3.4574000748
 30
0.0
  0
LINE
  5
402
100
AcDbEntity
  8
0
100
AcDbLine
 62
7
  6
CONTINUOUS
 10
6.7736841967
 20
3.4574000748
 11
6.7730598332
 21
3.4563520589
  0
SPLINE
  5
403
100
AcDbEntity
  8
0
100
AcDbSpline
 62
7
  6
CONTINUOUS
 70
0
 71
3
 72
21
 73
17
 74
0
 42
0.0000001
 43
0.0000001
 44
0.0000000001
 40
0.0
 40
0.0
 40
0.0
 40
0.0
 40
0.2074231832
 40
0.3919288249
 40
0.4746520246
 40
0.5506304945
 40
0.6196632726
 40
0.6816896908
 40
0.7367932466
 40
0.7852904138
 40
0.8277748115
 40
0.8652540258
 40
0.8992109729
 40
0.931600537
 40
0.9645610534
 40
1.0
 40
1.0
 40
1.0
 40
1.0
 10
6.771617352
 20
3.4504804568
 30
0.0
 10
6.7712960773
 20
3.4503645546
 30
0.0
 10
6.7706843691
 20
3.4501581161
 30
0.0
 10
6.7699305036
 20
3.4499494856
 30
0.0
 10
6.7693777547
 20
3.4498311158
 30
0.0
 10
6.7690077177
 20
3.4497694256
 30
0.0
 10
6.7686686575
 20
3.4497320301
 30
0.0
 10
6.7683621014
 20
3.4497191501
 30
0.0
 10
6.768089226
 20
3.4497309995
 30
0.0
 10
6.7678508565
 20
3.449767495
 30
0.0
 10
6.7676474916
 20
3.4498288286
 30
0.0
 10
6.7674794996
 20
3.4499152037
 30
0.0
 10
6.7673479494
 20
3.4500271774
 30
0.0
 10
6.7672546657
 20
3.4501639711
 30
0.0
 10
6.7672007089
 20
3.4503227963
 30
0.0
 10
6.7671904765
 20
3.4504359479
 30
0.0
 10
6.7671904726
 20
3.4504943015
 30
0.0
  0
SPLINE
  5
404
100
AcDbEntity
  8
0
100
AcDbSpline
 62
7
  6
CONTINUOUS
 70
0
 71
3
 72
33
 73
29
 74
0
 42
0.0000001
 43
0.0000001
 44
0.0000000001
 40
0.0
 40
0.0
 40
0.0
 40
0.0
 40
0.0007074748
 40
0.0014717585
 40
0.0023447653
 40
0.0033596836
 40
0.0058816012
 40
0.0091138344
 40
0.0130725787
 40
0.0177540618
 40
0.023145211
 40
0.0292284695
 40
0.0433942657
 40
0.0600910625
 40
0.0791675072
 40
0.1004843277
 40
0.1239232443
 40
0.1493804613
 40
0.2060165683
 40
0.2698637497
 40
0.3401980775
 40
0.4157119432
 40
0.4949938702
 40
0.5768265043
 40
0.6602710724
 40
0.7446724912
 40
0.8295925187
 40
1.0
 40
1.0
 40
1.0
 40
1.0
 10
6.9026678863
 20
3.5045784067
 30
0.0
 10
6.9026678592
 20
3.5045724903
 30
0.0
 10
6.9026698325
 20
3.504560097
 30
0.0
 10
6.9026786524
 20
3.5045423347
 30
0.0
 10
6.9026928771
 20
3.504525132
 30
0.0
 10
6.9027209033
 20
3.5045009761
 30
0.0
 10
6.9027702661
 20
3.5044724961
 30
0.0
 10
6.9028452857
 20
3.5044411713
 30
0.0
 10
6.9029398408
 20
3.5044105744
 30
0.0
 10
6.9030533591
 20
3.5043807329
 30
0.0
 10
6.9031853358
 20
3.5043516759
 30
0.0
 10
6.9033960752
 20
3.5043119749
 30
0.0
 10
6.9037016731
 20
3.5042658563
 30
0.0
 10
6.9041163242
 20
3.5042158067
 30
0.0
 10
6.9045914679
 20
3.5041688251
 30
0.0
 10
6.9051234872
 20
3.5041248935
 30
0.0
 10
6.905709257
 20
3.50408411
 30
0.0
 10
6.9065902815
 20
3.5040321805
 30
0.0
 10
6.9078095712
 20
3.5039772504
 30
0.0
 10
6.9094046464
 20
3.5039288546
 30
0.0
 10
6.9111580507
 20
3.5038982362
 30
0.0
 10
6.913040724
 20
3.5038836648
 30
0.0
 10
6.9150196012
 20
3.5038822037
 30
0.0
 10
6.9170647791
 20
3.5038902047
 30
0.0
 10
6.9191527379
 20
3.5039038243
 30
0.0
 10
6.9212665017
 20
3.5039194963
 30
0.0
 10
6.9241075051
 20
3.5039389335
 30
0.0
 10
6.9262427472
 20
3.5039475307
 30
0.0
 10
6.9276678242
 20
3.5039475307
 30
0.0
  0
SPLINE
  5
405
100
AcDbEntity
  8
0
100
AcDbSpline
 62
7
  6
CONTINUOUS
 70
0
 71
3
 72
23
 73
19
 74
0
 42
0.0000001
 43
0.0000001
 44
0.0000000001
 40
0.0
 40
0.0
 40
0.0
 40
0.0
 40
0.0065731057
 40
0.0137426937
 40
0.0219529976
 40
0.0314974602
 40
0.0552163857
 40
0.0856720401
 40
0.1231112109
 40
0.1676168705
 40
0.2192158464
 40
0.2778965974
 40
0.3436410243
 40
0.4164256181
 40
0.4962250953
 40
0.5830278901
 40
0.7775891518
 40
1.0
 40
1.0
 40
1.0
 40
1.0
 10
6.8926679941
 20
3.503585014
 30
0.0
 10
6.8926680311
 20
3.5035999663
 30
0.0
 10
6.8926732039
 20
3.503631374
 30
0.0
 10
6.892695138
 20
3.5036767941
 30
0.0
 10
6.8927304875
 20
3.5037215499
 30
0.0
 10
6.892800358
 20
3.5037853746
 30
0.0
 10
6.8929242102
 20
3.5038624688
 30
0.0
 10
6.8931138369
 20
3.5039493735
 30
0.0
 10
6.8933545591
 20
3.5040362933
 30
0.0
 10
6.8936458098
 20
3.5041229828
 30
0.0
 10
6.8939872815
 20
3.5042091866
 30
0.0
 10
6.8943785081
 20
3.5042947092
 30
0.0
 10
6.894819091
 20
3.5043793829
 30
0.0
 10
6.8953086645
 20
3.5044630735
 30
0.0
 10
6.8958469354
 20
3.5045456757
 30
0.0
 10
6.8966607282
 20
3.5046585749
 30
0.0
 10
6.8977987061
 20
3.504794527
 30
0.0
 10
6.8987424645
 20
3.5048898197
 30
0.0
 10
6.8992461713
 20
3.5049372328
 30
0.0
  0
LINE
  5
406
100
AcDbEntity
  8
0
100
AcDbLine
 62
7
  6
CONTINUOUS
 10
6.962444344
 20
3.5033355449
 11
6.9615826153
 21
3.5036456287
  0
LINE
  5
407
100
AcDbEntity
  8
0
100
AcDbLine
 62
7
  6
CONTINUOUS
 10
6.9615826153
 20
3.5036456287
 11
6.9569266509
 21
3.504352653
  0
SPLINE
  5
408
100
AcDbEntity
  8
0
100
AcDbSpline
 62
7
  6
CONTINUOUS
 70
0
 71
3
 72
32
 73
28
 74
0
 42
0.0000001
 43
0.0000001
 44
0.0000000001
 40
0.0
 40
0.0
 40
0.0
 40
0.0
 40
0.0156260219
 40
0.0312532979
 40
0.0468797281
 40
0.0625072691
 40
0.0781353229
 40
0.09376352
 40
0.1250029367
 40
0.1562484463
 40
0.1874977654
 40
0.218748968
 40
0.250000742
 40
0.2812531069
 40
0.3125060832
 40
0.3437582347
 40
0.3750108305
 40
0.4375075524
 40
0.5000062052
 40
0.5625055603
 40
0.6250051347
 40
0.6562565036
 40
0.6875074165
 40
0.7500076782
 40
0.8125074567
 40
0.8750077515
 40
1.0
 40
1.0
 40
1.0
 40
1.0
 10
6.8232722423
 20
4.0947680261
 30
0.0
 10
6.8232722423
 20
4.0953904511
 30
0.0
 10
6.8233393359
 20
4.0966363704
 30
0.0
 10
6.8236374455
 20
4.0984830464
 30
0.0
 10
6.8241227364
 20
4.100289546
 30
0.0
 10
6.8247798
 20
4.1020404291
 30
0.0
 10
6.8255908805
 20
4.1037252149
 30
0.0
 10
6.8268523428
 20
4.1058739645
 30
0.0
 10
6.8287239975
 20
4.1083729373
 30
0.0
 10
6.8313149224
 20
4.1110712015
 30
0.0
 10
6.8341614509
 20
4.113496095
 30
0.0
 10
6.8371979569
 20
4.115675929
 30
0.0
 10
6.840377907
 20
4.1176389701
 30
0.0
 10
6.843667849
 20
4.1194102296
 30
0.0
 10
6.8470434344
 20
4.1210111911
 30
0.0
 10
6.8504863317
 20
4.1224610001
 30
0.0
 10
6.8551482152
 20
4.1242127783
 30
0.0
 10
6.8610840207
 20
4.1260989004
 30
0.0
 10
6.8683192012
 20
4.12796253
 30
0.0
 10
6.875631755
 20
4.1294916723
 30
0.0
 10
6.8817700014
 20
4.1305289037
 30
0.0
 10
6.8866990268
 20
4.1312347975
 30
0.0
 10
6.8916384767
 20
4.1318639466
 30
0.0
 10
6.8978291816
 20
4.1325140595
 30
0.0
 10
6.9052755957
 20
4.1330998766
 30
0.0
 10
6.9152193146
 20
4.1336419947
 30
0.0
 10
6.922689058
 20
4.1337992636
 30
0.0
 10
6.9276678242
 20
4.1337992636
 30
0.0
  0
SPLINE
  5
409
100
AcDbEntity
  8
0
100
AcDbSpline
 62
7
  6
CONTINUOUS
 70
0
 71
3
 72
47
 73
43
 74
0
 42
0.0000001
 43
0.0000001
 44
0.0000000001
 40
0.0
 40
0.0
 40
0.0
 40
0.0
 40
0.0254829578
 40
0.0501736239
 40
0.0735711995
 40
0.095512943
 40
0.1160577491
 40
0.1353613064
 40
0.153601547
 40
0.1709463065
 40
0.1875422365
 40
0.2035129966
 40
0.218961856
 40
0.2339743123
 40
0.2629526649
 40
0.2908933417
 40
0.3180978876
 40
0.3447786341
 40
0.3710868361
 40
0.3971317168
 40
0.4487186703
 40
0.5000000104
 40
0.551281354
 40
0.6028683405
 40
0.6289132274
 40
0.655221423
 40
0.6819021524
 40
0.7091066846
 40
0.7370473501
 40
0.7660256874
 40
0.7810381357
 40
0.7964869882
 40
0.8124577406
 40
0.8290536605
 40
0.8463984151
 40
0.86463866
 40
0.8839422155
 40
0.9044870268
 40
0.9264287692
 40
0.9498263527
 40
0.9745170189
 40
1.0
 40
1.0
 40
1.0
 40
1.0
 10
6.6319003884
 20
4.0947680261
 30
0.0
 10
6.6319003884
 20
4.0960059124
 30
0.0
 10
6.6320306764
 20
4.0984452303
 30
0.0
 10
6.6325960926
 20
4.1019802573
 30
0.0
 10
6.6334710994
 20
4.1052734352
 30
0.0
 10
6.6345859215
 20
4.1082783018
 30
0.0
 10
6.6358789814
 20
4.1109912258
 30
0.0
 10
6.6373030379
 20
4.1134308414
 30
0.0
 10
6.6388239563
 20
4.1156239008
 30
0.0
 10
6.6404174121
 20
4.1175978916
 30
0.0
 10
6.6420661255
 20
4.1193779655
 30
0.0
 10
6.6437576765
 20
4.1209859942
 30
0.0
 10
6.6454825766
 20
4.1224412947
 30
0.0
 10
6.647790473
 20
4.1241784282
 30
0.0
 10
6.6507407807
 20
4.1260620412
 30
0.0
 10
6.654375368
 20
4.1279402986
 30
0.0
 10
6.6580445943
 20
4.1294785574
 30
0.0
 10
6.6617371644
 20
4.1307285099
 30
0.0
 10
6.6654460116
 20
4.1317294344
 30
0.0
 10
6.6703890929
 20
4.1327690444
 30
0.0
 10
6.6766079872
 20
4.1335880969
 30
0.0
 10
6.6840981807
 20
4.1339045326
 30
0.0
 10
6.6915883768
 20
4.1335880991
 30
0.0
 10
6.6978072708
 20
4.1327690343
 30
0.0
 10
6.7027503571
 20
4.1317294399
 30
0.0
 10
6.7064592002
 20
4.1307285028
 30
0.0
 10
6.7101517694
 20
4.1294785542
 30
0.0
 10
6.7138209946
 20
4.1279402976
 30
0.0
 10
6.7174555797
 20
4.1260620405
 30
0.0
 10
6.7204058857
 20
4.1241784278
 30
0.0
 10
6.722713781
 20
4.1224412953
 30
0.0
 10
6.7244386805
 20
4.1209859957
 30
0.0
 10
6.7261302302
 20
4.1193779674
 30
0.0
 10
6.727778944
 20
4.1175978954
 30
0.0
 10
6.7293723995
 20
4.1156239049
 30
0.0
 10
6.7308933177
 20
4.1134308457
 30
0.0
 10
6.7323173749
 20
4.11099123
 30
0.0
 10
6.7336104353
 20
4.1082783061
 30
0.0
 10
6.734725258
 20
4.1052734392
 30
0.0
 10
6.7356002654
 20
4.1019802611
 30
0.0
 10
6.736165682
 20
4.0984452325
 30
0.0
 10
6.7362959702
 20
4.0960059135
 30
0.0
 10
6.7362959702
 20
4.0947680261
 30
0.0
  0
SPLINE
  5
40A
100
AcDbEntity
  8
0
100
AcDbSpline
 62
7
  6
CONTINUOUS
 70
0
 71
3
 72
18
 73
14
 74
0
 42
0.0000001
 43
0.0000001
 44
0.0000000001
 40
0.0
 40
0.0
 40
0.0
 40
0.0
 40
0.0302226466
 40
0.0657341257
 40
0.1065256976
 40
0.1525066968
 40
0.2035047655
 40
0.2592890359
 40
0.3840326812
 40
0.5239938532
 40
0.675851564
 40
0.8358544321
 40
1.0
 40
1.0
 40
1.0
 40
1.0
 10
6.9026678242
 20
3.4997355495
 30
0.0
 10
6.9027750704
 20
3.4996786757
 30
0.0
 10
6.9030163762
 20
3.499570128
 30
0.0
 10
6.9034202569
 20
3.4994279517
 30
0.0
 10
6.9038932263
 20
3.499294468
 30
0.0
 10
6.9044327382
 20
3.4991706165
 30
0.0
 10
6.9050359062
 20
3.4990572318
 30
0.0
 10
6.9059551964
 20
3.4989158927
 30
0.0
 10
6.9072354086
 20
3.4987754852
 30
0.0
 10
6.9089052566
 20
3.4986641595
 30
0.0
 10
6.910719552
 20
3.4986082183
 30
0.0
 10
6.9126317694
 20
3.4986094429
 30
0.0
 10
6.9139333903
 20
3.498648318
 30
0.0
 10
6.9145920642
 20
3.4986773583
 30
0.0
  0
SPLINE
  5
40B
100
AcDbEntity
  8
0
100
AcDbSpline
 62
7
  6
CONTINUOUS
 70
0
 71
3
 72
47
 73
43
 74
0
 42
0.0000001
 43
0.0000001
 44
0.0000000001
 40
0.0
 40
0.0
 40
0.0
 40
0.0
 40
0.0254829583
 40
0.0501736243
 40
0.0735711999
 40
0.0955129433
 40
0.1160577494
 40
0.1353613068
 40
0.1536015474
 40
0.1709463069
 40
0.1875422367
 40
0.2035129966
 40
0.2189618558
 40
0.233974312
 40
0.2629526641
 40
0.2908933406
 40
0.3180978859
 40
0.3447786321
 40
0.3710868342
 40
0.3971317151
 40
0.4487186692
 40
0.5000000093
 40
0.5512813529
 40
0.6028683398
 40
0.628913227
 40
0.6552214228
 40
0.6819021523
 40
0.7091066845
 40
0.73704735
 40
0.7660256871
 40
0.7810381352
 40
0.7964869877
 40
0.8124577399
 40
0.8290536598
 40
0.8463984144
 40
0.8646386596
 40
0.8839422152
 40
0.9044870266
 40
0.9264287688
 40
0.9498263524
 40
0.9745170185
 40
1.0
 40
1.0
 40
1.0
 40
1.0
 10
7.1190396781
 20
4.0947680261
 30
0.0
 10
7.1190396781
 20
4.0960059124
 30
0.0
 10
7.119169966
 20
4.0984452303
 30
0.0
 10
7.1197353823
 20
4.1019802574
 30
0.0
 10
7.120610389
 20
4.1052734353
 30
0.0
 10
7.1217252111
 20
4.1082783018
 30
0.0
 10
7.123018271
 20
4.1109912258
 30
0.0
 10
7.1244423275
 20
4.1134308415
 30
0.0
 10
7.1259632459
 20
4.1156239008
 30
0.0
 10
7.1275567017
 20
4.1175978916
 30
0.0
 10
7.1292054152
 20
4.1193779655
 30
0.0
 10
7.1308969661
 20
4.1209859942
 30
0.0
 10
7.1326218663
 20
4.1224412947
 30
0.0
 10
7.1349297625
 20
4.1241784282
 30
0.0
 10
7.1378800703
 20
4.1260620412
 30
0.0
 10
7.1415146574
 20
4.1279402986
 30
0.0
 10
7.1451838837
 20
4.1294785573
 30
0.0
 10
7.1488764538
 20
4.1307285097
 30
0.0
 10
7.1525853009
 20
4.1317294345
 30
0.0
 10
7.1575283823
 20
4.1327690442
 30
0.0
 10
7.1637472766
 20
4.1335880969
 30
0.0
 10
7.1712374702
 20
4.1339045326
 30
0.0
 10
7.1787276663
 20
4.1335880992
 30
0.0
 10
7.1849465603
 20
4.1327690344
 30
0.0
 10
7.1898896467
 20
4.1317294399
 30
0.0
 10
7.1935984898
 20
4.1307285028
 30
0.0
 10
7.197291059
 20
4.1294785542
 30
0.0
 10
7.2009602842
 20
4.1279402976
 30
0.0
 10
7.2045948694
 20
4.1260620405
 30
0.0
 10
7.2075451753
 20
4.1241784278
 30
0.0
 10
7.2098530706
 20
4.1224412954
 30
0.0
 10
7.2115779701
 20
4.1209859957
 30
0.0
 10
7.2132695198
 20
4.1193779675
 30
0.0
 10
7.2149182336
 20
4.1175978955
 30
0.0
 10
7.2165116891
 20
4.115623905
 30
0.0
 10
7.2180326073
 20
4.1134308457
 30
0.0
 10
7.2194566645
 20
4.1109912301
 30
0.0
 10
7.2207497249
 20
4.1082783061
 30
0.0
 10
7.2218645476
 20
4.1052734392
 30
0.0
 10
7.222739555
 20
4.1019802611
 30
0.0
 10
7.2233049716
 20
4.0984452326
 30
0.0
 10
7.2234352599
 20
4.0960059135
 30
0.0
 10
7.2234352599
 20
4.0947680261
 30
0.0
  0
SPLINE
  5
40C
100
AcDbEntity
  8
0
100
AcDbSpline
 62
7
  6
CONTINUOUS
 70
0
 71
3
 72
31
 73
27
 74
0
 42
0.0000001
 43
0.0000001
 44
0.0000000001
 40
0.0
 40
0.0
 40
0.0
 40
0.0
 40
0.124992586
 40
0.1874930605
 40
0.2499928816
 40
0.3124931593
 40
0.374993558
 40
0.4374931914
 40
0.4999925749
 40
0.562491265
 40
0.6249880382
 40
0.6562407101
 40
0.6874928803
 40
0.7187458961
 40
0.7499983577
 40
0.7812501914
 40
0.8125014604
 40
0.8437508768
 40
0.874996512
 40
0.9062360528
 40
0.9218643065
 40
0.9374924369
 40
0.9531200451
 40
0.9687465292
 40
0.9843739039
 40
1.0
 40
1.0
 40
1.0
 40
1.0
 10
6.9276678242
 20
4.1337992636
 30
0.0
 10
6.9326465942
 20
4.1337992636
 30
0.0
 10
6.9401163477
 20
4.1336419912
 30
0.0
 10
6.9500600595
 20
4.1330998752
 30
0.0
 10
6.9575065017
 20
4.1325140841
 30
0.0
 10
6.9649351798
 20
4.1317337936
 30
0.0
 10
6.9723380898
 20
4.1307361889
 30
0.0
 10
6.9797038548
 20
4.1294917216
 30
0.0
 10
6.9870164195
 20
4.1279625218
 30
0.0
 10
6.9942515861
 20
4.1260989125
 30
0.0
 10
7.0001873848
 20
4.1242127811
 30
0.0
 10
7.0048492729
 20
4.1224610262
 30
0.0
 10
7.0082921643
 20
4.1210112073
 30
0.0
 10
7.0116677505
 20
4.1194102506
 30
0.0
 10
7.0149576995
 20
4.1176390024
 30
0.0
 10
7.0181376494
 20
4.1156759572
 30
0.0
 10
7.0211741568
 20
4.1134961225
 30
0.0
 10
7.0240206925
 20
4.1110712309
 30
0.0
 10
7.026611626
 20
4.1083729656
 30
0.0
 10
7.028483288
 20
4.1058739904
 30
0.0
 10
7.0297447557
 20
4.1037252377
 30
0.0
 10
7.0305558406
 20
4.102040449
 30
0.0
 10
7.0312129064
 20
4.1002895622
 30
0.0
 10
7.0316982001
 20
4.0984830579
 30
0.0
 10
7.0319963111
 20
4.0966363766
 30
0.0
 10
7.032063406
 20
4.0953904529
 30
0.0
 10
7.032063406
 20
4.0947680261
 30
0.0
  0
SPLINE
  5
40D
100
AcDbEntity
  8
0
100
AcDbSpline
 62
7
  6
CONTINUOUS
 70
0
 71
3
 72
14
 73
10
 74
0
 42
0.0000001
 43
0.0000001
 44
0.0000000001
 40
0.0
 40
0.0
 40
0.0
 40
0.0
 40
0.0851337268
 40
0.1842710969
 40
0.2967939701
 40
0.4214586406
 40
0.55648955
 40
0.6996724605
 40
1.0
 40
1.0
 40
1.0
 40
1.0
 10
6.9026678242
 20
3.489968275
 30
0.0
 10
6.9028365671
 20
3.4898773899
 30
0.0
 10
6.9032174777
 20
3.4897096282
 30
0.0
 10
6.9038549799
 20
3.4895068352
 30
0.0
 10
6.9045938206
 20
3.489337854
 30
0.0
 10
6.9054219948
 20
3.4892067128
 30
0.0
 10
6.906324986
 20
3.4891166542
 30
0.0
 10
6.9076263145
 20
3.48905369
 30
0.0
 10
6.9086263251
 20
3.4890756432
 30
0.0
 10
6.9093010737
 20
3.4891188216
 30
0.0
  0
SPLINE
  5
40E
100
AcDbEntity
  8
0
100
AcDbSpline
 62
7
  6
CONTINUOUS
 70
0
 71
3
 72
18
 73
14
 74
0
 42
0.0000001
 43
0.0000001
 44
0.0000000001
 40
0.0
 40
0.0
 40
0.0
 40
0.0
 40
0.1641420469
 40
0.3241413868
 40
0.4759955971
 40
0.6159534957
 40
0.7406948534
 40
0.7964787719
 40
0.8474771892
 40
0.8934595783
 40
0.934254013
 40
0.9697702045
 40
1.0
 40
1.0
 40
1.0
 40
1.0
 10
6.9145920642
 20
3.4981645392
 30
0.0
 10
6.9139333835
 20
3.4981354483
 30
0.0
 10
6.9126317465
 20
3.4980965056
 30
0.0
 10
6.9107195032
 20
3.4980952798
 30
0.0
 10
6.9089051873
 20
3.4981513207
 30
0.0
 10
6.9072353286
 20
3.4982628428
 30
0.0
 10
6.9059551198
 20
3.4984034965
 30
0.0
 10
6.9050358431
 20
3.4985450807
 30
0.0
 10
6.904432684
 20
3.4986586617
 30
0.0
 10
6.9038931817
 20
3.4987827271
 30
0.0
 10
6.9034202212
 20
3.4989164409
 30
0.0
 10
6.9030163471
 20
3.4990588622
 30
0.0
 10
6.902775059
 20
3.4991675913
 30
0.0
 10
6.9026678242
 20
3.4992245568
 30
0.0
  0
LINE
  5
40F
100
AcDbEntity
  8
0
100
AcDbLine
 62
7
  6
CONTINUOUS
 10
6.7941710982
 20
3.4644002923
 11
6.7943691499
 21
3.4640158763
  0
SPLINE
  5
410
100
AcDbEntity
  8
0
100
AcDbSpline
 62
7
  6
CONTINUOUS
 70
0
 71
3
 72
9
 73
5
 74
0
 42
0.0000001
 43
0.0000001
 44
0.0000000001
 40
0.0
 40
0.0
 40
0.0
 40
0.0
 40
0.2434836775
 40
1.0
 40
1.0
 40
1.0
 40
1.0
 10
6.7943691499
 20
3.4640158763
 30
0.0
 10
6.7943744755
 20
3.4640120846
 30
0.0
 10
6.794396607
 20
3.4639968772
 30
0.0
 10
6.7944197264
 20
3.4639831213
 30
0.0
 10
6.7944376069
 20
3.4639734838
 30
0.0
  0
SPLINE
  5
411
100
AcDbEntity
  8
0
100
AcDbSpline
 62
7
  6
CONTINUOUS
 70
0
 71
3
 72
58
 73
54
 74
0
 42
0.0000001
 43
0.0000001
 44
0.0000000001
 40
0.0
 40
0.0
 40
0.0
 40
0.0
 40
0.015546083
 40
0.0311740505
 40
0.0469031048
 40
0.0627621771
 40
0.0787868336
 40
0.0950221612
 40
0.1115215543
 40
0.1283367329
 40
0.1368798401
 40
0.1455063939
 40
0.154205718
 40
0.1629586291
 40
0.17173821
 40
0.1805133502
 40
0.1892536312
 40
0.1979340872
 40
0.2065379513
 40
0.2150565519
 40
0.2318247298
 40
0.24828341
 40
0.2644859703
 40
0.2804847807
 40
0.2963237096
 40
0.312037194
 40
0.3276517717
 40
0.3431883409
 40
0.3586624862
 40
0.3894657682
 40
0.4201381017
 40
0.4507234189
 40
0.4659937028
 40
0.4812517798
 40
0.5117395193
 40
0.5422005944
 40
0.5574245181
 40
0.5726447357
 40
0.6030767898
 40
0.6335019234
 40
0.6639235892
 40
0.6943448889
 40
0.7247686913
 40
0.7551984876
 40
0.7856382592
 40
0.8160937962
 40
0.8313301938
 40
0.8465739728
 40
0.877088369
 40
0.907655137
 40
0.9382997991
 40
0.9690611537
 40
1.0
 40
1.0
 40
1.0
 40
1.0
 10
6.7019161847
 20
2.2492783354
 30
0.0
 10
6.7007709813
 20
2.2487908748
 30
0.0
 10
6.6984956517
 20
2.2477626285
 30
0.0
 10
6.6951541371
 20
2.2460456125
 30
0.0
 10
6.6918951188
 20
2.2441255128
 30
0.0
 10
6.6887451365
 20
2.2419729085
 30
0.0
 10
6.6857418897
 20
2.2395526081
 30
0.0
 10
6.6829402001
 20
2.2368243105
 30
0.0
 10
6.6804212327
 20
2.2337472912
 30
0.0
 10
6.6786637142
 20
2.2308774452
 30
0.0
 10
6.6775352311
 20
2.2283983979
 30
0.0
 10
6.6768469702
 20
2.2264418132
 30
0.0
 10
6.6763443034
 20
2.2244118819
 30
0.0
 10
6.6760466305
 20
2.2223291939
 30
0.0
 10
6.6759669219
 20
2.2202206073
 30
0.0
 10
6.6761088271
 20
2.2181163349
 30
0.0
 10
6.6764658932
 20
2.216046006
 30
0.0
 10
6.6770229914
 20
2.2140349519
 30
0.0
 10
6.6777594888
 20
2.2121018065
 30
0.0
 10
6.6789433625
 20
2.2096572635
 30
0.0
 10
6.6807549582
 20
2.2068328024
 30
0.0
 10
6.6833198537
 20
2.2038072894
 30
0.0
 10
6.6861541064
 20
2.201124913
 30
0.0
 10
6.6891808493
 20
2.1987446197
 30
0.0
 10
6.6923481919
 20
2.1966267529
 30
0.0
 10
6.6956202707
 20
2.1947370783
 30
0.0
 10
6.698971725
 20
2.1930464201
 30
0.0
 10
6.7023845397
 20
2.191530848
 30
0.0
 10
6.706991255
 20
2.1897192867
 30
0.0
 10
6.7128490829
 20
2.1877941176
 30
0.0
 10
6.7199812785
 20
2.1859219077
 30
0.0
 10
6.7259793787
 20
2.1846613222
 30
0.0
 10
6.7307966563
 20
2.183803644
 30
0.0
 10
6.735621522
 20
2.1830378472
 30
0.0
 10
6.7416713136
 20
2.1822388372
 30
0.0
 10
6.7477389555
 20
2.1816188537
 30
0.0
 10
6.7525986525
 20
2.1812177232
 30
0.0
 10
6.7574605088
 20
2.1808752778
 30
0.0
 10
6.7635433139
 20
2.180552654
 30
0.0
 10
6.7708478808
 20
2.1803178601
 30
0.0
 10
6.7781547903
 20
2.1802281612
 30
0.0
 10
6.7854619609
 20
2.1802786127
 30
0.0
 10
6.7927674022
 20
2.1804728638
 30
0.0
 10
6.8000689084
 20
2.1808163215
 30
0.0
 10
6.8073634947
 20
2.1813236086
 30
0.0
 10
6.8134324127
 20
2.1818971692
 30
0.0
 10
6.8182785467
 20
2.1824602117
 30
0.0
 10
6.8231201841
 20
2.1830977164
 30
0.0
 10
6.8291581344
 20
2.1840464871
 30
0.0
 10
6.8363647784
 20
2.1854695072
 30
0.0
 10
6.8435169924
 20
2.1872347089
 30
0.0
 10
6.8505856378
 20
2.1894162269
 30
0.0
 10
6.8551958723
 20
2.1912084278
 30
0.0
 10
6.8574614873
 20
2.1922096586
 30
0.0
  0
LINE
  5
412
100
AcDbEntity
  8
0
100
AcDbLine
 62
7
  6
CONTINUOUS
 10
6.7522184026
 20
3.4505491722
 11
6.7530680276
 21
3.4511296002
  0
LINE
  5
413
100
AcDbEntity
  8
0
100
AcDbLine
 62
7
  6
CONTINUOUS
 10
6.7530680276
 20
3.4511296002
 11
6.7560569855
 21
3.4531890031
  0
SPLINE
  5
414
100
AcDbEntity
  8
0
100
AcDbSpline
 62
7
  6
CONTINUOUS
 70
0
 71
3
 72
58
 73
54
 74
0
 42
0.0000001
 43
0.0000001
 44
0.0000000001
 40
0.0
 40
0.0
 40
0.0
 40
0.0
 40
0.015546083
 40
0.0311740505
 40
0.0469031048
 40
0.0627621772
 40
0.0787868337
 40
0.0950221613
 40
0.1115215545
 40
0.1283367331
 40
0.1368798403
 40
0.1455063942
 40
0.1542057183
 40
0.1629586293
 40
0.1717382103
 40
0.1805133505
 40
0.1892536314
 40
0.1979340874
 40
0.2065379515
 40
0.2150565521
 40
0.2318247299
 40
0.24828341
 40
0.2644859701
 40
0.2804847805
 40
0.2963237093
 40
0.3120371938
 40
0.3276517714
 40
0.3431883406
 40
0.3586624858
 40
0.3894657678
 40
0.4201381012
 40
0.4507234184
 40
0.4659937023
 40
0.4812517793
 40
0.5117395189
 40
0.542200594
 40
0.5574245177
 40
0.5726447353
 40
0.6030767893
 40
0.633501923
 40
0.6639235888
 40
0.6943448885
 40
0.7247686909
 40
0.7551984872
 40
0.7856382588
 40
0.8160937958
 40
0.8313301934
 40
0.8465739724
 40
0.8770883687
 40
0.9076551367
 40
0.9382997989
 40
0.9690611535
 40
1.0
 40
1.0
 40
1.0
 40
1.0
 10
6.9989161847
 20
2.2492783354
 30
0.0
 10
6.9977709813
 20
2.2487908748
 30
0.0
 10
6.9954956516
 20
2.2477626285
 30
0.0
 10
6.992154137
 20
2.2460456124
 30
0.0
 10
6.9888951186
 20
2.2441255127
 30
0.0
 10
6.9857451362
 20
2.2419729084
 30
0.0
 10
6.9827418894
 20
2.2395526079
 30
0.0
 10
6.9799401998
 20
2.2368243101
 30
0.0
 10
6.9774212323
 20
2.2337472908
 30
0.0
 10
6.9756637139
 20
2.2308774446
 30
0.0
 10
6.9745352308
 20
2.2283983972
 30
0.0
 10
6.97384697
 20
2.2264418125
 30
0.0
 10
6.9733443032
 20
2.2244118811
 30
0.0
 10
6.9730466304
 20
2.2223291931
 30
0.0
 10
6.9729669219
 20
2.2202206064
 30
0.0
 10
6.9731088272
 20
2.218116334
 30
0.0
 10
6.9734658934
 20
2.2160460051
 30
0.0
 10
6.9740229918
 20
2.214034951
 30
0.0
 10
6.9747594892
 20
2.2121018055
 30
0.0
 10
6.975943363
 20
2.2096572626
 30
0.0
 10
6.9777549589
 20
2.2068328015
 30
0.0
 10
6.9803198545
 20
2.2038072885
 30
0.0
 10
6.9831541073
 20
2.2011249122
 30
0.0
 10
6.9861808503
 20
2.1987446189
 30
0.0
 10
6.9893481931
 20
2.1966267522
 30
0.0
 10
6.992620272
 20
2.1947370776
 30
0.0
 10
6.9959717263
 20
2.1930464194
 30
0.0
 10
6.9993845411
 20
2.1915308474
 30
0.0
 10
7.0039912566
 20
2.1897192861
 30
0.0
 10
7.0098490846
 20
2.1877941171
 30
0.0
 10
7.0169812804
 20
2.1859219073
 30
0.0
 10
7.0229793807
 20
2.1846613218
 30
0.0
 10
7.0277966585
 20
2.1838036437
 30
0.0
 10
7.0326215243
 20
2.1830378469
 30
0.0
 10
7.038671316
 20
2.1822388369
 30
0.0
 10
7.044738958
 20
2.1816188534
 30
0.0
 10
7.0495986551
 20
2.181217723
 30
0.0
 10
7.0544605115
 20
2.1808752776
 30
0.0
 10
7.0605433168
 20
2.1805526538
 30
0.0
 10
7.0678478838
 20
2.18031786
 30
0.0
 10
7.0751547935
 20
2.1802281611
 30
0.0
 10
7.0824619642
 20
2.1802786128
 30
0.0
 10
7.0897674056
 20
2.180472864
 30
0.0
 10
7.097068912
 20
2.1808163217
 30
0.0
 10
7.1043634984
 20
2.1813236089
 30
0.0
 10
7.1104324165
 20
2.1818971696
 30
0.0
 10
7.1152785506
 20
2.1824602122
 30
0.0
 10
7.1201201882
 20
2.1830977169
 30
0.0
 10
7.1261581385
 20
2.1840464878
 30
0.0
 10
7.1333647826
 20
2.1854695082
 30
0.0
 10
7.1405169968
 20
2.1872347101
 30
0.0
 10
7.1475856422
 20
2.1894162284
 30
0.0
 10
7.1521958768
 20
2.1912084296
 30
0.0
 10
7.1544614918
 20
2.1922096605
 30
0.0
  0
SPLINE
  5
415
100
AcDbEntity
  8
0
100
AcDbSpline
 62
7
  6
CONTINUOUS
 70
0
 71
3
 72
18
 73
14
 74
0
 42
0.0000001
 43
0.0000001
 44
0.0000000001
 40
0.0
 40
0.0
 40
0.0
 40
0.0
 40
0.0301616266
 40
0.0656179873
 40
0.1063637629
 40
0.1523100943
 40
0.2032854142
 40
0.2590588129
 40
0.383812164
 40
0.5238146015
 40
0.6757302259
 40
0.8357948628
 40
1.0
 40
1.0
 40
1.0
 40
1.0
 10
6.9551678242
 20
3.4990036067
 30
0.0
 10
6.9550605481
 20
3.4989474802
 30
0.0
 10
6.954819154
 20
3.4988406658
 30
0.0
 10
6.9544151872
 20
3.4987015271
 30
0.0
 10
6.9539420889
 20
3.498571685
 30
0.0
 10
6.953402405
 20
3.498452064
 30
0.0
 10
6.9527990266
 20
3.4983434795
 30
0.0
 10
6.951879321
 20
3.4982095364
 30
0.0
 10
6.9505986547
 20
3.4980796213
 30
0.0
 10
6.9489285599
 20
3.4979821991
 30
0.0
 10
6.9471143604
 20
3.4979415276
 30
0.0
 10
6.9452027133
 20
3.4979589579
 30
0.0
 10
6.9439018082
 20
3.4980089027
 30
0.0
 10
6.9432435841
 20
3.4980435457
 30
0.0
  0
SPLINE
  5
416
100
AcDbEntity
  8
0
100
AcDbSpline
 62
7
  6
CONTINUOUS
 70
0
 71
3
 72
33
 73
29
 74
0
 42
0.0000001
 43
0.0000001
 44
0.0000000001
 40
0.0
 40
0.0
 40
0.0
 40
0.0
 40
0.1704070881
 40
0.2553269826
 40
0.3397280117
 40
0.4231721741
 40
0.5050042257
 40
0.5842853968
 40
0.6597978694
 40
0.7301317375
 40
0.793976233
 40
0.8506120282
 40
0.8760690815
 40
0.8995076314
 40
0.9208247179
 40
0.9399009287
 40
0.9565982446
 40
0.9707641219
 40
0.9768475284
 40
0.9822389056
 40
0.986920882
 40
0.9908807301
 40
0.994114723
 40
0.9966381163
 40
0.9976534852
 40
0.9985267961
 40
0.9992914813
 40
1.0
 40
1.0
 40
1.0
 40
1.0
 10
6.9276678242
 20
3.5034436804
 30
0.0
 10
6.9262427364
 20
3.5034436804
 30
0.0
 10
6.9241074777
 20
3.503435069
 30
0.0
 10
6.9212664542
 20
3.5034155986
 30
0.0
 10
6.9191526774
 20
3.5033999007
 30
0.0
 10
6.9170647097
 20
3.5033862579
 30
0.0
 10
6.9150195263
 20
3.5033782448
 30
0.0
 10
6.9130406523
 20
3.5033797061
 30
0.0
 10
6.9111579824
 20
3.5033943091
 30
0.0
 10
6.9094045993
 20
3.5034249636
 30
0.0
 10
6.9078095402
 20
3.5034734594
 30
0.0
 10
6.9065902684
 20
3.5035284719
 30
0.0
 10
6.9057092473
 20
3.5035804873
 30
0.0
 10
6.9051234788
 20
3.5036213423
 30
0.0
 10
6.9045914627
 20
3.5036653433
 30
0.0
 10
6.9041163176
 20
3.5037124073
 30
0.0
 10
6.9037016688
 20
3.5037625364
 30
0.0
 10
6.903396073
 20
3.5038087332
 30
0.0
 10
6.9031853401
 20
3.5038485011
 30
0.0
 10
6.9030533654
 20
3.5038776076
 30
0.0
 10
6.9029398435
 20
3.5039075002
 30
0.0
 10
6.9028452747
 20
3.5039381498
 30
0.0
 10
6.9027702353
 20
3.5039695219
 30
0.0
 10
6.9027208581
 20
3.5039980439
 30
0.0
 10
6.9026928423
 20
3.5040222419
 30
0.0
 10
6.9026786376
 20
3.5040394761
 30
0.0
 10
6.9026698648
 20
3.504057281
 30
0.0
 10
6.902667929
 20
3.5040696902
 30
0.0
 10
6.9026679638
 20
3.5040756153
 30
0.0
  0
SPLINE
  5
417
100
AcDbEntity
  8
0
100
AcDbSpline
 62
7
  6
CONTINUOUS
 70
0
 71
3
 72
23
 73
19
 74
0
 42
0.0000001
 43
0.0000001
 44
0.0000000001
 40
0.0
 40
0.0
 40
0.0
 40
0.0
 40
0.0631208806
 40
0.1260756036
 40
0.1888414225
 40
0.2514072799
 40
0.3137747991
 40
0.3759646706
 40
0.4380191276
 40
0.4999999892
 40
0.5619808418
 40
0.6240352897
 40
0.6862251836
 40
0.7485927241
 40
0.8111585906
 40
0.8739244136
 40
0.93687913
 40
1.0
 40
1.0
 40
1.0
 40
1.0
 10
6.9989161847
 20
2.2492783354
 30
0.0
 10
7.0020140398
 20
2.2505969503
 30
0.0
 10
7.0082333267
 20
2.2531572958
 30
0.0
 10
7.017660156
 20
2.2567110889
 30
0.0
 10
7.027184252
 20
2.2599062757
 30
0.0
 10
7.0368110332
 20
2.2626696129
 30
0.0
 10
7.0465390026
 20
2.2649254005
 30
0.0
 10
7.0563571665
 20
2.2666009628
 30
0.0
 10
7.0662438844
 20
2.2676345193
 30
0.0
 10
7.0761678219
 20
2.2679840292
 30
0.0
 10
7.086091759
 20
2.2676345196
 30
0.0
 10
7.0959784772
 20
2.2666009636
 30
0.0
 10
7.1057966429
 20
2.2649254012
 30
0.0
 10
7.1155246151
 20
2.2626696127
 30
0.0
 10
7.125151398
 20
2.2599062751
 30
0.0
 10
7.1346754945
 20
2.2567110887
 30
0.0
 10
7.1441023226
 20
2.2531572942
 30
0.0
 10
7.1503216091
 20
2.2505969501
 30
0.0
 10
7.1534194636
 20
2.2492783354
 30
0.0
  0
SPLINE
  5
418
100
AcDbEntity
  8
0
100
AcDbSpline
 62
7
  6
CONTINUOUS
 70
0
 71
3
 72
15
 73
11
 74
0
 42
0.0000001
 43
0.0000001
 44
0.0000000001
 40
0.0
 40
0.0
 40
0.0
 40
0.0
 40
0.0715321168
 40
0.1578057061
 40
0.2601808604
 40
0.3787316285
 40
0.5129085876
 40
0.6618513552
 40
0.8245522403
 40
1.0
 40
1.0
 40
1.0
 40
1.0
 10
6.7899002192
 20
3.4637245947
 30
0.0
 10
6.7899002273
 20
3.463624604
 30
0.0
 10
6.7898630259
 20
3.4634041645
 30
0.0
 10
6.7897311738
 20
3.4630639273
 30
0.0
 10
6.7895235759
 20
3.4626869093
 30
0.0
 10
6.7892438917
 20
3.4622762352
 30
0.0
 10
6.7888962338
 20
3.4618349023
 30
0.0
 10
6.7884849174
 20
3.461366432
 30
0.0
 10
6.7880143436
 20
3.4608741194
 30
0.0
 10
6.7876760206
 20
3.4605438934
 30
0.0
 10
6.7874981227
 20
3.4603750766
 30
0.0
  0
SPLINE
  5
419
100
AcDbEntity
  8
0
100
AcDbSpline
 62
7
  6
CONTINUOUS
 70
0
 71
3
 72
23
 73
19
 74
0
 42
0.0000001
 43
0.0000001
 44
0.0000000001
 40
0.0
 40
0.0
 40
0.0
 40
0.0
 40
0.0631208692
 40
0.1260755846
 40
0.188841407
 40
0.2514072732
 40
0.3137748136
 40
0.375964708
 40
0.4380191569
 40
0.5000000108
 40
0.5619808735
 40
0.6240353315
 40
0.6862252036
 40
0.7485927229
 40
0.8111585799
 40
0.8739243984
 40
0.9368791203
 40
1.0
 40
1.0
 40
1.0
 40
1.0
 10
6.7019161847
 20
2.2492783354
 30
0.0
 10
6.7050140392
 20
2.2505969501
 30
0.0
 10
6.7112333256
 20
2.2531572941
 30
0.0
 10
6.7206601535
 20
2.2567110886
 30
0.0
 10
6.73018425
 20
2.259906275
 30
0.0
 10
6.7398110328
 20
2.2626696126
 30
0.0
 10
6.749539005
 20
2.2649254011
 30
0.0
 10
6.7593571708
 20
2.2666009636
 30
0.0
 10
6.7692438891
 20
2.2676345196
 30
0.0
 10
6.7791678264
 20
2.2679840292
 30
0.0
 10
6.7890917641
 20
2.2676345193
 30
0.0
 10
6.7989784821
 20
2.2666009628
 30
0.0
 10
6.8087966461
 20
2.2649254004
 30
0.0
 10
6.8185246155
 20
2.2626696128
 30
0.0
 10
6.8281513966
 20
2.2599062756
 30
0.0
 10
6.8376754926
 20
2.2567110888
 30
0.0
 10
6.8471023217
 20
2.2531572957
 30
0.0
 10
6.8533216086
 20
2.2505969503
 30
0.0
 10
6.8564194636
 20
2.2492783354
 30
0.0
  0
SPLINE
  5
41A
100
AcDbEntity
  8
0
100
AcDbSpline
 62
7
  6
CONTINUOUS
 70
0
 71
3
 72
22
 73
18
 74
0
 42
0.0000001
 43
0.0000001
 44
0.0000000001
 40
0.0
 40
0.0
 40
0.0
 40
0.0
 40
0.2237459973
 40
0.4197533649
 40
0.5861432715
 40
0.6577997539
 40
0.7216236905
 40
0.7775949722
 40
0.8258132537
 40
0.8665408675
 40
0.8842648027
 40
0.9003599872
 40
0.9282540868
 40
0.9521450466
 40
0.9635252828
 40
0.975049561
 40
1.0
 40
1.0
 40
1.0
 40
1.0
 10
6.7771805644
 20
3.4654515459
 30
0.0
 10
6.7775097185
 20
3.465598696
 30
0.0
 10
6.778130761
 20
3.4658670222
 30
0.0
 10
6.7790103826
 20
3.4662116215
 30
0.0
 10
6.7796731033
 20
3.4664366785
 30
0.0
 10
6.7801415403
 20
3.4665682322
 30
0.0
 10
6.7804420147
 20
3.4666386983
 30
0.0
 10
6.7807088083
 20
3.4666858646
 30
0.0
 10
6.7809413583
 20
3.466709618
 30
0.0
 10
6.7811137293
 20
3.4667099779
 30
0.0
 10
6.7812332734
 20
3.4666966677
 30
0.0
 10
6.7813307927
 20
3.4666768791
 30
0.0
 10
6.7814347001
 20
3.4666390077
 30
0.0
 10
6.7815166899
 20
3.4665747355
 30
0.0
 10
6.781559807
 20
3.4665122788
 30
0.0
 10
6.7815906737
 20
3.4664411552
 30
0.0
 10
6.7815982104
 20
3.4663814713
 30
0.0
 10
6.7815982098
 20
3.4663412656
 30
0.0
  0
LINE
  5
41B
100
AcDbEntity
  8
0
100
AcDbLine
 62
7
  6
CONTINUOUS
 10
6.7646593735
 20
3.4579946003
 11
6.7702731205
 21
3.4617387124
  0
LINE
  5
41C
100
AcDbEntity
  8
0
100
AcDbLine
 62
7
  6
CONTINUOUS
 10
6.7702731205
 20
3.4617387124
 11
6.7754070135
 21
3.4646163826
  0
SPLINE
  5
41D
100
AcDbEntity
  8
0
100
AcDbSpline
 62
7
  6
CONTINUOUS
 70
0
 71
3
 72
21
 73
17
 74
0
 42
0.0000001
 43
0.0000001
 44
0.0000000001
 40
0.0
 40
0.0
 40
0.0
 40
0.0
 40
0.1679202431
 40
0.2699766726
 40
0.3809793698
 40
0.493327538
 40
0.5953730933
 40
0.6797426657
 40
0.7473352309
 40
0.8018370143
 40
0.8464863861
 40
0.8836065461
 40
0.9148223527
 40
0.9412950485
 40
0.9638949681
 40
1.0
 40
1.0
 40
1.0
 40
1.0
 10
6.7579478464
 20
3.4510915052
 30
0.0
 10
6.7583017543
 20
3.4512539409
 30
0.0
 10
6.7588591582
 20
3.4515407096
 30
0.0
 10
6.7596235395
 20
3.4519839032
 30
0.0
 10
6.7602621116
 20
3.4523863723
 30
0.0
 10
6.7608841574
 20
3.4528139552
 30
0.0
 10
6.7614355664
 20
3.4532339829
 30
0.0
 10
6.7618836684
 20
3.453616824
 30
0.0
 10
6.7622287138
 20
3.4539491824
 30
0.0
 10
6.7624901772
 20
3.4542344133
 30
0.0
 10
6.7626882113
 20
3.4544809743
 30
0.0
 10
6.7628377616
 20
3.4546964101
 30
0.0
 10
6.7629490778
 20
3.4548862343
 30
0.0
 10
6.7630293353
 20
3.4550546539
 30
0.0
 10
6.7630962907
 20
3.4552404155
 30
0.0
 10
6.7631223826
 20
3.4553764706
 30
0.0
 10
6.7631222693
 20
3.4554601976
 30
0.0
  0
LINE
  5
41E
100
AcDbEntity
  8
0
100
AcDbLine
 62
7
  6
CONTINUOUS
 10
6.7594971665
 20
3.4546265917
 11
6.7596541743
 21
3.4544568984
  0
LINE
  5
41F
100
AcDbEntity
  8
0
100
AcDbLine
 62
7
  6
CONTINUOUS
 10
6.7518170429
 20
3.4491184415
 11
6.7520168649
 21
3.4494149457
  0
SPLINE
  5
420
100
AcDbEntity
  8
0
100
AcDbSpline
 62
7
  6
CONTINUOUS
 70
0
 71
3
 72
19
 73
15
 74
0
 42
0.0000001
 43
0.0000001
 44
0.0000000001
 40
0.0
 40
0.0
 40
0.0
 40
0.0
 40
0.1929705228
 40
0.3716341046
 40
0.5335053902
 40
0.6758575084
 40
0.7388404121
 40
0.7958938078
 40
0.8466853479
 40
0.8909175333
 40
0.928348072
 40
0.9588523058
 40
0.9825231074
 40
1.0
 40
1.0
 40
1.0
 40
1.0
 10
6.7734403036
 20
3.4606477862
 30
0.0
 10
6.773773076
 20
3.4608904701
 30
0.0
 10
6.7744110261
 20
3.4613618771
 30
0.0
 10
6.7753161033
 20
3.462052945
 30
0.0
 10
6.7761226825
 20
3.4626946712
 30
0.0
 10
6.776723072
 20
3.463198693
 30
0.0
 10
6.777141089
 20
3.4635714366
 30
0.0
 10
6.7774073054
 20
3.4638206344
 30
0.0
 10
6.7776373897
 20
3.4640496645
 30
0.0
 10
6.7778295804
 20
3.4642571557
 30
0.0
 10
6.7779822885
 20
3.4644416796
 30
0.0
 10
6.7780944118
 20
3.4646024434
 30
0.0
 10
6.7781653496
 20
3.4647381559
 30
0.0
 10
6.7781879305
 20
3.4648252447
 30
0.0
 10
6.7781879235
 20
3.4648625464
 30
0.0
  0
SPLINE
  5
421
100
AcDbEntity
  8
0
100
AcDbSpline
 62
7
  6
CONTINUOUS
 70
0
 71
3
 72
22
 73
18
 74
0
 42
0.0000001
 43
0.0000001
 44
0.0000000001
 40
0.0
 40
0.0
 40
0.0
 40
0.0
 40
0.2066935258
 40
0.3013902523
 40
0.3898375818
 40
0.4717429587
 40
0.5468859701
 40
0.6151353543
 40
0.6764886914
 40
0.7311035138
 40
0.7793564556
 40
0.8219244514
 40
0.8598699024
 40
0.8947157044
 40
0.9283752754
 40
0.9628767557
 40
1.0
 40
1.0
 40
1.0
 40
1.0
 10
6.7861554887
 20
3.4654515459
 30
0.0
 10
6.7867485604
 20
3.4656557744
 30
0.0
 10
6.7876203118
 20
3.4659345123
 30
0.0
 10
6.7887628221
 20
3.4662421766
 30
0.0
 10
6.7895465274
 20
3.4664240756
 30
0.0
 10
6.7902787348
 20
3.4665628558
 30
0.0
 10
6.7909561614
 20
3.4666576418
 30
0.0
 10
6.7915758996
 20
3.4667077966
 30
0.0
 10
6.7921355017
 20
3.4667130199
 30
0.0
 10
6.7926330956
 20
3.4666731918
 30
0.0
 10
6.7930674089
 20
3.466588255
 30
0.0
 10
6.7934376792
 20
3.4664580453
 30
0.0
 10
6.7937430531
 20
3.4662818478
 30
0.0
 10
6.7939815211
 20
3.4660591551
 30
0.0
 10
6.794150044
 20
3.4657916715
 30
0.0
 10
6.7942476041
 20
3.4654842717
 30
0.0
 10
6.7942662139
 20
3.4652660236
 30
0.0
 10
6.7942662083
 20
3.4651533661
 30
0.0
  0
SPLINE
  5
422
100
AcDbEntity
  8
0
100
AcDbSpline
 62
7
  6
CONTINUOUS
 70
0
 71
3
 72
19
 73
15
 74
0
 42
0.0000001
 43
0.0000001
 44
0.0000000001
 40
0.0
 40
0.0
 40
0.0
 40
0.0
 40
0.0368342341
 40
0.0803943316
 40
0.1299134028
 40
0.1846389311
 40
0.243840241
 40
0.3068365621
 40
0.4416480006
 40
0.5841030696
 40
0.7290024117
 40
0.8702188312
 40
0.9371075673
 40
1.0
 40
1.0
 40
1.0
 40
1.0
 10
6.7736841967
 20
3.4579946003
 30
0.0
 10
6.7737748283
 20
3.4581150128
 30
0.0
 10
6.7739892033
 20
3.458365305
 30
0.0
 10
6.7743637836
 20
3.458742776
 30
0.0
 10
6.7748121933
 20
3.4591489123
 30
0.0
 10
6.775325891
 20
3.4595773065
 30
0.0
 10
6.7758970414
 20
3.4600222484
 30
0.0
 10
6.776744658
 20
3.4606447981
 30
0.0
 10
6.7778975461
 20
3.4614261944
 30
0.0
 10
6.7793671406
 20
3.4623347534
 30
0.0
 10
6.7808950945
 20
3.4631960401
 30
0.0
 10
6.7821830491
 20
3.4638510656
 30
0.0
 10
6.7831907133
 20
3.4643140126
 30
0.0
 10
6.7836799306
 20
3.4645208181
 30
0.0
 10
6.7839188551
 20
3.4646163826
 30
0.0
  0
SPLINE
  5
423
100
AcDbEntity
  8
0
100
AcDbSpline
 62
7
  6
CONTINUOUS
 70
0
 71
3
 72
18
 73
14
 74
0
 42
0.0000001
 43
0.0000001
 44
0.0000000001
 40
0.0
 40
0.0
 40
0.0
 40
0.0
 40
0.1432390902
 40
0.3029102504
 40
0.4736281503
 40
0.5586967377
 40
0.6395281276
 40
0.712658286
 40
0.7759738866
 40
0.8294582324
 40
0.8744161709
 40
0.9452492064
 40
1.0
 40
1.0
 40
1.0
 40
1.0
 10
6.771617352
 20
3.4510915052
 30
0.0
 10
6.7718737188
 20
3.4511837644
 30
0.0
 10
6.7724093591
 20
3.4513974235
 30
0.0
 10
6.7732221169
 20
3.4517876478
 30
0.0
 10
6.7739080233
 20
3.4521821802
 30
0.0
 10
6.7744402809
 20
3.4525385235
 30
0.0
 10
6.7748040001
 20
3.4528118144
 30
0.0
 10
6.7751174126
 20
3.4530818131
 30
0.0
 10
6.7753717096
 20
3.4533390276
 30
0.0
 10
6.7755672912
 20
3.4535772955
 30
0.0
 10
6.7757447351
 20
3.4538464262
 30
0.0
 10
6.7758797285
 20
3.4541450773
 30
0.0
 10
6.7759170026
 20
3.4543846158
 30
0.0
 10
6.7759169736
 20
3.45448876
 30
0.0
  0
SPLINE
  5
424
100
AcDbEntity
  8
0
100
AcDbSpline
 62
7
  6
CONTINUOUS
 70
0
 71
3
 72
16
 73
12
 74
0
 42
0.0000001
 43
0.0000001
 44
0.0000000001
 40
0.0
 40
0.0
 40
0.0
 40
0.0
 40
0.1763470303
 40
0.3399620427
 40
0.4897157454
 40
0.6244655288
 40
0.743183784
 40
0.8451463866
 40
0.8898143689
 40
0.9303625202
 40
1.0
 40
1.0
 40
1.0
 40
1.0
 10
6.7871596939
 20
3.4606477862
 30
0.0
 10
6.7873612903
 20
3.4608323627
 30
0.0
 10
6.787745063
 20
3.4611935729
 30
0.0
 10
6.7882799703
 20
3.4617323445
 30
0.0
 10
6.7887486777
 20
3.4622452428
 30
0.0
 10
6.7891458871
 20
3.4627282568
 30
0.0
 10
6.789466105
 20
3.4631771489
 30
0.0
 10
6.7896731631
 20
3.4635336603
 30
0.0
 10
6.7897911553
 20
3.4637991639
 30
0.0
 10
6.7898691731
 20
3.4640260669
 30
0.0
 10
6.789900228
 20
3.4641968453
 30
0.0
 10
6.7899002197
 20
3.4643047805
 30
0.0
  0
SPLINE
  5
425
100
AcDbEntity
  8
0
100
AcDbSpline
 62
7
  6
CONTINUOUS
 70
0
 71
3
 72
27
 73
23
 74
0
 42
0.0000001
 43
0.0000001
 44
0.0000000001
 40
0.0
 40
0.0
 40
0.0
 40
0.0
 40
0.0222932434
 40
0.0432555021
 40
0.064568235
 40
0.0876661753
 40
0.1134808594
 40
0.1424059636
 40
0.1744629345
 40
0.2094135821
 40
0.2864200585
 40
0.3696738147
 40
0.4541171703
 40
0.5350667114
 40
0.6099839433
 40
0.6777902447
 40
0.7385653157
 40
0.7932232309
 40
0.8437759265
 40
0.8932770543
 40
0.9445806447
 40
1.0
 40
1.0
 40
1.0
 40
1.0
 10
6.7802086967
 20
3.4609937024
 30
0.0
 10
6.7802086659
 20
3.4609587911
 30
0.0
 10
6.7802165971
 20
3.4608905372
 30
0.0
 10
6.7802572839
 20
3.4607963895
 30
0.0
 10
6.7803241907
 20
3.46071717
 30
0.0
 10
6.7804146231
 20
3.4606530376
 30
0.0
 10
6.7805260604
 20
3.4606023821
 30
0.0
 10
6.7806565901
 20
3.4605634212
 30
0.0
 10
6.7808042317
 20
3.4605347516
 30
0.0
 10
6.7810282089
 20
3.4605073044
 30
0.0
 10
6.7813338882
 20
3.460492918
 30
0.0
 10
6.781717063
 20
3.4604918237
 30
0.0
 10
6.782106472
 20
3.4604907838
 30
0.0
 10
6.7824826194
 20
3.4604741481
 30
0.0
 10
6.7828310149
 20
3.4604340042
 30
0.0
 10
6.7831428856
 20
3.4603648525
 30
0.0
 10
6.7834128408
 20
3.460264138
 30
0.0
 10
6.7836371644
 20
3.4601287828
 30
0.0
 10
6.7838097305
 20
3.4599548008
 30
0.0
 10
6.7839282607
 20
3.459746601
 30
0.0
 10
6.7839963009
 20
3.459509581
 30
0.0
 10
6.7840084782
 20
3.4593417444
 30
0.0
 10
6.7840077675
 20
3.4592549605
 30
0.0
  0
SPLINE
  5
426
100
AcDbEntity
  8
0
100
AcDbSpline
 62
7
  6
CONTINUOUS
 70
0
 71
3
 72
12
 73
8
 74
0
 42
0.0000001
 43
0.0000001
 44
0.0000000001
 40
0.0
 40
0.0
 40
0.0
 40
0.0
 40
0.233659376
 40
0.3481168147
 40
0.4644984245
 40
0.7141079389
 40
1.0
 40
1.0
 40
1.0
 40
1.0
 10
6.7839788763
 20
3.4589622893
 30
0.0
 10
6.7839573521
 20
3.4590619437
 30
0.0
 10
6.783905086
 20
3.4592077042
 30
0.0
 10
6.783792369
 20
3.4593770277
 30
0.0
 10
6.7836483073
 20
3.459530707
 30
0.0
 10
6.7834043788
 20
3.4596852999
 30
0.0
 10
6.7831814306
 20
3.4597602144
 30
0.0
 10
6.7830605705
 20
3.4597910959
 30
0.0
  0
SPLINE
  5
427
100
AcDbEntity
  8
0
100
AcDbSpline
 62
7
  6
CONTINUOUS
 70
0
 71
3
 72
21
 73
17
 74
0
 42
0.0000001
 43
0.0000001
 44
0.0000000001
 40
0.0
 40
0.0
 40
0.0
 40
0.0
 40
0.1303559333
 40
0.2013544203
 40
0.2755978034
 40
0.3523762047
 40
0.430494952
 40
0.5832892457
 40
0.6546427802
 40
0.7208482933
 40
0.7807964644
 40
0.8337884183
 40
0.8799455361
 40
0.9207069005
 40
0.9592621146
 40
1.0
 40
1.0
 40
1.0
 40
1.0
 10
6.7830605705
 20
3.4597910959
 30
0.0
 10
6.7829304815
 20
3.4598243354
 30
0.0
 10
6.7827252921
 20
3.4598594342
 30
0.0
 10
6.7824426307
 20
3.4598855717
 30
0.0
 10
6.7822141852
 20
3.4598974264
 30
0.0
 10
6.7819781988
 20
3.4599024174
 30
0.0
 10
6.7816612818
 20
3.4599031808
 30
0.0
 10
6.7813498633
 20
3.4599036707
 30
0.0
 10
6.7810510787
 20
3.4599184969
 30
0.0
 10
6.7808485389
 20
3.4599388505
 30
0.0
 10
6.7806666275
 20
3.4599713221
 30
0.0
 10
6.7805092174
 20
3.4600187599
 30
0.0
 10
6.7803795212
 20
3.4600838912
 30
0.0
 10
6.7802810396
 20
3.4601707196
 30
0.0
 10
6.7802203896
 20
3.4602814877
 30
0.0
 10
6.7802086918
 20
3.4603641099
 30
0.0
 10
6.7802086795
 20
3.4604060705
 30
0.0
  0
SPLINE
  5
428
100
AcDbEntity
  8
0
100
AcDbSpline
 62
7
  6
CONTINUOUS
 70
0
 71
3
 72
21
 73
17
 74
0
 42
0.0000001
 43
0.0000001
 44
0.0000000001
 40
0.0
 40
0.0
 40
0.0
 40
0.0
 40
0.0353694237
 40
0.0682719614
 40
0.1006204598
 40
0.1345549486
 40
0.1720279074
 40
0.2145181174
 40
0.263028848
 40
0.3181499218
 40
0.3801954237
 40
0.4492479803
 40
0.5252463724
 40
0.6079892253
 40
0.7925340717
 40
1.0
 40
1.0
 40
1.0
 40
1.0
 10
6.7671904723
 20
3.4511053158
 30
0.0
 10
6.7671904761
 20
3.4510470988
 30
0.0
 10
6.767200713
 20
3.4509341982
 30
0.0
 10
6.7672546936
 20
3.4507757364
 30
0.0
 10
6.7673480059
 20
3.4506392788
 30
0.0
 10
6.7674795656
 20
3.4505276
 30
0.0
 10
6.7676475491
 20
3.450441458
 30
0.0
 10
6.7678508981
 20
3.45038029
 30
0.0
 10
6.7680892483
 20
3.4503438918
 30
0.0
 10
6.7683621018
 20
3.450332073
 30
0.0
 10
6.7686686342
 20
3.4503449189
 30
0.0
 10
6.7690076711
 20
3.4503822179
 30
0.0
 10
6.7693776882
 20
3.4504437496
 30
0.0
 10
6.769930414
 20
3.4505618175
 30
0.0
 10
6.7706842854
 20
3.4507699296
 30
0.0
 10
6.7712960425
 20
3.4509758748
 30
0.0
 10
6.771617352
 20
3.4510915052
 30
0.0
  0
SPLINE
  5
429
100
AcDbEntity
  8
0
100
AcDbSpline
 62
7
  6
CONTINUOUS
 70
0
 71
3
 72
18
 73
14
 74
0
 42
0.0000001
 43
0.0000001
 44
0.0000000001
 40
0.0
 40
0.0
 40
0.0
 40
0.0
 40
0.0548422942
 40
0.1257678659
 40
0.1707660479
 40
0.2242792965
 40
0.287607046
 40
0.3607270187
 40
0.4415289191
 40
0.5265581646
 40
0.697199142
 40
0.8568105774
 40
1.0
 40
1.0
 40
1.0
 40
1.0
 10
6.775916971
 20
3.453885955
 30
0.0
 10
6.775917001
 20
3.4537815385
 30
0.0
 10
6.7758797226
 20
3.4535414247
 30
0.0
 10
6.7757446934
 20
3.453241989
 30
0.0
 10
6.7755671888
 20
3.4529721655
 30
0.0
 10
6.7753715945
 20
3.4527333334
 30
0.0
 10
6.7751173175
 20
3.4524755378
 30
0.0
 10
6.7748039699
 20
3.4522049477
 30
0.0
 10
6.774440348
 20
3.4519310645
 30
0.0
 10
6.773908226
 20
3.4515739333
 30
0.0
 10
6.7732223906
 20
3.4511784519
 30
0.0
 10
6.7724095684
 20
3.4507872155
 30
0.0
 10
6.7718737989
 20
3.4505729719
 30
0.0
 10
6.771617352
 20
3.4504804568
 30
0.0
  0
SPLINE
  5
42A
100
AcDbEntity
  8
0
100
AcDbSpline
 62
7
  6
CONTINUOUS
 70
0
 71
3
 72
14
 73
10
 74
0
 42
0.0000001
 43
0.0000001
 44
0.0000000001
 40
0.0
 40
0.0
 40
0.0
 40
0.0
 40
0.3004616867
 40
0.4437102892
 40
0.5787905007
 40
0.7034710769
 40
0.815961362
 40
0.9150093793
 40
1.0
 40
1.0
 40
1.0
 40
1.0
 10
6.9485345746
 20
3.4889479035
 30
0.0
 10
6.9492085584
 20
3.4888988743
 30
0.0
 10
6.9502078011
 20
3.4888681463
 30
0.0
 10
6.9515089112
 20
3.4889196829
 30
0.0
 10
6.952412055
 20
3.489001853
 30
0.0
 10
6.9532405747
 20
3.4891258317
 30
0.0
 10
6.9539798271
 20
3.4892885128
 30
0.0
 10
6.9546176999
 20
3.4894859606
 30
0.0
 10
6.9549989515
 20
3.4896506554
 30
0.0
 10
6.9551678242
 20
3.4897402148
 30
0.0
  0
SPLINE
  5
42B
100
AcDbEntity
  8
0
100
AcDbSpline
 62
7
  6
CONTINUOUS
 70
0
 71
3
 72
18
 73
14
 74
0
 42
0.0000001
 43
0.0000001
 44
0.0000000001
 40
0.0
 40
0.0
 40
0.0
 40
0.0
 40
0.1642084582
 40
0.32427642
 40
0.4761953563
 40
0.6162009311
 40
0.7409565439
 40
0.7967303337
 40
0.8477053824
 40
0.8936504405
 40
0.9343935061
 40
0.9698453329
 40
1.0
 40
1.0
 40
1.0
 40
1.0
 10
6.9432435841
 20
3.4985565741
 30
0.0
 10
6.9439018029
 20
3.4985219913
 30
0.0
 10
6.9452026943
 20
3.4984721333
 30
0.0
 10
6.9471143177
 20
3.4984547326
 30
0.0
 10
6.948928497
 20
3.4984953313
 30
0.0
 10
6.9505985802
 20
3.4985925815
 30
0.0
 10
6.9518792483
 20
3.4987222689
 30
0.0
 10
6.952798966
 20
3.4988559795
 30
0.0
 10
6.9534023524
 20
3.4989643759
 30
0.0
 10
6.9539420454
 20
3.4990837902
 30
0.0
 10
6.9544151521
 20
3.4992134084
 30
0.0
 10
6.9548191252
 20
3.4993523072
 30
0.0
 10
6.9550605367
 20
3.499458943
 30
0.0
 10
6.9551678242
 20
3.499514979
 30
0.0
  0
SPLINE
  5
42C
100
AcDbEntity
  8
0
100
AcDbSpline
 62
7
  6
CONTINUOUS
 70
0
 71
3
 72
13
 73
9
 74
0
 42
0.0000001
 43
0.0000001
 44
0.0000000001
 40
0.0
 40
0.0
 40
0.0
 40
0.0
 40
0.0879389979
 40
0.1865778925
 40
0.2967190431
 40
0.418161438
 40
0.6917002928
 40
1.0
 40
1.0
 40
1.0
 40
1.0
 10
6.7729920427
 20
3.4566109043
 30
0.0
 10
6.7729920885
 20
3.4566568612
 30
0.0
 10
6.7730023516
 20
3.4567544264
 30
0.0
 10
6.7730415434
 20
3.4569048456
 30
0.0
 10
6.7731036358
 20
3.4570661661
 30
0.0
 10
6.7732187691
 20
3.4573039501
 30
0.0
 10
6.7734102129
 20
3.4576185171
 30
0.0
 10
6.7735873058
 20
3.4578658717
 30
0.0
 10
6.7736841967
 20
3.4579946003
 30
0.0
  0
LINE
  5
42D
100
AcDbEntity
  8
0
100
AcDbLine
 62
7
  6
CONTINUOUS
 10
6.7942097545
 20
3.465013554
 11
6.7938582683
 21
3.4655939315
  0
LINE
  5
42E
100
AcDbEntity
  8
0
100
AcDbLine
 62
7
  6
CONTINUOUS
 10
6.7938582683
 20
3.4655939315
 11
6.7937214246
 21
3.4657060855
  0
SPLINE
  5
42F
100
AcDbEntity
  8
0
100
AcDbSpline
 62
7
  6
CONTINUOUS
 70
0
 71
3
 72
17
 73
13
 74
0
 42
0.0000001
 43
0.0000001
 44
0.0000000001
 40
0.0
 40
0.0
 40
0.0
 40
0.0
 40
0.0713194035
 40
0.111551273
 40
0.1553460432
 40
0.2029963367
 40
0.2546974511
 40
0.3706713541
 40
0.5036870884
 40
0.653454783
 40
0.8192401288
 40
1.0
 40
1.0
 40
1.0
 40
1.0
 10
6.7937214246
 20
3.4657060855
 30
0.0
 10
6.7935917623
 20
3.4657995685
 30
0.0
 10
6.793364908
 20
3.4659133667
 30
0.0
 10
6.7930322668
 20
3.4660166535
 30
0.0
 10
6.7927428533
 20
3.466076932
 30
0.0
 10
6.7924242047
 20
3.4661165441
 30
0.0
 10
6.7919419882
 20
3.4661428549
 30
0.0
 10
6.7912671629
 20
3.4661182597
 30
0.0
 10
6.7903794084
 20
3.4660088149
 30
0.0
 10
6.7893914245
 20
3.4658193104
 30
0.0
 10
6.7883112426
 20
3.4655519244
 30
0.0
 10
6.7875658909
 20
3.4653326006
 30
0.0
 10
6.7871792976
 20
3.4652114342
 30
0.0
  0
SPLINE
  5
430
100
AcDbEntity
  8
0
100
AcDbSpline
 62
7
  6
CONTINUOUS
 70
0
 71
3
 72
9
 73
5
 74
0
 42
0.0000001
 43
0.0000001
 44
0.0000000001
 40
0.0
 40
0.0
 40
0.0
 40
0.0
 40
0.262040417
 40
1.0
 40
1.0
 40
1.0
 40
1.0
 10
6.7801444119
 20
3.464032123
 30
0.0
 10
6.7801444113
 20
3.4640269217
 30
0.0
 10
6.7801451175
 20
3.4640070878
 30
0.0
 10
6.7801489614
 20
3.4639872993
 30
0.0
 10
6.7801538282
 20
3.4639734838
 30
0.0
  0
SPLINE
  5
431
100
AcDbEntity
  8
0
100
AcDbSpline
 62
7
  6
CONTINUOUS
 70
0
 71
3
 72
19
 73
15
 74
0
 42
0.0000001
 43
0.0000001
 44
0.0000000001
 40
0.0
 40
0.0
 40
0.0
 40
0.0
 40
0.0174991191
 40
0.0411953264
 40
0.0717255244
 40
0.109181284
 40
0.1534364219
 40
0.204247698
 40
0.261316393
 40
0.3243094202
 40
0.4666630368
 40
0.6285078699
 40
0.8071154372
 40
1.0
 40
1.0
 40
1.0
 40
1.0
 10
6.7781879231
 20
3.4642835948
 30
0.0
 10
6.7781879306
 20
3.4642461877
 30
0.0
 10
6.778165327
 20
3.4641588595
 30
0.0
 10
6.7780943095
 20
3.4640227428
 30
0.0
 10
6.7779820617
 20
3.4638614959
 30
0.0
 10
6.7778291912
 20
3.4636764179
 30
0.0
 10
6.7776368087
 20
3.463468308
 30
0.0
 10
6.7774065097
 20
3.4632386033
 30
0.0
 10
6.7771400637
 20
3.4629886811
 30
0.0
 10
6.7767217373
 20
3.4626148913
 30
0.0
 10
6.7761209624
 20
3.4621094849
 30
0.0
 10
6.7753139346
 20
3.46146603
 30
0.0
 10
6.7744084606
 20
3.4607731617
 30
0.0
 10
6.7737702581
 20
3.4603005345
 30
0.0
 10
6.773437372
 20
3.4600572329
 30
0.0
  0
SPLINE
  5
432
100
AcDbEntity
  8
0
100
AcDbSpline
 62
7
  6
CONTINUOUS
 70
0
 71
3
 72
25
 73
21
 74
0
 42
0.0000001
 43
0.0000001
 44
0.0000000001
 40
0.0
 40
0.0
 40
0.0
 40
0.0
 40
0.0216581971
 40
0.0418300709
 40
0.083793792
 40
0.1080694837
 40
0.1350904079
 40
0.197452624
 40
0.2697112471
 40
0.3492918271
 40
0.4324951301
 40
0.5150544685
 40
0.593456672
 40
0.665903762
 40
0.7312547823
 40
0.7895644645
 40
0.8423965464
 40
0.8925024536
 40
0.9436907758
 40
1.0
 40
1.0
 40
1.0
 40
1.0
 10
6.7699908515
 20
3.4606367643
 30
0.0
 10
6.7699908542
 20
3.4606270567
 30
0.0
 10
6.7699930125
 20
3.4606081741
 30
0.0
 10
6.7700079598
 20
3.4605731078
 30
0.0
 10
6.7700385966
 20
3.4605465422
 30
0.0
 10
6.7700763031
 20
3.4605285535
 30
0.0
 10
6.7701248795
 20
3.4605126822
 30
0.0
 10
6.7701965827
 20
3.4605005616
 30
0.0
 10
6.7702923934
 20
3.4604937351
 30
0.0
 10
6.7703977556
 20
3.4604918775
 30
0.0
 10
6.7705077145
 20
3.4604917831
 30
0.0
 10
6.7706171575
 20
3.4604899258
 30
0.0
 10
6.7707216084
 20
3.4604830208
 30
0.0
 10
6.7708177083
 20
3.4604696417
 30
0.0
 10
6.7709031556
 20
3.4604479244
 30
0.0
 10
6.7709761038
 20
3.4604161744
 30
0.0
 10
6.7710353175
 20
3.4603735067
 30
0.0
 10
6.7710790416
 20
3.4603187486
 30
0.0
 10
6.7711051607
 20
3.4602520673
 30
0.0
 10
6.7711101071
 20
3.4602035832
 30
0.0
 10
6.7711101453
 20
3.4601783445
 30
0.0
  0
LINE
  5
433
100
AcDbEntity
  8
0
100
AcDbLine
 62
7
  6
CONTINUOUS
 10
6.7709963904
 20
3.4598114486
 11
6.7699908505
 21
3.4600483282
  0
SPLINE
  5
434
100
AcDbEntity
  8
0
100
AcDbSpline
 62
7
  6
CONTINUOUS
 70
0
 71
3
 72
14
 73
10
 74
0
 42
0.0000001
 43
0.0000001
 44
0.0000000001
 40
0.0
 40
0.0
 40
0.0
 40
0.0
 40
0.0737813782
 40
0.1601519884
 40
0.2608705963
 40
0.3768957208
 40
0.5087219248
 40
0.6565611444
 40
1.0
 40
1.0
 40
1.0
 40
1.0
 10
6.7509456912
 20
3.4476905181
 30
0.0
 10
6.7509456956
 20
3.4477323059
 30
0.0
 10
6.7509573385
 20
3.4478230503
 30
0.0
 10
6.7510012156
 20
3.4479645911
 30
0.0
 10
6.7510721176
 20
3.4481213177
 30
0.0
 10
6.7511697784
 20
3.4482931179
 30
0.0
 10
6.7512939316
 20
3.4484798679
 30
0.0
 10
6.751505205
 20
3.448762703
 30
0.0
 10
6.7516866093
 20
3.4489741396
 30
0.0
 10
6.7518170429
 20
3.4491184415
 30
0.0
  0
LINE
  5
435
100
AcDbEntity
  8
0
100
AcDbLine
 62
7
  6
CONTINUOUS
 10
6.7520168649
 20
3.4487997447
 11
6.7518170429
 21
3.4485025002
  0
SPLINE
  5
436
100
AcDbEntity
  8
0
100
AcDbSpline
 62
7
  6
CONTINUOUS
 70
0
 71
3
 72
20
 73
16
 74
0
 42
0.0000001
 43
0.0000001
 44
0.0000000001
 40
0.0
 40
0.0
 40
0.0
 40
0.0
 40
0.023153587
 40
0.0444186259
 40
0.0673090608
 40
0.0947643629
 40
0.1285424088
 40
0.169572487
 40
0.2182905739
 40
0.2748907915
 40
0.3394139802
 40
0.4117777841
 40
0.5794314322
 40
0.7762583857
 40
1.0
 40
1.0
 40
1.0
 40
1.0
 10
6.7554608322
 20
3.4505157909
 30
0.0
 10
6.7554608361
 20
3.4504948038
 30
0.0
 10
6.7554662769
 20
3.4504538786
 30
0.0
 10
6.7554992062
 20
3.4504002662
 30
0.0
 10
6.7555544706
 20
3.4503633351
 30
0.0
 10
6.7556283939
 20
3.4503419048
 30
0.0
 10
6.7557211421
 20
3.4503340256
 30
0.0
 10
6.7558331982
 20
3.4503394203
 30
0.0
 10
6.7559646844
 20
3.450357951
 30
0.0
 10
6.7561154245
 20
3.4503896403
 30
0.0
 10
6.7562850602
 20
3.4504343957
 30
0.0
 10
6.7565490248
 20
3.4505153532
 30
0.0
 10
6.7569216622
 20
3.4506498915
 30
0.0
 10
6.7574152534
 20
3.4508517424
 30
0.0
 10
6.7577635273
 20
3.4510069069
 30
0.0
 10
6.7579478464
 20
3.4510915052
 30
0.0
  0
SPLINE
  5
437
100
AcDbEntity
  8
0
100
AcDbSpline
 62
7
  6
CONTINUOUS
 70
0
 71
3
 72
22
 73
18
 74
0
 42
0.0000001
 43
0.0000001
 44
0.0000000001
 40
0.0
 40
0.0
 40
0.0
 40
0.0
 40
0.0660087865
 40
0.1310320101
 40
0.1950622335
 40
0.2581103873
 40
0.3814460702
 40
0.4419929783
 40
0.5020153597
 40
0.5617602037
 40
0.6215261173
 40
0.6816570241
 40
0.7425235445
 40
0.8044878327
 40
0.8678783837
 40
0.9329739307
 40
1.0
 40
1.0
 40
1.0
 40
1.0
 10
7.122122189
 20
3.2679843294
 30
0.0
 10
7.1230544903
 20
3.2680163871
 30
0.0
 10
7.1249053636
 20
3.2680752571
 30
0.0
 10
7.1276616691
 20
3.2681259475
 30
0.0
 10
7.1303769063
 20
3.2681159129
 30
0.0
 10
7.1339138635
 20
3.2679934039
 30
0.0
 10
7.1373947374
 20
3.2676626664
 30
0.0
 10
7.1407864963
 20
3.2670369514
 30
0.0
 10
7.1432584843
 20
3.2664096411
 30
0.0
 10
7.1456677775
 20
3.265606403
 30
0.0
 10
7.1480079008
 20
3.2646148191
 30
0.0
 10
7.1502717486
 20
3.2634246085
 30
0.0
 10
7.1524515831
 20
3.262028021
 30
0.0
 10
7.154540831
 20
3.2604225768
 30
0.0
 10
7.1565340354
 20
3.2586094925
 30
0.0
 10
7.1584269851
 20
3.2565932223
 30
0.0
 10
7.1596020765
 20
3.2551398014
 30
0.0
 10
7.1601723748
 20
3.2543834931
 30
0.0
  0
SPLINE
  5
438
100
AcDbEntity
  8
0
100
AcDbSpline
 62
7
  6
CONTINUOUS
 70
0
 71
3
 72
11
 73
7
 74
0
 42
0.0000001
 43
0.0000001
 44
0.0000000001
 40
0.0
 40
0.0
 40
0.0
 40
0.0
 40
0.2671912136
 40
0.5259031754
 40
0.7721388995
 40
1.0
 40
1.0
 40
1.0
 40
1.0
 10
7.0901968891
 20
3.4575615778
 30
0.0
 10
7.0909116173
 20
3.4570851053
 30
0.0
 10
7.0923099851
 20
3.4561345872
 30
0.0
 10
7.0943351628
 20
3.4546987664
 30
0.0
 10
7.0962258429
 20
3.4532928766
 30
0.0
 10
7.0974234993
 20
3.4523496145
 30
0.0
 10
7.0979897226
 20
3.4518848384
 30
0.0
  0
SPLINE
  5
439
100
AcDbEntity
  8
0
100
AcDbSpline
 62
7
  6
CONTINUOUS
 70
0
 71
3
 72
18
 73
14
 74
0
 42
0.0000001
 43
0.0000001
 44
0.0000000001
 40
0.0
 40
0.0
 40
0.0
 40
0.0
 40
0.1923686101
 40
0.3694237015
 40
0.5280442796
 40
0.6659556229
 40
0.7820313899
 40
0.8317808521
 40
0.8759835055
 40
0.9146849796
 40
0.9480200748
 40
0.9762739554
 40
1.0
 40
1.0
 40
1.0
 40
1.0
 10
7.0979897226
 20
3.4518848384
 30
0.0
 10
7.0982546105
 20
3.4516674091
 30
0.0
 10
7.0987592918
 20
3.4512449263
 30
0.0
 10
7.099465635
 20
3.4506234866
 30
0.0
 10
7.1000808676
 20
3.450045876
 30
0.0
 10
7.1005947973
 20
3.4495200218
 30
0.0
 10
7.1009504507
 20
3.4491115236
 30
0.0
 10
7.1011770496
 20
3.4488136195
 30
0.0
 10
7.1013099316
 20
3.4486180276
 30
0.0
 10
7.1014144557
 20
3.4484390402
 30
0.0
 10
7.1014903876
 20
3.4482769257
 30
0.0
 10
7.1015375342
 20
3.4481319806
 30
0.0
 10
7.1015503425
 20
3.4480393774
 30
0.0
 10
7.1015503432
 20
3.4479971104
 30
0.0
  0
SPLINE
  5
43A
100
AcDbEntity
  8
0
100
AcDbSpline
 62
7
  6
CONTINUOUS
 70
0
 71
3
 72
21
 73
17
 74
0
 42
0.0000001
 43
0.0000001
 44
0.0000000001
 40
0.0
 40
0.0
 40
0.0
 40
0.0
 40
0.0361629456
 40
0.0587959882
 40
0.0853039507
 40
0.116556729
 40
0.1537147433
 40
0.1984019683
 40
0.2529394504
 40
0.3205597886
 40
0.4049355991
 40
0.5069460191
 40
0.6192226716
 40
0.7301525174
 40
0.8321528532
 40
1.0
 40
1.0
 40
1.0
 40
1.0
 10
6.7631222596
 20
3.4548597047
 30
0.0
 10
6.7631223662
 20
3.4547757591
 30
0.0
 10
6.7630962835
 20
3.4546393535
 30
0.0
 10
6.7630292871
 20
3.4544530824
 30
0.0
 10
6.7629489871
 20
3.4542842059
 30
0.0
 10
6.7628376096
 20
3.4540938652
 30
0.0
 10
6.7626879818
 20
3.4538778447
 30
0.0
 10
6.7624898525
 20
3.4536306213
 30
0.0
 10
6.7622282823
 20
3.4533446422
 30
0.0
 10
6.7618831452
 20
3.4530114525
 30
0.0
 10
6.7614350241
 20
3.4526277271
 30
0.0
 10
6.7608837169
 20
3.4522068024
 30
0.0
 10
6.7602618648
 20
3.4517783356
 30
0.0
 10
6.7596234852
 20
3.4513750125
 30
0.0
 10
6.7588592136
 20
3.4509307966
 30
0.0
 10
6.7583018039
 20
3.450643315
 30
0.0
 10
6.7579478464
 20
3.4504804568
 30
0.0
  0
SPLINE
  5
43B
100
AcDbEntity
  8
0
100
AcDbSpline
 62
7
  6
CONTINUOUS
 70
0
 71
3
 72
17
 73
13
 74
0
 42
0.0000001
 43
0.0000001
 44
0.0000000001
 40
0.0
 40
0.0
 40
0.0
 40
0.0
 40
0.0439471519
 40
0.0731011912
 40
0.1082133489
 40
0.1498331235
 40
0.1983823637
 40
0.3159423786
 40
0.4586419865
 40
0.6228417359
 40
0.8044524759
 40
1.0
 40
1.0
 40
1.0
 40
1.0
 10
6.7627568143
 20
3.4561148217
 30
0.0
 10
6.7627568041
 20
3.4561544997
 30
0.0
 10
6.76277448
 20
3.4562202797
 30
0.0
 10
6.7628185981
 20
3.4563073071
 30
0.0
 10
6.7628706118
 20
3.4563877945
 30
0.0
 10
6.7629392925
 20
3.4564777319
 30
0.0
 10
6.7630618659
 20
3.4566198103
 30
0.0
 10
6.7632579917
 20
3.4568183212
 30
0.0
 10
6.7635404791
 20
3.4570773865
 30
0.0
 10
6.7638752397
 20
3.4573646511
 30
0.0
 10
6.7642532768
 20
3.4576745031
 30
0.0
 10
6.7645202665
 20
3.4578858818
 30
0.0
 10
6.7646593735
 20
3.4579946003
 30
0.0
  0
SPLINE
  5
43C
100
AcDbEntity
  8
0
100
AcDbSpline
 62
7
  6
CONTINUOUS
 70
0
 71
3
 72
14
 73
10
 74
0
 42
0.0000001
 43
0.0000001
 44
0.0000000001
 40
0.0
 40
0.0
 40
0.0
 40
0.0
 40
0.0791830383
 40
0.1668359185
 40
0.2663684416
 40
0.3800875828
 40
0.5095199284
 40
0.6556501912
 40
1.0
 40
1.0
 40
1.0
 40
1.0
 10
6.7815121786
 20
3.4659977723
 30
0.0
 10
6.7814935209
 20
3.4660168502
 30
0.0
 10
6.7814486384
 20
3.4660518028
 30
0.0
 10
6.7813668542
 20
3.4660901
 30
0.0
 10
6.7812685852
 20
3.4661166827
 30
0.0
 10
6.7811538439
 20
3.4661318257
 30
0.0
 10
6.7810225334
 20
3.4661356673
 30
0.0
 10
6.7808137349
 20
3.4661250893
 30
0.0
 10
6.7806498439
 20
3.4661005917
 30
0.0
 10
6.7805357597
 20
3.466079342
 30
0.0
  0
LINE
  5
43D
100
AcDbEntity
  8
0
100
AcDbLine
 62
7
  6
CONTINUOUS
 10
6.7805357597
 20
3.466079342
 11
6.7783175017
 21
3.4653603467
  0
LINE
  5
43E
100
AcDbEntity
  8
0
100
AcDbLine
 62
7
  6
CONTINUOUS
 10
7.0938682881
 20
3.4564537875
 11
7.0944286003
 21
3.4559508451
  0
SPLINE
  5
43F
100
AcDbEntity
  8
0
100
AcDbSpline
 62
7
  6
CONTINUOUS
 70
0
 71
3
 72
30
 73
26
 74
0
 42
0.0000001
 43
0.0000001
 44
0.0000000001
 40
0.0
 40
0.0
 40
0.0
 40
0.0
 40
0.05075618
 40
0.1112924917
 40
0.2528043705
 40
0.3301477637
 40
0.4098832802
 40
0.4906963634
 40
0.5713109663
 40
0.6503977641
 40
0.7264766063
 40
0.7978111447
 40
0.8310625607
 40
0.862309197
 40
0.8912281001
 40
0.9174679815
 40
0.9406682018
 40
0.9604638843
 40
0.9765161329
 40
0.9830429684
 40
0.9885324153
 40
0.9929627813
 40
0.9963232088
 40
0.9986346673
 40
1.0
 40
1.0
 40
1.0
 40
1.0
 10
7.0944286003
 20
3.4559508451
 30
0.0
 10
7.094575371
 20
3.4558364721
 30
0.0
 10
7.0949006754
 20
3.4555901648
 30
0.0
 10
7.0956474871
 20
3.455041334
 30
0.0
 10
7.0964819009
 20
3.4544472358
 30
0.0
 10
7.0973788027
 20
3.453819712
 30
0.0
 10
7.0980960606
 20
3.4533235979
 30
0.0
 10
7.0988256244
 20
3.4528242165
 30
0.0
 10
7.0995556488
 20
3.4523297359
 30
0.0
 10
7.1002737962
 20
3.4518486876
 30
0.0
 10
7.1009663712
 20
3.4513906175
 30
0.0
 10
7.1015213616
 20
3.4510291476
 30
0.0
 10
7.1019405693
 20
3.4507603851
 30
0.0
 10
7.1022299132
 20
3.4505771781
 30
0.0
 10
7.1024986976
 20
3.4504095615
 30
0.0
 10
7.1027437609
 20
3.4502596727
 30
0.0
 10
7.1029617793
 20
3.4501296849
 30
0.0
 10
7.1031494395
 20
3.4500217736
 30
0.0
 10
7.1032858559
 20
3.4499473762
 30
0.0
 10
7.1033776822
 20
3.4499009522
 30
0.0
 10
7.1034322745
 20
3.4498752608
 30
0.0
 10
7.1034770467
 20
3.4498563102
 30
0.0
 10
7.1035122921
 20
3.4498441123
 30
0.0
 10
7.103537058
 20
3.4498384667
 30
0.0
 10
7.1035515627
 20
3.4498388116
 30
0.0
 10
7.1035558248
 20
3.449841436
 30
0.0
  0
SPLINE
  5
440
100
AcDbEntity
  8
0
100
AcDbSpline
 62
7
  6
CONTINUOUS
 70
0
 71
3
 72
27
 73
23
 74
0
 42
0.0000001
 43
0.0000001
 44
0.0000000001
 40
0.0
 40
0.0
 40
0.0
 40
0.0
 40
0.1250053096
 40
0.2500106192
 40
0.3750159288
 40
0.4375185836
 40
0.5000212384
 40
0.5625238932
 40
0.625026548
 40
0.6875292028
 40
0.7187805302
 40
0.7500318576
 40
0.781283185
 40
0.812534512
 40
0.8281601766
 40
0.8437858403
 40
0.8594115087
 40
0.875037172
 40
0.9062883287
 40
0.9375377591
 40
0.9687793692
 40
1.0
 40
1.0
 40
1.0
 40
1.0
 10
7.0474896441
 20
3.0637673362
 30
0.0
 10
7.0474896441
 20
3.0694654603
 30
0.0
 10
7.0474896442
 20
3.0808617085
 30
0.0
 10
7.0474896437
 20
3.0979560808
 30
0.0
 10
7.0474896449
 20
3.112201391
 30
0.0
 10
7.0474896424
 20
3.1235976392
 30
0.0
 10
7.04748965
 20
3.1321448253
 30
0.0
 10
7.0474896275
 20
3.1406920115
 30
0.0
 10
7.0474896863
 20
3.1492391976
 30
0.0
 10
7.047489556
 20
3.1563618528
 30
0.0
 10
7.047489718
 20
3.1620599768
 30
0.0
 10
7.0474898251
 20
3.1663335699
 30
0.0
 10
7.0474890821
 20
3.1706071629
 30
0.0
 10
7.0474896531
 20
3.1741684906
 30
0.0
 10
7.0474907108
 20
3.1770175524
 30
0.0
 10
7.0474909466
 20
3.1791543495
 30
0.0
 10
7.047488478
 20
3.1812911452
 30
0.0
 10
7.04748693
 20
3.1841401983
 30
0.0
 10
7.0475037168
 20
3.187701445
 30
0.0
 10
7.0475918969
 20
3.1919739521
 30
0.0
 10
7.0478021336
 20
3.1962411641
 30
0.0
 10
7.0480553171
 20
3.1990783274
 30
0.0
 10
7.0482185747
 20
3.200492064
 30
0.0
  0
SPLINE
  5
441
100
AcDbEntity
  8
0
100
AcDbSpline
 62
7
  6
CONTINUOUS
 70
0
 71
3
 72
37
 73
33
 74
0
 42
0.0000001
 43
0.0000001
 44
0.0000000001
 40
0.0
 40
0.0
 40
0.0
 40
0.0
 40
0.0156171765
 40
0.0234257729
 40
0.0312327404
 40
0.0390381269
 40
0.0468441021
 40
0.0546532697
 40
0.0624664302
 40
0.0702829358
 40
0.0781011489
 40
0.0859188983
 40
0.0937345563
 40
0.1015483468
 40
0.1093607793
 40
0.1249834868
 40
0.1406063487
 40
0.15623108
 40
0.1874831279
 40
0.2187341473
 40
0.2499843744
 40
0.2812349709
 40
0.3124857389
 40
0.343736405
 40
0.37498702
 40
0.4374883168
 40
0.4999896188
 40
0.5624909137
 40
0.6249922128
 40
0.7499948082
 40
0.8749974041
 40
1.0
 40
1.0
 40
1.0
 40
1.0
 10
6.807357447
 20
3.2005492977
 30
0.0
 10
6.8074105378
 20
3.1998391419
 30
0.0
 10
6.8075034129
 20
3.1987749397
 30
0.0
 10
6.8076251049
 20
3.197355952
 30
0.0
 10
6.8077080872
 20
3.1962911744
 30
0.0
 10
6.8077758388
 20
3.1952253943
 30
0.0
 10
6.8078203256
 20
3.194158271
 30
0.0
 10
6.8078448733
 20
3.1930901856
 30
0.0
 10
6.8078545508
 20
3.1920214029
 30
0.0
 10
6.8078539777
 20
3.1909521791
 30
0.0
 10
6.8078478497
 20
3.1898827718
 30
0.0
 10
6.8078409889
 20
3.1888134079
 30
0.0
 10
6.8078376176
 20
3.1877442277
 30
0.0
 10
6.8078367329
 20
3.1866752862
 30
0.0
 10
6.8078380558
 20
3.1852503463
 30
0.0
 10
6.8078427807
 20
3.1834693215
 30
0.0
 10
6.807847262
 20
3.1813320569
 30
0.0
 10
6.8078480832
 20
3.1784820949
 30
0.0
 10
6.8078446528
 20
3.174919497
 30
0.0
 10
6.8078442314
 20
3.1706443805
 30
0.0
 10
6.807844907
 20
3.1663693305
 30
0.0
 10
6.8078444183
 20
3.1620942919
 30
0.0
 10
6.8078436942
 20
3.1578192334
 30
0.0
 10
6.8078432019
 20
3.1535441739
 30
0.0
 10
6.8078425966
 20
3.1478441017
 30
0.0
 10
6.8078416063
 20
3.1407190119
 30
0.0
 10
6.8078404124
 20
3.1321689024
 30
0.0
 10
6.8078392066
 20
3.1236187928
 30
0.0
 10
6.807837615
 20
3.1122186469
 30
0.0
 10
6.807835803
 20
3.0979684643
 30
0.0
 10
6.8078342246
 20
3.0808682452
 30
0.0
 10
6.8078337997
 20
3.0694680991
 30
0.0
 10
6.8078337997
 20
3.0637680261
 30
0.0
  0
SPLINE
  5
442
100
AcDbEntity
  8
0
100
AcDbSpline
 62
7
  6
CONTINUOUS
 70
0
 71
3
 72
15
 73
11
 74
0
 42
0.0000001
 43
0.0000001
 44
0.0000000001
 40
0.0
 40
0.0
 40
0.0
 40
0.0
 40
0.1062670813
 40
0.2061057995
 40
0.3056194448
 40
0.411718159
 40
0.5305965884
 40
0.6667602329
 40
0.8229065474
 40
1.0
 40
1.0
 40
1.0
 40
1.0
 10
7.0732006529
 20
3.4502215663
 30
0.0
 10
7.0732006589
 20
3.4501490721
 30
0.0
 10
7.0731870862
 20
3.4500077306
 30
0.0
 10
7.0731151546
 20
3.4498093606
 30
0.0
 10
7.0729899268
 20
3.4496391962
 30
0.0
 10
7.0728126979
 20
3.4495024549
 30
0.0
 10
7.0725862861
 20
3.4494008888
 30
0.0
 10
7.072312444
 20
3.4493347382
 30
0.0
 10
7.0719928857
 20
3.4493042002
 30
0.0
 10
7.0717651643
 20
3.4493074523
 30
0.0
 10
7.0716445364
 20
3.449314106
 30
0.0
  0
SPLINE
  5
443
100
AcDbEntity
  8
0
100
AcDbSpline
 62
7
  6
CONTINUOUS
 70
0
 71
3
 72
28
 73
24
 74
0
 42
0.0000001
 43
0.0000001
 44
0.0000000001
 40
0.0
 40
0.0
 40
0.0
 40
0.0
 40
0.0508834212
 40
0.1031756045
 40
0.129861977
 40
0.1569239934
 40
0.1843783131
 40
0.2122461521
 40
0.2405500956
 40
0.2693113345
 40
0.2985500093
 40
0.3282811462
 40
0.3585122006
 40
0.3892419472
 40
0.45212442
 40
0.516804736
 40
0.5830602021
 40
0.6506330571
 40
0.7192628977
 40
0.788709157
 40
0.8587622289
 40
0.9292426913
 40
1.0
 40
1.0
 40
1.0
 40
1.0
 10
6.7332134185
 20
3.2679843322
 30
0.0
 10
6.7351173321
 20
3.2680497993
 30
0.0
 10
6.7389789917
 20
3.2681574005
 30
0.0
 10
6.7438433735
 20
3.2680859744
 30
0.0
 10
6.7478056499
 20
3.267823109
 30
0.0
 10
6.7508295018
 20
3.267499585
 30
0.0
 10
6.7538795331
 20
3.2670326555
 30
0.0
 10
6.756948425
 20
3.2664056593
 30
0.0
 10
6.7600271726
 20
3.2656039495
 30
0.0
 10
6.7631052316
 20
3.2646153674
 30
0.0
 10
6.7661704704
 20
3.2634298144
 30
0.0
 10
6.7692090673
 20
3.2620393195
 30
0.0
 10
6.7722071779
 20
3.2604408705
 30
0.0
 10
6.776161579
 20
3.2580154433
 30
0.0
 10
6.7809264789
 20
3.2544666004
 30
0.0
 10
6.7862224983
 20
3.2494843135
 30
0.0
 10
6.7910548516
 20
3.2438188946
 30
0.0
 10
6.7953525568
 20
3.2375592162
 30
0.0
 10
6.7990639134
 20
3.2307995381
 30
0.0
 10
6.8021527166
 20
3.2236334088
 30
0.0
 10
6.8045945563
 20
3.2161494181
 30
0.0
 10
6.8063723176
 20
3.2084311768
 30
0.0
 10
6.8071051706
 20
3.2031863609
 30
0.0
 10
6.807357447
 20
3.2005492977
 30
0.0
  0
SPLINE
  5
444
100
AcDbEntity
  8
0
100
AcDbSpline
 62
7
  6
CONTINUOUS
 70
0
 71
3
 72
22
 73
18
 74
0
 42
0.0000001
 43
0.0000001
 44
0.0000000001
 40
0.0
 40
0.0
 40
0.0
 40
0.0
 40
0.0661975653
 40
0.1306612218
 40
0.1936212241
 40
0.2553643048
 40
0.3162111975
 40
0.3764958644
 40
0.4365372081
 40
0.4966227608
 40
0.5570059614
 40
0.617890317
 40
0.6794396229
 40
0.7417656203
 40
0.8049524731
 40
0.8690430839
 40
1.0
 40
1.0
 40
1.0
 40
1.0
 10
6.6961564681
 20
3.2541366989
 30
0.0
 10
6.6967249597
 20
3.2548431145
 30
0.0
 10
6.6978940337
 20
3.2562005501
 30
0.0
 10
6.6997668405
 20
3.2580817819
 30
0.0
 10
6.7017313449
 20
3.259775418
 30
0.0
 10
6.7037826687
 20
3.2612805095
 30
0.0
 10
6.705915276
 20
3.2625995163
 30
0.0
 10
6.7081228079
 20
3.2637385258
 30
0.0
 10
6.710399215
 20
3.2647058228
 30
0.0
 10
6.7127388632
 20
3.2655113822
 30
0.0
 10
6.7151362291
 20
3.2661680215
 30
0.0
 10
6.7175867381
 20
3.2666894896
 30
0.0
 10
6.7200861129
 20
3.2670925755
 30
0.0
 10
6.7226312328
 20
3.2673941547
 30
0.0
 10
6.7252193793
 20
3.2676142179
 30
0.0
 10
6.7287504337
 20
3.2678271673
 30
0.0
 10
6.7314206826
 20
3.2679222402
 30
0.0
 10
6.7332134185
 20
3.2679843322
 30
0.0
  0
LINE
  5
445
100
AcDbEntity
  8
0
100
AcDbLine
 62
7
  6
CONTINUOUS
 10
7.0642731779
 20
3.4495081199
 11
7.0641671879
 21
3.4494281866
  0
SPLINE
  5
446
100
AcDbEntity
  8
0
100
AcDbSpline
 62
7
  6
CONTINUOUS
 70
0
 71
3
 72
16
 73
12
 74
0
 42
0.0000001
 43
0.0000001
 44
0.0000000001
 40
0.0
 40
0.0
 40
0.0
 40
0.0
 40
0.0734968583
 40
0.115726107
 40
0.1618924197
 40
0.2661828189
 40
0.3861378299
 40
0.5207720605
 40
0.6688347208
 40
0.8290569252
 40
1.0
 40
1.0
 40
1.0
 40
1.0
 10
7.0529600217
 20
3.4640400487
 30
0.0
 10
7.052960009
 20
3.4639414119
 30
0.0
 10
7.0529891404
 20
3.4637860214
 30
0.0
 10
7.053063123
 20
3.463581783
 30
0.0
 10
7.0531735182
 20
3.4633474731
 30
0.0
 10
7.0533658482
 20
3.4630384817
 30
0.0
 10
7.0536613977
 20
3.4626574955
 30
0.0
 10
7.0540248604
 20
3.4622570299
 30
0.0
 10
7.0544503845
 20
3.4618415736
 30
0.0
 10
7.0549323974
 20
3.4614154503
 30
0.0
 10
7.055277544
 20
3.461135236
 30
0.0
 10
7.0554582227
 20
3.4609938627
 30
0.0
  0
SPLINE
  5
447
100
AcDbEntity
  8
0
100
AcDbSpline
 62
7
  6
CONTINUOUS
 70
0
 71
3
 72
28
 73
24
 74
0
 42
0.0000001
 43
0.0000001
 44
0.0000000001
 40
0.0
 40
0.0
 40
0.0
 40
0.0
 40
0.0707739073
 40
0.1412484141
 40
0.2112745533
 40
0.280673719
 40
0.349238199
 40
0.416732137
 40
0.4829036246
 40
0.547507803
 40
0.6103357774
 40
0.6410494943
 40
0.6712758516
 40
0.701015621
 40
0.7302780252
 40
0.7590758106
 40
0.7874250707
 40
0.8153450347
 40
0.8428525232
 40
0.8699668089
 40
0.896699905
 40
0.9490675543
 40
1.0
 40
1.0
 40
1.0
 40
1.0
 10
7.0482185747
 20
3.200492064
 30
0.0
 10
7.0485185997
 20
3.2030938682
 30
0.0
 10
7.0493378128
 20
3.2082638569
 30
0.0
 10
7.0512206426
 20
3.2158617168
 30
0.0
 10
7.0537436668
 20
3.223218946
 30
0.0
 10
7.0568905417
 20
3.2302549233
 30
0.0
 10
7.060637286
 20
3.2368841935
 30
0.0
 10
7.0649472892
 20
3.2430175176
 30
0.0
 10
7.0697684863
 20
3.2485663705
 30
0.0
 10
7.0750300412
 20
3.2534495937
 30
0.0
 10
7.0797479952
 20
3.2569356959
 30
0.0
 10
7.0836561256
 20
3.2593281691
 30
0.0
 10
7.0866163267
 20
3.2609127246
 30
0.0
 10
7.089613326
 20
3.2623028701
 30
0.0
 10
7.0926337717
 20
3.2635046097
 30
0.0
 10
7.0956653836
 20
3.2645262238
 30
0.0
 10
7.0986972902
 20
3.2653779422
 30
0.0
 10
7.1017198289
 20
3.2660725701
 30
0.0
 10
7.1047250154
 20
3.2666243511
 30
0.0
 10
7.1077060069
 20
3.267050482
 30
0.0
 10
7.1116145713
 20
3.2674719563
 30
0.0
 10
7.1164181641
 20
3.2677849456
 30
0.0
 10
7.1202385222
 20
3.2679190889
 30
0.0
 10
7.122122189
 20
3.2679843304
 30
0.0
  0
SPLINE
  5
448
100
AcDbEntity
  8
0
100
AcDbSpline
 62
7
  6
CONTINUOUS
 70
0
 71
3
 72
16
 73
12
 74
0
 42
0.0000001
 43
0.0000001
 44
0.0000000001
 40
0.0
 40
0.0
 40
0.0
 40
0.0
 40
0.0270586649
 40
0.0597023392
 40
0.0980307838
 40
0.1419364606
 40
0.245524591
 40
0.3681863762
 40
0.5073737877
 40
0.6605908289
 40
1.0
 40
1.0
 40
1.0
 40
1.0
 10
7.0715617466
 20
3.4641034798
 30
0.0
 10
7.0715717287
 20
3.464067337
 30
0.0
 10
7.0716030595
 20
3.4639902009
 30
0.0
 10
7.0716709462
 20
3.463872301
 30
0.0
 10
7.0717631589
 20
3.463742304
 30
0.0
 10
7.0719263346
 20
3.463542932
 30
0.0
 10
7.072186158
 20
3.46327271
 30
0.0
 10
7.0725595241
 20
3.4629303586
 30
0.0
 10
7.0730009082
 20
3.4625613086
 30
0.0
 10
7.0736919038
 20
3.4620234822
 30
0.0
 10
7.0742486195
 20
3.4616277551
 30
0.0
 10
7.0746373076
 20
3.461362934
 30
0.0
  0
SPLINE
  5
449
100
AcDbEntity
  8
0
100
AcDbSpline
 62
7
  6
CONTINUOUS
 70
0
 71
3
 72
11
 73
7
 74
0
 42
0.0000001
 43
0.0000001
 44
0.0000000001
 40
0.0
 40
0.0
 40
0.0
 40
0.0
 40
0.3371836128
 40
0.59363102
 40
0.796720822
 40
1.0
 40
1.0
 40
1.0
 40
1.0
 10
7.0741149421
 20
3.4597765514
 30
0.0
 10
7.0741223189
 20
3.4597763718
 30
0.0
 10
7.074135356
 20
3.4597769354
 30
0.0
 10
7.074152447
 20
3.4597818079
 30
0.0
 10
7.0741636825
 20
3.4597921479
 30
0.0
 10
7.0741655398
 20
3.4598013997
 30
0.0
 10
7.0741655428
 20
3.4598058482
 30
0.0
  0
SPLINE
  5
44A
100
AcDbEntity
  8
0
100
AcDbSpline
 62
7
  6
CONTINUOUS
 70
0
 71
3
 72
11
 73
7
 74
0
 42
0.0000001
 43
0.0000001
 44
0.0000000001
 40
0.0
 40
0.0
 40
0.0
 40
0.0
 40
0.2468524401
 40
0.500004048
 40
0.7531579682
 40
1.0
 40
1.0
 40
1.0
 40
1.0
 10
6.9164178242
 20
3.4664616667
 30
0.0
 10
6.918460087
 20
3.4661699064
 30
0.0
 10
6.9226194048
 20
3.4657290958
 30
0.0
 10
6.92891364
 20
3.4654894726
 30
0.0
 10
6.9352098013
 20
3.465668845
 30
0.0
 10
6.939373044
 20
3.4660705254
 30
0.0
 10
6.9414178242
 20
3.4663434304
 30
0.0
  0
LINE
  5
44B
100
AcDbEntity
  8
0
100
AcDbLine
 62
7
  6
CONTINUOUS
 10
7.0732164452
 20
3.4599002028
 11
7.0735433764
 21
3.4597871675
  0
LINE
  5
44C
100
AcDbEntity
  8
0
100
AcDbLine
 62
7
  6
CONTINUOUS
 10
7.1035558248
 20
3.4492272967
 11
7.103889684
 21
3.449314837
  0
SPLINE
  5
44D
100
AcDbEntity
  8
0
100
AcDbSpline
 62
7
  6
CONTINUOUS
 70
0
 71
3
 72
22
 73
18
 74
0
 42
0.0000001
 43
0.0000001
 44
0.0000000001
 40
0.0
 40
0.0
 40
0.0
 40
0.0
 40
0.0407890066
 40
0.0824034975
 40
0.1256023878
 40
0.1710748
 40
0.2193910409
 40
0.2710056073
 40
0.326265234
 40
0.3854150039
 40
0.4486106679
 40
0.515923525
 40
0.5873418555
 40
0.6627766944
 40
0.7420591801
 40
0.824930912
 40
1.0
 40
1.0
 40
1.0
 40
1.0
 10
6.9026678242
 20
3.4759486912
 30
0.0
 10
6.9026678242
 20
3.4757095438
 30
0.0
 10
6.9027066574
 20
3.4752255635
 30
0.0
 10
6.9028803659
 20
3.4745071069
 30
0.0
 10
6.9031688953
 20
3.4737969746
 30
0.0
 10
6.9035709094
 20
3.473099074
 30
0.0
 10
6.9040850967
 20
3.4724166845
 30
0.0
 10
6.9047101233
 20
3.4717532199
 30
0.0
 10
6.9054444641
 20
3.4711121855
 30
0.0
 10
6.906286277
 20
3.4704972934
 30
0.0
 10
6.9072332383
 20
3.4699125035
 30
0.0
 10
6.9082823475
 20
3.4693619869
 30
0.0
 10
6.9094297622
 20
3.468850052
 30
0.0
 10
6.9106706467
 20
3.4683811376
 30
0.0
 10
6.9119990582
 20
3.4679596887
 30
0.0
 10
6.9139120555
 20
3.4674577503
 30
0.0
 10
6.9154016607
 20
3.4671807142
 30
0.0
 10
6.9164178242
 20
3.4670358584
 30
0.0
  0
SPLINE
  5
44E
100
AcDbEntity
  8
0
100
AcDbSpline
 62
7
  6
CONTINUOUS
 70
0
 71
3
 72
11
 73
7
 74
0
 42
0.0000001
 43
0.0000001
 44
0.0000000001
 40
0.0
 40
0.0
 40
0.0
 40
0.0
 40
0.2468418949
 40
0.4999959701
 40
0.7531477424
 40
1.0
 40
1.0
 40
1.0
 40
1.0
 10
6.9414178242
 20
3.4669178784
 30
0.0
 10
6.9393729929
 20
3.4666455587
 30
0.0
 10
6.9352097343
 20
3.4662447569
 30
0.0
 10
6.9289136581
 20
3.4660657812
 30
0.0
 10
6.9226194994
 20
3.4663048732
 30
0.0
 10
6.9184601487
 20
3.4667447216
 30
0.0
 10
6.9164178242
 20
3.4670358584
 30
0.0
  0
SPLINE
  5
44F
100
AcDbEntity
  8
0
100
AcDbSpline
 62
7
  6
CONTINUOUS
 70
0
 71
3
 72
22
 73
18
 74
0
 42
0.0000001
 43
0.0000001
 44
0.0000000001
 40
0.0
 40
0.0
 40
0.0
 40
0.0
 40
0.1752960154
 40
0.258250444
 40
0.3375892694
 40
0.4130515065
 40
0.48446768
 40
0.5517503349
 40
0.6148913814
 40
0.6739678114
 40
0.7291431935
 40
0.7806721805
 40
0.8289124829
 40
0.8743303936
 40
0.9175076672
 40
0.9591428485
 40
1.0
 40
1.0
 40
1.0
 40
1.0
 10
6.9414178242
 20
3.4669178784
 30
0.0
 10
6.942433714
 20
3.4670531693
 30
0.0
 10
6.9439233619
 20
3.4673162478
 30
0.0
 10
6.9458373
 20
3.4678007259
 30
0.0
 10
6.9471663535
 20
3.4682102014
 30
0.0
 10
6.9484078601
 20
3.4686681151
 30
0.0
 10
6.9495557895
 20
3.4691700484
 30
0.0
 10
6.9506052459
 20
3.4697115692
 30
0.0
 10
6.9515523549
 20
3.4702883629
 30
0.0
 10
6.9523941093
 20
3.4708962436
 30
0.0
 10
6.9531282025
 20
3.4715312308
 30
0.0
 10
6.9537528255
 20
3.4721895918
 30
0.0
 10
6.9542664986
 20
3.4728677978
 30
0.0
 10
6.9546679446
 20
3.4735624062
 30
0.0
 10
6.9549559185
 20
3.474270103
 30
0.0
 10
6.9551291715
 20
3.4749869402
 30
0.0
 10
6.9551678242
 20
3.4754700762
 30
0.0
 10
6.9551678242
 20
3.4757089454
 30
0.0
  0
SPLINE
  5
450
100
AcDbEntity
  8
0
100
AcDbSpline
 62
7
  6
CONTINUOUS
 70
0
 71
3
 72
12
 73
8
 74
0
 42
0.0000001
 43
0.0000001
 44
0.0000000001
 40
0.0
 40
0.0
 40
0.0
 40
0.0
 40
0.2494244056
 40
0.5075806398
 40
0.7628603409
 40
0.8848743163
 40
1.0
 40
1.0
 40
1.0
 40
1.0
 10
7.0862980104
 20
3.4529573927
 30
0.0
 10
7.0867273366
 20
3.4526303788
 30
0.0
 10
7.0876168185
 20
3.4519854616
 30
0.0
 10
7.0889920951
 20
3.4510719847
 30
0.0
 10
7.0901694019
 20
3.4503606017
 30
0.0
 10
7.0911029516
 20
3.4498468498
 30
0.0
 10
7.0915603104
 20
3.4496139529
 30
0.0
 10
7.0917846127
 20
3.4495056057
 30
0.0
  0
SPLINE
  5
451
100
AcDbEntity
  8
0
100
AcDbSpline
 62
7
  6
CONTINUOUS
 70
0
 71
3
 72
11
 73
7
 74
0
 42
0.0000001
 43
0.0000001
 44
0.0000000001
 40
0.0
 40
0.0
 40
0.0
 40
0.0
 40
0.3235723556
 40
0.5730714856
 40
0.7809610661
 40
1.0
 40
1.0
 40
1.0
 40
1.0
 10
7.0873266407
 20
3.4499515458
 30
0.0
 10
7.0873340435
 20
3.4499513584
 30
0.0
 10
7.087347218
 20
3.4499520217
 30
0.0
 10
7.0873646107
 20
3.4499578672
 30
0.0
 10
7.0873755776
 20
3.4499698886
 30
0.0
 10
7.0873772403
 20
3.4499799911
 30
0.0
 10
7.0873772425
 20
3.4499850039
 30
0.0
  0
SPLINE
  5
452
100
AcDbEntity
  8
0
100
AcDbSpline
 62
7
  6
CONTINUOUS
 70
0
 71
3
 72
33
 73
29
 74
0
 42
0.0000001
 43
0.0000001
 44
0.0000000001
 40
0.0
 40
0.0
 40
0.0
 40
0.0
 40
0.1704081548
 40
0.2553287545
 40
0.3397304431
 40
0.4231753387
 40
0.5050082398
 40
0.5842900344
 40
0.6598035709
 40
0.730137605
 40
0.7939839914
 40
0.8506198354
 40
0.8760769616
 40
0.8995156912
 40
0.9208325794
 40
0.9399088693
 40
0.9566057939
 40
0.9707714593
 40
0.9768546459
 40
0.9822457169
 40
0.9869271915
 40
0.9908861552
 40
0.9941188698
 40
0.99664103
 40
0.9976558449
 40
0.9985285959
 40
0.9992925815
 40
1.0
 40
1.0
 40
1.0
 40
1.0
 10
6.9276678242
 20
3.5039475307
 30
0.0
 10
6.9290929068
 20
3.5039475307
 30
0.0
 10
6.9312281594
 20
3.5039389339
 30
0.0
 10
6.9340691755
 20
3.5039194956
 30
0.0
 10
6.9361829492
 20
3.5039038243
 30
0.0
 10
6.9382709153
 20
3.5038902043
 30
0.0
 10
6.9403160971
 20
3.5038822037
 30
0.0
 10
6.9422949727
 20
3.5038836647
 30
0.0
 10
6.9441776398
 20
3.5038982379
 30
0.0
 10
6.9459310323
 20
3.5039288528
 30
0.0
 10
6.9475260961
 20
3.5039772532
 30
0.0
 10
6.9487453763
 20
3.5040321811
 30
0.0
 10
6.9496263963
 20
3.5040841098
 30
0.0
 10
6.9502121643
 20
3.5041248946
 30
0.0
 10
6.9507441814
 20
3.5041688245
 30
0.0
 10
6.9512193254
 20
3.5042158077
 30
0.0
 10
6.9516339754
 20
3.5042658556
 30
0.0
 10
6.9519395726
 20
3.5043119745
 30
0.0
 10
6.9521503096
 20
3.5043516759
 30
0.0
 10
6.9522822848
 20
3.5043807334
 30
0.0
 10
6.9523958041
 20
3.5044105755
 30
0.0
 10
6.952490365
 20
3.5044411731
 30
0.0
 10
6.9525653938
 20
3.5044724953
 30
0.0
 10
6.9526147653
 20
3.5045009716
 30
0.0
 10
6.9526427895
 20
3.5045251288
 30
0.0
 10
6.9526570054
 20
3.5045423324
 30
0.0
 10
6.952665805
 20
3.5045601009
 30
0.0
 10
6.9526677578
 20
3.5045724937
 30
0.0
 10
6.9526677261
 20
3.5045784096
 30
0.0
  0
SPLINE
  5
453
100
AcDbEntity
  8
0
100
AcDbSpline
 62
7
  6
CONTINUOUS
 70
0
 71
3
 72
32
 73
28
 74
0
 42
0.0000001
 43
0.0000001
 44
0.0000000001
 40
0.0
 40
0.0
 40
0.0
 40
0.0
 40
0.1532109563
 40
0.2304192028
 40
0.3080834795
 40
0.3861308667
 40
0.4643236963
 40
0.542139195
 40
0.6186568051
 40
0.6924993662
 40
0.7621051026
 40
0.7949147619
 40
0.8261568438
 40
0.8556289005
 40
0.8830825651
 40
0.9082420738
 40
0.9307698795
 40
0.9503043374
 40
0.9664665816
 40
0.973178907
 40
0.978936711
 40
0.983755756
 40
0.9877365888
 40
0.9910503879
 40
0.9939676346
 40
0.9968422156
 40
1.0
 40
1.0
 40
1.0
 40
1.0
 10
7.0846451438
 20
3.4578399451
 30
0.0
 10
7.0852641197
 20
3.457427753
 30
0.0
 10
7.0861939831
 20
3.4568062895
 30
0.0
 10
7.0874391568
 20
3.455978198
 30
0.0
 10
7.0883826769
 20
3.4553553521
 30
0.0
 10
7.0893336129
 20
3.4547350879
 30
0.0
 10
7.0902901239
 20
3.4541220792
 30
0.0
 10
7.0912470442
 20
3.4535235728
 30
0.0
 10
7.0921946157
 20
3.4529501212
 30
0.0
 10
7.0931185093
 20
3.4524148384
 30
0.0
 10
7.0938685982
 20
3.4520031803
 30
0.0
 10
7.0944434052
 20
3.4517023481
 30
0.0
 10
7.094848661
 20
3.4514977618
 30
0.0
 10
7.0952338979
 20
3.4513113322
 30
0.0
 10
7.0955959944
 20
3.4511450222
 30
0.0
 10
7.0959311606
 20
3.4510010877
 30
0.0
 10
7.0962350842
 20
3.4508821231
 30
0.0
 10
7.0965027217
 20
3.4507910847
 30
0.0
 10
7.096701846
 20
3.4507376093
 30
0.0
 10
7.0968388603
 20
3.4507137323
 30
0.0
 10
7.0969225513
 20
3.4507060117
 30
0.0
 10
7.0969934102
 20
3.4507077061
 30
0.0
 10
7.0970515286
 20
3.4507187261
 30
0.0
 10
7.0970973258
 20
3.4507393711
 30
0.0
 10
7.0971301502
 20
3.4507704435
 30
0.0
 10
7.0971487084
 20
3.4508107427
 30
0.0
 10
7.0971518714
 20
3.4508402865
 30
0.0
 10
7.0971518696
 20
3.4508556139
 30
0.0
  0
SPLINE
  5
454
100
AcDbEntity
  8
0
100
AcDbSpline
 62
7
  6
CONTINUOUS
 70
0
 71
3
 72
29
 73
25
 74
0
 42
0.0000001
 43
0.0000001
 44
0.0000000001
 40
0.0
 40
0.0
 40
0.0
 40
0.0
 40
0.0126568202
 40
0.0277286244
 40
0.0453890604
 40
0.0656145044
 40
0.0882868907
 40
0.1132472769
 40
0.1693162813
 40
0.2324337844
 40
0.3012860983
 40
0.3746616392
 40
0.4514072663
 40
0.5303548166
 40
0.6102335279
 40
0.6895588477
 40
0.7665075069
 40
0.838799759
 40
0.8723597145
 40
0.9036952219
 40
0.932431387
 40
0.9582204707
 40
0.9807961278
 40
1.0
 40
1.0
 40
1.0
 40
1.0
 10
7.0737119837
 20
3.4573722148
 30
0.0
 10
7.073711989
 20
3.4573146087
 30
0.0
 10
7.0737319714
 20
3.4571884482
 30
0.0
 10
7.0738033235
 20
3.4569938793
 30
0.0
 10
7.0739153105
 20
3.4567798474
 30
0.0
 10
7.074065593
 20
3.4565484698
 30
0.0
 10
7.0742516096
 20
3.4563016748
 30
0.0
 10
7.0745560034
 20
3.4559407272
 30
0.0
 10
7.0750121066
 20
3.4554681885
 30
0.0
 10
7.075642711
 20
3.4548890772
 30
0.0
 10
7.0763605873
 20
3.4542901469
 30
0.0
 10
7.0771508709
 20
3.4536825441
 30
0.0
 10
7.0779997416
 20
3.4530768802
 30
0.0
 10
7.0788933033
 20
3.4524839621
 30
0.0
 10
7.079816519
 20
3.45191561
 30
0.0
 10
7.0807517742
 20
3.4513854036
 30
0.0
 10
7.0816771691
 20
3.4509094995
 30
0.0
 10
7.0824351814
 20
3.4505652842
 30
0.0
 10
7.0830158811
 20
3.4503354851
 30
0.0
 10
7.0834180306
 20
3.450194083
 30
0.0
 10
7.083792527
 20
3.4500818451
 30
0.0
 10
7.0841343021
 20
3.4500010274
 30
0.0
 10
7.0844384387
 20
3.4499533727
 30
0.0
 10
7.084628969
 20
3.4499435085
 30
0.0
 10
7.0847163353
 20
3.4499460854
 30
0.0
  0
SPLINE
  5
455
100
AcDbEntity
  8
0
100
AcDbSpline
 62
7
  6
CONTINUOUS
 70
0
 71
3
 72
11
 73
7
 74
0
 42
0.0000001
 43
0.0000001
 44
0.0000000001
 40
0.0
 40
0.0
 40
0.0
 40
0.0
 40
0.2193710837
 40
0.4273670641
 40
0.6767086807
 40
1.0
 40
1.0
 40
1.0
 40
1.0
 10
7.0873772413
 20
3.4493712219
 30
0.0
 10
7.0873772379
 20
3.449366197
 30
0.0
 10
7.0873755767
 20
3.4493560776
 30
0.0
 10
7.087364619
 20
3.44934402
 30
0.0
 10
7.0873472201
 20
3.4493381556
 30
0.0
 10
7.0873340436
 20
3.4493374921
 30
0.0
 10
7.0873266407
 20
3.44933768
 30
0.0
  0
LINE
  5
456
100
AcDbEntity
  8
0
100
AcDbLine
 62
7
  6
CONTINUOUS
 10
7.1035558248
 20
3.449841436
 11
7.1038525783
 21
3.4499307319
  0
LINE
  5
457
100
AcDbEntity
  8
0
100
AcDbLine
 62
7
  6
CONTINUOUS
 10
7.0641671879
 20
3.4500418283
 11
7.0642731773
 21
3.4501215641
  0
LINE
  5
458
100
AcDbEntity
  8
0
100
AcDbLine
 62
7
  6
CONTINUOUS
 10
7.05641745
 20
3.4512133573
 11
7.0577357145
 21
3.4506634148
  0
SPLINE
  5
459
100
AcDbEntity
  8
0
100
AcDbSpline
 62
7
  6
CONTINUOUS
 70
0
 71
3
 72
12
 73
8
 74
0
 42
0.0000001
 43
0.0000001
 44
0.0000000001
 40
0.0
 40
0.0
 40
0.0
 40
0.0
 40
0.2866727864
 40
0.5535561209
 40
0.7932553731
 40
0.9010383857
 40
1.0
 40
1.0
 40
1.0
 40
1.0
 10
7.0577357145
 20
3.4506634148
 30
0.0
 10
7.0580640972
 20
3.4505406766
 30
0.0
 10
7.0587055086
 20
3.4503223502
 30
0.0
 10
7.0596451061
 20
3.4500775329
 30
0.0
 10
7.060388174
 20
3.4499554048
 30
0.0
 10
7.0609333005
 20
3.4499192797
 30
0.0
 10
7.0611864635
 20
3.4499213814
 30
0.0
 10
7.0613073004
 20
3.4499280302
 30
0.0
  0
SPLINE
  5
45A
100
AcDbEntity
  8
0
100
AcDbSpline
 62
7
  6
CONTINUOUS
 70
0
 71
3
 72
15
 73
11
 74
0
 42
0.0000001
 43
0.0000001
 44
0.0000000001
 40
0.0
 40
0.0
 40
0.0
 40
0.0
 40
0.1772182531
 40
0.3334739614
 40
0.4697214009
 40
0.5886437328
 40
0.6947315762
 40
0.7941727066
 40
0.8938869393
 40
1.0
 40
1.0
 40
1.0
 40
1.0
 10
7.0716445364
 20
3.4499280302
 30
0.0
 10
7.0717651522
 20
3.4499213936
 30
0.0
 10
7.0719928465
 20
3.4499181491
 30
0.0
 10
7.0723123653
 20
3.4499486005
 30
0.0
 10
7.072586178
 20
3.4500145644
 30
0.0
 10
7.0728125773
 20
3.4501158443
 30
0.0
 10
7.0729898248
 20
3.4502522123
 30
0.0
 10
7.0731151021
 20
3.4504219546
 30
0.0
 10
7.0731870778
 20
3.4506198804
 30
0.0
 10
7.0732006589
 20
3.4507609203
 30
0.0
 10
7.0732006529
 20
3.4508332507
 30
0.0
  0
LINE
  5
45B
100
AcDbEntity
  8
0
100
AcDbLine
 62
7
  6
CONTINUOUS
 10
7.0680828128
 20
3.4504033451
 11
7.0687846489
 21
3.4500418283
  0
LINE
  5
45C
100
AcDbEntity
  8
0
100
AcDbLine
 62
7
  6
CONTINUOUS
 10
7.0770255333
 20
3.4669921126
 11
7.0773102506
 21
3.4669116789
  0
LINE
  5
45D
100
AcDbEntity
  8
0
100
AcDbLine
 62
7
  6
CONTINUOUS
 10
7.0905760145
 20
3.4583924266
 11
7.0910024794
 21
3.458587346
  0
SPLINE
  5
45E
100
AcDbEntity
  8
0
100
AcDbSpline
 62
7
  6
CONTINUOUS
 70
0
 71
3
 72
15
 73
11
 74
0
 42
0.0000001
 43
0.0000001
 44
0.0000000001
 40
0.0
 40
0.0
 40
0.0
 40
0.0
 40
0.0997537994
 40
0.1925011845
 40
0.2863829228
 40
0.389920648
 40
0.5097784698
 40
0.6502045074
 40
0.8134272052
 40
1.0
 40
1.0
 40
1.0
 40
1.0
 10
7.0690628036
 20
3.4590662767
 30
0.0
 10
7.0690628083
 20
3.4591299849
 30
0.0
 10
7.0690760733
 20
3.4592538587
 30
0.0
 10
7.0691493089
 20
3.4594248205
 30
0.0
 10
7.0692762173
 20
3.4595643075
 30
0.0
 10
7.0694529146
 20
3.4596682666
 30
0.0
 10
7.0696761683
 20
3.4597377669
 30
0.0
 10
7.0699451766
 20
3.4597737375
 30
0.0
 10
7.0702588221
 20
3.4597764324
 30
0.0
 10
7.0704817039
 20
3.4597574599
 30
0.0
 10
7.0706000144
 20
3.4597432936
 30
0.0
  0
SPLINE
  5
45F
100
AcDbEntity
  8
0
100
AcDbSpline
 62
7
  6
CONTINUOUS
 70
0
 71
3
 72
11
 73
7
 74
0
 42
0.0000001
 43
0.0000001
 44
0.0000000001
 40
0.0
 40
0.0
 40
0.0
 40
0.0
 40
0.2035575077
 40
0.406723577
 40
0.6630479193
 40
1.0
 40
1.0
 40
1.0
 40
1.0
 10
7.0741655428
 20
3.4592155109
 30
0.0
 10
7.0741655398
 20
3.4592110529
 30
0.0
 10
7.0741636863
 20
3.459201787
 30
0.0
 10
7.0741524547
 20
3.4591914187
 30
0.0
 10
7.0741353583
 20
3.4591865315
 30
0.0
 10
7.0741223193
 20
3.4591859667
 30
0.0
 10
7.0741149421
 20
3.4591861468
 30
0.0
  0
SPLINE
  5
460
100
AcDbEntity
  8
0
100
AcDbSpline
 62
7
  6
CONTINUOUS
 70
0
 71
3
 72
14
 73
10
 74
0
 42
0.0000001
 43
0.0000001
 44
0.0000000001
 40
0.0
 40
0.0
 40
0.0
 40
0.0
 40
0.3003179902
 40
0.4434963687
 40
0.5785227204
 40
0.7031842962
 40
0.8157074435
 40
0.9148508679
 40
1.0
 40
1.0
 40
1.0
 40
1.0
 10
6.9093010737
 20
3.488588893
 30
0.0
 10
6.9086263085
 20
3.4885456337
 30
0.0
 10
6.9076262597
 20
3.4885236401
 30
0.0
 10
6.9063248942
 20
3.4885867279
 30
0.0
 10
6.9054218878
 20
3.4886769602
 30
0.0
 10
6.9045937137
 20
3.4888083509
 30
0.0
 10
6.9038548859
 20
3.4889776492
 30
0.0
 10
6.9032174042
 20
3.4891808183
 30
0.0
 10
6.9028365387
 20
3.4893488762
 30
0.0
 10
6.9026678242
 20
3.4894399131
 30
0.0
  0
SPLINE
  5
461
100
AcDbEntity
  8
0
100
AcDbSpline
 62
7
  6
CONTINUOUS
 70
0
 71
3
 72
14
 73
10
 74
0
 42
0.0000001
 43
0.0000001
 44
0.0000000001
 40
0.0
 40
0.0
 40
0.0
 40
0.0
 40
0.0850056188
 40
0.1840593851
 40
0.2965498306
 40
0.4212273395
 40
0.5563031319
 40
0.6995473808
 40
1.0
 40
1.0
 40
1.0
 40
1.0
 10
6.9551678242
 20
3.4892114331
 30
0.0
 10
6.9549989797
 20
3.4891217239
 30
0.0
 10
6.9546177724
 20
3.4889567373
 30
0.0
 10
6.9539799187
 20
3.4887589223
 30
0.0
 10
6.9532406775
 20
3.488595935
 30
0.0
 10
6.9524121566
 20
3.4884717198
 30
0.0
 10
6.9515089969
 20
3.4883893909
 30
0.0
 10
6.9502078505
 20
3.4883377524
 30
0.0
 10
6.9492085724
 20
3.4883685376
 30
0.0
 10
6.9485345746
 20
3.4884176586
 30
0.0
  0
SPLINE
  5
462
100
AcDbEntity
  8
0
100
AcDbSpline
 62
7
  6
CONTINUOUS
 70
0
 71
3
 72
22
 73
18
 74
0
 42
0.0000001
 43
0.0000001
 44
0.0000000001
 40
0.0
 40
0.0
 40
0.0
 40
0.0
 40
0.0409070724
 40
0.0825893822
 40
0.1258082422
 40
0.1712601839
 40
0.2195257536
 40
0.271070745
 40
0.3262529277
 40
0.3853274281
 40
0.4484585726
 40
0.5157242812
 40
0.5871175061
 40
0.6625518765
 40
0.7418589823
 40
0.8247788106
 40
1.0
 40
1.0
 40
1.0
 40
1.0
 10
6.9551678242
 20
3.4751529927
 30
0.0
 10
6.9551678242
 20
3.4749136703
 30
0.0
 10
6.9551291858
 20
3.4744296431
 30
0.0
 10
6.9549559926
 20
3.4737114533
 30
0.0
 10
6.9546681088
 20
3.4730023947
 30
0.0
 10
6.9542667732
 20
3.47230642
 30
0.0
 10
6.9537532217
 20
3.4716268516
 30
0.0
 10
6.9531287238
 20
3.4709671409
 30
0.0
 10
6.9523947511
 20
3.4703308259
 30
0.0
 10
6.951553104
 20
3.4697216486
 30
0.0
 10
6.9506060791
 20
3.4691435994
 30
0.0
 10
6.949556673
 20
3.4686008753
 30
0.0
 10
6.9484087494
 20
3.4680978038
 30
0.0
 10
6.9471671944
 20
3.4676388315
 30
0.0
 10
6.9458380303
 20
3.4672283928
 30
0.0
 10
6.9439238599
 20
3.4667427608
 30
0.0
 10
6.9424339269
 20
3.4664790438
 30
0.0
 10
6.9414178242
 20
3.4663434304
 30
0.0
  0
SPLINE
  5
463
100
AcDbEntity
  8
0
100
AcDbSpline
 62
7
  6
CONTINUOUS
 70
0
 71
3
 72
22
 73
18
 74
0
 42
0.0000001
 43
0.0000001
 44
0.0000000001
 40
0.0
 40
0.0
 40
0.0
 40
0.0
 40
0.1749940902
 40
0.2578312282
 40
0.3370820693
 40
0.4124891806
 40
0.4838847491
 40
0.5511808723
 40
0.6143668463
 40
0.6735148685
 40
0.7287814188
 40
0.7804120316
 40
0.8287534879
 40
0.874259786
 40
0.9175000384
 40
0.9591613802
 40
1.0
 40
1.0
 40
1.0
 40
1.0
 10
6.9164178242
 20
3.4664616667
 30
0.0
 10
6.9154014475
 20
3.4666068676
 30
0.0
 10
6.9139115589
 20
3.4668845744
 30
0.0
 10
6.9119983347
 20
3.4673877035
 30
0.0
 10
6.9106698159
 20
3.4678101398
 30
0.0
 10
6.9094288857
 20
3.4682801336
 30
0.0
 10
6.9082814787
 20
3.4687932246
 30
0.0
 10
6.9072324207
 20
3.4693449595
 30
0.0
 10
6.9062855434
 20
3.4699310175
 30
0.0
 10
6.9054438367
 20
3.4705472167
 30
0.0
 10
6.9047096146
 20
3.4711895876
 30
0.0
 10
6.9040847106
 20
3.4718544092
 30
0.0
 10
6.903570642
 20
3.4725381672
 30
0.0
 10
6.9031687355
 20
3.4732374394
 30
0.0
 10
6.9028802938
 20
3.473948938
 30
0.0
 10
6.9027066435
 20
3.4746687509
 30
0.0
 10
6.9026678242
 20
3.4751536246
 30
0.0
 10
6.9026678242
 20
3.4753932262
 30
0.0
  0
SPLINE
  5
464
100
AcDbEntity
  8
0
100
AcDbSpline
 62
7
  6
CONTINUOUS
 70
0
 71
3
 72
37
 73
33
 74
0
 42
0.0000001
 43
0.0000001
 44
0.0000000001
 40
0.0
 40
0.0
 40
0.0
 40
0.0
 40
0.0077759954
 40
0.0155587764
 40
0.023349044
 40
0.0311468951
 40
0.0389498219
 40
0.0467562727
 40
0.054567431
 40
0.0623828027
 40
0.0662908597
 40
0.0701984236
 40
0.0780121511
 40
0.0858249606
 40
0.0936378922
 40
0.1092649412
 40
0.1248920797
 40
0.1405189141
 40
0.1561458183
 40
0.1873997081
 40
0.2186535566
 40
0.2499074173
 40
0.2811612741
 40
0.312415132
 40
0.3749228471
 40
0.4374305623
 40
0.4999382774
 40
0.5624459925
 40
0.6249537076
 40
0.749969138
 40
0.8749845688
 40
1.0
 40
1.0
 40
1.0
 40
1.0
 10
6.7397437817
 20
3.2005492977
 30
0.0
 10
6.7397075008
 20
3.2001965756
 30
0.0
 10
6.7396382376
 20
3.1994904771
 30
0.0
 10
6.7395439107
 20
3.19842994
 30
0.0
 10
6.7394588975
 20
3.1973676191
 30
0.0
 10
6.7393824449
 20
3.1963037191
 30
0.0
 10
6.7393208029
 20
3.1952380874
 30
0.0
 10
6.7392816346
 20
3.194170719
 30
0.0
 10
6.7392704642
 20
3.1931021573
 30
0.0
 10
6.7392732103
 20
3.1922113889
 30
0.0
 10
6.7392766229
 20
3.1914986284
 30
0.0
 10
6.7392786113
 20
3.1907859369
 30
0.0
 10
6.7392787444
 20
3.1898951866
 30
0.0
 10
6.7392771665
 20
3.188826355
 30
0.0
 10
6.7392757504
 20
3.1874012374
 30
0.0
 10
6.7392766626
 20
3.1856197881
 30
0.0
 10
6.7392771483
 20
3.1834820275
 30
0.0
 10
6.7392768691
 20
3.1813442733
 30
0.0
 10
6.7392770274
 20
3.1784939439
 30
0.0
 10
6.7392773247
 20
3.1749310273
 30
0.0
 10
6.7392775763
 20
3.1706555261
 30
0.0
 10
6.73927796
 20
3.1663800264
 30
0.0
 10
6.7392783535
 20
3.1621045263
 30
0.0
 10
6.739278948
 20
3.1564038596
 30
0.0
 10
6.73927977
 20
3.1492780263
 30
0.0
 10
6.7392808574
 20
3.1407270263
 30
0.0
 10
6.7392820014
 20
3.1321760263
 30
0.0
 10
6.7392831626
 20
3.1236250264
 30
0.0
 10
6.73928468
 20
3.1122236931
 30
0.0
 10
6.7392864181
 20
3.0979720264
 30
0.0
 10
6.7392879274
 20
3.0808700263
 30
0.0
 10
6.7392883344
 20
3.0694686928
 30
0.0
 10
6.7392883344
 20
3.0637680261
 30
0.0
  0
SPLINE
  5
465
100
AcDbEntity
  8
0
100
AcDbSpline
 62
7
  6
CONTINUOUS
 70
0
 71
3
 72
17
 73
13
 74
0
 42
0.0000001
 43
0.0000001
 44
0.0000000001
 40
0.0
 40
0.0
 40
0.0
 40
0.0
 40
0.0634692282
 40
0.0931339705
 40
0.1242023334
 40
0.1588885666
 40
0.1989951714
 40
0.2998062843
 40
0.4311036355
 40
0.593035565
 40
0.7835137368
 40
1.0
 40
1.0
 40
1.0
 40
1.0
 10
7.097151849
 20
3.4502439981
 30
0.0
 10
7.0971518448
 20
3.4502206217
 30
0.0
 10
7.0971457445
 20
3.4501850653
 30
0.0
 10
7.0971192114
 20
3.4501470454
 30
0.0
 10
7.0970913936
 20
3.4501248547
 30
0.0
 10
7.0970555506
 20
3.4501087117
 30
0.0
 10
7.0969922213
 20
3.450094131
 30
0.0
 10
7.0968909913
 20
3.4500942724
 30
0.0
 10
7.0967473522
 20
3.4501159916
 30
0.0
 10
7.0965742698
 20
3.4501591457
 30
0.0
 10
7.0963743411
 20
3.4502220495
 30
0.0
 10
7.0962333969
 20
3.4502731908
 30
0.0
 10
7.0961588679
 20
3.450301528
 30
0.0
  0
SPLINE
  5
466
100
AcDbEntity
  8
0
100
AcDbSpline
 62
7
  6
CONTINUOUS
 70
0
 71
3
 72
18
 73
14
 74
0
 42
0.0000001
 43
0.0000001
 44
0.0000000001
 40
0.0
 40
0.0
 40
0.0
 40
0.0
 40
0.0419707571
 40
0.0904516945
 40
0.1442034919
 40
0.2022653929
 40
0.2638546477
 40
0.3282338216
 40
0.4618684431
 40
0.5976374367
 40
0.7329358293
 40
0.8670177387
 40
1.0
 40
1.0
 40
1.0
 40
1.0
 10
7.0961588679
 20
3.450301528
 30
0.0
 10
7.0959827842
 20
3.4503684779
 30
0.0
 10
7.0956083403
 20
3.4505259602
 30
0.0
 10
7.0950220222
 20
3.450800297
 30
0.0
 10
7.0943793605
 20
3.4511239439
 30
0.0
 10
7.0936923726
 20
3.4514898481
 30
0.0
 10
7.0929710473
 20
3.4518924113
 30
0.0
 10
7.0919641744
 20
3.4524789587
 30
0.0
 10
7.0906873597
 20
3.453263028
 30
0.0
 10
7.0891584975
 20
3.4542440208
 30
0.0
 10
7.0876398459
 20
3.455244343
 30
0.0
 10
7.086137703
 20
3.4562468871
 30
0.0
 10
7.085141591
 20
3.4569136913
 30
0.0
 10
7.0846451438
 20
3.4572450592
 30
0.0
  0
SPLINE
  5
467
100
AcDbEntity
  8
0
100
AcDbSpline
 62
7
  6
CONTINUOUS
 70
0
 71
3
 72
22
 73
18
 74
0
 42
0.0000001
 43
0.0000001
 44
0.0000000001
 40
0.0
 40
0.0
 40
0.0
 40
0.0
 40
0.0076226963
 40
0.0172667816
 40
0.029099594
 40
0.0431296634
 40
0.0592989006
 40
0.0775406676
 40
0.1199305349
 40
0.169762037
 40
0.2265791284
 40
0.2898616573
 40
0.3585599826
 40
0.5078274327
 40
0.667183282
 40
0.8320983769
 40
1.0
 40
1.0
 40
1.0
 40
1.0
 10
7.0759703759
 20
3.4644140314
 30
0.0
 10
7.075970379
 20
3.4643896882
 30
0.0
 10
7.0759817177
 20
3.4643347326
 30
0.0
 10
7.0760193381
 20
3.464249504
 30
0.0
 10
7.0760781635
 20
3.4641522712
 30
0.0
 10
7.0761573827
 20
3.4640437921
 30
0.0
 10
7.0762560983
 20
3.4639245868
 30
0.0
 10
7.0764211395
 20
3.4637430741
 30
0.0
 10
7.0766726449
 20
3.4634953725
 30
0.0
 10
7.0770270527
 20
3.4631775247
 30
0.0
 10
7.0774439017
 20
3.4628298934
 30
0.0
 10
7.0779180554
 20
3.4624573657
 30
0.0
 10
7.0786362445
 20
3.461917914
 30
0.0
 10
7.079617502
 20
3.4612182851
 30
0.0
 10
7.0808644305
 20
3.4603626235
 30
0.0
 10
7.0821692801
 20
3.4594863531
 30
0.0
 10
7.0830542938
 20
3.4588977861
 30
0.0
 10
7.0835008313
 20
3.4586009514
 30
0.0
  0
LINE
  5
468
100
AcDbEntity
  8
0
100
AcDbLine
 62
7
  6
CONTINUOUS
 10
7.0835008313
 20
3.4586009514
 11
7.0840634666
 21
3.4582269473
  0
LINE
  5
469
100
AcDbEntity
  8
0
100
AcDbLine
 62
7
  6
CONTINUOUS
 10
7.0840634666
 20
3.4582269473
 11
7.0846451438
 21
3.4578399451
  0
SPLINE
  5
46A
100
AcDbEntity
  8
0
100
AcDbSpline
 62
7
  6
CONTINUOUS
 70
0
 71
3
 72
29
 73
25
 74
0
 42
0.0000001
 43
0.0000001
 44
0.0000000001
 40
0.0
 40
0.0
 40
0.0
 40
0.0
 40
0.0064077448
 40
0.0094224011
 40
0.0125165768
 40
0.0195228857
 40
0.0236943098
 40
0.0284057644
 40
0.0396305023
 40
0.0534177016
 40
0.0697816208
 40
0.0886731158
 40
0.1100138788
 40
0.1337119253
 40
0.187775374
 40
0.2500402434
 40
0.3196313094
 40
0.3955858939
 40
0.4766216875
 40
0.5611487796
 40
0.6478440969
 40
0.7357160644
 40
0.8240328162
 40
1.0
 40
1.0
 40
1.0
 40
1.0
 10
7.0715718355
 20
3.4666763664
 30
0.0
 10
7.0715718352
 20
3.4667174641
 30
0.0
 10
7.0715820625
 20
3.4667794739
 30
0.0
 10
7.0716233621
 20
3.4668491616
 30
0.0
 10
7.0716828362
 20
3.4669097299
 30
0.0
 10
7.0717672948
 20
3.466950968
 30
0.0
 10
7.0718660241
 20
3.4669761836
 30
0.0
 10
7.0719940956
 20
3.4669937744
 30
0.0
 10
7.0721854763
 20
3.4669929308
 30
0.0
 10
7.0724493579
 20
3.4669622328
 30
0.0
 10
7.0727583452
 20
3.4669020966
 30
0.0
 10
7.0731103909
 20
3.4668130914
 30
0.0
 10
7.0735034187
 20
3.4666958881
 30
0.0
 10
7.0741061755
 20
3.4664938743
 30
0.0
 10
7.0749452953
 20
3.4661727483
 30
0.0
 10
7.0760419081
 20
3.4657038965
 30
0.0
 10
7.0772509563
 20
3.4651424999
 30
0.0
 10
7.0785529763
 20
3.4644967165
 30
0.0
 10
7.0799252071
 20
3.4637778175
 30
0.0
 10
7.0813444347
 20
3.4630008276
 30
0.0
 10
7.0827891974
 20
3.4621796473
 30
0.0
 10
7.08424306
 20
3.4613256482
 30
0.0
 10
7.0861754201
 20
3.4601561871
 30
0.0
 10
7.0876093379
 20
3.4592518612
 30
0.0
 10
7.0885568799
 20
3.4586387339
 30
0.0
  0
LINE
  5
46B
100
AcDbEntity
  8
0
100
AcDbLine
 62
7
  6
CONTINUOUS
 10
7.1014445132
 20
3.4477550317
 11
7.100614892
 21
3.4488735497
  0
LINE
  5
46C
100
AcDbEntity
  8
0
100
AcDbLine
 62
7
  6
CONTINUOUS
 10
7.100614892
 20
3.4488735497
 11
7.0971719834
 21
3.4519360615
  0
LINE
  5
46D
100
AcDbEntity
  8
0
100
AcDbLine
 62
7
  6
CONTINUOUS
 10
7.0971719834
 20
3.4519360615
 11
7.0901968891
 21
3.4569660422
  0
LINE
  5
46E
100
AcDbEntity
  8
0
100
AcDbLine
 62
7
  6
CONTINUOUS
 10
6.8984519598
 20
3.5043570618
 11
6.8937749329
 21
3.5036514058
  0
LINE
  5
46F
100
AcDbEntity
  8
0
100
AcDbLine
 62
7
  6
CONTINUOUS
 10
6.8937749329
 20
3.5036514058
 11
6.8928911417
 21
3.5033356103
  0
SPLINE
  5
470
100
AcDbEntity
  8
0
100
AcDbSpline
 62
7
  6
CONTINUOUS
 70
0
 71
3
 72
12
 73
8
 74
0
 42
0.0000001
 43
0.0000001
 44
0.0000000001
 40
0.0
 40
0.0
 40
0.0
 40
0.0
 40
0.261461572
 40
0.52180243
 40
0.6491682481
 40
0.7727078512
 40
1.0
 40
1.0
 40
1.0
 40
1.0
 10
7.0877598926
 20
3.4585588828
 30
0.0
 10
7.0868352442
 20
3.4591499554
 30
0.0
 10
7.0849763615
 20
3.4603085203
 30
0.0
 10
7.0826292855
 20
3.4616931584
 30
0.0
 10
7.0807577653
 20
3.4627431448
 30
0.0
 10
7.0789914305
 20
3.4636963838
 30
0.0
 10
7.0776762465
 20
3.4643601867
 30
0.0
 10
7.0768128187
 20
3.464765922
 30
0.0
  0
SPLINE
  5
471
100
AcDbEntity
  8
0
100
AcDbSpline
 62
7
  6
CONTINUOUS
 70
0
 71
3
 72
13
 73
9
 74
0
 42
0.0000001
 43
0.0000001
 44
0.0000000001
 40
0.0
 40
0.0
 40
0.0
 40
0.0
 40
0.3127125548
 40
0.586288339
 40
0.7071241247
 40
0.8166579015
 40
0.9144226464
 40
1.0
 40
1.0
 40
1.0
 40
1.0
 10
7.0762464375
 20
3.4650275417
 30
0.0
 10
7.0758738655
 20
3.4651965436
 30
0.0
 10
7.0751708869
 20
3.4655037025
 30
0.0
 10
7.0743099385
 20
3.4658431076
 30
0.0
 10
7.0736875707
 20
3.4660608926
 30
0.0
 10
7.0732781419
 20
3.4661902382
 30
0.0
 10
7.0729085737
 20
3.4662917478
 30
0.0
 10
7.0726742979
 20
3.4663439606
 30
0.0
 10
7.072564222
 20
3.4663644019
 30
0.0
  0
LINE
  5
472
100
AcDbEntity
  8
0
100
AcDbLine
 62
7
  6
CONTINUOUS
 10
7.072564222
 20
3.4663644019
 11
7.0716798805
 21
3.4663259879
  0
LINE
  5
473
100
AcDbEntity
  8
0
100
AcDbLine
 62
7
  6
CONTINUOUS
 10
7.0846451438
 20
3.4572450592
 11
7.0840640946
 21
3.4576325439
  0
LINE
  5
474
100
AcDbEntity
  8
0
100
AcDbLine
 62
7
  6
CONTINUOUS
 10
7.0840640946
 20
3.4576325439
 11
7.0829593568
 21
3.4583687699
  0
SPLINE
  5
475
100
AcDbEntity
  8
0
100
AcDbSpline
 62
7
  6
CONTINUOUS
 70
0
 71
3
 72
21
 73
17
 74
0
 42
0.0000001
 43
0.0000001
 44
0.0000000001
 40
0.0
 40
0.0
 40
0.0
 40
0.0
 40
0.1700766648
 40
0.3365667075
 40
0.4966261478
 40
0.6454664135
 40
0.7135217762
 40
0.7759456607
 40
0.8319206513
 40
0.8810417192
 40
0.9228692749
 40
0.956883672
 40
0.9708025994
 40
0.9825905396
 40
0.9922669495
 40
1.0
 40
1.0
 40
1.0
 40
1.0
 10
7.0829593568
 20
3.4583687699
 30
0.0
 10
7.0825378166
 20
3.458649941
 30
0.0
 10
7.081704143
 20
3.4592071303
 30
0.0
 10
7.0804788617
 20
3.4600365582
 30
0.0
 10
7.07931524
 20
3.4608440602
 30
0.0
 10
7.078405266
 20
3.4615025274
 30
0.0
 10
7.0777441903
 20
3.4620080774
 30
0.0
 10
7.0773107458
 20
3.4623556171
 30
0.0
 10
7.0769307786
 20
3.4626793375
 30
0.0
 10
7.0766079147
 20
3.4629751342
 30
0.0
 10
7.0763458095
 20
3.4632397033
 30
0.0
 10
7.0761707399
 20
3.4634425069
 30
0.0
 10
7.0760677719
 20
3.4635877784
 30
0.0
 10
7.0760144864
 20
3.4636790022
 30
0.0
 10
7.0759804744
 20
3.4637593152
 30
0.0
 10
7.0759703788
 20
3.463811049
 30
0.0
 10
7.0759703759
 20
3.4638340881
 30
0.0
  0
SPLINE
  5
476
100
AcDbEntity
  8
0
100
AcDbSpline
 62
7
  6
CONTINUOUS
 70
0
 71
3
 72
21
 73
17
 74
0
 42
0.0000001
 43
0.0000001
 44
0.0000000001
 40
0.0
 40
0.0
 40
0.0
 40
0.0
 40
0.2220272148
 40
0.4162738862
 40
0.5826590041
 40
0.7210557422
 40
0.7797082398
 40
0.8313009969
 40
0.8758315386
 40
0.9133313877
 40
0.9439119623
 40
0.9678339845
 40
0.9775115729
 40
0.9858753789
 40
0.9932231613
 40
1.0
 40
1.0
 40
1.0
 40
1.0
 10
6.9565361272
 20
3.5048942404
 30
0.0
 10
6.9570057116
 20
3.5048480074
 30
0.0
 10
6.9578855426
 20
3.5047551779
 30
0.0
 10
6.9591144106
 20
3.5046020095
 30
0.0
 10
6.9601633277
 20
3.5044446553
 30
0.0
 10
6.9609231269
 20
3.5043043147
 30
0.0
 10
6.9614385286
 20
3.5041874387
 30
0.0
 10
6.9617568059
 20
3.5041040731
 30
0.0
 10
6.9620282479
 20
3.5040203013
 30
0.0
 10
6.962252606
 20
3.5039363094
 30
0.0
 10
6.9624294011
 20
3.5038523466
 30
0.0
 10
6.9625447741
 20
3.5037779098
 30
0.0
 10
6.9626097503
 20
3.5037164202
 30
0.0
 10
6.9626426077
 20
3.5036732167
 30
0.0
 10
6.9626628311
 20
3.503629399
 30
0.0
 10
6.9626674914
 20
3.5035992292
 30
0.0
 10
6.9626674823
 20
3.503584827
 30
0.0
  0
SPLINE
  5
477
100
AcDbEntity
  8
0
100
AcDbSpline
 62
7
  6
CONTINUOUS
 70
0
 71
3
 72
23
 73
19
 74
0
 42
0.0000001
 43
0.0000001
 44
0.0000000001
 40
0.0
 40
0.0
 40
0.0
 40
0.0
 40
0.0663383259
 40
0.1321114727
 40
0.19729324
 40
0.2618764861
 40
0.325860834
 40
0.3892612479
 40
0.4520961068
 40
0.514389528
 40
0.5761785341
 40
0.6375062512
 40
0.698425458
 40
0.7590010652
 40
0.8193162193
 40
0.8794811575
 40
0.9396428671
 40
1.0
 40
1.0
 40
1.0
 40
1.0
 10
6.8078337997
 20
3.0637680261
 30
0.0
 10
6.8068882863
 20
3.06270981
 30
0.0
 10
6.8049532297
 20
3.060648274
 30
0.0
 10
6.8019186615
 20
3.0577129873
 30
0.0
 10
6.7987832826
 20
3.0549422628
 30
0.0
 10
6.7955682958
 20
3.0523250175
 30
0.0
 10
6.7922941578
 20
3.0498452403
 30
0.0
 10
6.7889805791
 20
3.0474827086
 30
0.0
 10
6.7856444832
 20
3.0452161679
 30
0.0
 10
6.7823005377
 20
3.0430237415
 30
0.0
 10
6.7789633734
 20
3.0408802579
 30
0.0
 10
6.7756461477
 20
3.0387601842
 30
0.0
 10
6.7723607819
 20
3.0366384618
 30
0.0
 10
6.7691189595
 20
3.0344895396
 30
0.0
 10
6.7659328806
 20
3.0322867235
 30
0.0
 10
6.7628165435
 20
3.0300006373
 30
0.0
 10
6.7597869901
 20
3.0275987357
 30
0.0
 10
6.7578455737
 20
3.0259000428
 30
0.0
 10
6.7569000754
 20
3.0250207924
 30
0.0
  0
SPLINE
  5
478
100
AcDbEntity
  8
0
100
AcDbSpline
 62
7
  6
CONTINUOUS
 70
0
 71
3
 72
18
 73
14
 74
0
 42
0.0000001
 43
0.0000001
 44
0.0000000001
 40
0.0
 40
0.0
 40
0.0
 40
0.0
 40
0.0498805166
 40
0.1030594968
 40
0.1592426491
 40
0.218117161
 40
0.2793454501
 40
0.3425735826
 40
0.4735354202
 40
0.6079301425
 40
0.7425810523
 40
0.8743040275
 40
1.0
 40
1.0
 40
1.0
 40
1.0
 10
6.7397437817
 20
3.2005492977
 30
0.0
 10
6.7408536472
 20
3.200346658
 30
0.0
 10
6.743154028
 20
3.1999671407
 30
0.0
 10
6.7467235591
 20
3.199483092
 30
0.0
 10
6.7505064895
 20
3.1990682261
 30
0.0
 10
6.754479316
 20
3.1987251928
 30
0.0
 10
6.7586175153
 20
3.1984561776
 30
0.0
 10
6.7643890698
 20
3.1981955456
 30
0.0
 10
6.771821791
 20
3.1980697302
 30
0.0
 10
6.780869551
 20
3.198227128
 30
0.0
 10
6.7899243082
 20
3.1986878446
 30
0.0
 10
6.7987619674
 20
3.1994402377
 30
0.0
 10
6.8045432733
 20
3.200145259
 30
0.0
 10
6.807357447
 20
3.2005492977
 30
0.0
  0
SPLINE
  5
479
100
AcDbEntity
  8
0
100
AcDbSpline
 62
7
  6
CONTINUOUS
 70
0
 71
3
 72
15
 73
11
 74
0
 42
0.0000001
 43
0.0000001
 44
0.0000000001
 40
0.0
 40
0.0
 40
0.0
 40
0.0
 40
0.1638563241
 40
0.3132107004
 40
0.4496846595
 40
0.574963196
 40
0.6907893711
 40
0.7989639838
 40
0.9013800385
 40
1.0
 40
1.0
 40
1.0
 40
1.0
 10
6.7492361394
 20
3.0187680261
 30
0.0
 10
6.7486074381
 20
3.0183691207
 30
0.0
 10
6.7474015256
 20
3.017613008
 30
0.0
 10
6.7456388612
 20
3.0165784311
 30
0.0
 10
6.7439863246
 20
3.0157054883
 30
0.0
 10
6.7424232387
 20
3.0149949635
 30
0.0
 10
6.7409324685
 20
3.0144454198
 30
0.0
 10
6.7394993241
 20
3.014054712
 30
0.0
 10
6.7381113863
 20
3.0138209389
 30
0.0
 10
6.737197129
 20
3.0137680261
 30
0.0
 10
6.7367489932
 20
3.0137680261
 30
0.0
  0
SPLINE
  5
47A
100
AcDbEntity
  8
0
100
AcDbSpline
 62
7
  6
CONTINUOUS
 70
0
 71
3
 72
22
 73
18
 74
0
 42
0.0000001
 43
0.0000001
 44
0.0000000001
 40
0.0
 40
0.0
 40
0.0
 40
0.0
 40
0.1448631048
 40
0.216476146
 40
0.2870771464
 40
0.3563691987
 40
0.4240895795
 40
0.4900197285
 40
0.5539945707
 40
0.6159122622
 40
0.6757436665
 40
0.7335409859
 40
0.7894444578
 40
0.8436852577
 40
0.8965833171
 40
0.9485356208
 40
1.0
 40
1.0
 40
1.0
 40
1.0
 10
6.5646648389
 20
3.0637680261
 30
0.0
 10
6.5646648389
 20
3.0605086489
 30
0.0
 10
6.564328414
 20
3.0556285844
 30
0.0
 10
6.5632038724
 20
3.0492642336
 30
0.0
 10
6.5620383424
 20
3.0446455896
 30
0.0
 10
6.5605588801
 20
3.0402101418
 30
0.0
 10
6.5587793661
 20
3.035999732
 30
0.0
 10
6.5567165611
 20
3.0320547309
 30
0.0
 10
6.5543897964
 20
3.0284128425
 30
0.0
 10
6.5518208126
 20
3.0251090149
 30
0.0
 10
6.5490335471
 20
3.0221751289
 30
0.0
 10
6.5460539718
 20
3.0196397996
 30
0.0
 10
6.5429099297
 20
3.017528199
 30
0.0
 10
6.5396311874
 20
3.0158618231
 30
0.0
 10
6.5362490004
 20
3.0146582512
 30
0.0
 10
6.5327974571
 20
3.0139305982
 30
0.0
 10
6.5304674332
 20
3.0137680261
 30
0.0
 10
6.5293094998
 20
3.0137680261
 30
0.0
  0
SPLINE
  5
47B
100
AcDbEntity
  8
0
100
AcDbSpline
 62
7
  6
CONTINUOUS
 70
0
 71
3
 72
21
 73
17
 74
0
 42
0.0000001
 43
0.0000001
 44
0.0000000001
 40
0.0
 40
0.0
 40
0.0
 40
0.0
 40
0.1803149539
 40
0.264837073
 40
0.344055335
 40
0.4178366791
 40
0.4864953027
 40
0.5505553913
 40
0.6105924045
 40
0.6671751717
 40
0.7208125736
 40
0.7719370174
 40
0.8208982422
 40
0.8679827701
 40
0.9134172208
 40
1.0
 40
1.0
 40
1.0
 40
1.0
 10
6.7392883344
 20
3.0637680261
 30
0.0
 10
6.7392883053
 20
3.061125151
 30
0.0
 10
6.7395069595
 20
3.0572376174
 30
0.0
 10
6.7402433393
 20
3.0522467294
 30
0.0
 10
6.7409549689
 20
3.0488366536
 30
0.0
 10
6.7418058635
 20
3.045699278
 30
0.0
 10
6.742770972
 20
3.0428287264
 30
0.0
 10
6.7438284719
 20
3.0402071065
 30
0.0
 10
6.7449636716
 20
3.0378128441
 30
0.0
 10
6.7461618013
 20
3.0356223078
 30
0.0
 10
6.7474102546
 20
3.033612537
 30
0.0
 10
6.7486984985
 20
3.0317628317
 30
0.0
 10
6.7500182423
 20
3.0300555667
 30
0.0
 10
6.7513618663
 20
3.0284750776
 30
0.0
 10
6.7531497528
 20
3.0265521322
 30
0.0
 10
6.7545544278
 20
3.0252174734
 30
0.0
 10
6.755507338
 20
3.0243793608
 30
0.0
  0
LINE
  5
47C
100
AcDbEntity
  8
0
100
AcDbLine
 62
7
  6
CONTINUOUS
 10
6.755507338
 20
3.0243793608
 11
6.7558824748
 21
3.0240528356
  0
SPLINE
  5
47D
100
AcDbEntity
  8
0
100
AcDbSpline
 62
7
  6
CONTINUOUS
 70
0
 71
3
 72
9
 73
5
 74
0
 42
0.0000001
 43
0.0000001
 44
0.0000000001
 40
0.0
 40
0.0
 40
0.0
 40
0.0
 40
0.5083766679
 40
1.0
 40
1.0
 40
1.0
 40
1.0
 10
6.7558824748
 20
3.0240528356
 30
0.0
 10
6.7548500355
 20
3.0230477899
 30
0.0
 10
6.7527227112
 20
3.0211671047
 30
0.0
 10
6.7504126664
 20
3.0195145219
 30
0.0
 10
6.7492361394
 20
3.0187680261
 30
0.0
  0
SPLINE
  5
47E
100
AcDbEntity
  8
0
100
AcDbSpline
 62
7
  6
CONTINUOUS
 70
0
 71
3
 72
22
 73
18
 74
0
 42
0.0000001
 43
0.0000001
 44
0.0000000001
 40
0.0
 40
0.0
 40
0.0
 40
0.0
 40
0.0276774442
 40
0.0570894724
 40
0.0896808166
 40
0.1264996362
 40
0.1682447263
 40
0.215358327
 40
0.2681069648
 40
0.3266349162
 40
0.3910029542
 40
0.4612084894
 40
0.5372042237
 40
0.6189004669
 40
0.7061802649
 40
0.7989075502
 40
1.0
 40
1.0
 40
1.0
 40
1.0
 10
7.3946027364
 20
3.2320325958
 30
0.0
 10
7.3945750036
 20
3.2321782523
 30
0.0
 10
7.3944768823
 20
3.2324722088
 30
0.0
 10
7.3942145203
 20
3.2328794463
 30
0.0
 10
7.3938403107
 20
3.2332581918
 30
0.0
 10
7.3933570141
 20
3.2336094649
 30
0.0
 10
7.3927657417
 20
3.2339343438
 30
0.0
 10
7.3920673528
 20
3.2342329947
 30
0.0
 10
7.3912629371
 20
3.2345051436
 30
0.0
 10
7.3903539667
 20
3.2347503366
 30
0.0
 10
7.3893422639
 20
3.2349680237
 30
0.0
 10
7.3882299738
 20
3.2351577196
 30
0.0
 10
7.3870195416
 20
3.2353189276
 30
0.0
 10
7.3857136881
 20
3.2354512774
 30
0.0
 10
7.3843153358
 20
3.2355544245
 30
0.0
 10
7.3822760677
 20
3.2356553543
 30
0.0
 10
7.3807016946
 20
3.2356813453
 30
0.0
 10
7.3796244059
 20
3.2356813453
 30
0.0
  0
SPLINE
  5
47F
100
AcDbEntity
  8
0
100
AcDbSpline
 62
7
  6
CONTINUOUS
 70
0
 71
3
 72
18
 73
14
 74
0
 42
0.0000001
 43
0.0000001
 44
0.0000000001
 40
0.0
 40
0.0
 40
0.0
 40
0.0
 40
0.1456949661
 40
0.2865732204
 40
0.4213070848
 40
0.5490766927
 40
0.6697259694
 40
0.727614676
 40
0.7840349866
 40
0.8392012894
 40
0.893374699
 40
0.9468651165
 40
1.0
 40
1.0
 40
1.0
 40
1.0
 10
6.5452055989
 20
3.084856821
 30
0.0
 10
6.545487369
 20
3.0833771614
 30
0.0
 10
6.5462138199
 20
3.0804959488
 30
0.0
 10
6.5478040708
 20
3.0764283416
 30
0.0
 10
6.5498419654
 20
3.0727733468
 30
0.0
 10
6.5522762028
 20
3.0696282408
 30
0.0
 10
6.55462047
 20
3.0674713549
 30
0.0
 10
6.5566280377
 20
3.0660977676
 30
0.0
 10
6.5581682274
 20
3.0652559254
 30
0.0
 10
6.5597527679
 20
3.0645947768
 30
0.0
 10
6.5613711881
 20
3.0641189311
 30
0.0
 10
6.5630121299
 20
3.0638320339
 30
0.0
 10
6.5641155105
 20
3.0637680261
 30
0.0
 10
6.5646648389
 20
3.0637680261
 30
0.0
  0
SPLINE
  5
480
100
AcDbEntity
  8
0
100
AcDbSpline
 62
7
  6
CONTINUOUS
 70
0
 71
3
 72
22
 73
18
 74
0
 42
0.0000001
 43
0.0000001
 44
0.0000000001
 40
0.0
 40
0.0
 40
0.0
 40
0.0
 40
0.1456384387
 40
0.2167826418
 40
0.2865391297
 40
0.3547545799
 40
0.421307616
 40
0.4861136175
 40
0.5491294874
 40
0.6103581851
 40
0.6698527114
 40
0.7277190862
 40
0.7841177033
 40
0.8392623337
 40
0.8934160531
 40
0.9468835836
 40
1.0
 40
1.0
 40
1.0
 40
1.0
 10
6.4757112424
 20
3.0718547068
 30
0.0
 10
6.4764873431
 20
3.0677791675
 30
0.0
 10
6.4780021928
 20
3.0617711257
 30
0.0
 10
6.4807426359
 20
3.0540780097
 30
0.0
 10
6.4831062247
 20
3.048604768
 30
0.0
 10
6.4857777942
 20
3.0434218668
 30
0.0
 10
6.4887399774
 20
3.0385632898
 30
0.0
 10
6.4919733591
 20
3.0340614877
 30
0.0
 10
6.4954568333
 20
3.0299464687
 30
0.0
 10
6.4991676703
 20
3.0262458268
 30
0.0
 10
6.5030816505
 20
3.0229845524
 30
0.0
 10
6.5071731527
 20
3.0201849151
 30
0.0
 10
6.5114152614
 20
3.017866324
 30
0.0
 10
6.5157797362
 20
3.0160451656
 30
0.0
 10
6.5202374543
 20
3.0147345954
 30
0.0
 10
6.5247572516
 20
3.0139442888
 30
0.0
 10
6.5277963816
 20
3.0137680261
 30
0.0
 10
6.5293094998
 20
3.0137680261
 30
0.0
  0
SPLINE
  5
481
100
AcDbEntity
  8
0
100
AcDbSpline
 62
7
  6
CONTINUOUS
 70
0
 71
3
 72
22
 73
18
 74
0
 42
0.0000001
 43
0.0000001
 44
0.0000000001
 40
0.0
 40
0.0
 40
0.0
 40
0.0
 40
0.027677444
 40
0.0570894719
 40
0.0896808155
 40
0.1264996344
 40
0.168244724
 40
0.2153583241
 40
0.2681069615
 40
0.3266349127
 40
0.3910029505
 40
0.4612084857
 40
0.5372042202
 40
0.6189004637
 40
0.7061802623
 40
0.7989075483
 40
1.0
 40
1.0
 40
1.0
 40
1.0
 10
7.3946027362
 20
3.0755034553
 30
0.0
 10
7.3945750034
 20
3.0753577989
 30
0.0
 10
7.3944768821
 20
3.0750638424
 30
0.0
 10
7.3942145201
 20
3.0746566049
 30
0.0
 10
7.3938403105
 20
3.0742778594
 30
0.0
 10
7.3933570139
 20
3.0739265863
 30
0.0
 10
7.3927657416
 20
3.0736017075
 30
0.0
 10
7.3920673526
 20
3.0733030566
 30
0.0
 10
7.391262937
 20
3.0730309078
 30
0.0
 10
7.3903539666
 20
3.0727857148
 30
0.0
 10
7.3893422637
 20
3.0725680278
 30
0.0
 10
7.3882299736
 20
3.072378332
 30
0.0
 10
7.3870195415
 20
3.0722171241
 30
0.0
 10
7.3857136881
 20
3.0720847743
 30
0.0
 10
7.3843153357
 20
3.0719816273
 30
0.0
 10
7.3822760676
 20
3.0718806977
 30
0.0
 10
7.3807016946
 20
3.0718547068
 30
0.0
 10
7.3796244059
 20
3.0718547068
 30
0.0
  0
SPLINE
  5
482
100
AcDbEntity
  8
0
100
AcDbSpline
 62
7
  6
CONTINUOUS
 70
0
 71
3
 72
23
 73
19
 74
0
 42
0.0000001
 43
0.0000001
 44
0.0000000001
 40
0.0
 40
0.0
 40
0.0
 40
0.0
 40
0.0526859386
 40
0.1093965939
 40
0.169627982
 40
0.2328334718
 40
0.2984342004
 40
0.3658247125
 40
0.4343803785
 40
0.5034640843
 40
0.572433111
 40
0.6406459575
 40
0.7074691642
 40
0.7722841932
 40
0.8344941379
 40
0.8935311659
 40
0.9488623071
 40
1.0
 40
1.0
 40
1.0
 40
1.0
 10
6.5452055989
 20
3.084856821
 30
0.0
 10
6.5440404777
 20
3.0844130753
 30
0.0
 10
6.5416050517
 20
3.0835338682
 30
0.0
 10
6.5377918048
 20
3.0822786882
 30
0.0
 10
6.5337101133
 20
3.0810471792
 30
0.0
 10
6.5293991639
 20
3.0798513425
 30
0.0
 10
6.5249003459
 20
3.0787027836
 30
0.0
 10
6.5202568978
 20
3.0776126291
 30
0.0
 10
6.5155134726
 20
3.0765914158
 30
0.0
 10
6.5107156989
 20
3.075648997
 30
0.0
 10
6.5059097363
 20
3.0747944464
 30
0.0
 10
6.5011418264
 20
3.0740359719
 30
0.0
 10
6.496457843
 20
3.073380833
 30
0.0
 10
6.4919028447
 20
3.0728352693
 30
0.0
 10
6.4875206364
 20
3.0724044294
 30
0.0
 10
6.4833533216
 20
3.0720923148
 30
0.0
 10
6.4794409621
 20
3.0719017335
 30
0.0
 10
6.4769213676
 20
3.0718547068
 30
0.0
 10
6.4757112424
 20
3.0718547068
 30
0.0
  0
SPLINE
  5
483
100
AcDbEntity
  8
0
100
AcDbSpline
 62
7
  6
CONTINUOUS
 70
0
 71
3
 72
16
 73
12
 74
0
 42
0.0000001
 43
0.0000001
 44
0.0000000001
 40
0.0
 40
0.0
 40
0.0
 40
0.0
 40
0.0513262014
 40
0.103987547
 40
0.2139123076
 40
0.3307997615
 40
0.4547001046
 40
0.5849583754
 40
0.7203703047
 40
0.8593323607
 40
1.0
 40
1.0
 40
1.0
 40
1.0
 10
7.1328533194
 20
3.248603469
 30
0.0
 10
7.1324776606
 20
3.2487421703
 30
0.0
 10
7.1317316704
 20
3.2490659503
 30
0.0
 10
7.1302767405
 20
3.2498886072
 30
0.0
 10
7.1285508906
 20
3.251244576
 30
0.0
 10
7.1267207004
 20
3.2532946147
 30
0.0
 10
7.1251442243
 20
3.2557351568
 30
0.0
 10
7.1238615333
 20
3.2585004398
 30
0.0
 10
7.1229049381
 20
3.2615173981
 30
0.0
 10
7.1222991298
 20
3.2647055108
 30
0.0
 10
7.1221398297
 20
3.2668869849
 30
0.0
 10
7.1221222439
 20
3.2679843324
 30
0.0
  0
SPLINE
  5
484
100
AcDbEntity
  8
0
100
AcDbSpline
 62
7
  6
CONTINUOUS
 70
0
 71
3
 72
13
 73
9
 74
0
 42
0.0000001
 43
0.0000001
 44
0.0000000001
 40
0.0
 40
0.0
 40
0.0
 40
0.0
 40
0.2488884324
 40
0.3743086938
 40
0.4999999998
 40
0.6256913059
 40
0.7511115674
 40
1.0
 40
1.0
 40
1.0
 40
1.0
 10
6.5452055989
 20
3.2226792311
 30
0.0
 10
6.5430546448
 20
3.2113839203
 30
0.0
 10
6.5406398748
 20
3.1942262616
 30
0.0
 10
6.5390287254
 20
3.171177799
 30
0.0
 10
6.5386241432
 20
3.1537680261
 30
0.0
 10
6.5390287254
 20
3.1363582532
 30
0.0
 10
6.5406398748
 20
3.1133097905
 30
0.0
 10
6.5430546448
 20
3.0961521319
 30
0.0
 10
6.5452055989
 20
3.084856821
 30
0.0
  0
SPLINE
  5
485
100
AcDbEntity
  8
0
100
AcDbSpline
 62
7
  6
CONTINUOUS
 70
0
 71
3
 72
13
 73
9
 74
0
 42
0.0000001
 43
0.0000001
 44
0.0000000001
 40
0.0
 40
0.0
 40
0.0
 40
0.0
 40
0.2488885472
 40
0.374308766
 40
0.5
 40
0.625691234
 40
0.7511114528
 40
1.0
 40
1.0
 40
1.0
 40
1.0
 10
6.4757112424
 20
3.2356813453
 30
0.0
 10
6.4731544467
 20
3.2222548375
 30
0.0
 10
6.4702840594
 20
3.2018598808
 30
0.0
 10
6.4683689206
 20
3.1744626515
 30
0.0
 10
6.4678880027
 20
3.1537680261
 30
0.0
 10
6.4683689206
 20
3.1330734006
 30
0.0
 10
6.4702840594
 20
3.1056761714
 30
0.0
 10
6.4731544467
 20
3.0852812146
 30
0.0
 10
6.4757112424
 20
3.0718547068
 30
0.0
  0
SPLINE
  5
486
100
AcDbEntity
  8
0
100
AcDbSpline
 62
7
  6
CONTINUOUS
 70
0
 71
3
 72
23
 73
19
 74
0
 42
0.0000001
 43
0.0000001
 44
0.0000000001
 40
0.0
 40
0.0
 40
0.0
 40
0.0
 40
0.0526859383
 40
0.1093965933
 40
0.1696279814
 40
0.2328334712
 40
0.2984341999
 40
0.3658247122
 40
0.4343803783
 40
0.5034640843
 40
0.5724331112
 40
0.6406459579
 40
0.7074691647
 40
0.7722841938
 40
0.8344941385
 40
0.8935311664
 40
0.9488623074
 40
1.0
 40
1.0
 40
1.0
 40
1.0
 10
6.5452055989
 20
3.2226792311
 30
0.0
 10
6.5440404777
 20
3.2231229768
 30
0.0
 10
6.5416050516
 20
3.2240021837
 30
0.0
 10
6.5377918047
 20
3.2252573635
 30
0.0
 10
6.5337101132
 20
3.2264888723
 30
0.0
 10
6.5293991638
 20
3.2276847089
 30
0.0
 10
6.5249003457
 20
3.2288332677
 30
0.0
 10
6.5202568976
 20
3.2299234221
 30
0.0
 10
6.5155134725
 20
3.2309446353
 30
0.0
 10
6.5107156987
 20
3.2318870542
 30
0.0
 10
6.5059097361
 20
3.2327416048
 30
0.0
 10
6.5011418262
 20
3.2335000794
 30
0.0
 10
6.4964578428
 20
3.2341552184
 30
0.0
 10
6.4919028446
 20
3.2347007822
 30
0.0
 10
6.4875206363
 20
3.2351316222
 30
0.0
 10
6.4833533215
 20
3.235443737
 30
0.0
 10
6.4794409621
 20
3.2356343185
 30
0.0
 10
6.4769213676
 20
3.2356813453
 30
0.0
 10
6.4757112424
 20
3.2356813453
 30
0.0
  0
SPLINE
  5
487
100
AcDbEntity
  8
0
100
AcDbSpline
 62
7
  6
CONTINUOUS
 70
0
 71
3
 72
21
 73
17
 74
0
 42
0.0000001
 43
0.0000001
 44
0.0000000001
 40
0.0
 40
0.0
 40
0.0
 40
0.0
 40
0.054452835
 40
0.108503078
 40
0.1626046765
 40
0.2172171738
 40
0.2727653814
 40
0.3296242078
 40
0.3880996889
 40
0.4484205221
 40
0.5107348661
 40
0.5751121203
 40
0.7098520281
 40
0.7801327274
 40
0.8520870746
 40
1.0
 40
1.0
 40
1.0
 40
1.0
 10
6.5681642913
 20
3.243335047
 30
0.0
 10
6.5675557799
 20
3.2434867879
 30
0.0
 10
6.5663225378
 20
3.2437126141
 30
0.0
 10
6.5644470297
 20
3.2438073911
 30
0.0
 10
6.5625731648
 20
3.2436553251
 30
0.0
 10
6.5607182084
 20
3.2432579502
 30
0.0
 10
6.5588985251
 20
3.2426191543
 30
0.0
 10
6.5571300374
 20
3.2417451138
 30
0.0
 10
6.5554278863
 20
3.2406439487
 30
0.0
 10
6.553806478
 20
3.239325669
 30
0.0
 10
6.5522792605
 20
3.2378017855
 30
0.0
 10
6.5503572622
 20
3.2354793699
 30
0.0
 10
6.5487107021
 20
3.232828946
 30
0.0
 10
6.5473541657
 20
3.2299394146
 30
0.0
 10
6.5461647981
 20
3.2268138223
 30
0.0
 10
6.5455242768
 20
3.2243527048
 30
0.0
 10
6.5452055989
 20
3.2226792311
 30
0.0
  0
SPLINE
  5
488
100
AcDbEntity
  8
0
100
AcDbSpline
 62
7
  6
CONTINUOUS
 70
0
 71
3
 72
22
 73
18
 74
0
 42
0.0000001
 43
0.0000001
 44
0.0000000001
 40
0.0
 40
0.0
 40
0.0
 40
0.0
 40
0.0530477682
 40
0.1065134477
 40
0.1607171573
 40
0.2159471322
 40
0.2724502797
 40
0.3304254549
 40
0.3900201835
 40
0.4513300967
 40
0.5144004612
 40
0.5792291254
 40
0.6457703614
 40
0.7139391232
 40
0.7836156739
 40
0.8546497554
 40
1.0
 40
1.0
 40
1.0
 40
1.0
 10
7.3270688798
 20
3.293754162
 30
0.0
 10
7.328561103
 20
3.2937145041
 30
0.0
 10
7.3315554937
 20
3.2934633575
 30
0.0
 10
7.3359995303
 20
3.2925771587
 30
0.0
 10
7.340377315
 20
3.2911872205
 30
0.0
 10
7.3446592015
 20
3.2893034404
 30
0.0
 10
7.3488175019
 20
3.286938962
 30
0.0
 10
7.3528253636
 20
3.284109939
 30
0.0
 10
7.3566571899
 20
3.2808353583
 30
0.0
 10
7.3602886111
 20
3.2771368922
 30
0.0
 10
7.3636965902
 20
3.273038771
 30
0.0
 10
7.366859509
 20
3.2685676727
 30
0.0
 10
7.3697572935
 20
3.2637525427
 30
0.0
 10
7.3723714813
 20
3.2586246223
 30
0.0
 10
7.3746855464
 20
3.2532165809
 30
0.0
 10
7.3773706745
 20
3.2456238436
 30
0.0
 10
7.3788592786
 20
3.2396992601
 30
0.0
 10
7.3796244059
 20
3.2356813453
 30
0.0
  0
LINE
  5
489
100
AcDbEntity
  8
0
100
AcDbLine
 62
7
  6
CONTINUOUS
 10
7.0746373076
 20
3.4607761502
 11
7.0728216013
 21
3.4621288728
  0
LINE
  5
48A
100
AcDbEntity
  8
0
100
AcDbLine
 62
7
  6
CONTINUOUS
 10
7.0728216013
 20
3.4621288728
 11
7.0723407235
 21
3.4625499111
  0
LINE
  5
48B
100
AcDbEntity
  8
0
100
AcDbLine
 62
7
  6
CONTINUOUS
 10
7.0723407235
 20
3.4625499111
 11
7.0715617466
 21
3.4635228475
  0
SPLINE
  5
48C
100
AcDbEntity
  8
0
100
AcDbSpline
 62
7
  6
CONTINUOUS
 70
0
 71
3
 72
22
 73
18
 74
0
 42
0.0000001
 43
0.0000001
 44
0.0000000001
 40
0.0
 40
0.0
 40
0.0
 40
0.0
 40
0.1465820394
 40
0.2183786361
 40
0.2888313119
 40
0.3577303035
 40
0.424901424
 40
0.4902112097
 40
0.5535739183
 40
0.6149578701
 40
0.6743915946
 40
0.731968957
 40
0.7878524837
 40
0.8422737925
 40
0.8955297222
 40
0.9479736734
 40
1.0
 40
1.0
 40
1.0
 40
1.0
 10
6.5681642913
 20
3.243335047
 30
0.0
 10
6.5685182487
 20
3.2461739292
 30
0.0
 10
6.5687881641
 20
3.2504425669
 30
0.0
 10
6.5685951142
 20
3.2560793202
 30
0.0
 10
6.5681788769
 20
3.2601826947
 30
0.0
 10
6.5674932432
 20
3.2641580978
 30
0.0
 10
6.5665432734
 20
3.2679757428
 30
0.0
 10
6.5653359534
 20
3.2716065955
 30
0.0
 10
6.5638801552
 20
3.2750231215
 30
0.0
 10
6.5621865497
 20
3.2781993169
 30
0.0
 10
6.5602675376
 20
3.2811108936
 30
0.0
 10
6.5581371924
 20
3.2837353932
 30
0.0
 10
6.5558112084
 20
3.2860523161
 30
0.0
 10
6.5533069696
 20
3.2880432297
 30
0.0
 10
6.5506432897
 20
3.2896920451
 30
0.0
 10
6.547841383
 20
3.2909849805
 30
0.0
 10
6.545891927
 20
3.2916037427
 30
0.0
 10
6.5449066916
 20
3.2918494244
 30
0.0
  0
LINE
  5
48D
100
AcDbEntity
  8
0
100
AcDbLine
 62
7
  6
CONTINUOUS
 10
7.0735433764
 20
3.4591967872
 11
7.0732164452
 21
3.4593100821
  0
SPLINE
  5
48E
100
AcDbEntity
  8
0
100
AcDbSpline
 62
7
  6
CONTINUOUS
 70
0
 71
3
 72
31
 73
27
 74
0
 42
0.0000001
 43
0.0000001
 44
0.0000000001
 40
0.0
 40
0.0
 40
0.0
 40
0.0
 40
0.1250205965
 40
0.2500411931
 40
0.3750617896
 40
0.4375720879
 40
0.5000823861
 40
0.5625926844
 40
0.6251029827
 40
0.6876132809
 40
0.7188684301
 40
0.7501235793
 40
0.7813787283
 40
0.7970063035
 40
0.8126338793
 40
0.8282614491
 40
0.8438890168
 40
0.8595165973
 40
0.8751441786
 40
0.8907717466
 40
0.9063989403
 40
0.9376460518
 40
0.9532611106
 40
0.9688634722
 40
0.984446313
 40
1.0
 40
1.0
 40
1.0
 40
1.0
 10
7.1160589934
 20
3.0637680261
 30
0.0
 10
7.1160589934
 20
3.069466747
 30
0.0
 10
7.1160589933
 20
3.0808641887
 30
0.0
 10
7.1160589938
 20
3.0979603514
 30
0.0
 10
7.1160589925
 20
3.1122071537
 30
0.0
 10
7.1160589954
 20
3.1236045955
 30
0.0
 10
7.1160589861
 20
3.1321526768
 30
0.0
 10
7.116059014
 20
3.1407007582
 30
0.0
 10
7.1160589443
 20
3.1492488395
 30
0.0
 10
7.1160590828
 20
3.1563722406
 30
0.0
 10
7.1160589389
 20
3.1620709615
 30
0.0
 10
7.1160586121
 20
3.1663450022
 30
0.0
 10
7.1160598099
 20
3.1699067027
 30
0.0
 10
7.1160592783
 20
3.1727560633
 30
0.0
 10
7.1160580666
 20
3.1748930831
 30
0.0
 10
7.1160575905
 20
3.1770301031
 30
0.0
 10
7.1160587301
 20
3.1791671229
 30
0.0
 10
7.1160602097
 20
3.1813041432
 30
0.0
 10
7.1160606363
 20
3.1834411633
 30
0.0
 10
7.1160549308
 20
3.1855781683
 30
0.0
 10
7.1160325214
 20
3.1884270545
 30
0.0
 10
7.1159746192
 20
3.1912751418
 30
0.0
 10
7.1158600512
 20
3.1941202072
 30
0.0
 10
7.1157392158
 20
3.1962501629
 30
0.0
 10
7.1155777238
 20
3.1983746285
 30
0.0
 10
7.1154400974
 20
3.1997873679
 30
0.0
 10
7.1153623478
 20
3.200492064
 30
0.0
  0
LINE
  5
48F
100
AcDbEntity
  8
0
100
AcDbLine
 62
7
  6
CONTINUOUS
 10
7.0706000144
 20
3.4591528126
 11
7.0700327146
 21
3.4591817674
  0
SPLINE
  5
490
100
AcDbEntity
  8
0
100
AcDbSpline
 62
7
  6
CONTINUOUS
 70
0
 71
3
 72
14
 73
10
 74
0
 42
0.0000001
 43
0.0000001
 44
0.0000000001
 40
0.0
 40
0.0
 40
0.0
 40
0.0
 40
0.3164331901
 40
0.4534253507
 40
0.5779111605
 40
0.6919202865
 40
0.7980668141
 40
0.899573445
 40
1.0
 40
1.0
 40
1.0
 40
1.0
 10
7.0700327146
 20
3.4591817674
 30
0.0
 10
7.0699191874
 20
3.459177876
 30
0.0
 10
7.0697560701
 20
3.4591622248
 30
0.0
 10
7.0695547967
 20
3.459110392
 30
0.0
 10
7.0694289685
 20
3.4590609344
 30
0.0
 10
7.0693211542
 20
3.4589992183
 30
0.0
 10
7.069231644
 20
3.4589252558
 30
0.0
 10
7.0691608392
 20
3.4588394152
 30
0.0
 10
7.0691263863
 20
3.4587750184
 30
0.0
 10
7.0691124689
 20
3.4587417618
 30
0.0
  0
SPLINE
  5
491
100
AcDbEntity
  8
0
100
AcDbSpline
 62
7
  6
CONTINUOUS
 70
0
 71
3
 72
15
 73
11
 74
0
 42
0.0000001
 43
0.0000001
 44
0.0000000001
 40
0.0
 40
0.0
 40
0.0
 40
0.0
 40
0.0986199615
 40
0.2010360162
 40
0.3092106289
 40
0.425036804
 40
0.5503153405
 40
0.6867892996
 40
0.8361436759
 40
1.0
 40
1.0
 40
1.0
 40
1.0
 10
7.1185866551
 20
3.0137680261
 30
0.0
 10
7.1181385193
 20
3.0137680261
 30
0.0
 10
7.117224262
 20
3.0138209389
 30
0.0
 10
7.1158363242
 20
3.014054712
 30
0.0
 10
7.1144031798
 20
3.0144454198
 30
0.0
 10
7.1129124096
 20
3.0149949635
 30
0.0
 10
7.1113493237
 20
3.0157054883
 30
0.0
 10
7.1096967871
 20
3.0165784311
 30
0.0
 10
7.1079341227
 20
3.017613008
 30
0.0
 10
7.1067282102
 20
3.0183691207
 30
0.0
 10
7.1060995089
 20
3.0187680261
 30
0.0
  0
SPLINE
  5
492
100
AcDbEntity
  8
0
100
AcDbSpline
 62
7
  6
CONTINUOUS
 70
0
 71
3
 72
25
 73
21
 74
0
 42
0.0000001
 43
0.0000001
 44
0.0000000001
 40
0.0
 40
0.0
 40
0.0
 40
0.0
 40
0.023715976
 40
0.0468987134
 40
0.0697360436
 40
0.0924153245
 40
0.1151176776
 40
0.1380132427
 40
0.184968345
 40
0.234380953
 40
0.2870598802
 40
0.3435099858
 40
0.4038964784
 40
0.4681743592
 40
0.536156051
 40
0.6075409824
 40
0.6819346406
 40
0.83785462
 40
0.918423502
 40
1.0
 40
1.0
 40
1.0
 40
1.0
 10
6.7220091893
 20
3.2476864316
 30
0.0
 10
6.7224226755
 20
3.2475833165
 30
0.0
 10
6.7232332867
 20
3.2473494877
 30
0.0
 10
6.7244080597
 20
3.2469099546
 30
0.0
 10
6.725527627
 20
3.2463867973
 30
0.0
 10
6.7265945162
 20
3.2457805796
 30
0.0
 10
6.7276113327
 20
3.2450918167
 30
0.0
 10
6.7289141617
 20
3.2440559351
 30
0.0
 10
6.73043902
 20
3.2425393275
 30
0.0
 10
6.7320815744
 20
3.2404162471
 30
0.0
 10
6.733570443
 20
3.2379818496
 30
0.0
 10
6.734916963
 20
3.2352456269
 30
0.0
 10
6.7361203783
 20
3.2322187026
 30
0.0
 10
6.7371744626
 20
3.2289188846
 30
0.0
 10
6.7380711124
 20
3.2253690267
 30
0.0
 10
6.7388019654
 20
3.2215962099
 30
0.0
 10
6.7395552203
 20
3.2162256415
 30
0.0
 10
6.7399182314
 20
3.2106416752
 30
0.0
 10
6.7399274737
 20
3.2049255449
 30
0.0
 10
6.7398208915
 20
3.2020131072
 30
0.0
 10
6.7397437817
 20
3.2005492977
 30
0.0
  0
SPLINE
  5
493
100
AcDbEntity
  8
0
100
AcDbSpline
 62
7
  6
CONTINUOUS
 70
0
 71
3
 72
17
 73
13
 74
0
 42
0.0000001
 43
0.0000001
 44
0.0000000001
 40
0.0
 40
0.0
 40
0.0
 40
0.0
 40
0.0521170483
 40
0.1051603779
 40
0.1594034036
 40
0.2150664987
 40
0.331115282
 40
0.4540577879
 40
0.5836333612
 40
0.7188734
 40
0.8582777624
 40
1.0
 40
1.0
 40
1.0
 40
1.0
 10
6.7216118822
 20
3.2482747961
 30
0.0
 10
6.7220259844
 20
3.2483765636
 30
0.0
 10
6.7228500133
 20
3.2486322011
 30
0.0
 10
6.7240452588
 20
3.2491606881
 30
0.0
 10
6.7251998784
 20
3.2498327411
 30
0.0
 10
6.7266932578
 20
3.2509274922
 30
0.0
 10
6.72841108
 20
3.2526417293
 30
0.0
 10
6.7301437681
 20
3.2551263469
 30
0.0
 10
6.7315313782
 20
3.257992894
 30
0.0
 10
6.7325345359
 20
3.2611555333
 30
0.0
 10
6.7331251076
 20
3.2645199919
 30
0.0
 10
6.733232095
 20
3.266824903
 30
0.0
 10
6.7332135142
 20
3.2679843312
 30
0.0
  0
LINE
  5
494
100
AcDbEntity
  8
0
100
AcDbLine
 62
7
  6
CONTINUOUS
 10
7.0917846127
 20
3.4488906307
 11
7.0876507797
 21
3.4513667462
  0
SPLINE
  5
495
100
AcDbEntity
  8
0
100
AcDbSpline
 62
7
  6
CONTINUOUS
 70
0
 71
3
 72
22
 73
18
 74
0
 42
0.0000001
 43
0.0000001
 44
0.0000000001
 40
0.0
 40
0.0
 40
0.0
 40
0.0
 40
0.0531165363
 40
0.1065840299
 40
0.160737751
 40
0.2158823742
 40
0.2722809864
 40
0.3301473558
 40
0.3896418766
 40
0.4508705686
 40
0.5138864327
 40
0.5786924275
 40
0.6452454584
 40
0.7134608974
 40
0.7832173905
 40
0.854361554
 40
1.0
 40
1.0
 40
1.0
 40
1.0
 10
6.5293094998
 20
3.2937680222
 30
0.0
 10
6.5277963782
 20
3.2937680092
 30
0.0
 10
6.5247572455
 20
3.29359177
 30
0.0
 10
6.5202374465
 20
3.2928014506
 30
0.0
 10
6.5157797295
 20
3.2914908839
 30
0.0
 10
6.5114152554
 20
3.2896697239
 30
0.0
 10
6.5071731475
 20
3.287351133
 30
0.0
 10
6.503081646
 20
3.2845514954
 30
0.0
 10
6.4991676664
 20
3.281290221
 30
0.0
 10
6.4954568301
 20
3.2775895793
 30
0.0
 10
6.4919733565
 20
3.2734745606
 30
0.0
 10
6.4887399752
 20
3.2689727587
 30
0.0
 10
6.4857777928
 20
3.2641141822
 30
0.0
 10
6.4831062233
 20
3.2589312814
 30
0.0
 10
6.4807426357
 20
3.2534580407
 30
0.0
 10
6.4780021919
 20
3.2457649258
 30
0.0
 10
6.4764873431
 20
3.2397568848
 30
0.0
 10
6.4757112424
 20
3.2356813453
 30
0.0
  0
SPLINE
  5
496
100
AcDbEntity
  8
0
100
AcDbSpline
 62
7
  6
CONTINUOUS
 70
0
 71
3
 72
9
 73
5
 74
0
 42
0.0000001
 43
0.0000001
 44
0.0000000001
 40
0.0
 40
0.0
 40
0.0
 40
0.0
 40
0.4919777736
 40
1.0
 40
1.0
 40
1.0
 40
1.0
 10
7.1060995089
 20
3.0187680261
 30
0.0
 10
7.1049769404
 20
3.0194802858
 30
0.0
 10
7.1027708422
 20
3.0210500521
 30
0.0
 10
7.100730473
 20
3.0228288297
 30
0.0
 10
7.0997383421
 20
3.0237776775
 30
0.0
  0
SPLINE
  5
497
100
AcDbEntity
  8
0
100
AcDbSpline
 62
7
  6
CONTINUOUS
 70
0
 71
3
 72
40
 73
36
 74
0
 42
0.0000001
 43
0.0000001
 44
0.0000000001
 40
0.0
 40
0.0
 40
0.0
 40
0.0
 40
0.0428412039
 40
0.0868268727
 40
0.132000459
 40
0.1550871693
 40
0.178544908
 40
0.2024130707
 40
0.2267324287
 40
0.2515438915
 40
0.2769005159
 40
0.302877158
 40
0.3295669362
 40
0.3570428221
 40
0.3853445416
 40
0.4145235043
 40
0.4447102446
 40
0.4760588651
 40
0.508636646
 40
0.5776112613
 40
0.6141866097
 40
0.6522217577
 40
0.6917162236
 40
0.7119989294
 40
0.7326242768
 40
0.7535732493
 40
0.7748261478
 40
0.8182069098
 40
0.8403280614
 40
0.8626994391
 40
0.8852731431
 40
0.9080077936
 40
0.9308779661
 40
0.9538598979
 40
1.0
 40
1.0
 40
1.0
 40
1.0
 10
7.0997383421
 20
3.0237776775
 30
0.0
 10
7.1002474376
 20
3.0241703015
 30
0.0
 10
7.1012689418
 20
3.0249795914
 30
0.0
 10
7.1027756505
 20
3.0262664337
 30
0.0
 10
7.1040044819
 20
3.0274197276
 30
0.0
 10
7.1049691389
 20
3.0284017349
 30
0.0
 10
7.1056875605
 20
3.0291768057
 30
0.0
 10
7.1063959807
 20
3.0299857704
 30
0.0
 10
7.1070946658
 20
3.0308296859
 30
0.0
 10
7.1077850229
 20
3.0317090263
 30
0.0
 10
7.1084625396
 20
3.0326294667
 30
0.0
 10
7.1091203354
 20
3.0335985365
 30
0.0
 10
7.1097502015
 20
3.0346235507
 30
0.0
 10
7.1103555681
 20
3.0357032449
 30
0.0
 10
7.110944827
 20
3.0368339861
 30
0.0
 10
7.1115225785
 20
3.0380161528
 30
0.0
 10
7.1120759933
 20
3.0392603487
 30
0.0
 10
7.1125926454
 20
3.0405752763
 30
0.0
 10
7.113250963
 20
3.0424581886
 30
0.0
 10
7.1138451307
 20
3.0444457907
 30
0.0
 10
7.1143591682
 20
3.0465386576
 30
0.0
 10
7.1147139934
 20
3.0482141372
 30
0.0
 10
7.1149741931
 20
3.0496589744
 30
0.0
 10
7.1151622615
 20
3.0508508433
 30
0.0
 10
7.1152945392
 20
3.0517696719
 30
0.0
 10
7.115417876
 20
3.0527044251
 30
0.0
 10
7.1155734392
 20
3.0539792925
 30
0.0
 10
7.115709382
 20
3.0552743035
 30
0.0
 10
7.115813543
 20
3.0565889346
 30
0.0
 10
7.1158789039
 20
3.0575932832
 30
0.0
 10
7.1159343843
 20
3.0586074349
 30
0.0
 10
7.1159817604
 20
3.0596294913
 30
0.0
 10
7.116018847
 20
3.0606581135
 30
0.0
 10
7.1160518351
 20
3.0620382564
 30
0.0
 10
7.116059155
 20
3.0630756114
 30
0.0
 10
7.1160589934
 20
3.0637680261
 30
0.0
  0
SPLINE
  5
498
100
AcDbEntity
  8
0
100
AcDbSpline
 62
7
  6
CONTINUOUS
 70
0
 71
3
 72
29
 73
25
 74
0
 42
0.0000001
 43
0.0000001
 44
0.0000000001
 40
0.0
 40
0.0
 40
0.0
 40
0.0
 40
0.0191989235
 40
0.0417709249
 40
0.0675576941
 40
0.0962923301
 40
0.1276262559
 40
0.1611838414
 40
0.2334669998
 40
0.3103997535
 40
0.389703569
 40
0.4695579333
 40
0.5484815772
 40
0.6252069863
 40
0.6985690283
 40
0.7674172176
 40
0.8305420675
 40
0.8866311765
 40
0.9116064359
 40
0.9342966747
 40
0.9545425796
 40
0.9722254231
 40
0.9873205614
 40
1.0
 40
1.0
 40
1.0
 40
1.0
 10
7.0847163353
 20
3.449332206
 30
0.0
 10
7.0846289227
 20
3.4493296214
 30
0.0
 10
7.0844382792
 20
3.4493395239
 30
0.0
 10
7.0841339716
 20
3.4493873467
 30
0.0
 10
7.0837920102
 20
3.4494684395
 30
0.0
 10
7.0834173274
 20
3.449581047
 30
0.0
 10
7.0830150051
 20
3.4497228985
 30
0.0
 10
7.0824341147
 20
3.4499533955
 30
0.0
 10
7.081675961
 20
3.4502985908
 30
0.0
 10
7.0807505282
 20
3.4507757555
 30
0.0
 10
7.0798153627
 20
3.4513072713
 30
0.0
 10
7.0788923304
 20
3.4518769481
 30
0.0
 10
7.0779990052
 20
3.45247119
 30
0.0
 10
7.0771503848
 20
3.45307817
 30
0.0
 10
7.0763603301
 20
3.4536870789
 30
0.0
 10
7.0756426335
 20
3.4542873035
 30
0.0
 10
7.0750121403
 20
3.4548676921
 30
0.0
 10
7.0745560992
 20
3.4553412787
 30
0.0
 10
7.0742517209
 20
3.4557030416
 30
0.0
 10
7.0740656829
 20
3.4559504291
 30
0.0
 10
7.0739153704
 20
3.4561823764
 30
0.0
 10
7.073803352
 20
3.4563969466
 30
0.0
 10
7.0737319767
 20
3.4565920117
 30
0.0
 10
7.073711989
 20
3.4567184817
 30
0.0
 10
7.0737119837
 20
3.4567762364
 30
0.0
  0
SPLINE
  5
499
100
AcDbEntity
  8
0
100
AcDbSpline
 62
7
  6
CONTINUOUS
 70
0
 71
3
 72
22
 73
18
 74
0
 42
0.0000001
 43
0.0000001
 44
0.0000000001
 40
0.0
 40
0.0
 40
0.0
 40
0.0
 40
0.0276774441
 40
0.057089472
 40
0.0896808156
 40
0.1264996345
 40
0.1682447242
 40
0.2153583243
 40
0.2681069617
 40
0.3266349129
 40
0.3910029508
 40
0.461208486
 40
0.5372042205
 40
0.618900464
 40
0.7061802625
 40
0.7989075485
 40
1.0
 40
1.0
 40
1.0
 40
1.0
 10
6.4607329121
 20
3.2320325966
 30
0.0
 10
6.4607606449
 20
3.2321782531
 30
0.0
 10
6.4608587662
 20
3.2324722096
 30
0.0
 10
6.4611211281
 20
3.232879447
 30
0.0
 10
6.4614953378
 20
3.2332581926
 30
0.0
 10
6.4619786344
 20
3.2336094657
 30
0.0
 10
6.4625699067
 20
3.2339343445
 30
0.0
 10
6.4632682957
 20
3.2342329954
 30
0.0
 10
6.4640727113
 20
3.2345051442
 30
0.0
 10
6.4649816817
 20
3.2347503372
 30
0.0
 10
6.4659933845
 20
3.2349680242
 30
0.0
 10
6.4671056746
 20
3.23515772
 30
0.0
 10
6.4683161067
 20
3.2353189279
 30
0.0
 10
6.4696219602
 20
3.2354512777
 30
0.0
 10
6.4710203126
 20
3.2355544247
 30
0.0
 10
6.4730595807
 20
3.2356553544
 30
0.0
 10
6.4746339537
 20
3.2356813453
 30
0.0
 10
6.4757112424
 20
3.2356813453
 30
0.0
  0
SPLINE
  5
49A
100
AcDbEntity
  8
0
100
AcDbSpline
 62
7
  6
CONTINUOUS
 70
0
 71
3
 72
22
 73
18
 74
0
 42
0.0000001
 43
0.0000001
 44
0.0000000001
 40
0.0
 40
0.0
 40
0.0
 40
0.0
 40
0.0276774442
 40
0.0570894724
 40
0.0896808166
 40
0.1264996361
 40
0.1682447263
 40
0.215358327
 40
0.2681069648
 40
0.3266349162
 40
0.3910029542
 40
0.4612084894
 40
0.5372042237
 40
0.6189004668
 40
0.7061802649
 40
0.7989075502
 40
1.0
 40
1.0
 40
1.0
 40
1.0
 10
6.4607329119
 20
3.0755034563
 30
0.0
 10
6.4607606447
 20
3.0753577998
 30
0.0
 10
6.460858766
 20
3.0750638433
 30
0.0
 10
6.461121128
 20
3.0746566059
 30
0.0
 10
6.4614953376
 20
3.0742778603
 30
0.0
 10
6.4619786342
 20
3.0739265872
 30
0.0
 10
6.4625699066
 20
3.0736017083
 30
0.0
 10
6.4632682956
 20
3.0733030574
 30
0.0
 10
6.4640727112
 20
3.0730309085
 30
0.0
 10
6.4649816816
 20
3.0727857155
 30
0.0
 10
6.4659933844
 20
3.0725680284
 30
0.0
 10
6.4671056745
 20
3.0723783325
 30
0.0
 10
6.4683161067
 20
3.0722171246
 30
0.0
 10
6.4696219602
 20
3.0720847747
 30
0.0
 10
6.4710203125
 20
3.0719816276
 30
0.0
 10
6.4730595806
 20
3.0718806978
 30
0.0
 10
6.4746339537
 20
3.0718547068
 30
0.0
 10
6.4757112424
 20
3.0718547068
 30
0.0
  0
SPLINE
  5
49B
100
AcDbEntity
  8
0
100
AcDbSpline
 62
7
  6
CONTINUOUS
 70
0
 71
3
 72
22
 73
18
 74
0
 42
0.0000001
 43
0.0000001
 44
0.0000000001
 40
0.0
 40
0.0
 40
0.0
 40
0.0
 40
0.1448631061
 40
0.216476148
 40
0.2870771493
 40
0.3563692024
 40
0.4240895839
 40
0.4900197335
 40
0.5539945762
 40
0.6159122679
 40
0.6757436723
 40
0.7335409914
 40
0.7894444627
 40
0.8436852617
 40
0.89658332
 40
0.9485356223
 40
1.0
 40
1.0
 40
1.0
 40
1.0
 10
7.2906708094
 20
3.0637680261
 30
0.0
 10
7.2906708095
 20
3.0605086489
 30
0.0
 10
7.2910072346
 20
3.0556285844
 30
0.0
 10
7.2921317763
 20
3.0492642336
 30
0.0
 10
7.2932973064
 20
3.0446455896
 30
0.0
 10
7.2947767688
 20
3.0402101418
 30
0.0
 10
7.2965562828
 20
3.035999732
 30
0.0
 10
7.2986190879
 20
3.0320547309
 30
0.0
 10
7.3009458526
 20
3.0284128426
 30
0.0
 10
7.3035148363
 20
3.0251090149
 30
0.0
 10
7.3063021018
 20
3.0221751289
 30
0.0
 10
7.309281677
 20
3.0196397996
 30
0.0
 10
7.312425719
 20
3.017528199
 30
0.0
 10
7.3157044612
 20
3.0158618232
 30
0.0
 10
7.3190866481
 20
3.0146582512
 30
0.0
 10
7.3225381913
 20
3.0139305982
 30
0.0
 10
7.3248682152
 20
3.0137680261
 30
0.0
 10
7.3260261485
 20
3.0137680261
 30
0.0
  0
SPLINE
  5
49C
100
AcDbEntity
  8
0
100
AcDbSpline
 62
7
  6
CONTINUOUS
 70
0
 71
3
 72
18
 73
14
 74
0
 42
0.0000001
 43
0.0000001
 44
0.0000000001
 40
0.0
 40
0.0
 40
0.0
 40
0.0
 40
0.0531348835
 40
0.106625301
 40
0.1607987106
 40
0.2159650134
 40
0.272385324
 40
0.3302740306
 40
0.4509233073
 40
0.5786929152
 40
0.7134267796
 40
0.8543050339
 40
1.0
 40
1.0
 40
1.0
 40
1.0
 10
7.2906708094
 20
3.0637680261
 30
0.0
 10
7.2912201378
 20
3.0637680261
 30
0.0
 10
7.2923235184
 20
3.0638320339
 30
0.0
 10
7.2939644602
 20
3.0641189311
 30
0.0
 10
7.2955828804
 20
3.0645947768
 30
0.0
 10
7.2971674209
 20
3.0652559254
 30
0.0
 10
7.2987076106
 20
3.0660977676
 30
0.0
 10
7.3007151783
 20
3.0674713549
 30
0.0
 10
7.3030594456
 20
3.0696282408
 30
0.0
 10
7.3054936829
 20
3.0727733468
 30
0.0
 10
7.3075315775
 20
3.0764283416
 30
0.0
 10
7.3091218284
 20
3.0804959488
 30
0.0
 10
7.3098482794
 20
3.0833771614
 30
0.0
 10
7.3101300494
 20
3.084856821
 30
0.0
  0
SPLINE
  5
49D
100
AcDbEntity
  8
0
100
AcDbSpline
 62
7
  6
CONTINUOUS
 70
0
 71
3
 72
23
 73
19
 74
0
 42
0.0000001
 43
0.0000001
 44
0.0000000001
 40
0.0
 40
0.0
 40
0.0
 40
0.0
 40
0.0526859383
 40
0.1093965933
 40
0.1696279814
 40
0.2328334712
 40
0.2984341999
 40
0.3658247122
 40
0.4343803783
 40
0.5034640843
 40
0.5724331112
 40
0.6406459579
 40
0.7074691647
 40
0.7722841938
 40
0.8344941385
 40
0.8935311664
 40
0.9488623074
 40
1.0
 40
1.0
 40
1.0
 40
1.0
 10
7.3101300494
 20
3.084856821
 30
0.0
 10
7.3112951706
 20
3.0844130754
 30
0.0
 10
7.3137305967
 20
3.0835338684
 30
0.0
 10
7.3175438436
 20
3.0822786886
 30
0.0
 10
7.3216255351
 20
3.0810471798
 30
0.0
 10
7.3259364845
 20
3.0798513432
 30
0.0
 10
7.3304353026
 20
3.0787027845
 30
0.0
 10
7.3350787507
 20
3.07761263
 30
0.0
 10
7.3398221758
 20
3.0765914168
 30
0.0
 10
7.3446199496
 20
3.075648998
 30
0.0
 10
7.3494259122
 20
3.0747944473
 30
0.0
 10
7.3541938221
 20
3.0740359727
 30
0.0
 10
7.3588778055
 20
3.0733808338
 30
0.0
 10
7.3634328037
 20
3.07283527
 30
0.0
 10
7.367815012
 20
3.0724044299
 30
0.0
 10
7.3719823268
 20
3.0720923151
 30
0.0
 10
7.3758946862
 20
3.0719017337
 30
0.0
 10
7.3784142807
 20
3.0718547068
 30
0.0
 10
7.3796244059
 20
3.0718547068
 30
0.0
  0
SPLINE
  5
49E
100
AcDbEntity
  8
0
100
AcDbSpline
 62
7
  6
CONTINUOUS
 70
0
 71
3
 72
13
 73
9
 74
0
 42
0.0000001
 43
0.0000001
 44
0.0000000001
 40
0.0
 40
0.0
 40
0.0
 40
0.0
 40
0.2488884326
 40
0.3743086941
 40
0.5000000002
 40
0.6256913062
 40
0.7511115676
 40
1.0
 40
1.0
 40
1.0
 40
1.0
 10
7.3101300494
 20
3.084856821
 30
0.0
 10
7.3122810035
 20
3.0961521319
 30
0.0
 10
7.3146957736
 20
3.1133097905
 30
0.0
 10
7.3163069229
 20
3.1363582532
 30
0.0
 10
7.3167115051
 20
3.1537680261
 30
0.0
 10
7.3163069229
 20
3.171177799
 30
0.0
 10
7.3146957735
 20
3.1942262616
 30
0.0
 10
7.3122810035
 20
3.2113839203
 30
0.0
 10
7.3101300494
 20
3.2226792311
 30
0.0
  0
SPLINE
  5
49F
100
AcDbEntity
  8
0
100
AcDbSpline
 62
7
  6
CONTINUOUS
 70
0
 71
3
 72
23
 73
19
 74
0
 42
0.0000001
 43
0.0000001
 44
0.0000000001
 40
0.0
 40
0.0
 40
0.0
 40
0.0
 40
0.0526859386
 40
0.1093965938
 40
0.1696279819
 40
0.2328334717
 40
0.2984342003
 40
0.3658247125
 40
0.4343803785
 40
0.5034640843
 40
0.572433111
 40
0.6406459576
 40
0.7074691643
 40
0.7722841933
 40
0.8344941379
 40
0.893531166
 40
0.9488623072
 40
1.0
 40
1.0
 40
1.0
 40
1.0
 10
7.3101300494
 20
3.2226792311
 30
0.0
 10
7.3112951706
 20
3.2231229768
 30
0.0
 10
7.3137305966
 20
3.2240021839
 30
0.0
 10
7.3175438435
 20
3.2252573639
 30
0.0
 10
7.321625535
 20
3.2264888728
 30
0.0
 10
7.3259364844
 20
3.2276847095
 30
0.0
 10
7.3304353024
 20
3.2288332684
 30
0.0
 10
7.3350787505
 20
3.2299234229
 30
0.0
 10
7.3398221757
 20
3.2309446361
 30
0.0
 10
7.3446199495
 20
3.231887055
 30
0.0
 10
7.3494259121
 20
3.2327416056
 30
0.0
 10
7.354193822
 20
3.2335000801
 30
0.0
 10
7.3588778054
 20
3.234155219
 30
0.0
 10
7.3634328036
 20
3.2347007827
 30
0.0
 10
7.3678150119
 20
3.2351316226
 30
0.0
 10
7.3719823267
 20
3.2354437373
 30
0.0
 10
7.3758946862
 20
3.2356343186
 30
0.0
 10
7.3784142807
 20
3.2356813453
 30
0.0
 10
7.3796244059
 20
3.2356813453
 30
0.0
  0
SPLINE
  5
4A0
100
AcDbEntity
  8
0
100
AcDbSpline
 62
7
  6
CONTINUOUS
 70
0
 71
3
 72
21
 73
17
 74
0
 42
0.0000001
 43
0.0000001
 44
0.0000000001
 40
0.0
 40
0.0
 40
0.0
 40
0.0
 40
0.1479129254
 40
0.2198672726
 40
0.2901479719
 40
0.4248878797
 40
0.4892651339
 40
0.5515794779
 40
0.6119003111
 40
0.6703757922
 40
0.7272346186
 40
0.7827828262
 40
0.8373953235
 40
0.891496922
 40
0.945547165
 40
1.0
 40
1.0
 40
1.0
 40
1.0
 10
7.3101300494
 20
3.2226792311
 30
0.0
 10
7.3098113715
 20
3.2243527048
 30
0.0
 10
7.3091708502
 20
3.2268138223
 30
0.0
 10
7.3079814826
 20
3.2299394146
 30
0.0
 10
7.3066249462
 20
3.232828946
 30
0.0
 10
7.3049783861
 20
3.2354793699
 30
0.0
 10
7.3030563878
 20
3.2378017855
 30
0.0
 10
7.3015291703
 20
3.239325669
 30
0.0
 10
7.299907762
 20
3.2406439487
 30
0.0
 10
7.2982056109
 20
3.2417451138
 30
0.0
 10
7.2964371232
 20
3.2426191543
 30
0.0
 10
7.2946174399
 20
3.2432579502
 30
0.0
 10
7.2927624835
 20
3.2436553251
 30
0.0
 10
7.2908886186
 20
3.2438073911
 30
0.0
 10
7.2890131105
 20
3.2437126141
 30
0.0
 10
7.2877798684
 20
3.2434867879
 30
0.0
 10
7.287171357
 20
3.243335047
 30
0.0
  0
SPLINE
  5
4A1
100
AcDbEntity
  8
0
100
AcDbSpline
 62
7
  6
CONTINUOUS
 70
0
 71
3
 72
26
 73
22
 74
0
 42
0.0000001
 43
0.0000001
 44
0.0000000001
 40
0.0
 40
0.0
 40
0.0
 40
0.0
 40
0.080574857
 40
0.1599866534
 40
0.3134316712
 40
0.3866407887
 40
0.4569491045
 40
0.5240181126
 40
0.5875934693
 40
0.6475277435
 40
0.7038268323
 40
0.7567746994
 40
0.8069541412
 40
0.8312679141
 40
0.855218658
 40
0.8789473895
 40
0.9026087738
 40
0.9263690567
 40
0.9504023971
 40
0.9748874404
 40
1.0
 40
1.0
 40
1.0
 40
1.0
 10
7.1153623478
 20
3.200492064
 30
0.0
 10
7.1152275378
 20
3.2019425784
 30
0.0
 10
7.1150145788
 20
3.2048283182
 30
0.0
 10
7.1148458209
 20
3.2104937073
 30
0.0
 10
7.1150731981
 20
3.2160340073
 30
0.0
 10
7.1157248742
 20
3.2213655025
 30
0.0
 10
7.116397507
 20
3.2251151791
 30
0.0
 10
7.1172529182
 20
3.2286486126
 30
0.0
 10
7.1182824424
 20
3.2319396907
 30
0.0
 10
7.1194782659
 20
3.2349660968
 30
0.0
 10
7.1208353577
 20
3.2377118693
 30
0.0
 10
7.1223595689
 20
3.2401642793
 30
0.0
 10
7.123796309
 20
3.2419739465
 30
0.0
 10
7.125037533
 20
3.2432512584
 30
0.0
 10
7.1260083038
 20
3.244120025
 30
0.0
 10
7.1270305567
 20
3.2449084884
 30
0.0
 10
7.1281064753
 20
3.2456158581
 30
0.0
 10
7.1292383126
 20
3.2462413108
 30
0.0
 10
7.1304284097
 20
3.2467841667
 30
0.0
 10
7.1316790383
 20
3.2472437771
 30
0.0
 10
7.1325419879
 20
3.2474908021
 30
0.0
 10
7.132982522
 20
3.2476006638
 30
0.0
  0
SPLINE
  5
4A2
100
AcDbEntity
  8
0
100
AcDbSpline
 62
7
  6
CONTINUOUS
 70
0
 71
3
 72
22
 73
18
 74
0
 42
0.0000001
 43
0.0000001
 44
0.0000000001
 40
0.0
 40
0.0
 40
0.0
 40
0.0
 40
0.1465820382
 40
0.2183786343
 40
0.2888313094
 40
0.3577303004
 40
0.4249014203
 40
0.4902112055
 40
0.5535739137
 40
0.6149578653
 40
0.6743915898
 40
0.7319689525
 40
0.7878524796
 40
0.8422737891
 40
0.8955297197
 40
0.947973672
 40
1.0
 40
1.0
 40
1.0
 40
1.0
 10
7.287171357
 20
3.243335047
 30
0.0
 10
7.2868173995
 20
3.2461739292
 30
0.0
 10
7.286547484
 20
3.2504425669
 30
0.0
 10
7.2867405338
 20
3.2560793202
 30
0.0
 10
7.287156771
 20
3.2601826946
 30
0.0
 10
7.2878424047
 20
3.2641580977
 30
0.0
 10
7.2887923744
 20
3.2679757427
 30
0.0
 10
7.2899996944
 20
3.2716065954
 30
0.0
 10
7.2914554925
 20
3.2750231214
 30
0.0
 10
7.293149098
 20
3.2781993168
 30
0.0
 10
7.2950681102
 20
3.2811108935
 30
0.0
 10
7.2971984554
 20
3.2837353931
 30
0.0
 10
7.2995244394
 20
3.286052316
 30
0.0
 10
7.3020286783
 20
3.2880432296
 30
0.0
 10
7.3046923583
 20
3.2896920451
 30
0.0
 10
7.307494265
 20
3.2909849804
 30
0.0
 10
7.3094437211
 20
3.2916037426
 30
0.0
 10
7.3104289565
 20
3.2918494244
 30
0.0
  0
SPLINE
  5
4A3
100
AcDbEntity
  8
0
100
AcDbSpline
 62
7
  6
CONTINUOUS
 70
0
 71
3
 72
21
 73
17
 74
0
 42
0.0000001
 43
0.0000001
 44
0.0000000001
 40
0.0
 40
0.0
 40
0.0
 40
0.0
 40
0.050001241
 40
0.1032566266
 40
0.1594850692
 40
0.2183805112
 40
0.2796123153
 40
0.3428310632
 40
0.4076711347
 40
0.4737542555
 40
0.6080845055
 40
0.7426655868
 40
0.8090605597
 40
0.8743334325
 40
0.9381038098
 40
1.0
 40
1.0
 40
1.0
 40
1.0
 10
7.1153623478
 20
3.200492064
 30
0.0
 10
7.1142637371
 20
3.2002503436
 30
0.0
 10
7.1119846914
 20
3.1997973938
 30
0.0
 10
7.1084430223
 20
3.1992192633
 30
0.0
 10
7.1046869655
 20
3.1987236697
 30
0.0
 10
7.1007402164
 20
3.1983138288
 30
0.0
 10
7.0966275679
 20
3.1979924025
 30
0.0
 10
7.0923749485
 20
3.1977614794
 30
0.0
 10
7.0880091442
 20
3.1976225412
 30
0.0
 10
7.0820416182
 20
3.1975609297
 30
0.0
 10
7.0745046004
 20
3.1977187271
 30
0.0
 10
7.0669730114
 20
3.1981794193
 30
0.0
 10
7.061008164
 20
3.1987302858
 30
0.0
 10
7.0566391991
 20
3.1992275881
 30
0.0
 10
7.0523825925
 20
3.1998076366
 30
0.0
 10
7.0495906622
 20
3.2002545578
 30
0.0
 10
7.0482185747
 20
3.200492064
 30
0.0
  0
SPLINE
  5
4A4
100
AcDbEntity
  8
0
100
AcDbSpline
 62
7
  6
CONTINUOUS
 70
0
 71
3
 72
23
 73
19
 74
0
 42
0.0000001
 43
0.0000001
 44
0.0000000001
 40
0.0
 40
0.0
 40
0.0
 40
0.0
 40
0.0603635671
 40
0.1204241878
 40
0.1804228052
 40
0.2405517325
 40
0.3009466619
 40
0.3617173279
 40
0.4229451502
 40
0.4846892849
 40
0.5469969074
 40
0.6099004598
 40
0.6734196687
 40
0.7375575449
 40
0.8023078573
 40
0.8676520194
 40
0.9335631195
 40
1.0
 40
1.0
 40
1.0
 40
1.0
 10
7.0997397234
 20
3.0237764845
 30
0.0
 10
7.0987798509
 20
3.0246944813
 30
0.0
 10
7.0968006088
 20
3.0264593974
 30
0.0
 10
7.093691514
 20
3.0289302846
 30
0.0
 10
7.0904806134
 20
3.031257633
 30
0.0
 10
7.0871926088
 20
3.0334869002
 30
0.0
 10
7.0838428588
 20
3.0356532325
 30
0.0
 10
7.0804491135
 20
3.0377953102
 30
0.0
 10
7.0770264781
 20
3.0399471941
 30
0.0
 10
7.0735887538
 20
3.0421385967
 30
0.0
 10
7.0701519424
 20
3.0443995182
 30
0.0
 10
7.0667320142
 20
3.0467557919
 30
0.0
 10
7.0633450928
 20
3.0492285561
 30
0.0
 10
7.0600071908
 20
3.051834012
 30
0.0
 10
7.056734536
 20
3.0545840942
 30
0.0
 10
7.0535428678
 20
3.0574863445
 30
0.0
 10
7.0504470278
 20
3.0605437052
 30
0.0
 10
7.0484628529
 20
3.0626765704
 30
0.0
 10
7.0474896441
 20
3.0637673362
 30
0.0
  0
SPLINE
  5
4A5
100
AcDbEntity
  8
0
100
AcDbSpline
 62
7
  6
CONTINUOUS
 70
0
 71
3
 72
31
 73
27
 74
0
 42
0.0000001
 43
0.0000001
 44
0.0000000001
 40
0.0
 40
0.0
 40
0.0
 40
0.0
 40
0.0595197195
 40
0.1194938865
 40
0.1800846618
 40
0.2415176573
 40
0.2726590503
 40
0.3041331373
 40
0.3359830372
 40
0.3682442044
 40
0.4009295374
 40
0.4340088923
 40
0.4673908974
 40
0.5009194767
 40
0.5344013419
 40
0.5676557162
 40
0.600555664
 40
0.6330405004
 40
0.665103078
 40
0.6967691786
 40
0.7280799516
 40
0.759079849
 40
0.8202887975
 40
0.8807154526
 40
0.9405701906
 40
1.0
 40
1.0
 40
1.0
 40
1.0
 10
6.8574614873
 20
2.1922096586
 30
0.0
 10
6.8589271357
 20
2.1928573645
 30
0.0
 10
6.8618323295
 20
2.1942448333
 30
0.0
 10
6.8660547752
 20
2.1966368273
 30
0.0
 10
6.8701047238
 20
2.1994063844
 30
0.0
 10
6.8732567261
 20
2.2020812895
 30
0.0
 10
6.8755824723
 20
2.2044813373
 30
0.0
 10
6.877214724
 20
2.2064350589
 30
0.0
 10
6.8786966035
 20
2.2085429688
 30
0.0
 10
6.8799908061
 20
2.2108097963
 30
0.0
 10
6.8810527684
 20
2.2132317052
 30
0.0
 10
6.8818337911
 20
2.215791089
 30
0.0
 10
6.8822882798
 20
2.218452204
 30
0.0
 10
6.8823847052
 20
2.2211615135
 30
0.0
 10
6.8821158851
 20
2.2238555458
 30
0.0
 10
6.8815014914
 20
2.2264741035
 30
0.0
 10
6.8805811261
 20
2.2289715778
 30
0.0
 10
6.8794030813
 20
2.2313211579
 30
0.0
 10
6.8780147189
 20
2.2335124448
 30
0.0
 10
6.876457372
 20
2.235546274
 30
0.0
 10
6.8747647755
 20
2.2374299077
 30
0.0
 10
6.8723738916
 20
2.2397442615
 30
0.0
 10
6.8691635336
 20
2.2423243824
 30
0.0
 10
6.8650667762
 20
2.2449981694
 30
0.0
 10
6.8608117651
 20
2.2473099072
 30
0.0
 10
6.8578916165
 20
2.2486517074
 30
0.0
 10
6.8564194636
 20
2.2492783354
 30
0.0
  0
SPLINE
  5
4A6
100
AcDbEntity
  8
0
100
AcDbSpline
 62
7
  6
CONTINUOUS
 70
0
 71
3
 72
31
 73
27
 74
0
 42
0.0000001
 43
0.0000001
 44
0.0000000001
 40
0.0
 40
0.0
 40
0.0
 40
0.0
 40
0.0595197197
 40
0.119493887
 40
0.1800846627
 40
0.2415176589
 40
0.2726590522
 40
0.3041331397
 40
0.33598304
 40
0.3682442076
 40
0.400929541
 40
0.4340088962
 40
0.4673909015
 40
0.5009194808
 40
0.5344013457
 40
0.5676557196
 40
0.600555667
 40
0.6330405029
 40
0.6651030801
 40
0.6967691803
 40
0.7280799531
 40
0.7590798502
 40
0.8202887983
 40
0.8807154531
 40
0.9405701909
 40
1.0
 40
1.0
 40
1.0
 40
1.0
 10
7.1544614918
 20
2.1922096605
 30
0.0
 10
7.15592714
 20
2.1928573665
 30
0.0
 10
7.1588323336
 20
2.1942448354
 30
0.0
 10
7.1630547789
 20
2.1966368296
 30
0.0
 10
7.1671047271
 20
2.1994063869
 30
0.0
 10
7.1702567289
 20
2.2020812921
 30
0.0
 10
7.1725824748
 20
2.20448134
 30
0.0
 10
7.1742147262
 20
2.2064350618
 30
0.0
 10
7.1756966054
 20
2.2085429717
 30
0.0
 10
7.1769908076
 20
2.2108097993
 30
0.0
 10
7.1780527695
 20
2.2132317083
 30
0.0
 10
7.1788337918
 20
2.215791092
 30
0.0
 10
7.1792882801
 20
2.218452207
 30
0.0
 10
7.1793847051
 20
2.2211615162
 30
0.0
 10
7.1791158847
 20
2.2238555484
 30
0.0
 10
7.1785014907
 20
2.2264741057
 30
0.0
 10
7.1775811252
 20
2.2289715798
 30
0.0
 10
7.1764030803
 20
2.2313211596
 30
0.0
 10
7.1750147179
 20
2.2335124463
 30
0.0
 10
7.173457371
 20
2.2355462753
 30
0.0
 10
7.1717647745
 20
2.2374299087
 30
0.0
 10
7.1693738907
 20
2.2397442623
 30
0.0
 10
7.1661635329
 20
2.242324383
 30
0.0
 10
7.1620667757
 20
2.2449981697
 30
0.0
 10
7.1578117648
 20
2.2473099074
 30
0.0
 10
7.1548916164
 20
2.2486517075
 30
0.0
 10
7.1534194636
 20
2.2492783354
 30
0.0
  0
ENDSEC
  0
SECTION
  2
OBJECTS
  0
DICTIONARY
  5
C
100
AcDbDictionary
280
0
281
1
  3
ACAD_GROUP
350
D
  3
ACAD_MLINESTYLE
350
17
  3
ACAD_LAYOUT
350
1A
  3
ACAD_PLOTSETTINGS
350
19
  3
ACAD_PLOTSTYLENAME
350
E
  0
DICTIONARY
  5
D
102
{ACAD_REACTORS
330
C
102
}
100
AcDbDictionary
280
0
281
1
  0
ACDBDICTIONARYWDFLT
  5
E
102
{ACAD_REACTORS
330
C
102
}
100
AcDbDictionary
281
1
  3
Normal
350
F
100
AcDbDictionaryWithDefault
340
F
  0
DICTIONARY
  5
17
102
{ACAD_REACTORS
330
C
102
}
100
AcDbDictionary
280
0
281
1
  3
Standard
350
18
  0
DICTIONARY
  5
19
102
{ACAD_REACTORS
330
C
102
}
100
AcDbDictionary
281
1
  0
DICTIONARY
  5
1A
102
{ACAD_REACTORS
330
C
102
}
100
AcDbDictionary
281
1
  3
Model
350
4A7
  3
Layout1
350
4A8
  0
ACDBPLACEHOLDER
  5
F
102
{ACAD_REACTORS
330
E
102
}
  0
MLINESTYLE
  5
18
102
{ACAD_REACTORS
330
17
102
}
100
AcDbMlineStyle
  2
STANDARD
 70
0
  3

 62
256
 51
90.0
 52
90.0
 71
2
 49
0.5
 62
256
  6
BYLAYER
 49
-0.5
 62
256
  6
BYLAYER
  0
LAYOUT
  5
4A7
102
{ACAD_REACTORS
330
1A
102
}
100
AcDbPlotSettings
  1

  2
none_device
  4
ANSI_A_(11.00_x_8.50_Inches)
  6

 40
0.0
 41
0.0
 42
0.0
 43
0.0
 44
279.4
 45
215.9
 46
0.0
 47
0.0
 48
0.0
 49
0.0
140
0.0
141
0.0
142
1.0
143
1.0
 70
1024
 72
0
 73
0
 74
0
  7

 75
0
147
1.0
148
0.0
149
0.0
100
AcDbLayout
  1
Model
 70
0
 71
0
 10
0.0
 20
0.0
 11
11.0
 21
8.5
 12
0.0
 22
0.0
 32
0.0
 14
0.0
 24
0.0
 34
0.0
 15
0.0
 25
0.0
 35
0.0
146
0.0
 13
0.0
 23
0.0
 33
0.0
 16
1.0
 26
0.0
 36
0.0
 17
0.0
 27
1.0
 37
0.0
 76
0
330
202
345
0
346
0
  0
LAYOUT
  5
4A8
102
{ACAD_REACTORS
330
1A
102
}
100
AcDbPlotSettings
  1

  2
none_device
  4
ANSI_A_(11.00_x_8.50_Inches)
  6

 40
0.0
 41
0.0
 42
0.0
 43
0.0
 44
279.4
 45
215.9
 46
0.0
 47
0.0
 48
0.0
 49
0.0
140
0.0
141
0.0
142
1.0
143
1.0
 70
0
 72
0
 73
0
 74
0
  7

 75
0
147
1.0
148
0.0
149
0.0
100
AcDbLayout
  1
Layout1
 70
0
 71
1
 10
0.0
 20
0.0
 11
11.0
 21
8.5
 12
0.0
 22
0.0
 32
0.0
 14
0.0
 24
0.0
 34
0.0
 15
0.0
 25
0.0
 35
0.0
146
0.0
 13
0.0
 23
0.0
 33
0.0
 16
1.0
 26
0.0
 36
0.0
 17
0.0
 27
1.0
 37
0.0
 76
0
330
203
345
0
346
0
  0
ENDSEC
  0
EOF
