999
DXF file: 9457_top.dxf
999
Pro/ENGINEER 2018400 by Parametric Technology Corporation
  0
SECTION
  2
HEADER
  9
$ACADVER
  1
AC1027
  9
$DWGCODEPAGE
  3
ANSI_1252
  9
$EXTMAX
 10
11.0
 20
8.5
 30
0.0
  9
$EXTMIN
 10
0.0
 20
0.0
 30
0.0
  9
$LIMMIN
 10
0.0
 20
0.0
  9
$LIMMAX
 10
11.0
 20
8.5
  9
$VIEWCTR
 10
5.5
 20
4.25
  9
$VIEWSIZE
 40
8.5
  9
$CLAYER
  8
0
  9
$LTSCALE
 40
0.605
  9
$CELTYPE
  6
BYLAYER
  9
$DIMSCALE
 40
1.0
  9
$DIMASZ
 40
0.1
  9
$DIMEXO
 40
0.0625
  9
$DIMDLI
 40
0.418
  9
$DIMEXE
 40
0.125
  9
$DIMCEN
 40
0.099
  9
$DIMLFAC
 40
1.0
  9
$DIMBLK
  1
_FILLED
  9
$DIMALT
 70
1
  9
$DIMALTD
 70
1
  9
$DIMALTTD
 70
2
  9
$DIMALTF
 40
25.4
  9
$DIMTXT
 40
0.08
  9
$DIMTOL
 70
1
  9
$DIMLIM
 70
0
  9
$DIMTFAC
 40
1.0
  9
$DIMTP
 40
0.01
  9
$DIMTM
 40
0.01
  9
$DIMGAP
 40
0.09
  9
$DIMDSEP
 70
46
  9
$AUNITS
 70
0
  9
$PDMODE
 70
3
  9
$PDSIZE
 40
0.3125
  9
$HANDSEED
  5
362
  9
$TILEMODE
 70
1
  9
$MEASUREMENT
 70
0
  9
$INSUNITS
 70
1
  0
ENDSEC
  0
SECTION
  2
CLASSES
  0
CLASS
  1
ACDBDICTIONARYWDFLT
  2
AcDbDictionaryWithDefault
  3
AutoCAD 2000
 90
0
 91
1
280
0
281
0
  0
CLASS
  1
ACDBPLACEHOLDER
  2
AcDbPlaceHolder
  3
AutoCAD 2000
 90
0
 91
1
280
0
281
0
  0
CLASS
  1
LAYOUT
  2
AcDbLayout
  3
AutoCAD 2000
 90
0
 91
0
280
0
281
0
  0
ENDSEC
  0
SECTION
  2
TABLES
  0
TABLE
  2
VPORT
  5
8
100
AcDbSymbolTable
 70
2
  0
VPORT
  5
1F4
100
AcDbSymbolTableRecord
100
AcDbViewportTableRecord
  2
*ACTIVE
 70
0
 10
0.0
 20
0.0
 11
1.0
 21
1.0
 12
5.5
 22
4.25
 13
0.0
 23
0.0
 14
1.0
 24
1.0
 15
0.0
 25
0.0
 16
0.0
 26
0.0
 36
1.0
 17
0.0
 27
0.0
 37
0.0
 40
8.5
 41
1.2941176471
 42
50.0
 43
0.0
 44
0.0
 50
0.0
 51
0.0
 71
0
 72
100
 73
1
 74
1
 75
0
 76
0
 77
0
 78
0
  0
ENDTAB
  0
TABLE
  2
LTYPE
  5
5
100
AcDbSymbolTable
 70
6
  0
LTYPE
  5
14
100
AcDbSymbolTableRecord
100
AcDbLinetypeTableRecord
  2
BYBLOCK
 70
0
  3

 72
65
 73
0
 40
0.0
  0
LTYPE
  5
15
100
AcDbSymbolTableRecord
100
AcDbLinetypeTableRecord
  2
BYLAYER
 70
0
  3

 72
65
 73
0
 40
0.0
  0
LTYPE
  5
16
100
AcDbSymbolTableRecord
100
AcDbLinetypeTableRecord
  2
CONTINUOUS
 70
64
  3
Solid line
 72
65
 73
0
 40
0.0
  0
LTYPE
  5
1F5
100
AcDbSymbolTableRecord
100
AcDbLinetypeTableRecord
  2
CENTER
 70
64
  3
____ _ ____ _ ____ _ ____ _ ____ _ ____ _ ____
 72
65
 73
4
 40
0.6
 49
0.375
 74
0
 49
-0.075
 74
0
 49
0.075
 74
0
 49
-0.075
 74
0
  0
LTYPE
  5
1F6
100
AcDbSymbolTableRecord
100
AcDbLinetypeTableRecord
  2
HIDDEN
 70
64
  3
- - - - - - - - - - - - - - - - - - - -
 72
65
 73
2
 40
0.2
 49
0.1
 74
0
 49
-0.1
 74
0
  0
LTYPE
  5
1F7
100
AcDbSymbolTableRecord
100
AcDbLinetypeTableRecord
  2
PHANTOM
 70
64
  3
_____ _ _ _____ _ _ _____ _ _ _____
 72
65
 73
6
 40
0.8
 49
0.45
 74
0
 49
-0.05
 74
0
 49
0.1
 74
0
 49
-0.05
 74
0
 49
0.1
 74
0
 49
-0.05
 74
0
  0
LTYPE
  5
1F8
100
AcDbSymbolTableRecord
100
AcDbLinetypeTableRecord
  2
DOT
 70
64
  3
. . . . . . . . . . . . . . . . . . . .
 72
65
 73
2
 40
0.2
 49
0.1
 74
0
 49
-0.1
 74
0
  0
LTYPE
  5
1F9
100
AcDbSymbolTableRecord
100
AcDbLinetypeTableRecord
  2
DASHED
 70
64
  3
- - - - - - - - - - - - - - - - - - - -
 72
65
 73
2
 40
0.2
 49
0.1
 74
0
 49
-0.1
 74
0
  0
ENDTAB
  0
TABLE
  2
LAYER
  5
2
100
AcDbSymbolTable
 70
36
  0
LAYER
  5
10
100
AcDbSymbolTableRecord
100
AcDbLayerTableRecord
  2
0
 70
0
 62
7
  6
CONTINUOUS
370
-3
390
F
  0
LAYER
  5
1FA
100
AcDbSymbolTableRecord
100
AcDbLayerTableRecord
  2
DEFAULT_1
 70
0
 62
7
  6
CENTER
370
-3
390
F
  0
LAYER
  5
1FB
100
AcDbSymbolTableRecord
100
AcDbLayerTableRecord
  2
DEFAULT_2
 70
0
 62
8
  6
HIDDEN
370
-3
390
F
  0
LAYER
  5
1FC
100
AcDbSymbolTableRecord
100
AcDbLayerTableRecord
  2
DEFAULT_3
 70
0
 62
7
  6
PHANTOM
370
-3
390
F
  0
LAYER
  5
1FD
100
AcDbSymbolTableRecord
100
AcDbLayerTableRecord
  2
DEFAULT_COORDINATE_SYSTEM
 70
0
 62
7
  6
CONTINUOUS
370
-3
390
F
  0
LAYER
  5
1FE
100
AcDbSymbolTableRecord
100
AcDbLayerTableRecord
  2
DEFAULT_DATUM_AXES
 70
0
 62
7
  6
CONTINUOUS
370
-3
390
F
  0
LAYER
  5
1FF
100
AcDbSymbolTableRecord
100
AcDbLayerTableRecord
  2
DEFAULT_DATUM_PLANES
 70
0
 62
7
  6
CONTINUOUS
370
-3
390
F
  0
ENDTAB
  0
TABLE
  2
STYLE
  5
3
100
AcDbSymbolTable
 70
1
  0
STYLE
  5
11
100
AcDbSymbolTableRecord
100
AcDbTextStyleTableRecord
  2
STANDARD
 70
0
 40
0.0
 41
0.8
 50
0.0
 71
0
 42
0.2
  3
txt
  4

  0
STYLE
  5
200
100
AcDbSymbolTableRecord
100
AcDbTextStyleTableRecord
  2
TEXTSTYLE_1
 70
0
 40
0.0
 41
0.8
 50
0.0
 71
0
 42
0.2
  3
gdt
  4

  0
ENDTAB
  0
TABLE
  2
VIEW
  5
6
100
AcDbSymbolTable
 70
0
  0
ENDTAB
  0
TABLE
  2
UCS
  5
7
100
AcDbSymbolTable
 70
0
  0
ENDTAB
  0
TABLE
  2
APPID
  5
9
100
AcDbSymbolTable
 70
1
  0
APPID
  5
201
100
AcDbSymbolTableRecord
100
AcDbRegAppTableRecord
  2
ACAD
 70
0
  0
ENDTAB
  0
TABLE
  2
BLOCK_RECORD
  5
1
100
AcDbSymbolTable
 70
0
  0
BLOCK_RECORD
  5
202
100
AcDbSymbolTableRecord
100
AcDbBlockTableRecord
  2
*Model_Space
  0
BLOCK_RECORD
  5
203
100
AcDbSymbolTableRecord
100
AcDbBlockTableRecord
  2
*Paper_Space
  0
BLOCK_RECORD
  5
204
100
AcDbSymbolTableRecord
100
AcDbBlockTableRecord
  2
_FILLED
  0
ENDTAB
  0
TABLE
  2
DIMSTYLE
  5
A
100
AcDbSymbolTable
 70
1
100
AcDbDimStyleTable
 71
0
  0
DIMSTYLE
105
205
100
AcDbSymbolTableRecord
100
AcDbDimStyleTableRecord
  2
STANDARD
 70
0
  3

  4

 40
1.0
 41
0.1
 42
0.0625
 43
0.38
 44
0.125
 45
0.0
 46
0.0
 47
0.01
 48
0.01
140
0.08
141
0.09
142
0.0
143
25.4
144
1.0
145
0.0
146
1.0
147
0.09
 71
1.0
 72
0.0
 73
1
 74
1
 75
0
 76
0
 77
0
 78
4
 79
1
170
1
171
1
172
0
173
0
174
0
175
0
176
0
177
0
178
0
270
2
179
2
271
2
272
2
273
2
274
2
275
0
280
0
281
0
282
0
283
1
284
4
285
0
286
0
287
3
288
0
340
11
278
46
341
204
342
204
343
204
344
204
  0
ENDTAB
  0
ENDSEC
  0
SECTION
  2
BLOCKS
  0
BLOCK
  5
20
100
AcDbEntity
  8
0
100
AcDbBlockBegin
  2
*Model_Space
 70
0
 10
0.0
 20
0.0
 30
0.0
  3
*Model_Space
  1

  0
ENDBLK
  5
21
100
AcDbEntity
  8
0
100
AcDbBlockEnd
  0
BLOCK
  5
1C
100
AcDbEntity
  8
0
100
AcDbBlockBegin
  2
*Paper_Space
 70
0
 10
0.0
 20
0.0
 30
0.0
  3
*Paper_Space
  1

  0
ENDBLK
  5
1D
100
AcDbEntity
  8
0
100
AcDbBlockEnd
  0
BLOCK
  5
206
100
AcDbEntity
  8
0
100
AcDbBlockBegin
  2
_FILLED
 70
64
 10
0.0
 20
0.0
  3
_FILLED
  1

  0
SOLID
  5
207
100
AcDbEntity
  8
0
  6
BYBLOCK
 62
0
100
AcDbTrace
 10
0.0
 20
0.0
 11
-1.0
 21
0.2
 12
-1.0
 22
-0.2
 13
-1.0
 23
-0.2
  0
ENDBLK
  5
208
100
AcDbEntity
  8
0
  6
BYBLOCK
 62
0
100
AcDbBlockEnd
  0
ENDSEC
  0
SECTION
  2
ENTITIES
  0
MTEXT
  5
209
100
AcDbEntity
  8
0
100
AcDbMText
 62
2
  6
CONTINUOUS
  7
STANDARD
 71
3
 72
1
 10
5.1195263975
 20
1.6500863024
 30
0.0
 11
1.0
 21
0.0
 31
0.0
 73
2
 44
0.9
  1
SCALE  .500
 40
0.08
 41
0.704
  0
LINE
  5
20A
100
AcDbEntity
  8
0
100
AcDbLine
 62
7
  6
CONTINUOUS
 10
0.0
 20
0.0
 11
0.0
 21
8.5
  0
LINE
  5
20B
100
AcDbEntity
  8
0
100
AcDbLine
 62
7
  6
CONTINUOUS
 10
0.0
 20
0.0
 11
11.0
 21
0.0
  0
LINE
  5
20C
100
AcDbEntity
  8
0
100
AcDbLine
 62
7
  6
CONTINUOUS
 10
0.0
 20
8.5
 11
11.0
 21
8.5
  0
LINE
  5
20D
100
AcDbEntity
  8
0
100
AcDbLine
 62
7
  6
CONTINUOUS
 10
11.0
 20
0.0
 11
11.0
 21
8.5
  0
LINE
  5
20E
100
AcDbEntity
  8
0
100
AcDbLine
 62
7
  6
CONTINUOUS
 10
1.4812763975
 20
6.6558363024
 11
1.4912763975
 21
6.6658363024
  0
LINE
  5
20F
100
AcDbEntity
  8
0
100
AcDbLine
 62
7
  6
CONTINUOUS
 10
1.4812763975
 20
6.3943363024
 11
1.4812763975
 21
6.6558363024
  0
LINE
  5
210
100
AcDbEntity
  8
0
100
AcDbLine
 62
7
  6
CONTINUOUS
 10
1.4912763975
 20
6.6658363024
 11
1.4912763975
 21
6.3843363024
  0
LINE
  5
211
100
AcDbEntity
  8
0
100
AcDbLine
 62
7
  6
CONTINUOUS
 10
1.5312763975
 20
6.6658363024
 11
1.5312763975
 21
6.3843363024
  0
LINE
  5
212
100
AcDbEntity
  8
0
100
AcDbLine
 62
7
  6
CONTINUOUS
 10
2.8334493391
 20
6.6235863024
 11
2.9218798545
 21
6.776752448
  0
LINE
  5
213
100
AcDbEntity
  8
0
100
AcDbLine
 62
7
  6
CONTINUOUS
 10
3.2490263975
 20
6.5563289431
 11
3.2447837568
 21
6.5520863024
  0
LINE
  5
214
100
AcDbEntity
  8
0
100
AcDbLine
 62
7
  6
CONTINUOUS
 10
2.8282763975
 20
6.4265863024
 11
2.7282763975
 21
6.3843363024
  0
LINE
  5
215
100
AcDbEntity
  8
0
100
AcDbLine
 62
7
  6
CONTINUOUS
 10
2.6757763975
 20
6.6658363024
 11
2.6757763975
 21
6.3843363024
  0
LINE
  5
216
100
AcDbEntity
  8
0
100
AcDbLine
 62
7
  6
CONTINUOUS
 10
2.7282763975
 20
6.6658363024
 11
2.7282763975
 21
6.3843363024
  0
LINE
  5
217
100
AcDbEntity
  8
0
100
AcDbLine
 62
7
  6
CONTINUOUS
 10
3.1645263975
 20
6.5563289431
 11
3.1690263975
 21
6.5670863024
  0
LINE
  5
218
100
AcDbEntity
  8
0
100
AcDbLine
 62
7
  6
CONTINUOUS
 10
3.3171729405
 20
6.2734201568
 11
3.4150668687
 21
6.4429774142
  0
LINE
  5
219
100
AcDbEntity
  8
0
100
AcDbLine
 62
7
  6
CONTINUOUS
 10
3.5496742337
 20
6.6104549811
 11
3.5742572687
 21
6.6276046628
  0
LINE
  5
21A
100
AcDbEntity
  8
0
100
AcDbLine
 62
7
  6
CONTINUOUS
 10
2.8282763975
 20
6.6235863024
 11
2.8282763975
 21
6.4265863024
  0
LINE
  5
21B
100
AcDbEntity
  8
0
100
AcDbLine
 62
7
  6
CONTINUOUS
 10
2.8582763975
 20
6.6235863024
 11
2.8582763975
 21
6.6222974129
  0
LINE
  5
21C
100
AcDbEntity
  8
0
100
AcDbLine
 62
7
  6
CONTINUOUS
 10
2.8582763975
 20
6.4278751919
 11
2.8582763975
 21
6.4265863024
  0
LINE
  5
21D
100
AcDbEntity
  8
0
100
AcDbLine
 62
7
  6
CONTINUOUS
 10
2.9870263975
 20
6.4825863024
 11
2.9870263975
 21
6.4945863024
  0
LINE
  5
21E
100
AcDbEntity
  8
0
100
AcDbLine
 62
7
  6
CONTINUOUS
 10
2.9870263975
 20
6.5580863024
 11
2.9870263975
 21
6.5670863024
  0
LINE
  5
21F
100
AcDbEntity
  8
0
100
AcDbLine
 62
7
  6
CONTINUOUS
 10
2.9952763975
 20
6.5059853155
 11
2.9952763975
 21
6.5466872893
  0
LINE
  5
220
100
AcDbEntity
  8
0
100
AcDbLine
 62
7
  6
CONTINUOUS
 10
3.0152763975
 20
6.5200863024
 11
3.0152763975
 21
6.5059853155
  0
LINE
  5
221
100
AcDbEntity
  8
0
100
AcDbLine
 62
7
  6
CONTINUOUS
 10
3.0157763975
 20
6.5468641146
 11
3.0157763975
 21
6.5348641146
  0
LINE
  5
222
100
AcDbEntity
  8
0
100
AcDbLine
 62
7
  6
CONTINUOUS
 10
3.0235263975
 20
6.5670863024
 11
3.0235263975
 21
6.5580863024
  0
LINE
  5
223
100
AcDbEntity
  8
0
100
AcDbLine
 62
7
  6
CONTINUOUS
 10
3.0235263975
 20
6.4945863024
 11
3.0235263975
 21
6.4825863024
  0
LINE
  5
224
100
AcDbEntity
  8
0
100
AcDbLine
 62
7
  6
CONTINUOUS
 10
3.0320263975
 20
6.4825863024
 11
3.0320263975
 21
6.4945863024
  0
LINE
  5
225
100
AcDbEntity
  8
0
100
AcDbLine
 62
7
  6
CONTINUOUS
 10
3.0320263975
 20
6.5580863024
 11
3.0320263975
 21
6.5670863024
  0
LINE
  5
226
100
AcDbEntity
  8
0
100
AcDbLine
 62
7
  6
CONTINUOUS
 10
5.0693106234
 20
6.8208537381
 11
4.8884921716
 21
6.7164581563
  0
LINE
  5
227
100
AcDbEntity
  8
0
100
AcDbLine
 62
7
  6
CONTINUOUS
 10
3.0397763975
 20
6.5348641146
 11
3.0397763975
 21
6.5468641146
  0
LINE
  5
228
100
AcDbEntity
  8
0
100
AcDbLine
 62
7
  6
CONTINUOUS
 10
3.0402763975
 20
6.5059853155
 11
3.0402763975
 21
6.5200863024
  0
LINE
  5
229
100
AcDbEntity
  8
0
100
AcDbLine
 62
7
  6
CONTINUOUS
 10
3.0602763975
 20
6.5466872893
 11
3.0602763975
 21
6.5059853155
  0
LINE
  5
22A
100
AcDbEntity
  8
0
100
AcDbLine
 62
7
  6
CONTINUOUS
 10
3.0685263975
 20
6.5670863024
 11
3.0685263975
 21
6.5580863024
  0
LINE
  5
22B
100
AcDbEntity
  8
0
100
AcDbLine
 62
7
  6
CONTINUOUS
 10
3.0685263975
 20
6.4945863024
 11
3.0685263975
 21
6.4825863024
  0
LINE
  5
22C
100
AcDbEntity
  8
0
100
AcDbLine
 62
7
  6
CONTINUOUS
 10
3.1885263975
 20
6.4825863024
 11
3.1885263975
 21
6.4945863024
  0
LINE
  5
22D
100
AcDbEntity
  8
0
100
AcDbLine
 62
7
  6
CONTINUOUS
 10
3.1977763975
 20
6.5103164486
 11
3.1977763975
 21
6.5566363024
  0
LINE
  5
22E
100
AcDbEntity
  8
0
100
AcDbLine
 62
7
  6
CONTINUOUS
 10
3.2157763975
 20
6.5566363024
 11
3.2157763975
 21
6.5103164486
  0
LINE
  5
22F
100
AcDbEntity
  8
0
100
AcDbLine
 62
7
  6
CONTINUOUS
 10
3.2250263975
 20
6.4945863024
 11
3.2250263975
 21
6.4825863024
  0
LINE
  5
230
100
AcDbEntity
  8
0
100
AcDbLine
 62
7
  6
CONTINUOUS
 10
3.3807763975
 20
6.4270863024
 11
3.3807763975
 21
6.4278751919
  0
LINE
  5
231
100
AcDbEntity
  8
0
100
AcDbLine
 62
7
  6
CONTINUOUS
 10
3.3807763975
 20
6.6222974129
 11
3.3807763975
 21
6.6230863024
  0
LINE
  5
232
100
AcDbEntity
  8
0
100
AcDbLine
 62
7
  6
CONTINUOUS
 10
3.3878712704
 20
6.4270863024
 11
3.3878712704
 21
6.4496370366
  0
LINE
  5
233
100
AcDbEntity
  8
0
100
AcDbLine
 62
7
  6
CONTINUOUS
 10
3.3878712704
 20
6.6005355682
 11
3.3878712704
 21
6.6230863024
  0
LINE
  5
234
100
AcDbEntity
  8
0
100
AcDbLine
 62
7
  6
CONTINUOUS
 10
3.398183983
 20
6.619157731
 11
3.398183983
 21
6.5322635283
  0
LINE
  5
235
100
AcDbEntity
  8
0
100
AcDbLine
 62
7
  6
CONTINUOUS
 10
3.398183983
 20
6.5179090765
 11
3.398183983
 21
6.4310148738
  0
LINE
  5
236
100
AcDbEntity
  8
0
100
AcDbLine
 62
7
  6
CONTINUOUS
 10
3.5238462979
 20
6.4292645202
 11
3.5238462979
 21
6.6209080846
  0
LINE
  5
237
100
AcDbEntity
  8
0
100
AcDbLine
 62
7
  6
CONTINUOUS
 10
3.5252483132
 20
6.4282092883
 11
3.5252483132
 21
6.313722666
  0
LINE
  5
238
100
AcDbEntity
  8
0
100
AcDbLine
 62
7
  6
CONTINUOUS
 10
3.5252483132
 20
6.6219633165
 11
3.5252483132
 21
6.7364499388
  0
LINE
  5
239
100
AcDbEntity
  8
0
100
AcDbLine
 62
7
  6
CONTINUOUS
 10
3.5373332691
 20
6.4350863024
 11
3.5373332691
 21
6.6150863024
  0
LINE
  5
23A
100
AcDbEntity
  8
0
100
AcDbLine
 62
7
  6
CONTINUOUS
 10
3.5496742337
 20
6.4397176237
 11
3.5496742337
 21
6.6104549811
  0
LINE
  5
23B
100
AcDbEntity
  8
0
100
AcDbLine
 62
7
  6
CONTINUOUS
 10
3.5742572687
 20
6.422567942
 11
3.5742572687
 21
6.6276046628
  0
LINE
  5
23C
100
AcDbEntity
  8
0
100
AcDbLine
 62
7
  6
CONTINUOUS
 10
3.5799729243
 20
6.4188177993
 11
3.5799729243
 21
6.3250863024
  0
LINE
  5
23D
100
AcDbEntity
  8
0
100
AcDbLine
 62
7
  6
CONTINUOUS
 10
3.5799729243
 20
6.6313548055
 11
3.5799729243
 21
6.7250863024
  0
LINE
  5
23E
100
AcDbEntity
  8
0
100
AcDbLine
 62
7
  6
CONTINUOUS
 10
5.3382763975
 20
6.3266221474
 11
5.3505606234
 21
6.3337144485
  0
LINE
  5
23F
100
AcDbEntity
  8
0
100
AcDbLine
 62
7
  6
CONTINUOUS
 10
7.0290263975
 20
6.5390563496
 11
7.0203719844
 21
6.5365863024
  0
LINE
  5
240
100
AcDbEntity
  8
0
100
AcDbLine
 62
7
  6
CONTINUOUS
 10
3.8470263975
 20
6.3125736429
 11
3.8470263975
 21
6.7375989619
  0
LINE
  5
241
100
AcDbEntity
  8
0
100
AcDbLine
 62
7
  6
CONTINUOUS
 10
3.9061829101
 20
6.3125736429
 11
3.9061829101
 21
6.7375989619
  0
LINE
  5
242
100
AcDbEntity
  8
0
100
AcDbLine
 62
7
  6
CONTINUOUS
 10
1.4812763975
 20
6.3943363024
 11
1.4912763975
 21
6.3843363024
  0
LINE
  5
243
100
AcDbEntity
  8
0
100
AcDbLine
 62
7
  6
CONTINUOUS
 10
7.4107763975
 20
6.6235863024
 11
7.5107763975
 21
6.6658363024
  0
LINE
  5
244
100
AcDbEntity
  8
0
100
AcDbLine
 62
7
  6
CONTINUOUS
 10
2.9218798541
 20
6.2734201575
 11
2.8334493391
 21
6.4265863024
  0
LINE
  5
245
100
AcDbEntity
  8
0
100
AcDbLine
 62
7
  6
CONTINUOUS
 10
3.2445263975
 20
6.5670863024
 11
3.2490263975
 21
6.5563289431
  0
LINE
  5
246
100
AcDbEntity
  8
0
100
AcDbLine
 62
7
  6
CONTINUOUS
 10
6.6893785613
 20
6.4397176237
 11
6.6647955263
 21
6.422567942
  0
LINE
  5
247
100
AcDbEntity
  8
0
100
AcDbLine
 62
7
  6
CONTINUOUS
 10
4.7380263874
 20
6.7375863008
 11
4.7380263874
 21
6.3125863041
  0
LINE
  5
248
100
AcDbEntity
  8
0
100
AcDbLine
 62
7
  6
CONTINUOUS
 10
4.7950263975
 20
6.337146017
 11
4.7950263975
 21
6.2912065256
  0
LINE
  5
249
100
AcDbEntity
  8
0
100
AcDbLine
 62
7
  6
CONTINUOUS
 10
4.7950263975
 20
6.7130265878
 11
4.7950263975
 21
6.7589660792
  0
LINE
  5
24A
100
AcDbEntity
  8
0
100
AcDbLine
 62
7
  6
CONTINUOUS
 10
4.8382763975
 20
6.6294818842
 11
4.8382763975
 21
6.4206907206
  0
LINE
  5
24B
100
AcDbEntity
  8
0
100
AcDbLine
 62
7
  6
CONTINUOUS
 10
3.4150668687
 20
6.6071951906
 11
3.3171729409
 21
6.7767524473
  0
LINE
  5
24C
100
AcDbEntity
  8
0
100
AcDbLine
 62
7
  6
CONTINUOUS
 10
4.9007763975
 20
2.0250863024
 11
4.9007763975
 21
6.5250863024
  0
LINE
  5
24D
100
AcDbEntity
  8
0
100
AcDbLine
 62
7
  6
CONTINUOUS
 10
5.3382763975
 20
2.0250863024
 11
5.3382763975
 21
6.5250863024
  0
LINE
  5
24E
100
AcDbEntity
  8
0
100
AcDbLine
 62
7
  6
CONTINUOUS
 10
5.4007763975
 20
6.4206907206
 11
5.4007763975
 21
6.6294818842
  0
LINE
  5
24F
100
AcDbEntity
  8
0
100
AcDbLine
 62
7
  6
CONTINUOUS
 10
5.4440263975
 20
6.337146017
 11
5.4440263975
 21
6.2912065256
  0
LINE
  5
250
100
AcDbEntity
  8
0
100
AcDbLine
 62
7
  6
CONTINUOUS
 10
5.4440263975
 20
6.7130265878
 11
5.4440263975
 21
6.7589660792
  0
LINE
  5
251
100
AcDbEntity
  8
0
100
AcDbLine
 62
7
  6
CONTINUOUS
 10
3.1687690382
 20
6.5520863024
 11
3.1645263975
 21
6.5563289431
  0
LINE
  5
252
100
AcDbEntity
  8
0
100
AcDbLine
 62
7
  6
CONTINUOUS
 10
5.5010264076
 20
6.7375863008
 11
5.5010264076
 21
6.3125863041
  0
LINE
  5
253
100
AcDbEntity
  8
0
100
AcDbLine
 62
7
  6
CONTINUOUS
 10
6.8239930237
 20
6.6072074837
 11
6.9218798545
 21
6.776752448
  0
LINE
  5
254
100
AcDbEntity
  8
0
100
AcDbLine
 62
7
  6
CONTINUOUS
 10
7.1931089925
 20
6.5012047396
 11
7.1997488659
 21
6.5121752642
  0
LINE
  5
255
100
AcDbEntity
  8
0
100
AcDbLine
 62
7
  6
CONTINUOUS
 10
3.5496742337
 20
6.4397176237
 11
3.5742572687
 21
6.422567942
  0
LINE
  5
256
100
AcDbEntity
  8
0
100
AcDbLine
 62
7
  6
CONTINUOUS
 10
6.332869885
 20
6.3125736429
 11
6.332869885
 21
6.7375989619
  0
LINE
  5
257
100
AcDbEntity
  8
0
100
AcDbLine
 62
7
  6
CONTINUOUS
 10
7.3171729405
 20
6.2734201568
 11
7.4056034559
 21
6.4265863024
  0
LINE
  5
258
100
AcDbEntity
  8
0
100
AcDbLine
 62
7
  6
CONTINUOUS
 10
8.7577763975
 20
6.3943363024
 11
8.7477763975
 21
6.3843363024
  0
LINE
  5
259
100
AcDbEntity
  8
0
100
AcDbLine
 62
7
  6
CONTINUOUS
 10
2.8282763975
 20
6.6235863024
 11
2.7282763975
 21
6.6658363024
  0
LINE
  5
25A
100
AcDbEntity
  8
0
100
AcDbLine
 62
7
  6
CONTINUOUS
 10
6.3920263975
 20
6.3125736429
 11
6.3920263975
 21
6.7375989619
  0
LINE
  5
25B
100
AcDbEntity
  8
0
100
AcDbLine
 62
7
  6
CONTINUOUS
 10
6.6590798707
 20
6.418817085
 11
6.6590798707
 21
6.3250863024
  0
LINE
  5
25C
100
AcDbEntity
  8
0
100
AcDbLine
 62
7
  6
CONTINUOUS
 10
6.6590798707
 20
6.6313555198
 11
6.6590798707
 21
6.7250863024
  0
LINE
  5
25D
100
AcDbEntity
  8
0
100
AcDbLine
 62
7
  6
CONTINUOUS
 10
6.6647955263
 20
6.6276046628
 11
6.6647955263
 21
6.422567942
  0
LINE
  5
25E
100
AcDbEntity
  8
0
100
AcDbLine
 62
7
  6
CONTINUOUS
 10
4.8884921716
 20
6.3337144485
 11
4.9007763975
 21
6.3266221474
  0
LINE
  5
25F
100
AcDbEntity
  8
0
100
AcDbLine
 62
7
  6
CONTINUOUS
 10
6.6893785613
 20
6.6104549811
 11
6.6893785613
 21
6.4397176237
  0
LINE
  5
260
100
AcDbEntity
  8
0
100
AcDbLine
 62
7
  6
CONTINUOUS
 10
6.701719526
 20
6.6150863024
 11
6.701719526
 21
6.4350863024
  0
LINE
  5
261
100
AcDbEntity
  8
0
100
AcDbLine
 62
7
  6
CONTINUOUS
 10
6.7138044818
 20
6.4282105685
 11
6.7138044818
 21
6.313722666
  0
LINE
  5
262
100
AcDbEntity
  8
0
100
AcDbLine
 62
7
  6
CONTINUOUS
 10
6.7138044818
 20
6.6219620363
 11
6.7138044818
 21
6.7364499388
  0
LINE
  5
263
100
AcDbEntity
  8
0
100
AcDbLine
 62
7
  6
CONTINUOUS
 10
6.7152064971
 20
6.6209080846
 11
6.7152064971
 21
6.4292645202
  0
LINE
  5
264
100
AcDbEntity
  8
0
100
AcDbLine
 62
7
  6
CONTINUOUS
 10
6.8408688121
 20
6.4310148738
 11
6.8408688121
 21
6.5179090765
  0
LINE
  5
265
100
AcDbEntity
  8
0
100
AcDbLine
 62
7
  6
CONTINUOUS
 10
6.8408688121
 20
6.5322635283
 11
6.8408688121
 21
6.619157731
  0
LINE
  5
266
100
AcDbEntity
  8
0
100
AcDbLine
 62
7
  6
CONTINUOUS
 10
6.8511815246
 20
6.6230863024
 11
6.8511815246
 21
6.6005355682
  0
LINE
  5
267
100
AcDbEntity
  8
0
100
AcDbLine
 62
7
  6
CONTINUOUS
 10
6.8511815246
 20
6.4496370366
 11
6.8511815246
 21
6.4270863024
  0
LINE
  5
268
100
AcDbEntity
  8
0
100
AcDbLine
 62
7
  6
CONTINUOUS
 10
6.8582763975
 20
6.6230863024
 11
6.8582763975
 21
6.6222974129
  0
LINE
  5
269
100
AcDbEntity
  8
0
100
AcDbLine
 62
7
  6
CONTINUOUS
 10
6.8582763975
 20
6.4278751919
 11
6.8582763975
 21
6.4270863024
  0
LINE
  5
26A
100
AcDbEntity
  8
0
100
AcDbLine
 62
7
  6
CONTINUOUS
 10
7.2040263975
 20
6.5095863024
 11
7.199265569
 21
6.4825863024
  0
LINE
  5
26B
100
AcDbEntity
  8
0
100
AcDbLine
 62
7
  6
CONTINUOUS
 10
3.0004004202
 20
6.2280863024
 11
3.238652374
 21
6.2280863024
  0
LINE
  5
26C
100
AcDbEntity
  8
0
100
AcDbLine
 62
7
  6
CONTINUOUS
 10
7.0004004202
 20
6.2280863024
 11
7.238652374
 21
6.2280863024
  0
LINE
  5
26D
100
AcDbEntity
  8
0
100
AcDbLine
 62
7
  6
CONTINUOUS
 10
7.1245263975
 20
6.4825863024
 11
7.1245263975
 21
6.4945863024
  0
LINE
  5
26E
100
AcDbEntity
  8
0
100
AcDbLine
 62
7
  6
CONTINUOUS
 10
7.1245263975
 20
6.5580863024
 11
7.1245263975
 21
6.5670863024
  0
LINE
  5
26F
100
AcDbEntity
  8
0
100
AcDbLine
 62
7
  6
CONTINUOUS
 10
7.1352763975
 20
6.5089716248
 11
7.1352763975
 21
6.54370098
  0
LINE
  5
270
100
AcDbEntity
  8
0
100
AcDbLine
 62
7
  6
CONTINUOUS
 10
7.1532763975
 20
6.54370098
 11
7.1532763975
 21
6.5089716248
  0
LINE
  5
271
100
AcDbEntity
  8
0
100
AcDbLine
 62
7
  6
CONTINUOUS
 10
7.1640263975
 20
6.5670863024
 11
7.1640263975
 21
6.5580863024
  0
LINE
  5
272
100
AcDbEntity
  8
0
100
AcDbLine
 62
7
  6
CONTINUOUS
 10
7.2145263975
 20
6.4825863024
 11
7.2145263975
 21
6.4945863024
  0
LINE
  5
273
100
AcDbEntity
  8
0
100
AcDbLine
 62
7
  6
CONTINUOUS
 10
7.2145263975
 20
6.5580863024
 11
7.2145263975
 21
6.5670863024
  0
LINE
  5
274
100
AcDbEntity
  8
0
100
AcDbLine
 62
7
  6
CONTINUOUS
 10
7.2195263975
 20
6.5026485602
 11
7.2195263975
 21
6.5500240447
  0
LINE
  5
275
100
AcDbEntity
  8
0
100
AcDbLine
 62
7
  6
CONTINUOUS
 10
7.2376673377
 20
6.4975863024
 11
7.2376673377
 21
6.5550863024
  0
LINE
  5
276
100
AcDbEntity
  8
0
100
AcDbLine
 62
7
  6
CONTINUOUS
 10
2.7282763975
 20
6.3843363024
 11
2.6757763975
 21
6.3843363024
  0
LINE
  5
277
100
AcDbEntity
  8
0
100
AcDbLine
 62
7
  6
CONTINUOUS
 10
1.5312763975
 20
6.3843363024
 11
1.4912763975
 21
6.3843363024
  0
LINE
  5
278
100
AcDbEntity
  8
0
100
AcDbLine
 62
7
  6
CONTINUOUS
 10
7.5107763975
 20
6.3843363024
 11
7.5632763975
 21
6.3843363024
  0
LINE
  5
279
100
AcDbEntity
  8
0
100
AcDbLine
 62
7
  6
CONTINUOUS
 10
8.7077763975
 20
6.3843363024
 11
8.7477763975
 21
6.3843363024
  0
LINE
  5
27A
100
AcDbEntity
  8
0
100
AcDbLine
 62
7
  6
CONTINUOUS
 10
2.8582763975
 20
6.4265863024
 11
2.8282763975
 21
6.4265863024
  0
LINE
  5
27B
100
AcDbEntity
  8
0
100
AcDbLine
 62
7
  6
CONTINUOUS
 10
7.3807763975
 20
6.4265863024
 11
7.4107763975
 21
6.4265863024
  0
LINE
  5
27C
100
AcDbEntity
  8
0
100
AcDbLine
 62
7
  6
CONTINUOUS
 10
3.3878712704
 20
6.4270863024
 11
3.3807763975
 21
6.4270863024
  0
LINE
  5
27D
100
AcDbEntity
  8
0
100
AcDbLine
 62
7
  6
CONTINUOUS
 10
6.8511815246
 20
6.4270863024
 11
6.8582763975
 21
6.4270863024
  0
LINE
  5
27E
100
AcDbEntity
  8
0
100
AcDbLine
 62
7
  6
CONTINUOUS
 10
7.2567763975
 20
6.4825863024
 11
7.2145263975
 21
6.4825863024
  0
LINE
  5
27F
100
AcDbEntity
  8
0
100
AcDbLine
 62
7
  6
CONTINUOUS
 10
7.199265569
 20
6.4825863024
 11
7.1245263975
 21
6.4825863024
  0
LINE
  5
280
100
AcDbEntity
  8
0
100
AcDbLine
 62
7
  6
CONTINUOUS
 10
3.2250263975
 20
6.4825863024
 11
3.1885263975
 21
6.4825863024
  0
LINE
  5
281
100
AcDbEntity
  8
0
100
AcDbLine
 62
7
  6
CONTINUOUS
 10
3.0685263975
 20
6.4825863024
 11
3.0320263975
 21
6.4825863024
  0
LINE
  5
282
100
AcDbEntity
  8
0
100
AcDbLine
 62
7
  6
CONTINUOUS
 10
3.0235263975
 20
6.4825863024
 11
2.9870263975
 21
6.4825863024
  0
LINE
  5
283
100
AcDbEntity
  8
0
100
AcDbLine
 62
7
  6
CONTINUOUS
 10
7.1682763975
 20
6.4939716248
 11
7.1802763975
 21
6.4939716248
  0
LINE
  5
284
100
AcDbEntity
  8
0
100
AcDbLine
 62
7
  6
CONTINUOUS
 10
7.2406673377
 20
6.4945863024
 11
7.2545987916
 21
6.4945863024
  0
LINE
  5
285
100
AcDbEntity
  8
0
100
AcDbLine
 62
7
  6
CONTINUOUS
 10
3.0372763975
 20
6.5230863024
 11
3.0182763975
 21
6.5230863024
  0
LINE
  5
286
100
AcDbEntity
  8
0
100
AcDbLine
 62
7
  6
CONTINUOUS
 10
3.0187763975
 20
6.5318641146
 11
3.0367763975
 21
6.5318641146
  0
LINE
  5
287
100
AcDbEntity
  8
0
100
AcDbLine
 62
7
  6
CONTINUOUS
 10
7.2545987916
 20
6.5580863024
 11
7.2406673377
 21
6.5580863024
  0
LINE
  5
288
100
AcDbEntity
  8
0
100
AcDbLine
 62
7
  6
CONTINUOUS
 10
3.2301777648
 20
6.5581363024
 11
3.2172763975
 21
6.5581363024
  0
LINE
  5
289
100
AcDbEntity
  8
0
100
AcDbLine
 62
7
  6
CONTINUOUS
 10
3.1962763975
 20
6.5581363024
 11
3.1833750303
 21
6.5581363024
  0
LINE
  5
28A
100
AcDbEntity
  8
0
100
AcDbLine
 62
7
  6
CONTINUOUS
 10
2.9870263975
 20
6.5670863024
 11
3.0235263975
 21
6.5670863024
  0
LINE
  5
28B
100
AcDbEntity
  8
0
100
AcDbLine
 62
7
  6
CONTINUOUS
 10
3.0320263975
 20
6.5670863024
 11
3.0685263975
 21
6.5670863024
  0
LINE
  5
28C
100
AcDbEntity
  8
0
100
AcDbLine
 62
7
  6
CONTINUOUS
 10
3.1690263975
 20
6.5670863024
 11
3.2445263975
 21
6.5670863024
  0
LINE
  5
28D
100
AcDbEntity
  8
0
100
AcDbLine
 62
7
  6
CONTINUOUS
 10
7.0120263975
 20
6.5670863024
 11
7.0210263975
 21
6.5670863024
  0
LINE
  5
28E
100
AcDbEntity
  8
0
100
AcDbLine
 62
7
  6
CONTINUOUS
 10
7.1245263975
 20
6.5670863024
 11
7.1640263975
 21
6.5670863024
  0
LINE
  5
28F
100
AcDbEntity
  8
0
100
AcDbLine
 62
7
  6
CONTINUOUS
 10
7.2145263975
 20
6.5670863024
 11
7.2567763975
 21
6.5670863024
  0
LINE
  5
290
100
AcDbEntity
  8
0
100
AcDbLine
 62
7
  6
CONTINUOUS
 10
5.3505606234
 20
6.7164581563
 11
5.1697421716
 21
6.8208537381
  0
LINE
  5
291
100
AcDbEntity
  8
0
100
AcDbLine
 62
7
  6
CONTINUOUS
 10
7.3807763975
 20
6.4265863024
 11
7.3807763975
 21
6.4278751919
  0
LINE
  5
292
100
AcDbEntity
  8
0
100
AcDbLine
 62
7
  6
CONTINUOUS
 10
7.3807763975
 20
6.6222974129
 11
7.3807763975
 21
6.6235863024
  0
LINE
  5
293
100
AcDbEntity
  8
0
100
AcDbLine
 62
7
  6
CONTINUOUS
 10
7.4107763975
 20
6.4265863024
 11
7.4107763975
 21
6.6235863024
  0
LINE
  5
294
100
AcDbEntity
  8
0
100
AcDbLine
 62
7
  6
CONTINUOUS
 10
7.5107763975
 20
6.3843363024
 11
7.5107763975
 21
6.6658363024
  0
LINE
  5
295
100
AcDbEntity
  8
0
100
AcDbLine
 62
7
  6
CONTINUOUS
 10
7.5632763975
 20
6.3843363024
 11
7.5632763975
 21
6.6658363024
  0
LINE
  5
296
100
AcDbEntity
  8
0
100
AcDbLine
 62
7
  6
CONTINUOUS
 10
3.3878712704
 20
6.6230863024
 11
3.3807763975
 21
6.6230863024
  0
LINE
  5
297
100
AcDbEntity
  8
0
100
AcDbLine
 62
7
  6
CONTINUOUS
 10
6.8511815246
 20
6.6230863024
 11
6.8582763975
 21
6.6230863024
  0
LINE
  5
298
100
AcDbEntity
  8
0
100
AcDbLine
 62
7
  6
CONTINUOUS
 10
2.8582763975
 20
6.6235863024
 11
2.8282763975
 21
6.6235863024
  0
LINE
  5
299
100
AcDbEntity
  8
0
100
AcDbLine
 62
7
  6
CONTINUOUS
 10
7.3807763975
 20
6.6235863024
 11
7.4107763975
 21
6.6235863024
  0
LINE
  5
29A
100
AcDbEntity
  8
0
100
AcDbLine
 62
7
  6
CONTINUOUS
 10
2.7282763975
 20
6.6658363024
 11
2.6757763975
 21
6.6658363024
  0
LINE
  5
29B
100
AcDbEntity
  8
0
100
AcDbLine
 62
7
  6
CONTINUOUS
 10
1.5312763975
 20
6.6658363024
 11
1.4912763975
 21
6.6658363024
  0
LINE
  5
29C
100
AcDbEntity
  8
0
100
AcDbLine
 62
7
  6
CONTINUOUS
 10
7.5107763975
 20
6.6658363024
 11
7.5632763975
 21
6.6658363024
  0
LINE
  5
29D
100
AcDbEntity
  8
0
100
AcDbLine
 62
7
  6
CONTINUOUS
 10
8.7077763975
 20
6.6658363024
 11
8.7477763975
 21
6.6658363024
  0
LINE
  5
29E
100
AcDbEntity
  8
0
100
AcDbLine
 62
7
  6
CONTINUOUS
 10
3.0004004211
 20
6.8220863024
 11
3.2386523748
 21
6.8220863024
  0
LINE
  5
29F
100
AcDbEntity
  8
0
100
AcDbLine
 62
7
  6
CONTINUOUS
 10
7.0004004211
 20
6.8220863024
 11
7.2386523748
 21
6.8220863024
  0
LINE
  5
2A0
100
AcDbEntity
  8
0
100
AcDbLine
 62
7
  6
CONTINUOUS
 10
7.0210263975
 20
6.5670863024
 11
7.0290263975
 21
6.5390563496
  0
LINE
  5
2A1
100
AcDbEntity
  8
0
100
AcDbLine
 62
7
  6
CONTINUOUS
 10
7.4107763975
 20
6.4265863024
 11
7.5107763975
 21
6.3843363024
  0
LINE
  5
2A2
100
AcDbEntity
  8
0
100
AcDbLine
 62
7
  6
CONTINUOUS
 10
7.0207513417
 20
6.5130863024
 11
7.0290263975
 21
6.5095474535
  0
LINE
  5
2A3
100
AcDbEntity
  8
0
100
AcDbLine
 62
7
  6
CONTINUOUS
 10
6.6893785613
 20
6.6104549811
 11
6.6647955263
 21
6.6276046628
  0
LINE
  5
2A4
100
AcDbEntity
  8
0
100
AcDbLine
 62
7
  6
CONTINUOUS
 10
6.9218798541
 20
6.2734201575
 11
6.8239930237
 21
6.4429651212
  0
LINE
  5
2A5
100
AcDbEntity
  8
0
100
AcDbLine
 62
7
  6
CONTINUOUS
 10
7.1997488659
 20
6.5121752642
 11
7.2040263975
 21
6.5095863024
  0
LINE
  5
2A6
100
AcDbEntity
  8
0
100
AcDbLine
 62
7
  6
CONTINUOUS
 10
7.4056034559
 20
6.6235863024
 11
7.3171729409
 21
6.7767524473
  0
LINE
  5
2A7
100
AcDbEntity
  8
0
100
AcDbLine
 62
7
  6
CONTINUOUS
 10
8.7077763975
 20
6.3843363024
 11
8.7077763975
 21
6.6658363024
  0
LINE
  5
2A8
100
AcDbEntity
  8
0
100
AcDbLine
 62
7
  6
CONTINUOUS
 10
8.7477763975
 20
6.3843363024
 11
8.7477763975
 21
6.6658363024
  0
LINE
  5
2A9
100
AcDbEntity
  8
0
100
AcDbLine
 62
7
  6
CONTINUOUS
 10
8.7577763975
 20
6.6558363024
 11
8.7577763975
 21
6.3943363024
  0
LINE
  5
2AA
100
AcDbEntity
  8
0
100
AcDbLine
 62
7
  6
CONTINUOUS
 10
8.7577763975
 20
6.6558363024
 11
8.7477763975
 21
6.6658363024
  0
ARC
  5
2AB
100
AcDbEntity
  8
0
100
AcDbCircle
 62
7
  6
CONTINUOUS
 10
4.3221419904
 20
3.8592314439
 40
2.4883548585
100
AcDbArc
 50
80.3788749104
 51
99.6228690154
  0
ARC
  5
2AC
100
AcDbEntity
  8
0
100
AcDbCircle
 62
7
  6
CONTINUOUS
 10
1.6200368142
 20
6.5250863024
 40
0.1867604167
100
AcDbArc
 50
137.9864211385
 51
222.0135788615
  0
ARC
  5
2AD
100
AcDbEntity
  8
0
100
AcDbCircle
 62
7
  6
CONTINUOUS
 10
3.0722763975
 20
6.5059853155
 40
0.012
100
AcDbArc
 50
180.0
 51
251.7900431357
  0
ARC
  5
2AE
100
AcDbEntity
  8
0
100
AcDbCircle
 62
7
  6
CONTINUOUS
 10
3.0282763975
 20
6.5059853155
 40
0.012
100
AcDbArc
 50
288.2099568643
 51
360.0
  0
ARC
  5
2AF
100
AcDbEntity
  8
0
100
AcDbCircle
 62
7
  6
CONTINUOUS
 10
3.0272763975
 20
6.5059853155
 40
0.012
100
AcDbArc
 50
180.0
 51
251.7900431357
  0
ARC
  5
2B0
100
AcDbEntity
  8
0
100
AcDbCircle
 62
7
  6
CONTINUOUS
 10
2.9832763975
 20
6.5059853155
 40
0.012
100
AcDbArc
 50
288.2099568643
 51
360.0
  0
ARC
  5
2B1
100
AcDbEntity
  8
0
100
AcDbCircle
 62
7
  6
CONTINUOUS
 10
3.0372763975
 20
6.5200863024
 40
0.003
100
AcDbArc
 50
0.0
 51
90.0
  0
ARC
  5
2B2
100
AcDbEntity
  8
0
100
AcDbCircle
 62
7
  6
CONTINUOUS
 10
3.0182763975
 20
6.5200863024
 40
0.003
100
AcDbArc
 50
90.0
 51
180.0
  0
ARC
  5
2B3
100
AcDbEntity
  8
0
100
AcDbCircle
 62
7
  6
CONTINUOUS
 10
3.1797763975
 20
6.5103164486
 40
0.018
100
AcDbArc
 50
299.0852950607
 51
360.0
  0
ARC
  5
2B4
100
AcDbEntity
  8
0
100
AcDbCircle
 62
7
  6
CONTINUOUS
 10
3.1195263975
 20
6.5250863024
 40
0.5875
100
AcDbArc
 50
193.5386963383
 51
342.1027810174
  0
ARC
  5
2B5
100
AcDbEntity
  8
0
100
AcDbCircle
 62
7
  6
CONTINUOUS
 10
3.1195263975
 20
6.5250863024
 40
0.5875
100
AcDbArc
 50
17.8972189826
 51
166.4613036617
  0
ARC
  5
2B6
100
AcDbEntity
  8
0
100
AcDbCircle
 62
7
  6
CONTINUOUS
 10
3.1195263975
 20
6.5250863024
 40
0.5725
100
AcDbArc
 50
18.5132689588
 51
166.0853173082
  0
ARC
  5
2B7
100
AcDbEntity
  8
0
100
AcDbCircle
 62
7
  6
CONTINUOUS
 10
3.1195263975
 20
6.5250863024
 40
0.5725
100
AcDbArc
 50
193.9146826918
 51
341.4867310412
  0
ARC
  5
2B8
100
AcDbEntity
  8
0
100
AcDbCircle
 62
7
  6
CONTINUOUS
 10
3.1195263975
 20
6.5250863024
 40
0.55989996
100
AcDbArc
 50
194.2491848464
 51
340.8747438093
  0
ARC
  5
2B9
100
AcDbEntity
  8
0
100
AcDbCircle
 62
7
  6
CONTINUOUS
 10
3.1195263975
 20
6.5250863024
 40
0.55989996
100
AcDbArc
 50
19.1252561907
 51
165.7508151536
  0
ARC
  5
2BA
100
AcDbEntity
  8
0
100
AcDbCircle
 62
7
  6
CONTINUOUS
 10
3.1195263975
 20
6.5250863024
 40
0.435
100
AcDbArc
 50
26.5165449877
 51
161.1204711987
  0
ARC
  5
2BB
100
AcDbEntity
  8
0
100
AcDbCircle
 62
7
  6
CONTINUOUS
 10
3.1195263975
 20
6.5250863024
 40
0.435
100
AcDbArc
 50
198.8795288013
 51
333.4834550123
  0
ARC
  5
2BC
100
AcDbEntity
  8
0
100
AcDbCircle
 62
7
  6
CONTINUOUS
 10
3.1195263975
 20
6.5250863024
 40
0.41
100
AcDbArc
 50
199.741703657
 51
333.3281502371
  0
ARC
  5
2BD
100
AcDbEntity
  8
0
100
AcDbCircle
 62
7
  6
CONTINUOUS
 10
3.1195263975
 20
6.5250863024
 40
0.41
100
AcDbArc
 50
26.671849763
 51
160.258296343
  0
ARC
  5
2BE
100
AcDbEntity
  8
0
100
AcDbCircle
 62
7
  6
CONTINUOUS
 10
3.1195263975
 20
6.5250863024
 40
0.4
100
AcDbArc
 50
27.1600029678
 51
160.3373644823
  0
ARC
  5
2BF
100
AcDbEntity
  8
0
100
AcDbCircle
 62
7
  6
CONTINUOUS
 10
3.1195263975
 20
6.5250863024
 40
0.4
100
AcDbArc
 50
199.6626355177
 51
332.8399970322
  0
ARC
  5
2C0
100
AcDbEntity
  8
0
100
AcDbCircle
 62
7
  6
CONTINUOUS
 10
3.1195263975
 20
6.5250863024
 40
0.32
100
AcDbArc
 50
291.8556020443
 51
308.1443979557
  0
ARC
  5
2C1
100
AcDbEntity
  8
0
100
AcDbCircle
 62
7
  6
CONTINUOUS
 10
3.1195263975
 20
6.5250863024
 40
0.32
100
AcDbArc
 50
51.8556020443
 51
68.1443979557
  0
ARC
  5
2C2
100
AcDbEntity
  8
0
100
AcDbCircle
 62
7
  6
CONTINUOUS
 10
3.1195263975
 20
6.5250863024
 40
0.32
100
AcDbArc
 50
111.8556020443
 51
128.1443979557
  0
ARC
  5
2C3
100
AcDbEntity
  8
0
100
AcDbCircle
 62
7
  6
CONTINUOUS
 10
3.1195263975
 20
6.5250863024
 40
0.32
100
AcDbArc
 50
231.8556020443
 51
248.1443979557
  0
ARC
  5
2C4
100
AcDbEntity
  8
0
100
AcDbCircle
 62
7
  6
CONTINUOUS
 10
3.1195263975
 20
6.5250863024
 40
0.3101065748
100
AcDbArc
 50
286.7173853211
 51
313.2826146789
  0
ARC
  5
2C5
100
AcDbEntity
  8
0
100
AcDbCircle
 62
7
  6
CONTINUOUS
 10
3.1195263975
 20
6.5250863024
 40
0.3101065748
100
AcDbArc
 50
226.7173853211
 51
253.2826146789
  0
ARC
  5
2C6
100
AcDbEntity
  8
0
100
AcDbCircle
 62
7
  6
CONTINUOUS
 10
3.1195263975
 20
6.5250863024
 40
0.3101065748
100
AcDbArc
 50
106.7173853211
 51
133.2826146789
  0
ARC
  5
2C7
100
AcDbEntity
  8
0
100
AcDbCircle
 62
7
  6
CONTINUOUS
 10
3.1195263975
 20
6.5250863024
 40
0.3101065748
100
AcDbArc
 50
46.7173853211
 51
73.2826146789
  0
ARC
  5
2C8
100
AcDbEntity
  8
0
100
AcDbCircle
 62
7
  6
CONTINUOUS
 10
3.1195263975
 20
6.5250863024
 40
0.3032428101
100
AcDbArc
 50
198.9552937723
 51
221.6264464326
  0
ARC
  5
2C9
100
AcDbEntity
  8
0
100
AcDbCircle
 62
7
  6
CONTINUOUS
 10
3.1195263975
 20
6.5250863024
 40
0.3032428101
100
AcDbArc
 50
258.373553652
 51
281.6264464418
  0
ARC
  5
2CA
100
AcDbEntity
  8
0
100
AcDbCircle
 62
7
  6
CONTINUOUS
 10
3.1195263975
 20
6.5250863024
 40
0.3032428101
100
AcDbArc
 50
318.3735536213
 51
341.6264460085
  0
ARC
  5
2CB
100
AcDbEntity
  8
0
100
AcDbCircle
 62
7
  6
CONTINUOUS
 10
3.1195263975
 20
6.5250863024
 40
0.3032428101
100
AcDbArc
 50
18.3735541955
 51
41.6264464326
  0
ARC
  5
2CC
100
AcDbEntity
  8
0
100
AcDbCircle
 62
7
  6
CONTINUOUS
 10
3.1195263975
 20
6.5250863024
 40
0.3032428101
100
AcDbArc
 50
78.373553652
 51
101.6264464418
  0
ARC
  5
2CD
100
AcDbEntity
  8
0
100
AcDbCircle
 62
7
  6
CONTINUOUS
 10
3.1195263975
 20
6.5250863024
 40
0.3032428101
100
AcDbArc
 50
138.3735536213
 51
161.0447061394
  0
CIRCLE
  5
2CE
100
AcDbEntity
  8
0
100
AcDbCircle
 62
7
  6
CONTINUOUS
 10
3.1195263975
 20
6.5250863024
 40
0.27875
  0
CIRCLE
  5
2CF
100
AcDbEntity
  8
0
100
AcDbCircle
 62
7
  6
CONTINUOUS
 10
3.1195263975
 20
6.5250863024
 40
0.2645961576
  0
CIRCLE
  5
2D0
100
AcDbEntity
  8
0
100
AcDbCircle
 62
7
  6
CONTINUOUS
 10
3.1195263975
 20
6.5250863024
 40
0.26375
  0
CIRCLE
  5
2D1
100
AcDbEntity
  8
0
100
AcDbCircle
 62
7
  6
CONTINUOUS
 10
3.1195263975
 20
6.5250863024
 40
0.2526402106
  0
CIRCLE
  5
2D2
100
AcDbEntity
  8
0
100
AcDbCircle
 62
7
  6
CONTINUOUS
 10
3.1195263975
 20
6.5250863024
 40
0.2272549781
  0
CIRCLE
  5
2D3
100
AcDbEntity
  8
0
100
AcDbCircle
 62
7
  6
CONTINUOUS
 10
3.1195263975
 20
6.5250863024
 40
0.21375
  0
CIRCLE
  5
2D4
100
AcDbEntity
  8
0
100
AcDbCircle
 62
7
  6
CONTINUOUS
 10
3.1195263975
 20
6.5250863024
 40
0.20875
  0
CIRCLE
  5
2D5
100
AcDbEntity
  8
0
100
AcDbCircle
 62
7
  6
CONTINUOUS
 10
3.1195263975
 20
6.5250863024
 40
0.1975723198
  0
ARC
  5
2D6
100
AcDbEntity
  8
0
100
AcDbCircle
 62
7
  6
CONTINUOUS
 10
3.1833750303
 20
6.5374803104
 40
0.0206559921
100
AcDbArc
 50
90.0
 51
135.0
  0
ARC
  5
2D7
100
AcDbEntity
  8
0
100
AcDbCircle
 62
7
  6
CONTINUOUS
 10
2.9832763975
 20
6.5466872893
 40
0.012
100
AcDbArc
 50
0.0
 51
71.7900431357
  0
ARC
  5
2D8
100
AcDbEntity
  8
0
100
AcDbCircle
 62
7
  6
CONTINUOUS
 10
3.0277763975
 20
6.5468641146
 40
0.012
100
AcDbArc
 50
110.7423799545
 51
180.0
  0
ARC
  5
2D9
100
AcDbEntity
  8
0
100
AcDbCircle
 62
7
  6
CONTINUOUS
 10
3.0277763975
 20
6.5468641146
 40
0.012
100
AcDbArc
 50
0.0
 51
69.2576200455
  0
ARC
  5
2DA
100
AcDbEntity
  8
0
100
AcDbCircle
 62
7
  6
CONTINUOUS
 10
3.0722763975
 20
6.5466872893
 40
0.012
100
AcDbArc
 50
108.2099568643
 51
180.0
  0
ARC
  5
2DB
100
AcDbEntity
  8
0
100
AcDbCircle
 62
7
  6
CONTINUOUS
 10
3.0187763975
 20
6.5348641146
 40
0.003
100
AcDbArc
 50
180.0
 51
270.0
  0
ARC
  5
2DC
100
AcDbEntity
  8
0
100
AcDbCircle
 62
7
  6
CONTINUOUS
 10
3.0367763975
 20
6.5348641146
 40
0.003
100
AcDbArc
 50
270.0
 51
360.0
  0
ARC
  5
2DD
100
AcDbEntity
  8
0
100
AcDbCircle
 62
7
  6
CONTINUOUS
 10
3.6979559739
 20
7.0630863024
 40
0.358
100
AcDbArc
 50
250.7578319731
 51
294.60737546
  0
ARC
  5
2DE
100
AcDbEntity
  8
0
100
AcDbCircle
 62
7
  6
CONTINUOUS
 10
3.6979559739
 20
5.9870863024
 40
0.358
100
AcDbArc
 50
65.39262454
 51
109.2421680269
  0
ARC
  5
2DF
100
AcDbEntity
  8
0
100
AcDbCircle
 62
7
  6
CONTINUOUS
 10
3.6457763975
 20
6.5250863024
 40
0.125
100
AcDbArc
 50
235.0995
 51
124.9005
  0
ARC
  5
2E0
100
AcDbEntity
  8
0
100
AcDbCircle
 62
7
  6
CONTINUOUS
 10
3.4600602585
 20
6.6885863024
 40
0.093
100
AcDbArc
 50
228.2918697479
 51
313.3041758004
  0
ARC
  5
2E1
100
AcDbEntity
  8
0
100
AcDbCircle
 62
7
  6
CONTINUOUS
 10
3.4600602585
 20
6.3615863024
 40
0.093
100
AcDbArc
 50
46.6958241996
 51
131.7081302521
  0
ARC
  5
2E2
100
AcDbEntity
  8
0
100
AcDbCircle
 62
7
  6
CONTINUOUS
 10
3.4720263975
 20
6.7710863024
 40
0.0635
100
AcDbArc
 50
273.0639411445
 51
326.9442688491
  0
ARC
  5
2E3
100
AcDbEntity
  8
0
100
AcDbCircle
 62
7
  6
CONTINUOUS
 10
3.4720263975
 20
6.2790863024
 40
0.0635
100
AcDbArc
 50
33.0557311509
 51
86.9360588555
  0
ARC
  5
2E4
100
AcDbEntity
  8
0
100
AcDbCircle
 62
7
  6
CONTINUOUS
 10
4.7705263874
 20
6.7376119343
 40
0.0325
100
AcDbArc
 50
41.0753217545
 51
180.0451876894
  0
ARC
  5
2E5
100
AcDbEntity
  8
0
100
AcDbCircle
 62
7
  6
CONTINUOUS
 10
4.7705263874
 20
6.3125606705
 40
0.0325
100
AcDbArc
 50
179.9548123106
 51
318.9246782455
  0
ARC
  5
2E6
100
AcDbEntity
  8
0
100
AcDbCircle
 62
7
  6
CONTINUOUS
 10
3.5503925254
 20
6.7200863024
 40
0.03
100
AcDbArc
 50
9.5940682269
 51
146.9442688492
  0
ARC
  5
2E7
100
AcDbEntity
  8
0
100
AcDbCircle
 62
7
  6
CONTINUOUS
 10
3.5503925254
 20
6.3300863024
 40
0.03
100
AcDbArc
 50
213.0557311509
 51
350.4059317731
  0
ARC
  5
2E8
100
AcDbEntity
  8
0
100
AcDbCircle
 62
7
  6
CONTINUOUS
 10
3.8766046538
 20
6.7325863024
 40
0.03
100
AcDbArc
 50
9.618589969
 51
170.381410031
  0
ARC
  5
2E9
100
AcDbEntity
  8
0
100
AcDbCircle
 62
7
  6
CONTINUOUS
 10
3.8766046538
 20
6.3175863024
 40
0.03
100
AcDbArc
 50
189.618589969
 51
350.381410031
  0
ARC
  5
2EA
100
AcDbEntity
  8
0
100
AcDbCircle
 62
7
  6
CONTINUOUS
 10
3.2301777648
 20
6.5374803104
 40
0.0206559921
100
AcDbArc
 50
45.0
 51
90.0
  0
ARC
  5
2EB
100
AcDbEntity
  8
0
100
AcDbCircle
 62
7
  6
CONTINUOUS
 10
3.2337763975
 20
6.5103164486
 40
0.018
100
AcDbArc
 50
180.0
 51
240.9147049393
  0
ARC
  5
2EC
100
AcDbEntity
  8
0
100
AcDbCircle
 62
7
  6
CONTINUOUS
 10
3.3878712704
 20
6.4425863024
 40
0.0155
100
AcDbArc
 50
270.0
 51
311.7081302521
  0
ARC
  5
2ED
100
AcDbEntity
  8
0
100
AcDbCircle
 62
7
  6
CONTINUOUS
 10
3.3878712704
 20
6.6075863024
 40
0.0155
100
AcDbArc
 50
48.2918697479
 51
90.0
  0
ARC
  5
2EE
100
AcDbEntity
  8
0
100
AcDbCircle
 62
7
  6
CONTINUOUS
 10
3.5450970094
 20
6.6170161562
 40
0.008
100
AcDbArc
 50
193.9592487754
 51
304.9005
  0
ARC
  5
2EF
100
AcDbEntity
  8
0
100
AcDbCircle
 62
7
  6
CONTINUOUS
 10
3.5450970094
 20
6.4331564487
 40
0.008
100
AcDbArc
 50
55.0995
 51
166.0407512246
  0
ARC
  5
2F0
100
AcDbEntity
  8
0
100
AcDbCircle
 62
7
  6
CONTINUOUS
 10
3.5293332691
 20
6.6150863024
 40
0.008
100
AcDbArc
 50
0.0
 51
133.3041758004
  0
ARC
  5
2F1
100
AcDbEntity
  8
0
100
AcDbCircle
 62
7
  6
CONTINUOUS
 10
3.5293332691
 20
6.4350863024
 40
0.008
100
AcDbArc
 50
226.6958241996
 51
360.0
  0
ARC
  5
2F2
100
AcDbEntity
  8
0
100
AcDbCircle
 62
7
  6
CONTINUOUS
 10
3.1962763975
 20
6.5566363024
 40
0.0015
100
AcDbArc
 50
0.0
 51
90.0
  0
ARC
  5
2F3
100
AcDbEntity
  8
0
100
AcDbCircle
 62
7
  6
CONTINUOUS
 10
3.2172763975
 20
6.5566363024
 40
0.0015
100
AcDbArc
 50
90.0
 51
180.0
  0
ARC
  5
2F4
100
AcDbEntity
  8
0
100
AcDbCircle
 62
7
  6
CONTINUOUS
 10
4.3221419904
 20
9.1909411609
 40
2.4883548585
100
AcDbArc
 50
260.3771309846
 51
279.6211250896
  0
ARC
  5
2F5
100
AcDbEntity
  8
0
100
AcDbCircle
 62
7
  6
CONTINUOUS
 10
5.9169108046
 20
3.8592314439
 40
2.4883548585
100
AcDbArc
 50
80.3771309846
 51
99.6211250896
  0
ARC
  5
2F6
100
AcDbEntity
  8
0
100
AcDbCircle
 62
7
  6
CONTINUOUS
 10
5.1195263975
 20
2.0250863024
 40
0.28
100
AcDbArc
 50
141.3776323968
 51
38.6223676032
  0
ARC
  5
2F7
100
AcDbEntity
  8
0
100
AcDbCircle
 62
7
  6
CONTINUOUS
 10
5.1195263975
 20
2.0250863024
 40
0.25
100
AcDbArc
 50
151.0502415076
 51
28.9497584924
  0
ARC
  5
2F8
100
AcDbEntity
  8
0
100
AcDbCircle
 62
7
  6
CONTINUOUS
 10
5.1195263975
 20
2.0250863024
 40
0.21875
100
AcDbArc
 50
180.0
 51
360.0
  0
ARC
  5
2F9
100
AcDbEntity
  8
0
100
AcDbCircle
 62
7
  6
CONTINUOUS
 10
5.4685264076
 20
6.3125606705
 40
0.0325
100
AcDbArc
 50
221.0753217545
 51
0.0451876894
  0
ARC
  5
2FA
100
AcDbEntity
  8
0
100
AcDbCircle
 62
7
  6
CONTINUOUS
 10
5.1195263975
 20
6.5250863024
 40
0.4
100
AcDbArc
 50
35.7817598066
 51
144.2182401935
  0
ARC
  5
2FB
100
AcDbEntity
  8
0
100
AcDbCircle
 62
7
  6
CONTINUOUS
 10
5.1195263975
 20
6.5250863024
 40
0.4
100
AcDbArc
 50
215.7817598065
 51
236.8456602024
  0
ARC
  5
2FC
100
AcDbEntity
  8
0
100
AcDbCircle
 62
7
  6
CONTINUOUS
 10
5.1195263975
 20
6.5250863024
 40
0.4
100
AcDbArc
 50
303.1543397976
 51
324.2182401935
  0
ARC
  5
2FD
100
AcDbEntity
  8
0
100
AcDbCircle
 62
7
  6
CONTINUOUS
 10
5.1195263975
 20
6.5250863024
 40
0.375
100
AcDbArc
 50
305.6870115722
 51
234.3129884278
  0
ARC
  5
2FE
100
AcDbEntity
  8
0
100
AcDbCircle
 62
7
  6
CONTINUOUS
 10
5.1195263975
 20
6.5250863024
 40
0.3
100
AcDbArc
 50
316.8181372288
 51
223.1818627712
  0
ARC
  5
2FF
100
AcDbEntity
  8
0
100
AcDbCircle
 62
7
  6
CONTINUOUS
 10
5.1195263975
 20
6.5250863024
 40
0.25
100
AcDbArc
 50
331.0502650621
 51
208.9497349379
  0
ARC
  5
300
100
AcDbEntity
  8
0
100
AcDbCircle
 62
7
  6
CONTINUOUS
 10
5.1195263975
 20
6.5250863024
 40
0.225
100
AcDbArc
 50
346.4664914314
 51
193.5335085686
  0
ARC
  5
301
100
AcDbEntity
  8
0
100
AcDbCircle
 62
7
  6
CONTINUOUS
 10
5.1195263975
 20
6.5250863024
 40
0.21875
100
AcDbArc
 50
0.0
 51
180.0
  0
ARC
  5
302
100
AcDbEntity
  8
0
100
AcDbCircle
 62
7
  6
CONTINUOUS
 10
5.4685264076
 20
6.7376119343
 40
0.0325
100
AcDbArc
 50
359.9548123106
 51
138.9246782455
  0
ARC
  5
303
100
AcDbEntity
  8
0
100
AcDbCircle
 62
7
  6
CONTINUOUS
 10
6.5410968211
 20
5.9870863024
 40
0.358
100
AcDbArc
 50
70.7578319731
 51
114.60737546
  0
ARC
  5
304
100
AcDbEntity
  8
0
100
AcDbCircle
 62
7
  6
CONTINUOUS
 10
6.7789925366
 20
6.3615863024
 40
0.093
100
AcDbArc
 50
48.2918697479
 51
133.3041758004
  0
ARC
  5
305
100
AcDbEntity
  8
0
100
AcDbCircle
 62
7
  6
CONTINUOUS
 10
6.7670263975
 20
6.2790863024
 40
0.0635
100
AcDbArc
 50
93.0639411445
 51
146.9442688491
  0
ARC
  5
306
100
AcDbEntity
  8
0
100
AcDbCircle
 62
7
  6
CONTINUOUS
 10
6.3624481412
 20
6.3175863024
 40
0.03
100
AcDbArc
 50
189.618589969
 51
350.381410031
  0
ARC
  5
307
100
AcDbEntity
  8
0
100
AcDbCircle
 62
7
  6
CONTINUOUS
 10
6.6886602696
 20
6.3300863024
 40
0.03
100
AcDbArc
 50
189.5940682269
 51
326.9442688491
  0
ARC
  5
308
100
AcDbEntity
  8
0
100
AcDbCircle
 62
7
  6
CONTINUOUS
 10
6.8511815246
 20
6.4425863024
 40
0.0155
100
AcDbArc
 50
228.2918697479
 51
270.0
  0
ARC
  5
309
100
AcDbEntity
  8
0
100
AcDbCircle
 62
7
  6
CONTINUOUS
 10
6.709719526
 20
6.4350863024
 40
0.008
100
AcDbArc
 50
180.0
 51
313.3041758004
  0
ARC
  5
30A
100
AcDbEntity
  8
0
100
AcDbCircle
 62
7
  6
CONTINUOUS
 10
6.6939557856
 20
6.4331564487
 40
0.008
100
AcDbArc
 50
13.9592487754
 51
124.9005
  0
ARC
  5
30B
100
AcDbEntity
  8
0
100
AcDbCircle
 62
7
  6
CONTINUOUS
 10
6.5410968211
 20
7.0630863024
 40
0.358
100
AcDbArc
 50
245.39262454
 51
289.2421680269
  0
ARC
  5
30C
100
AcDbEntity
  8
0
100
AcDbCircle
 62
7
  6
CONTINUOUS
 10
6.5932763975
 20
6.5250863024
 40
0.125
100
AcDbArc
 50
55.0995
 51
304.9005
  0
ARC
  5
30D
100
AcDbEntity
  8
0
100
AcDbCircle
 62
7
  6
CONTINUOUS
 10
6.7789925366
 20
6.6885863024
 40
0.093
100
AcDbArc
 50
226.6958241996
 51
311.7081302521
  0
ARC
  5
30E
100
AcDbEntity
  8
0
100
AcDbCircle
 62
7
  6
CONTINUOUS
 10
6.7670263975
 20
6.7710863024
 40
0.0635
100
AcDbArc
 50
213.0557311509
 51
266.9360588555
  0
ARC
  5
30F
100
AcDbEntity
  8
0
100
AcDbCircle
 62
7
  6
CONTINUOUS
 10
6.3624481412
 20
6.7325863024
 40
0.03
100
AcDbArc
 50
9.618589969
 51
170.381410031
  0
ARC
  5
310
100
AcDbEntity
  8
0
100
AcDbCircle
 62
7
  6
CONTINUOUS
 10
6.6886602696
 20
6.7200863024
 40
0.03
100
AcDbArc
 50
33.0557311509
 51
170.4059317731
  0
ARC
  5
311
100
AcDbEntity
  8
0
100
AcDbCircle
 62
7
  6
CONTINUOUS
 10
6.8511815246
 20
6.6075863024
 40
0.0155
100
AcDbArc
 50
90.0
 51
131.7081302521
  0
ARC
  5
312
100
AcDbEntity
  8
0
100
AcDbCircle
 62
7
  6
CONTINUOUS
 10
6.709719526
 20
6.6150863024
 40
0.008
100
AcDbArc
 50
46.6958241996
 51
180.0
  0
ARC
  5
313
100
AcDbEntity
  8
0
100
AcDbCircle
 62
7
  6
CONTINUOUS
 10
6.6939557856
 20
6.6170161562
 40
0.008
100
AcDbArc
 50
235.0995
 51
346.0407512246
  0
ARC
  5
314
100
AcDbEntity
  8
0
100
AcDbCircle
 62
7
  6
CONTINUOUS
 10
5.9169108046
 20
9.1909411609
 40
2.4883548585
100
AcDbArc
 50
260.3788749104
 51
279.6228690154
  0
ARC
  5
315
100
AcDbEntity
  8
0
100
AcDbCircle
 62
7
  6
CONTINUOUS
 10
6.989739096
 20
6.5065863024
 40
0.0605
100
AcDbArc
 50
72.3178031512
 51
100.863388708
  0
ARC
  5
316
100
AcDbEntity
  8
0
100
AcDbCircle
 62
7
  6
CONTINUOUS
 10
7.1202763975
 20
6.5089716248
 40
0.015
100
AcDbArc
 50
286.4592496283
 51
360.0
  0
ARC
  5
317
100
AcDbEntity
  8
0
100
AcDbCircle
 62
7
  6
CONTINUOUS
 10
6.9908255366
 20
6.5185863024
 40
0.024
100
AcDbArc
 50
201.6000344342
 51
256.3709027892
  0
ARC
  5
318
100
AcDbEntity
  8
0
100
AcDbCircle
 62
7
  6
CONTINUOUS
 10
6.9881732832
 20
6.527018393
 40
0.0444320906
100
AcDbArc
 50
224.2338173193
 51
336.8459014309
  0
ARC
  5
319
100
AcDbEntity
  8
0
100
AcDbCircle
 62
7
  6
CONTINUOUS
 10
7.0080263975
 20
6.525396617
 40
0.0425
100
AcDbArc
 50
158.3999655658
 51
201.6000344342
  0
ARC
  5
31A
100
AcDbEntity
  8
0
100
AcDbCircle
 62
7
  6
CONTINUOUS
 10
6.9861888157
 20
6.5250863024
 40
0.0416624181
100
AcDbArc
 50
100.863388708
 51
224.2338173193
  0
ARC
  5
31B
100
AcDbEntity
  8
0
100
AcDbCircle
 62
7
  6
CONTINUOUS
 10
6.9868484783
 20
6.527018393
 40
0.0348621622
100
AcDbArc
 50
15.9292215989
 51
31.2636680057
  0
ARC
  5
31C
100
AcDbEntity
  8
0
100
AcDbCircle
 62
7
  6
CONTINUOUS
 10
6.9924287574
 20
6.5251985285
 40
0.0308038115
100
AcDbArc
 50
256.3709027892
 51
336.8459014309
  0
ARC
  5
31D
100
AcDbEntity
  8
0
100
AcDbCircle
 62
7
  6
CONTINUOUS
 10
6.9935909487
 20
6.5311120255
 40
0.0269742769
100
AcDbArc
 50
31.2636680057
 51
158.3999655658
  0
ARC
  5
31E
100
AcDbEntity
  8
0
100
AcDbCircle
 62
7
  6
CONTINUOUS
 10
7.1195263975
 20
6.5250863024
 40
0.5875
100
AcDbArc
 50
13.5386594513
 51
162.1027810174
  0
ARC
  5
31F
100
AcDbEntity
  8
0
100
AcDbCircle
 62
7
  6
CONTINUOUS
 10
7.1195263975
 20
6.5250863024
 40
0.5875
100
AcDbArc
 50
197.8972189826
 51
346.4613405487
  0
ARC
  5
320
100
AcDbEntity
  8
0
100
AcDbCircle
 62
7
  6
CONTINUOUS
 10
7.1195263975
 20
6.5250863024
 40
0.5725
100
AcDbArc
 50
198.5132689588
 51
346.0853255941
  0
ARC
  5
321
100
AcDbEntity
  8
0
100
AcDbCircle
 62
7
  6
CONTINUOUS
 10
7.1195263975
 20
6.5250863024
 40
0.5725
100
AcDbArc
 50
13.9146744059
 51
161.4867310412
  0
ARC
  5
322
100
AcDbEntity
  8
0
100
AcDbCircle
 62
7
  6
CONTINUOUS
 10
7.1195263975
 20
6.5250863024
 40
0.55989996
100
AcDbArc
 50
199.1262036728
 51
345.7508900463
  0
ARC
  5
323
100
AcDbEntity
  8
0
100
AcDbCircle
 62
7
  6
CONTINUOUS
 10
7.1195263975
 20
6.5250863024
 40
0.55989996
100
AcDbArc
 50
14.2491099537
 51
160.8737963272
  0
ARC
  5
324
100
AcDbEntity
  8
0
100
AcDbCircle
 62
7
  6
CONTINUOUS
 10
7.1195263975
 20
6.5250863024
 40
0.435
100
AcDbArc
 50
206.5165449876
 51
341.1204711987
  0
ARC
  5
325
100
AcDbEntity
  8
0
100
AcDbCircle
 62
7
  6
CONTINUOUS
 10
7.1195263975
 20
6.5250863024
 40
0.435
100
AcDbArc
 50
18.8795288013
 51
153.4834550124
  0
ARC
  5
326
100
AcDbEntity
  8
0
100
AcDbCircle
 62
7
  6
CONTINUOUS
 10
7.1195263975
 20
6.5250863024
 40
0.41
100
AcDbArc
 50
19.7415780538
 51
153.3279808495
  0
ARC
  5
327
100
AcDbEntity
  8
0
100
AcDbCircle
 62
7
  6
CONTINUOUS
 10
7.1195263975
 20
6.5250863024
 40
0.41
100
AcDbArc
 50
206.6720191506
 51
340.2584219462
  0
ARC
  5
328
100
AcDbEntity
  8
0
100
AcDbCircle
 62
7
  6
CONTINUOUS
 10
7.1195263975
 20
6.5250863024
 40
0.4
100
AcDbArc
 50
207.1600029678
 51
340.3373644823
  0
ARC
  5
329
100
AcDbEntity
  8
0
100
AcDbCircle
 62
7
  6
CONTINUOUS
 10
7.1195263975
 20
6.5250863024
 40
0.4
100
AcDbArc
 50
19.6626355177
 51
152.8399970322
  0
ARC
  5
32A
100
AcDbEntity
  8
0
100
AcDbCircle
 62
7
  6
CONTINUOUS
 10
7.1195263975
 20
6.5250863024
 40
0.32
100
AcDbArc
 50
111.8556020443
 51
128.1443979557
  0
ARC
  5
32B
100
AcDbEntity
  8
0
100
AcDbCircle
 62
7
  6
CONTINUOUS
 10
7.1195263975
 20
6.5250863024
 40
0.32
100
AcDbArc
 50
231.8556020443
 51
248.1443979557
  0
ARC
  5
32C
100
AcDbEntity
  8
0
100
AcDbCircle
 62
7
  6
CONTINUOUS
 10
7.1195263975
 20
6.5250863024
 40
0.32
100
AcDbArc
 50
291.8556020443
 51
308.1443979557
  0
ARC
  5
32D
100
AcDbEntity
  8
0
100
AcDbCircle
 62
7
  6
CONTINUOUS
 10
7.1195263975
 20
6.5250863024
 40
0.32
100
AcDbArc
 50
51.8556020443
 51
68.1443979557
  0
ARC
  5
32E
100
AcDbEntity
  8
0
100
AcDbCircle
 62
7
  6
CONTINUOUS
 10
7.1195263975
 20
6.5250863024
 40
0.3101065748
100
AcDbArc
 50
46.7173853211
 51
73.2826146789
  0
ARC
  5
32F
100
AcDbEntity
  8
0
100
AcDbCircle
 62
7
  6
CONTINUOUS
 10
7.1195263975
 20
6.5250863024
 40
0.3101065748
100
AcDbArc
 50
286.7173853211
 51
313.2826146789
  0
ARC
  5
330
100
AcDbEntity
  8
0
100
AcDbCircle
 62
7
  6
CONTINUOUS
 10
7.1195263975
 20
6.5250863024
 40
0.3101065748
100
AcDbArc
 50
226.7173853211
 51
253.2826146789
  0
ARC
  5
331
100
AcDbEntity
  8
0
100
AcDbCircle
 62
7
  6
CONTINUOUS
 10
7.1195263975
 20
6.5250863024
 40
0.3101065748
100
AcDbArc
 50
106.7173853211
 51
133.2826146789
  0
ARC
  5
332
100
AcDbEntity
  8
0
100
AcDbCircle
 62
7
  6
CONTINUOUS
 10
7.1195263975
 20
6.5250863024
 40
0.3032428101
100
AcDbArc
 50
18.956214889
 51
41.6349059194
  0
ARC
  5
333
100
AcDbEntity
  8
0
100
AcDbCircle
 62
7
  6
CONTINUOUS
 10
7.1195263975
 20
6.5250863024
 40
0.3032428101
100
AcDbArc
 50
78.3650955684
 51
101.634905755
  0
ARC
  5
334
100
AcDbEntity
  8
0
100
AcDbCircle
 62
7
  6
CONTINUOUS
 10
7.1195263975
 20
6.5250863024
 40
0.3032428101
100
AcDbArc
 50
138.3650954371
 51
161.6349035207
  0
ARC
  5
335
100
AcDbEntity
  8
0
100
AcDbCircle
 62
7
  6
CONTINUOUS
 10
7.1195263975
 20
6.5250863024
 40
0.3032428101
100
AcDbArc
 50
198.3650979273
 51
221.6349059194
  0
ARC
  5
336
100
AcDbEntity
  8
0
100
AcDbCircle
 62
7
  6
CONTINUOUS
 10
7.1195263975
 20
6.5250863024
 40
0.3032428101
100
AcDbArc
 50
258.3650955684
 51
281.634905755
  0
ARC
  5
337
100
AcDbEntity
  8
0
100
AcDbCircle
 62
7
  6
CONTINUOUS
 10
7.1195263975
 20
6.5250863024
 40
0.3032428101
100
AcDbArc
 50
318.3650954371
 51
341.04378513
  0
CIRCLE
  5
338
100
AcDbEntity
  8
0
100
AcDbCircle
 62
7
  6
CONTINUOUS
 10
7.1195263975
 20
6.5250863024
 40
0.27875
  0
CIRCLE
  5
339
100
AcDbEntity
  8
0
100
AcDbCircle
 62
7
  6
CONTINUOUS
 10
7.1195263975
 20
6.5250863024
 40
0.2645961576
  0
CIRCLE
  5
33A
100
AcDbEntity
  8
0
100
AcDbCircle
 62
7
  6
CONTINUOUS
 10
7.1195263975
 20
6.5250863024
 40
0.26375
  0
CIRCLE
  5
33B
100
AcDbEntity
  8
0
100
AcDbCircle
 62
7
  6
CONTINUOUS
 10
7.1195263975
 20
6.5250863024
 40
0.2526402106
  0
CIRCLE
  5
33C
100
AcDbEntity
  8
0
100
AcDbCircle
 62
7
  6
CONTINUOUS
 10
7.1195263975
 20
6.5250863024
 40
0.2272549781
  0
CIRCLE
  5
33D
100
AcDbEntity
  8
0
100
AcDbCircle
 62
7
  6
CONTINUOUS
 10
7.1195263975
 20
6.5250863024
 40
0.21375
  0
CIRCLE
  5
33E
100
AcDbEntity
  8
0
100
AcDbCircle
 62
7
  6
CONTINUOUS
 10
7.1195263975
 20
6.5250863024
 40
0.20875
  0
CIRCLE
  5
33F
100
AcDbEntity
  8
0
100
AcDbCircle
 62
7
  6
CONTINUOUS
 10
7.1195263975
 20
6.5250863024
 40
0.1975723283
  0
ARC
  5
340
100
AcDbEntity
  8
0
100
AcDbCircle
 62
7
  6
CONTINUOUS
 10
7.0978309057
 20
6.5250779529
 40
0.0583045087
100
AcDbArc
 50
179.9917949846
 51
183.3360655131
  0
ARC
  5
341
100
AcDbEntity
  8
0
100
AcDbCircle
 62
7
  6
CONTINUOUS
 10
7.0611946519
 20
6.5250850727
 40
0.0568317456
100
AcDbArc
 50
0.0012397722
 51
1.0565291707
  0
ARC
  5
342
100
AcDbEntity
  8
0
100
AcDbCircle
 62
7
  6
CONTINUOUS
 10
7.1802763975
 20
6.5089716248
 40
0.015
100
AcDbArc
 50
270.0
 51
328.815717175
  0
ARC
  5
343
100
AcDbEntity
  8
0
100
AcDbCircle
 62
7
  6
CONTINUOUS
 10
7.1682763975
 20
6.5089716248
 40
0.015
100
AcDbArc
 50
180.0
 51
270.0
  0
ARC
  5
344
100
AcDbEntity
  8
0
100
AcDbCircle
 62
7
  6
CONTINUOUS
 10
7.2105263975
 20
6.5026485602
 40
0.009
100
AcDbArc
 50
296.3877999613
 51
360.0
  0
ARC
  5
345
100
AcDbEntity
  8
0
100
AcDbCircle
 62
7
  6
CONTINUOUS
 10
7.2406673377
 20
6.4975863024
 40
0.003
100
AcDbArc
 50
180.0
 51
270.0
  0
ARC
  5
346
100
AcDbEntity
  8
0
100
AcDbCircle
 62
7
  6
CONTINUOUS
 10
7.2313568575
 20
6.5263363024
 40
0.0485
100
AcDbArc
 50
341.5590861804
 51
18.4409138196
  0
ARC
  5
347
100
AcDbEntity
  8
0
100
AcDbCircle
 62
7
  6
CONTINUOUS
 10
7.2567763975
 20
6.5248363024
 40
0.04225
100
AcDbArc
 50
270.0
 51
90.0
  0
ARC
  5
348
100
AcDbEntity
  8
0
100
AcDbCircle
 62
7
  6
CONTINUOUS
 10
7.2545987916
 20
6.5185863024
 40
0.024
100
AcDbArc
 50
270.0
 51
341.5590861804
  0
ARC
  5
349
100
AcDbEntity
  8
0
100
AcDbCircle
 62
7
  6
CONTINUOUS
 10
7.2545987916
 20
6.5340863024
 40
0.024
100
AcDbArc
 50
18.4409138196
 51
90.0
  0
ARC
  5
34A
100
AcDbEntity
  8
0
100
AcDbCircle
 62
7
  6
CONTINUOUS
 10
7.1202763975
 20
6.54370098
 40
0.015
100
AcDbArc
 50
0.0
 51
73.5407503717
  0
ARC
  5
34B
100
AcDbEntity
  8
0
100
AcDbCircle
 62
7
  6
CONTINUOUS
 10
7.1682763975
 20
6.54370098
 40
0.015
100
AcDbArc
 50
106.4592496282
 51
180.0
  0
ARC
  5
34C
100
AcDbEntity
  8
0
100
AcDbCircle
 62
7
  6
CONTINUOUS
 10
7.2105263975
 20
6.5500240447
 40
0.009
100
AcDbArc
 50
0.0
 51
63.6122000388
  0
ARC
  5
34D
100
AcDbEntity
  8
0
100
AcDbCircle
 62
7
  6
CONTINUOUS
 10
7.2406673377
 20
6.5550863024
 40
0.003
100
AcDbArc
 50
90.0
 51
180.0
  0
ARC
  5
34E
100
AcDbEntity
  8
0
100
AcDbCircle
 62
7
  6
CONTINUOUS
 10
7.0090263975
 20
6.5670863024
 40
0.003
100
AcDbArc
 50
252.3178031512
 51
360.0
  0
ARC
  5
34F
100
AcDbEntity
  8
0
100
AcDbCircle
 62
7
  6
CONTINUOUS
 10
8.6190159808
 20
6.5250863024
 40
0.1867604167
100
AcDbArc
 50
317.9864211385
 51
42.0135788615
  0
SPLINE
  5
350
100
AcDbEntity
  8
0
100
AcDbSpline
 62
7
  6
CONTINUOUS
 70
0
 71
3
 72
90
 73
86
 74
0
 42
0.0000001
 43
0.0000001
 44
0.0000000001
 40
0.0
 40
0.0
 40
0.0
 40
0.0
 40
0.0625016007
 40
0.1250032042
 40
0.1875048037
 40
0.2500064069
 40
0.3125080124
 40
0.3437593587
 40
0.3750107045
 40
0.4062620508
 40
0.4375133975
 40
0.4687647439
 40
0.5000160901
 40
0.5312674366
 40
0.5625187831
 40
0.5781445245
 40
0.5937702658
 40
0.609396007
 40
0.625021748
 40
0.6406474893
 40
0.6562732312
 40
0.6640861106
 40
0.6718989894
 40
0.6797118675
 40
0.687524746
 40
0.6953376263
 40
0.7031505078
 40
0.7109633815
 40
0.7148698193
 40
0.7187762641
 40
0.722682715
 40
0.7265891344
 40
0.72854234
 40
0.7304955744
 40
0.7324488559
 40
0.7344021273
 40
0.7353787298
 40
0.7363552964
 40
0.7373318211
 40
0.7383083517
 40
0.7392849976
 40
0.7397734095
 40
0.7402618954
 40
0.7407503939
 40
0.7412388267
 40
0.7417271365
 40
0.7422153109
 40
0.7427034058
 40
0.7431915549
 40
0.7441682236
 40
0.7446566266
 40
0.7451449754
 40
0.7461215762
 40
0.7470981644
 40
0.7480747689
 40
0.7490513789
 40
0.7500279866
 40
0.7519811885
 40
0.7539343964
 40
0.755887619
 40
0.757840853
 40
0.7597940852
 40
0.7617473055
 40
0.7656536801
 40
0.7695600556
 40
0.7734664501
 40
0.7773728473
 40
0.7812792387
 40
0.789091698
 40
0.7969041589
 40
0.8047166288
 40
0.8125290957
 40
0.820341562
 40
0.8281540292
 40
0.8437764722
 40
0.8593989459
 40
0.8750212986
 40
0.8906436808
 40
0.9062662147
 40
0.9218888249
 40
0.9375110545
 40
0.9531331266
 40
0.9687554921
 40
0.9843778145
 40
1.0
 40
1.0
 40
1.0
 40
1.0
 10
7.5632763975
 20
6.3843363024
 30
0.0
 10
7.5878464501
 20
6.3854609028
 30
0.0
 10
7.6370151023
 20
6.3871297489
 30
0.0
 10
7.7108050061
 20
6.3878912775
 30
0.0
 10
7.7845928154
 20
6.3869107923
 30
0.0
 10
7.858336566
 20
6.3841880245
 30
0.0
 10
7.9197198894
 20
6.3804687018
 30
0.0
 10
7.9687623683
 20
6.3766244438
 30
0.0
 10
8.0055081461
 20
6.3733071866
 30
0.0
 10
8.0422121416
 20
6.3695562991
 30
0.0
 10
8.0788693137
 20
6.3653723689
 30
0.0
 10
8.115474531
 20
6.3607559644
 30
0.0
 10
8.1520226987
 20
6.3557076817
 30
0.0
 10
8.1885086973
 20
6.3502282999
 30
0.0
 10
8.2188577803
 20
6.3453035035
 30
0.0
 10
8.2431007388
 20
6.3411489037
 30
0.0
 10
8.261264311
 20
6.3379256646
 30
0.0
 10
8.2794085319
 20
6.3345952576
 30
0.0
 10
8.2975327793
 20
6.3311577993
 30
0.0
 10
8.3156364171
 20
6.3276134192
 30
0.0
 10
8.3307050998
 20
6.3245707744
 30
0.0
 10
8.3427490924
 20
6.3220833201
 30
0.0
 10
8.3517765461
 20
6.3201910639
 30
0.0
 10
8.3607983696
 20
6.3182721488
 30
0.0
 10
8.369814493
 20
6.316326624
 30
0.0
 10
8.3788248421
 20
6.3143545239
 30
0.0
 10
8.3878293563
 20
6.3123559599
 30
0.0
 10
8.3953281082
 20
6.3106680756
 30
0.0
 10
8.4013240959
 20
6.3093044807
 30
0.0
 10
8.4058196134
 20
6.3082752988
 30
0.0
 10
8.4103137426
 20
6.3072401023
 30
0.0
 10
8.4140572833
 20
6.3063706949
 30
0.0
 10
8.4170512571
 20
6.3056714915
 30
0.0
 10
8.4192965982
 20
6.30514636
 30
0.0
 10
8.4215420845
 20
6.3046217374
 30
0.0
 10
8.4234129925
 20
6.304183135
 30
0.0
 10
8.4249090448
 20
6.3038295352
 30
0.0
 10
8.4260306419
 20
6.303562702
 30
0.0
 10
8.4271516062
 20
6.3032933442
 30
0.0
 10
8.4282724308
 20
6.3030232766
 30
0.0
 10
8.4292073321
 20
6.3028015909
 30
0.0
 10
8.4299563217
 20
6.3026283412
 30
0.0
 10
8.4305187444
 20
6.3025009616
 30
0.0
 10
8.4310812356
 20
6.3023738524
 30
0.0
 10
8.4316432104
 20
6.3022447748
 30
0.0
 10
8.4322040723
 20
6.3021114694
 30
0.0
 10
8.4327632323
 20
6.3019717099
 30
0.0
 10
8.433320071
 20
6.3018231539
 30
0.0
 10
8.4340587068
 20
6.3016108081
 30
0.0
 10
8.4347934118
 20
6.3013848698
 30
0.0
 10
8.4355283758
 20
6.3011595976
 30
0.0
 10
8.4362649474
 20
6.3009396971
 30
0.0
 10
8.4371880851
 20
6.3006732777
 30
0.0
 10
8.4382975799
 20
6.3003597637
 30
0.0
 10
8.4394077991
 20
6.3000488065
 30
0.0
 10
8.4405191168
 20
6.2997417652
 30
0.0
 10
8.4420024269
 20
6.2993380568
 30
0.0
 10
8.4438600041
 20
6.2988461386
 30
0.0
 10
8.4460946517
 20
6.2982772255
 30
0.0
 10
8.4483344636
 20
6.2977289486
 30
0.0
 10
8.4505791608
 20
6.2972009959
 30
0.0
 10
8.4528284271
 20
6.2966928625
 30
0.0
 10
8.4558332255
 20
6.2960416565
 30
0.0
 10
8.4595998289
 20
6.2952774404
 30
0.0
 10
8.4641354185
 20
6.2944414618
 30
0.0
 10
8.468685274
 20
6.2936869135
 30
0.0
 10
8.4732478924
 20
6.2930137046
 30
0.0
 10
8.4793462244
 20
6.2922247825
 30
0.0
 10
8.4869941405
 20
6.2914427971
 30
0.0
 10
8.4961990026
 20
6.2908328496
 30
0.0
 10
8.5054198433
 20
6.2905519036
 30
0.0
 10
8.5146447893
 20
6.2906004081
 30
0.0
 10
8.5238622475
 20
6.2909781802
 30
0.0
 10
8.536124804
 20
6.2919200727
 30
0.0
 10
8.551378738
 20
6.2939180928
 30
0.0
 10
8.5694632094
 20
6.2976156211
 30
0.0
 10
8.5872385217
 20
6.3025932351
 30
0.0
 10
8.6046125962
 20
6.3088282313
 30
0.0
 10
8.6214984175
 20
6.3162852349
 30
0.0
 10
8.6378087601
 20
6.3249286628
 30
0.0
 10
8.6534604102
 20
6.3347143599
 30
0.0
 10
8.6683701512
 20
6.345596705
 30
0.0
 10
8.6824680411
 20
6.3575121773
 30
0.0
 10
8.6956832399
 20
6.3703984109
 30
0.0
 10
8.7038600697
 20
6.379597491
 30
0.0
 10
8.7077763975
 20
6.3843363024
 30
0.0
  0
SPLINE
  5
351
100
AcDbEntity
  8
0
100
AcDbSpline
 62
7
  6
CONTINUOUS
 70
0
 71
3
 72
90
 73
86
 74
0
 42
0.0000001
 43
0.0000001
 44
0.0000000001
 40
0.0
 40
0.0
 40
0.0
 40
0.0
 40
0.0625016007
 40
0.1250032042
 40
0.1875048037
 40
0.2500064069
 40
0.3125080124
 40
0.3437593587
 40
0.3750107045
 40
0.4062620508
 40
0.4375133975
 40
0.4687647439
 40
0.5000160901
 40
0.5312674366
 40
0.5625187831
 40
0.5781445245
 40
0.5937702658
 40
0.609396007
 40
0.625021748
 40
0.6406474893
 40
0.6562732312
 40
0.6640861106
 40
0.6718989894
 40
0.6797118675
 40
0.687524746
 40
0.6953376263
 40
0.7031505078
 40
0.7109633815
 40
0.7148698193
 40
0.7187762641
 40
0.722682715
 40
0.7265891344
 40
0.72854234
 40
0.7304955744
 40
0.7324488559
 40
0.7344021273
 40
0.7353787298
 40
0.7363552964
 40
0.7373318211
 40
0.7383083517
 40
0.7392849976
 40
0.7397734095
 40
0.7402618954
 40
0.7407503939
 40
0.7412388267
 40
0.7417271365
 40
0.7422153109
 40
0.7427034058
 40
0.7431915549
 40
0.7441682236
 40
0.7446566266
 40
0.7451449754
 40
0.7461215762
 40
0.7470981644
 40
0.7480747689
 40
0.7490513789
 40
0.7500279866
 40
0.7519811885
 40
0.7539343964
 40
0.755887619
 40
0.757840853
 40
0.7597940852
 40
0.7617473055
 40
0.7656536801
 40
0.7695600556
 40
0.7734664501
 40
0.7773728473
 40
0.7812792387
 40
0.789091698
 40
0.7969041589
 40
0.8047166288
 40
0.8125290957
 40
0.820341562
 40
0.8281540292
 40
0.8437764722
 40
0.8593989459
 40
0.8750212986
 40
0.8906436808
 40
0.9062662147
 40
0.9218888249
 40
0.9375110545
 40
0.9531331266
 40
0.9687554921
 40
0.9843778145
 40
1.0
 40
1.0
 40
1.0
 40
1.0
 10
7.5632763975
 20
6.6658363024
 30
0.0
 10
7.5878464501
 20
6.664711702
 30
0.0
 10
7.6370151023
 20
6.6630428559
 30
0.0
 10
7.7108050061
 20
6.6622813274
 30
0.0
 10
7.7845928154
 20
6.6632618125
 30
0.0
 10
7.858336566
 20
6.6659845803
 30
0.0
 10
7.9197198894
 20
6.6697039031
 30
0.0
 10
7.9687623683
 20
6.6735481611
 30
0.0
 10
8.0055081461
 20
6.6768654182
 30
0.0
 10
8.0422121416
 20
6.6806163057
 30
0.0
 10
8.0788693137
 20
6.6848002359
 30
0.0
 10
8.115474531
 20
6.6894166405
 30
0.0
 10
8.1520226987
 20
6.6944649231
 30
0.0
 10
8.1885086973
 20
6.6999443049
 30
0.0
 10
8.2188577803
 20
6.7048691014
 30
0.0
 10
8.2431007388
 20
6.7090237012
 30
0.0
 10
8.261264311
 20
6.7122469402
 30
0.0
 10
8.2794085319
 20
6.7155773472
 30
0.0
 10
8.2975327793
 20
6.7190148055
 30
0.0
 10
8.3156364171
 20
6.7225591857
 30
0.0
 10
8.3307050998
 20
6.7256018304
 30
0.0
 10
8.3427490924
 20
6.7280892847
 30
0.0
 10
8.3517765461
 20
6.7299815409
 30
0.0
 10
8.3607983696
 20
6.731900456
 30
0.0
 10
8.369814493
 20
6.7338459809
 30
0.0
 10
8.3788248421
 20
6.7358180809
 30
0.0
 10
8.3878293563
 20
6.737816645
 30
0.0
 10
8.3953281082
 20
6.7395045292
 30
0.0
 10
8.4013240959
 20
6.7408681241
 30
0.0
 10
8.4058196134
 20
6.741897306
 30
0.0
 10
8.4103137426
 20
6.7429325025
 30
0.0
 10
8.4140572833
 20
6.7438019099
 30
0.0
 10
8.4170512571
 20
6.7445011133
 30
0.0
 10
8.4192965982
 20
6.7450262448
 30
0.0
 10
8.4215420845
 20
6.7455508674
 30
0.0
 10
8.4234129925
 20
6.7459894698
 30
0.0
 10
8.4249090448
 20
6.7463430696
 30
0.0
 10
8.4260306419
 20
6.7466099029
 30
0.0
 10
8.4271516062
 20
6.7468792606
 30
0.0
 10
8.4282724308
 20
6.7471493283
 30
0.0
 10
8.4292073321
 20
6.7473710139
 30
0.0
 10
8.4299563217
 20
6.7475442636
 30
0.0
 10
8.4305187444
 20
6.7476716432
 30
0.0
 10
8.4310812356
 20
6.7477987524
 30
0.0
 10
8.4316432104
 20
6.74792783
 30
0.0
 10
8.4322040723
 20
6.7480611355
 30
0.0
 10
8.4327632323
 20
6.7482008949
 30
0.0
 10
8.433320071
 20
6.7483494509
 30
0.0
 10
8.4340587068
 20
6.7485617968
 30
0.0
 10
8.4347934118
 20
6.748787735
 30
0.0
 10
8.4355283758
 20
6.7490130072
 30
0.0
 10
8.4362649474
 20
6.7492329077
 30
0.0
 10
8.4371880851
 20
6.7494993272
 30
0.0
 10
8.4382975799
 20
6.7498128411
 30
0.0
 10
8.4394077991
 20
6.7501237983
 30
0.0
 10
8.4405191168
 20
6.7504308396
 30
0.0
 10
8.4420024269
 20
6.750834548
 30
0.0
 10
8.4438600041
 20
6.7513264662
 30
0.0
 10
8.4460946517
 20
6.7518953794
 30
0.0
 10
8.4483344636
 20
6.7524436562
 30
0.0
 10
8.4505791608
 20
6.7529716089
 30
0.0
 10
8.4528284271
 20
6.7534797423
 30
0.0
 10
8.4558332255
 20
6.7541309483
 30
0.0
 10
8.4595998289
 20
6.7548951644
 30
0.0
 10
8.4641354185
 20
6.7557311431
 30
0.0
 10
8.468685274
 20
6.7564856913
 30
0.0
 10
8.4732478924
 20
6.7571589002
 30
0.0
 10
8.4793462244
 20
6.7579478223
 30
0.0
 10
8.4869941405
 20
6.7587298077
 30
0.0
 10
8.4961990026
 20
6.7593397552
 30
0.0
 10
8.5054198433
 20
6.7596207013
 30
0.0
 10
8.5146447893
 20
6.7595721967
 30
0.0
 10
8.5238622475
 20
6.7591944246
 30
0.0
 10
8.536124804
 20
6.7582525321
 30
0.0
 10
8.551378738
 20
6.756254512
 30
0.0
 10
8.5694632094
 20
6.7525569838
 30
0.0
 10
8.5872385217
 20
6.7475793697
 30
0.0
 10
8.6046125962
 20
6.7413443735
 30
0.0
 10
8.6214984175
 20
6.7338873699
 30
0.0
 10
8.6378087601
 20
6.725243942
 30
0.0
 10
8.6534604102
 20
6.7154582449
 30
0.0
 10
8.6683701512
 20
6.7045758999
 30
0.0
 10
8.6824680411
 20
6.6926604275
 30
0.0
 10
8.6956832399
 20
6.679774194
 30
0.0
 10
8.7038600697
 20
6.6705751138
 30
0.0
 10
8.7077763975
 20
6.6658363024
 30
0.0
  0
SPLINE
  5
352
100
AcDbEntity
  8
0
100
AcDbSpline
 62
7
  6
CONTINUOUS
 70
0
 71
3
 72
11
 73
7
 74
0
 42
0.0000001
 43
0.0000001
 44
0.0000000001
 40
0.0
 40
0.0
 40
0.0
 40
0.0
 40
0.2809268524
 40
0.5136599264
 40
0.7464039295
 40
1.0
 40
1.0
 40
1.0
 40
1.0
 10
7.1180263975
 20
6.5250863024
 30
0.0
 10
7.1180267986
 20
6.5131929735
 30
0.0
 10
7.111227682
 20
6.4914466955
 30
0.0
 10
7.0786929188
 20
6.4789388553
 30
0.0
 10
7.0472444309
 20
6.4909722536
 30
0.0
 10
7.0402526102
 20
6.510956989
 30
0.0
 10
7.0396252006
 20
6.5216850717
 30
0.0
  0
SPLINE
  5
353
100
AcDbEntity
  8
0
100
AcDbSpline
 62
7
  6
CONTINUOUS
 70
0
 71
3
 72
11
 73
7
 74
0
 42
0.0000001
 43
0.0000001
 44
0.0000000001
 40
0.0
 40
0.0
 40
0.0
 40
0.0
 40
0.2895273334
 40
0.4992134133
 40
0.7088994931
 40
1.0
 40
1.0
 40
1.0
 40
1.0
 10
7.0576763975
 20
6.5250863024
 30
0.0
 10
7.0576763975
 20
6.5167244211
 30
0.0
 10
7.0589836437
 20
6.5023065655
 30
0.0
 10
7.0787134868
 20
6.491693223
 30
0.0
 10
7.0982357772
 20
6.5023555192
 30
0.0
 10
7.1001763975
 20
6.5167303858
 30
0.0
 10
7.1001763975
 20
6.5250863024
 30
0.0
  0
SPLINE
  5
354
100
AcDbEntity
  8
0
100
AcDbSpline
 62
7
  6
CONTINUOUS
 70
0
 71
3
 72
11
 73
7
 74
0
 42
0.0000001
 43
0.0000001
 44
0.0000000001
 40
0.0
 40
0.0
 40
0.0
 40
0.0
 40
0.2911005069
 40
0.5007865867
 40
0.7104726666
 40
1.0
 40
1.0
 40
1.0
 40
1.0
 10
7.1001763975
 20
6.5250863024
 30
0.0
 10
7.1001763975
 20
6.533442219
 30
0.0
 10
7.0982357772
 20
6.5478170857
 30
0.0
 10
7.0787134868
 20
6.5584793818
 30
0.0
 10
7.0589836437
 20
6.5478660393
 30
0.0
 10
7.0576763975
 20
6.5334481837
 30
0.0
 10
7.0576763975
 20
6.5250863024
 30
0.0
  0
SPLINE
  5
355
100
AcDbEntity
  8
0
100
AcDbSpline
 62
7
  6
CONTINUOUS
 70
0
 71
3
 72
11
 73
7
 74
0
 42
0.0000001
 43
0.0000001
 44
0.0000000001
 40
0.0
 40
0.0
 40
0.0
 40
0.0
 40
0.2752479966
 40
0.5037331987
 40
0.7322700967
 40
1.0
 40
1.0
 40
1.0
 40
1.0
 10
7.0395263975
 20
6.5250863024
 30
0.0
 10
7.0395260288
 20
6.5369816764
 30
0.0
 10
7.0460721971
 20
6.5587514693
 30
0.0
 10
7.0786981344
 20
6.5712337157
 30
0.0
 10
7.1108658066
 20
6.5588655172
 30
0.0
 10
7.1178037491
 20
6.5376741052
 30
0.0
 10
7.1180167355
 20
6.5261329857
 30
0.0
  0
SPLINE
  5
356
100
AcDbEntity
  8
0
100
AcDbSpline
 62
7
  6
CONTINUOUS
 70
0
 71
3
 72
11
 73
7
 74
0
 42
0.0000001
 43
0.0000001
 44
0.0000000001
 40
0.0
 40
0.0
 40
0.0
 40
0.0
 40
0.2730385444
 40
0.4996896654
 40
0.7263920674
 40
1.0
 40
1.0
 40
1.0
 40
1.0
 10
3.0795263975
 20
6.5250863024
 30
0.0
 10
3.0795260288
 20
6.5369816764
 30
0.0
 10
3.0860721971
 20
6.5587514693
 30
0.0
 10
3.1186981344
 20
6.5712337157
 30
0.0
 10
3.151224969
 20
6.5587274222
 30
0.0
 10
3.1580259964
 20
6.5369796314
 30
0.0
 10
3.1580263975
 20
6.5250863024
 30
0.0
  0
SPLINE
  5
357
100
AcDbEntity
  8
0
100
AcDbSpline
 62
7
  6
CONTINUOUS
 70
0
 71
3
 72
11
 73
7
 74
0
 42
0.0000001
 43
0.0000001
 44
0.0000000001
 40
0.0
 40
0.0
 40
0.0
 40
0.0
 40
0.2736088651
 40
0.5002793729
 40
0.726960525
 40
1.0
 40
1.0
 40
1.0
 40
1.0
 10
3.1580263975
 20
6.5250863024
 30
0.0
 10
3.1580267986
 20
6.5131929735
 30
0.0
 10
3.151227682
 20
6.4914466955
 30
0.0
 10
3.1186929188
 20
6.4789388553
 30
0.0
 10
3.086074694
 20
6.4914198398
 30
0.0
 10
3.0795267662
 20
6.5131909284
 30
0.0
 10
3.0795263975
 20
6.5250863024
 30
0.0
  0
SPLINE
  5
358
100
AcDbEntity
  8
0
100
AcDbSpline
 62
7
  6
CONTINUOUS
 70
0
 71
3
 72
11
 73
7
 74
0
 42
0.0000001
 43
0.0000001
 44
0.0000000001
 40
0.0
 40
0.0
 40
0.0
 40
0.0
 40
0.2911005069
 40
0.5007865867
 40
0.7104726666
 40
1.0
 40
1.0
 40
1.0
 40
1.0
 10
3.1401763975
 20
6.5250863024
 30
0.0
 10
3.1401763975
 20
6.533442219
 30
0.0
 10
3.1382357772
 20
6.5478170857
 30
0.0
 10
3.1187134868
 20
6.5584793818
 30
0.0
 10
3.0989836437
 20
6.5478660393
 30
0.0
 10
3.0976763975
 20
6.5334481837
 30
0.0
 10
3.0976763975
 20
6.5250863024
 30
0.0
  0
SPLINE
  5
359
100
AcDbEntity
  8
0
100
AcDbSpline
 62
7
  6
CONTINUOUS
 70
0
 71
3
 72
11
 73
7
 74
0
 42
0.0000001
 43
0.0000001
 44
0.0000000001
 40
0.0
 40
0.0
 40
0.0
 40
0.0
 40
0.2895273334
 40
0.4992134133
 40
0.7088994931
 40
1.0
 40
1.0
 40
1.0
 40
1.0
 10
3.0976763975
 20
6.5250863024
 30
0.0
 10
3.0976763975
 20
6.5167244211
 30
0.0
 10
3.0989836437
 20
6.5023065655
 30
0.0
 10
3.1187134868
 20
6.491693223
 30
0.0
 10
3.1382357772
 20
6.5023555192
 30
0.0
 10
3.1401763975
 20
6.5167303858
 30
0.0
 10
3.1401763975
 20
6.5250863024
 30
0.0
  0
SPLINE
  5
35A
100
AcDbEntity
  8
0
100
AcDbSpline
 62
7
  6
CONTINUOUS
 70
0
 71
3
 72
90
 73
86
 74
0
 42
0.0000001
 43
0.0000001
 44
0.0000000001
 40
0.0
 40
0.0
 40
0.0
 40
0.0
 40
0.0625016007
 40
0.1250032042
 40
0.1875048037
 40
0.2500064069
 40
0.3125080124
 40
0.3437593587
 40
0.3750107045
 40
0.4062620508
 40
0.4375133975
 40
0.4687647439
 40
0.5000160901
 40
0.5312674366
 40
0.5625187831
 40
0.5781445245
 40
0.5937702658
 40
0.609396007
 40
0.625021748
 40
0.6406474893
 40
0.6562732312
 40
0.6640861106
 40
0.6718989894
 40
0.6797118675
 40
0.687524746
 40
0.6953376263
 40
0.7031505078
 40
0.7109633815
 40
0.7148698193
 40
0.7187762641
 40
0.722682715
 40
0.7265891344
 40
0.72854234
 40
0.7304955744
 40
0.7324488559
 40
0.7344021273
 40
0.7353787298
 40
0.7363552964
 40
0.7373318211
 40
0.7383083517
 40
0.7392849976
 40
0.7397734095
 40
0.7402618954
 40
0.7407503939
 40
0.7412388267
 40
0.7417271365
 40
0.7422153109
 40
0.7427034058
 40
0.7431915549
 40
0.7441682236
 40
0.7446566266
 40
0.7451449754
 40
0.7461215762
 40
0.7470981644
 40
0.7480747689
 40
0.7490513789
 40
0.7500279866
 40
0.7519811885
 40
0.7539343964
 40
0.755887619
 40
0.757840853
 40
0.7597940852
 40
0.7617473055
 40
0.7656536801
 40
0.7695600556
 40
0.7734664501
 40
0.7773728473
 40
0.7812792387
 40
0.789091698
 40
0.7969041589
 40
0.8047166288
 40
0.8125290957
 40
0.820341562
 40
0.8281540292
 40
0.8437764722
 40
0.8593989459
 40
0.8750212986
 40
0.8906436808
 40
0.9062662147
 40
0.9218888249
 40
0.9375110545
 40
0.9531331266
 40
0.9687554921
 40
0.9843778145
 40
1.0
 40
1.0
 40
1.0
 40
1.0
 10
2.6757763975
 20
6.6658363024
 30
0.0
 10
2.6512063449
 20
6.664711702
 30
0.0
 10
2.6020376927
 20
6.6630428559
 30
0.0
 10
2.5282477889
 20
6.6622813274
 30
0.0
 10
2.4544599797
 20
6.6632618125
 30
0.0
 10
2.380716229
 20
6.6659845803
 30
0.0
 10
2.3193329057
 20
6.6697039031
 30
0.0
 10
2.2702904267
 20
6.6735481611
 30
0.0
 10
2.2335446489
 20
6.6768654182
 30
0.0
 10
2.1968406534
 20
6.6806163057
 30
0.0
 10
2.1601834814
 20
6.6848002359
 30
0.0
 10
2.123578264
 20
6.6894166405
 30
0.0
 10
2.0870300963
 20
6.6944649231
 30
0.0
 10
2.0505440977
 20
6.6999443049
 30
0.0
 10
2.0201950147
 20
6.7048691014
 30
0.0
 10
1.9959520562
 20
6.7090237012
 30
0.0
 10
1.9777884841
 20
6.7122469402
 30
0.0
 10
1.9596442631
 20
6.7155773472
 30
0.0
 10
1.9415200157
 20
6.7190148055
 30
0.0
 10
1.9234163779
 20
6.7225591857
 30
0.0
 10
1.9083476952
 20
6.7256018304
 30
0.0
 10
1.8963037027
 20
6.7280892847
 30
0.0
 10
1.8872762489
 20
6.7299815409
 30
0.0
 10
1.8782544254
 20
6.731900456
 30
0.0
 10
1.869238302
 20
6.7338459809
 30
0.0
 10
1.8602279529
 20
6.7358180809
 30
0.0
 10
1.8512234387
 20
6.737816645
 30
0.0
 10
1.8437246868
 20
6.7395045292
 30
0.0
 10
1.8377286991
 20
6.7408681241
 30
0.0
 10
1.8332331817
 20
6.741897306
 30
0.0
 10
1.8287390524
 20
6.7429325025
 30
0.0
 10
1.8249955117
 20
6.7438019099
 30
0.0
 10
1.8220015379
 20
6.7445011133
 30
0.0
 10
1.8197561969
 20
6.7450262448
 30
0.0
 10
1.8175107105
 20
6.7455508674
 30
0.0
 10
1.8156398025
 20
6.7459894698
 30
0.0
 10
1.8141437503
 20
6.7463430696
 30
0.0
 10
1.8130221531
 20
6.7466099029
 30
0.0
 10
1.8119011889
 20
6.7468792606
 30
0.0
 10
1.8107803643
 20
6.7471493283
 30
0.0
 10
1.8098454629
 20
6.7473710139
 30
0.0
 10
1.8090964733
 20
6.7475442636
 30
0.0
 10
1.8085340506
 20
6.7476716432
 30
0.0
 10
1.8079715594
 20
6.7477987524
 30
0.0
 10
1.8074095847
 20
6.74792783
 30
0.0
 10
1.8068487228
 20
6.7480611355
 30
0.0
 10
1.8062895627
 20
6.7482008949
 30
0.0
 10
1.805732724
 20
6.7483494509
 30
0.0
 10
1.8049940882
 20
6.7485617968
 30
0.0
 10
1.8042593832
 20
6.748787735
 30
0.0
 10
1.8035244192
 20
6.7490130072
 30
0.0
 10
1.8027878477
 20
6.7492329077
 30
0.0
 10
1.8018647099
 20
6.7494993272
 30
0.0
 10
1.8007552151
 20
6.7498128411
 30
0.0
 10
1.7996449959
 20
6.7501237983
 30
0.0
 10
1.7985336782
 20
6.7504308396
 30
0.0
 10
1.7970503682
 20
6.750834548
 30
0.0
 10
1.795192791
 20
6.7513264662
 30
0.0
 10
1.7929581433
 20
6.7518953794
 30
0.0
 10
1.7907183314
 20
6.7524436562
 30
0.0
 10
1.7884736342
 20
6.7529716089
 30
0.0
 10
1.7862243679
 20
6.7534797423
 30
0.0
 10
1.7832195695
 20
6.7541309483
 30
0.0
 10
1.7794529661
 20
6.7548951644
 30
0.0
 10
1.7749173766
 20
6.7557311431
 30
0.0
 10
1.770367521
 20
6.7564856913
 30
0.0
 10
1.7658049026
 20
6.7571589002
 30
0.0
 10
1.7597065706
 20
6.7579478223
 30
0.0
 10
1.7520586545
 20
6.7587298077
 30
0.0
 10
1.7428537924
 20
6.7593397552
 30
0.0
 10
1.7336329517
 20
6.7596207013
 30
0.0
 10
1.7244080057
 20
6.7595721967
 30
0.0
 10
1.7151905476
 20
6.7591944246
 30
0.0
 10
1.702927991
 20
6.7582525321
 30
0.0
 10
1.687674057
 20
6.756254512
 30
0.0
 10
1.6695895856
 20
6.7525569838
 30
0.0
 10
1.6518142734
 20
6.7475793697
 30
0.0
 10
1.6344401988
 20
6.7413443735
 30
0.0
 10
1.6175543775
 20
6.7338873699
 30
0.0
 10
1.6012440349
 20
6.725243942
 30
0.0
 10
1.5855923849
 20
6.7154582449
 30
0.0
 10
1.5706826438
 20
6.7045758999
 30
0.0
 10
1.5565847539
 20
6.6926604275
 30
0.0
 10
1.5433695551
 20
6.679774194
 30
0.0
 10
1.5351927253
 20
6.6705751138
 30
0.0
 10
1.5312763975
 20
6.6658363024
 30
0.0
  0
SPLINE
  5
35B
100
AcDbEntity
  8
0
100
AcDbSpline
 62
7
  6
CONTINUOUS
 70
0
 71
3
 72
90
 73
86
 74
0
 42
0.0000001
 43
0.0000001
 44
0.0000000001
 40
0.0
 40
0.0
 40
0.0
 40
0.0
 40
0.0625016007
 40
0.1250032042
 40
0.1875048037
 40
0.2500064069
 40
0.3125080124
 40
0.3437593587
 40
0.3750107045
 40
0.4062620508
 40
0.4375133975
 40
0.4687647439
 40
0.5000160901
 40
0.5312674366
 40
0.5625187831
 40
0.5781445245
 40
0.5937702658
 40
0.609396007
 40
0.625021748
 40
0.6406474893
 40
0.6562732312
 40
0.6640861106
 40
0.6718989894
 40
0.6797118675
 40
0.687524746
 40
0.6953376263
 40
0.7031505078
 40
0.7109633815
 40
0.7148698193
 40
0.7187762641
 40
0.722682715
 40
0.7265891344
 40
0.72854234
 40
0.7304955744
 40
0.7324488559
 40
0.7344021273
 40
0.7353787298
 40
0.7363552964
 40
0.7373318211
 40
0.7383083517
 40
0.7392849976
 40
0.7397734095
 40
0.7402618954
 40
0.7407503939
 40
0.7412388267
 40
0.7417271365
 40
0.7422153109
 40
0.7427034058
 40
0.7431915549
 40
0.7441682236
 40
0.7446566266
 40
0.7451449754
 40
0.7461215762
 40
0.7470981644
 40
0.7480747689
 40
0.7490513789
 40
0.7500279866
 40
0.7519811885
 40
0.7539343964
 40
0.755887619
 40
0.757840853
 40
0.7597940852
 40
0.7617473055
 40
0.7656536801
 40
0.7695600556
 40
0.7734664501
 40
0.7773728473
 40
0.7812792387
 40
0.789091698
 40
0.7969041589
 40
0.8047166288
 40
0.8125290957
 40
0.820341562
 40
0.8281540292
 40
0.8437764722
 40
0.8593989459
 40
0.8750212986
 40
0.8906436808
 40
0.9062662147
 40
0.9218888249
 40
0.9375110545
 40
0.9531331266
 40
0.9687554921
 40
0.9843778145
 40
1.0
 40
1.0
 40
1.0
 40
1.0
 10
2.6757763975
 20
6.3843363024
 30
0.0
 10
2.6512063449
 20
6.3854609028
 30
0.0
 10
2.6020376927
 20
6.3871297489
 30
0.0
 10
2.5282477889
 20
6.3878912775
 30
0.0
 10
2.4544599797
 20
6.3869107923
 30
0.0
 10
2.380716229
 20
6.3841880245
 30
0.0
 10
2.3193329057
 20
6.3804687018
 30
0.0
 10
2.2702904267
 20
6.3766244438
 30
0.0
 10
2.2335446489
 20
6.3733071866
 30
0.0
 10
2.1968406534
 20
6.3695562991
 30
0.0
 10
2.1601834814
 20
6.3653723689
 30
0.0
 10
2.123578264
 20
6.3607559644
 30
0.0
 10
2.0870300963
 20
6.3557076817
 30
0.0
 10
2.0505440977
 20
6.3502282999
 30
0.0
 10
2.0201950147
 20
6.3453035035
 30
0.0
 10
1.9959520562
 20
6.3411489037
 30
0.0
 10
1.9777884841
 20
6.3379256646
 30
0.0
 10
1.9596442631
 20
6.3345952576
 30
0.0
 10
1.9415200157
 20
6.3311577993
 30
0.0
 10
1.9234163779
 20
6.3276134192
 30
0.0
 10
1.9083476952
 20
6.3245707744
 30
0.0
 10
1.8963037027
 20
6.3220833201
 30
0.0
 10
1.8872762489
 20
6.3201910639
 30
0.0
 10
1.8782544254
 20
6.3182721488
 30
0.0
 10
1.869238302
 20
6.316326624
 30
0.0
 10
1.8602279529
 20
6.3143545239
 30
0.0
 10
1.8512234387
 20
6.3123559599
 30
0.0
 10
1.8437246868
 20
6.3106680756
 30
0.0
 10
1.8377286991
 20
6.3093044807
 30
0.0
 10
1.8332331817
 20
6.3082752988
 30
0.0
 10
1.8287390524
 20
6.3072401023
 30
0.0
 10
1.8249955117
 20
6.3063706949
 30
0.0
 10
1.8220015379
 20
6.3056714915
 30
0.0
 10
1.8197561969
 20
6.30514636
 30
0.0
 10
1.8175107105
 20
6.3046217374
 30
0.0
 10
1.8156398025
 20
6.304183135
 30
0.0
 10
1.8141437503
 20
6.3038295352
 30
0.0
 10
1.8130221531
 20
6.303562702
 30
0.0
 10
1.8119011889
 20
6.3032933442
 30
0.0
 10
1.8107803643
 20
6.3030232766
 30
0.0
 10
1.8098454629
 20
6.3028015909
 30
0.0
 10
1.8090964733
 20
6.3026283412
 30
0.0
 10
1.8085340506
 20
6.3025009616
 30
0.0
 10
1.8079715594
 20
6.3023738524
 30
0.0
 10
1.8074095847
 20
6.3022447748
 30
0.0
 10
1.8068487228
 20
6.3021114694
 30
0.0
 10
1.8062895627
 20
6.3019717099
 30
0.0
 10
1.805732724
 20
6.3018231539
 30
0.0
 10
1.8049940882
 20
6.3016108081
 30
0.0
 10
1.8042593832
 20
6.3013848698
 30
0.0
 10
1.8035244192
 20
6.3011595976
 30
0.0
 10
1.8027878477
 20
6.3009396971
 30
0.0
 10
1.8018647099
 20
6.3006732777
 30
0.0
 10
1.8007552151
 20
6.3003597637
 30
0.0
 10
1.7996449959
 20
6.3000488065
 30
0.0
 10
1.7985336782
 20
6.2997417652
 30
0.0
 10
1.7970503682
 20
6.2993380568
 30
0.0
 10
1.795192791
 20
6.2988461386
 30
0.0
 10
1.7929581433
 20
6.2982772255
 30
0.0
 10
1.7907183314
 20
6.2977289486
 30
0.0
 10
1.7884736342
 20
6.2972009959
 30
0.0
 10
1.7862243679
 20
6.2966928625
 30
0.0
 10
1.7832195695
 20
6.2960416565
 30
0.0
 10
1.7794529661
 20
6.2952774404
 30
0.0
 10
1.7749173766
 20
6.2944414618
 30
0.0
 10
1.770367521
 20
6.2936869135
 30
0.0
 10
1.7658049026
 20
6.2930137046
 30
0.0
 10
1.7597065706
 20
6.2922247825
 30
0.0
 10
1.7520586545
 20
6.2914427971
 30
0.0
 10
1.7428537924
 20
6.2908328496
 30
0.0
 10
1.7336329517
 20
6.2905519036
 30
0.0
 10
1.7244080057
 20
6.2906004081
 30
0.0
 10
1.7151905476
 20
6.2909781802
 30
0.0
 10
1.702927991
 20
6.2919200727
 30
0.0
 10
1.687674057
 20
6.2939180928
 30
0.0
 10
1.6695895856
 20
6.2976156211
 30
0.0
 10
1.6518142734
 20
6.3025932351
 30
0.0
 10
1.6344401988
 20
6.3088282313
 30
0.0
 10
1.6175543775
 20
6.3162852349
 30
0.0
 10
1.6012440349
 20
6.3249286628
 30
0.0
 10
1.5855923849
 20
6.3347143599
 30
0.0
 10
1.5706826438
 20
6.345596705
 30
0.0
 10
1.5565847539
 20
6.3575121773
 30
0.0
 10
1.5433695551
 20
6.3703984109
 30
0.0
 10
1.5351927253
 20
6.379597491
 30
0.0
 10
1.5312763975
 20
6.3843363024
 30
0.0
  0
SPLINE
  5
35C
100
AcDbEntity
  8
0
100
AcDbSpline
 62
7
  6
CONTINUOUS
 70
0
 71
3
 72
44
 73
40
 74
0
 42
0.0000001
 43
0.0000001
 44
0.0000000001
 40
0.0
 40
0.0
 40
0.0
 40
0.0
 40
0.0000172284
 40
0.0000689141
 40
0.0001550491
 40
0.0002756253
 40
0.0004306347
 40
0.0006200695
 40
0.0011021826
 40
0.0017219006
 40
0.0024791595
 40
0.0033738951
 40
0.0044060435
 40
0.0055755405
 40
0.006882316
 40
0.0099070898
 40
0.0134789088
 40
0.017596268
 40
0.0222576631
 40
0.0274615378
 40
0.0332057866
 40
0.0394879746
 40
0.0536564145
 40
0.0699461409
 40
0.0883318701
 40
0.1087869381
 40
0.1312811585
 40
0.1557821569
 40
0.1822555296
 40
0.210663875
 40
0.2731287503
 40
0.3428420569
 40
0.4194405797
 40
0.5025347553
 40
0.5917093536
 40
0.6865236665
 40
0.7865108909
 40
0.891176941
 40
1.0
 40
1.0
 40
1.0
 40
1.0
 10
6.7636322985
 20
6.7076770752
 30
0.0
 10
6.7636325646
 20
6.7076776429
 30
0.0
 10
6.7636314223
 20
6.7076722563
 30
0.0
 10
6.7636315374
 20
6.7076694557
 30
0.0
 10
6.7636299255
 20
6.707658527
 30
0.0
 10
6.7636285164
 20
6.7076461681
 30
0.0
 10
6.7636263655
 20
6.7076290994
 30
0.0
 10
6.763622721
 20
6.7075993763
 30
0.0
 10
6.7636169469
 20
6.707552653
 30
0.0
 10
6.7636086847
 20
6.707485543
 30
0.0
 10
6.7635985778
 20
6.7074034783
 30
0.0
 10
6.7635866492
 20
6.7073065344
 30
0.0
 10
6.7635728949
 20
6.7071946936
 30
0.0
 10
6.7635573206
 20
6.7070679711
 30
0.0
 10
6.7635329148
 20
6.7068692731
 30
0.0
 10
6.763497894
 20
6.7065837983
 30
0.0
 10
6.7634505238
 20
6.7061967904
 30
0.0
 10
6.7633960577
 20
6.7057506476
 30
0.0
 10
6.7633345688
 20
6.7052455283
 30
0.0
 10
6.76326613
 20
6.7046816133
 30
0.0
 10
6.7631908449
 20
6.7040591133
 30
0.0
 10
6.7630768391
 20
6.7031126857
 30
0.0
 10
6.762918001
 20
6.7017851193
 30
0.0
 10
6.7627088683
 20
6.7000199648
 30
0.0
 10
6.7624755089
 20
6.6980273025
 30
0.0
 10
6.762219165
 20
6.6958100007
 30
0.0
 10
6.7619412754
 20
6.6933711671
 30
0.0
 10
6.7616433579
 20
6.6907141876
 30
0.0
 10
6.7613270068
 20
6.6878427076
 30
0.0
 10
6.7608682195
 20
6.6835970093
 30
0.0
 10
6.760260306
 20
6.6777847153
 30
0.0
 10
6.7595074854
 20
6.6702243846
 30
0.0
 10
6.7587256321
 20
6.6619126156
 30
0.0
 10
6.7579308549
 20
6.6528908593
 30
0.0
 10
6.7571394002
 20
6.6432035279
 30
0.0
 10
6.7563673823
 20
6.6328980208
 30
0.0
 10
6.7556305079
 20
6.6220248058
 30
0.0
 10
6.7549438034
 20
6.610637533
 30
0.0
 10
6.7545360785
 20
6.6028789669
 30
0.0
 10
6.7543437741
 20
6.5989234106
 30
0.0
  0
SPLINE
  5
35D
100
AcDbEntity
  8
0
100
AcDbSpline
 62
7
  6
CONTINUOUS
 70
0
 71
3
 72
44
 73
40
 74
0
 42
0.0000001
 43
0.0000001
 44
0.0000000001
 40
0.0
 40
0.0
 40
0.0
 40
0.0
 40
0.1088230571
 40
0.2134891069
 40
0.3134763295
 40
0.4082906397
 40
0.4974652379
 40
0.580559415
 40
0.6571579385
 40
0.7268712459
 40
0.7893361218
 40
0.8177444675
 40
0.8442178406
 40
0.8687188393
 40
0.8912130598
 40
0.9116681282
 40
0.9300538575
 40
0.9463435842
 40
0.9605120243
 40
0.9667942123
 40
0.9725384612
 40
0.9777423363
 40
0.9824037315
 40
0.9865210907
 40
0.9900929097
 40
0.9931176837
 40
0.9944244594
 40
0.9955939565
 40
0.9966261049
 40
0.9975208405
 40
0.9982780993
 40
0.9988978173
 40
0.9993799303
 40
0.999569365
 40
0.9997243745
 40
0.9998449508
 40
0.9999310857
 40
0.9999827715
 40
1.0
 40
1.0
 40
1.0
 40
1.0
 10
6.7543437739
 20
6.4512491982
 30
0.0
 10
6.7545360783
 20
6.4472936418
 30
0.0
 10
6.7549438032
 20
6.4395350755
 30
0.0
 10
6.7556305077
 20
6.4281478024
 30
0.0
 10
6.7563673821
 20
6.4172745872
 30
0.0
 10
6.7571394
 20
6.40696908
 30
0.0
 10
6.7579308547
 20
6.3972817482
 30
0.0
 10
6.7587256319
 20
6.3882599915
 30
0.0
 10
6.7595074852
 20
6.3799482221
 30
0.0
 10
6.7602603059
 20
6.372387891
 30
0.0
 10
6.7608682194
 20
6.3665755967
 30
0.0
 10
6.7613270067
 20
6.3623298982
 30
0.0
 10
6.7616433578
 20
6.3594584181
 30
0.0
 10
6.7619412753
 20
6.3568014385
 30
0.0
 10
6.762219165
 20
6.3543626047
 30
0.0
 10
6.7624755089
 20
6.3521453028
 30
0.0
 10
6.7627088682
 20
6.3501526405
 30
0.0
 10
6.7629180009
 20
6.3483874858
 30
0.0
 10
6.7630768391
 20
6.3470599194
 30
0.0
 10
6.7631908449
 20
6.3461134918
 30
0.0
 10
6.7632661299
 20
6.3454909918
 30
0.0
 10
6.7633345688
 20
6.3449270766
 30
0.0
 10
6.7633960576
 20
6.3444219573
 30
0.0
 10
6.7634505238
 20
6.3439758145
 30
0.0
 10
6.763497894
 20
6.3435888066
 30
0.0
 10
6.7635329148
 20
6.3433033318
 30
0.0
 10
6.7635573206
 20
6.3431046338
 30
0.0
 10
6.7635728949
 20
6.3429779113
 30
0.0
 10
6.7635866492
 20
6.3428660705
 30
0.0
 10
6.7635985778
 20
6.3427691265
 30
0.0
 10
6.7636086847
 20
6.3426870618
 30
0.0
 10
6.7636169468
 20
6.3426199519
 30
0.0
 10
6.763622721
 20
6.3425732285
 30
0.0
 10
6.7636263655
 20
6.3425435054
 30
0.0
 10
6.7636285164
 20
6.3425264367
 30
0.0
 10
6.7636299254
 20
6.3425140778
 30
0.0
 10
6.7636315375
 20
6.3425031491
 30
0.0
 10
6.7636314222
 20
6.3425003485
 30
0.0
 10
6.7636325647
 20
6.3424949619
 30
0.0
 10
6.7636322985
 20
6.3424955296
 30
0.0
  0
SPLINE
  5
35E
100
AcDbEntity
  8
0
100
AcDbSpline
 62
7
  6
CONTINUOUS
 70
0
 71
3
 72
44
 73
40
 74
0
 42
0.0000001
 43
0.0000001
 44
0.0000000001
 40
0.0
 40
0.0
 40
0.0
 40
0.0
 40
0.0000172313
 40
0.0000689166
 40
0.0001550484
 40
0.0002756193
 40
0.0004306219
 40
0.0006200487
 40
0.0011021452
 40
0.0017218493
 40
0.0024791015
 40
0.0033738424
 40
0.0044060124
 40
0.0055755519
 40
0.0068823649
 40
0.0099071272
 40
0.0134788867
 40
0.017596222
 40
0.0222577107
 40
0.0274616727
 40
0.0332058658
 40
0.039487974
 40
0.0536566065
 40
0.0699462573
 40
0.0883320297
 40
0.1087872101
 40
0.1312813137
 40
0.1557825696
 40
0.182255747
 40
0.2106643512
 40
0.2731292429
 40
0.34284255
 40
0.4194411017
 40
0.5025353227
 40
0.5917099534
 40
0.6865241922
 40
0.7865112849
 40
0.891177269
 40
1.0
 40
1.0
 40
1.0
 40
1.0
 10
3.4754204965
 20
6.3424955296
 30
0.0
 10
3.4754207621
 20
6.3424960977
 30
0.0
 10
3.4754206101
 20
6.342498719
 30
0.0
 10
3.4754217453
 20
6.3425041915
 30
0.0
 10
3.4754226443
 20
6.342513597
 30
0.0
 10
3.4754243682
 20
6.3425266292
 30
0.0
 10
3.4754263968
 20
6.3425434371
 30
0.0
 10
3.4754300992
 20
6.3425732847
 30
0.0
 10
3.4754358346
 20
6.3426199272
 30
0.0
 10
3.4754441131
 20
6.3426870742
 30
0.0
 10
3.475454214
 20
6.3427691289
 30
0.0
 10
3.4754661454
 20
6.342866082
 30
0.0
 10
3.4754799004
 20
6.3429779284
 30
0.0
 10
3.4754954777
 20
6.3431046601
 30
0.0
 10
3.4755198866
 20
6.3433033683
 30
0.0
 10
3.4755549072
 20
6.343588854
 30
0.0
 10
3.4756022762
 20
6.3439758748
 30
0.0
 10
3.4756567428
 20
6.3444220366
 30
0.0
 10
3.4757182388
 20
6.3449271819
 30
0.0
 10
3.4757866846
 20
6.3454911244
 30
0.0
 10
3.4758619689
 20
6.3461136488
 30
0.0
 10
3.4759759734
 20
6.3470601183
 30
0.0
 10
3.4761348306
 20
6.3483877394
 30
0.0
 10
3.4763439624
 20
6.3501529739
 30
0.0
 10
3.4765773327
 20
6.3521457212
 30
0.0
 10
3.4768336933
 20
6.3543631154
 30
0.0
 10
3.4771115811
 20
6.3568020606
 30
0.0
 10
3.4774095266
 20
6.3594591461
 30
0.0
 10
3.4777258742
 20
6.3623307583
 30
0.0
 10
3.4781846944
 20
6.3665766335
 30
0.0
 10
3.4787926175
 20
6.3723891794
 30
0.0
 10
3.4795454651
 20
6.3799498246
 30
0.0
 10
3.480327341
 20
6.3882619407
 30
0.0
 10
3.4811221407
 20
6.3972840746
 30
0.0
 10
3.4819136122
 20
6.4069718078
 30
0.0
 10
3.482685641
 20
6.4172777359
 30
0.0
 10
3.4834225183
 20
6.4281513922
 30
0.0
 10
3.4841092186
 20
6.4395391183
 30
0.0
 10
3.4845169351
 20
6.447297992
 30
0.0
 10
3.484709236
 20
6.4512537004
 30
0.0
  0
SPLINE
  5
35F
100
AcDbEntity
  8
0
100
AcDbSpline
 62
7
  6
CONTINUOUS
 70
0
 71
3
 72
44
 73
40
 74
0
 42
0.0000001
 43
0.0000001
 44
0.0000000001
 40
0.0
 40
0.0
 40
0.0
 40
0.0
 40
0.1088227222
 40
0.2134886971
 40
0.3134757858
 40
0.4082900346
 40
0.4974646758
 40
0.5805589133
 40
0.6571574864
 40
0.7268708142
 40
0.7893357165
 40
0.8177443202
 40
0.8442174955
 40
0.8687187461
 40
0.8912128422
 40
0.9116680148
 40
0.9300537779
 40
0.9463434213
 40
0.9605120453
 40
0.9667941507
 40
0.9725383412
 40
0.9777423003
 40
0.9824037859
 40
0.9865211194
 40
0.9900928777
 40
0.9931176387
 40
0.9944244508
 40
0.9955939893
 40
0.9966261586
 40
0.9975208991
 40
0.9982781512
 40
0.9988978553
 40
0.9993799517
 40
0.9995693785
 40
0.9997243811
 40
0.9998449519
 40
0.9999310837
 40
0.9999827689
 40
1.0
 40
1.0
 40
1.0
 40
1.0
 10
3.4847092209
 20
6.5989192122
 30
0.0
 10
3.4845169199
 20
6.602874909
 30
0.0
 10
3.484109203
 20
6.6106337601
 30
0.0
 10
3.4834225028
 20
6.6220214532
 30
0.0
 10
3.4826856259
 20
6.6328950785
 30
0.0
 10
3.481913598
 20
6.6432009781
 30
0.0
 10
3.4811221275
 20
6.6528886852
 30
0.0
 10
3.4803273291
 20
6.6619107953
 30
0.0
 10
3.4795454544
 20
6.67022289
 30
0.0
 10
3.4787926082
 20
6.6777835157
 30
0.0
 10
3.4781846864
 20
6.6835960463
 30
0.0
 10
3.4777258673
 20
6.6878419097
 30
0.0
 10
3.4774095205
 20
6.6907135136
 30
0.0
 10
3.4771115758
 20
6.693370591
 30
0.0
 10
3.4768336888
 20
6.6958095286
 30
0.0
 10
3.476577329
 20
6.6980269156
 30
0.0
 10
3.4763439595
 20
6.7000196564
 30
0.0
 10
3.4761348282
 20
6.701784885
 30
0.0
 10
3.4759759716
 20
6.7031125017
 30
0.0
 10
3.4758619674
 20
6.7040589681
 30
0.0
 10
3.4757866833
 20
6.7046814904
 30
0.0
 10
3.4757182378
 20
6.705245431
 30
0.0
 10
3.475656742
 20
6.7057505746
 30
0.0
 10
3.4756022756
 20
6.7061967349
 30
0.0
 10
3.4755549068
 20
6.7065837545
 30
0.0
 10
3.4755198862
 20
6.7068692392
 30
0.0
 10
3.4754954775
 20
6.7070679467
 30
0.0
 10
3.4754799003
 20
6.707194678
 30
0.0
 10
3.4754661452
 20
6.707306524
 30
0.0
 10
3.4754542139
 20
6.7074034767
 30
0.0
 10
3.475444113
 20
6.7074855312
 30
0.0
 10
3.4754358346
 20
6.7075526781
 30
0.0
 10
3.4754300991
 20
6.7075993204
 30
0.0
 10
3.4754263968
 20
6.7076291679
 30
0.0
 10
3.4754243682
 20
6.7076459757
 30
0.0
 10
3.4754226443
 20
6.707659008
 30
0.0
 10
3.4754217453
 20
6.7076684134
 30
0.0
 10
3.4754206101
 20
6.7076738858
 30
0.0
 10
3.4754207621
 20
6.7076765071
 30
0.0
 10
3.4754204965
 20
6.7076770752
 30
0.0
  0
ENDSEC
  0
SECTION
  2
OBJECTS
  0
DICTIONARY
  5
C
100
AcDbDictionary
280
0
281
1
  3
ACAD_GROUP
350
D
  3
ACAD_MLINESTYLE
350
17
  3
ACAD_LAYOUT
350
1A
  3
ACAD_PLOTSETTINGS
350
19
  3
ACAD_PLOTSTYLENAME
350
E
  0
DICTIONARY
  5
D
102
{ACAD_REACTORS
330
C
102
}
100
AcDbDictionary
280
0
281
1
  0
ACDBDICTIONARYWDFLT
  5
E
102
{ACAD_REACTORS
330
C
102
}
100
AcDbDictionary
281
1
  3
Normal
350
F
100
AcDbDictionaryWithDefault
340
F
  0
DICTIONARY
  5
17
102
{ACAD_REACTORS
330
C
102
}
100
AcDbDictionary
280
0
281
1
  3
Standard
350
18
  0
DICTIONARY
  5
19
102
{ACAD_REACTORS
330
C
102
}
100
AcDbDictionary
281
1
  0
DICTIONARY
  5
1A
102
{ACAD_REACTORS
330
C
102
}
100
AcDbDictionary
281
1
  3
Model
350
360
  3
Layout1
350
361
  0
ACDBPLACEHOLDER
  5
F
102
{ACAD_REACTORS
330
E
102
}
  0
MLINESTYLE
  5
18
102
{ACAD_REACTORS
330
17
102
}
100
AcDbMlineStyle
  2
STANDARD
 70
0
  3

 62
256
 51
90.0
 52
90.0
 71
2
 49
0.5
 62
256
  6
BYLAYER
 49
-0.5
 62
256
  6
BYLAYER
  0
LAYOUT
  5
360
102
{ACAD_REACTORS
330
1A
102
}
100
AcDbPlotSettings
  1

  2
none_device
  4
ANSI_A_(11.00_x_8.50_Inches)
  6

 40
0.0
 41
0.0
 42
0.0
 43
0.0
 44
279.4
 45
215.9
 46
0.0
 47
0.0
 48
0.0
 49
0.0
140
0.0
141
0.0
142
1.0
143
1.0
 70
1024
 72
0
 73
0
 74
0
  7

 75
0
147
1.0
148
0.0
149
0.0
100
AcDbLayout
  1
Model
 70
0
 71
0
 10
0.0
 20
0.0
 11
11.0
 21
8.5
 12
0.0
 22
0.0
 32
0.0
 14
0.0
 24
0.0
 34
0.0
 15
0.0
 25
0.0
 35
0.0
146
0.0
 13
0.0
 23
0.0
 33
0.0
 16
1.0
 26
0.0
 36
0.0
 17
0.0
 27
1.0
 37
0.0
 76
0
330
202
345
0
346
0
  0
LAYOUT
  5
361
102
{ACAD_REACTORS
330
1A
102
}
100
AcDbPlotSettings
  1

  2
none_device
  4
ANSI_A_(11.00_x_8.50_Inches)
  6

 40
0.0
 41
0.0
 42
0.0
 43
0.0
 44
279.4
 45
215.9
 46
0.0
 47
0.0
 48
0.0
 49
0.0
140
0.0
141
0.0
142
1.0
143
1.0
 70
0
 72
0
 73
0
 74
0
  7

 75
0
147
1.0
148
0.0
149
0.0
100
AcDbLayout
  1
Layout1
 70
0
 71
1
 10
0.0
 20
0.0
 11
11.0
 21
8.5
 12
0.0
 22
0.0
 32
0.0
 14
0.0
 24
0.0
 34
0.0
 15
0.0
 25
0.0
 35
0.0
146
0.0
 13
0.0
 23
0.0
 33
0.0
 16
1.0
 26
0.0
 36
0.0
 17
0.0
 27
1.0
 37
0.0
 76
0
330
203
345
0
346
0
  0
ENDSEC
  0
EOF
