999
DXF file: 945_right.dxf
999
Pro/ENGINEER 2018400 by Parametric Technology Corporation
  0
SECTION
  2
HEADER
  9
$ACADVER
  1
AC1027
  9
$DWGCODEPAGE
  3
ANSI_1252
  9
$EXTMAX
 10
11.0
 20
8.5
 30
0.0
  9
$EXTMIN
 10
0.0
 20
0.0
 30
0.0
  9
$LIMMIN
 10
0.0
 20
0.0
  9
$LIMMAX
 10
11.0
 20
8.5
  9
$VIEWCTR
 10
5.5
 20
4.25
  9
$VIEWSIZE
 40
8.5
  9
$CLAYER
  8
0
  9
$LTSCALE
 40
0.605
  9
$CELTYPE
  6
BYLAYER
  9
$DIMSCALE
 40
1.0
  9
$DIMASZ
 40
0.1
  9
$DIMEXO
 40
0.0625
  9
$DIMDLI
 40
0.418
  9
$DIMEXE
 40
0.125
  9
$DIMCEN
 40
0.099
  9
$DIMLFAC
 40
1.0
  9
$DIMBLK
  1
_FILLED
  9
$DIMALT
 70
1
  9
$DIMALTD
 70
1
  9
$DIMALTTD
 70
2
  9
$DIMALTF
 40
25.4
  9
$DIMTXT
 40
0.08
  9
$DIMTOL
 70
1
  9
$DIMLIM
 70
0
  9
$DIMTFAC
 40
1.0
  9
$DIMTP
 40
0.01
  9
$DIMTM
 40
0.01
  9
$DIMGAP
 40
0.09
  9
$DIMDSEP
 70
46
  9
$AUNITS
 70
0
  9
$PDMODE
 70
3
  9
$PDSIZE
 40
0.3125
  9
$HANDSEED
  5
4E6
  9
$TILEMODE
 70
1
  9
$MEASUREMENT
 70
0
  9
$INSUNITS
 70
1
  0
ENDSEC
  0
SECTION
  2
CLASSES
  0
CLASS
  1
ACDBDICTIONARYWDFLT
  2
AcDbDictionaryWithDefault
  3
AutoCAD 2000
 90
0
 91
1
280
0
281
0
  0
CLASS
  1
ACDBPLACEHOLDER
  2
AcDbPlaceHolder
  3
AutoCAD 2000
 90
0
 91
1
280
0
281
0
  0
CLASS
  1
LAYOUT
  2
AcDbLayout
  3
AutoCAD 2000
 90
0
 91
0
280
0
281
0
  0
ENDSEC
  0
SECTION
  2
TABLES
  0
TABLE
  2
VPORT
  5
8
100
AcDbSymbolTable
 70
2
  0
VPORT
  5
1F4
100
AcDbSymbolTableRecord
100
AcDbViewportTableRecord
  2
*ACTIVE
 70
0
 10
0.0
 20
0.0
 11
1.0
 21
1.0
 12
5.5
 22
4.25
 13
0.0
 23
0.0
 14
1.0
 24
1.0
 15
0.0
 25
0.0
 16
0.0
 26
0.0
 36
1.0
 17
0.0
 27
0.0
 37
0.0
 40
8.5
 41
1.2941176471
 42
50.0
 43
0.0
 44
0.0
 50
0.0
 51
0.0
 71
0
 72
100
 73
1
 74
1
 75
0
 76
0
 77
0
 78
0
  0
ENDTAB
  0
TABLE
  2
LTYPE
  5
5
100
AcDbSymbolTable
 70
6
  0
LTYPE
  5
14
100
AcDbSymbolTableRecord
100
AcDbLinetypeTableRecord
  2
BYBLOCK
 70
0
  3

 72
65
 73
0
 40
0.0
  0
LTYPE
  5
15
100
AcDbSymbolTableRecord
100
AcDbLinetypeTableRecord
  2
BYLAYER
 70
0
  3

 72
65
 73
0
 40
0.0
  0
LTYPE
  5
16
100
AcDbSymbolTableRecord
100
AcDbLinetypeTableRecord
  2
CONTINUOUS
 70
64
  3
Solid line
 72
65
 73
0
 40
0.0
  0
LTYPE
  5
1F5
100
AcDbSymbolTableRecord
100
AcDbLinetypeTableRecord
  2
CENTER
 70
64
  3
____ _ ____ _ ____ _ ____ _ ____ _ ____ _ ____
 72
65
 73
4
 40
0.6
 49
0.375
 74
0
 49
-0.075
 74
0
 49
0.075
 74
0
 49
-0.075
 74
0
  0
LTYPE
  5
1F6
100
AcDbSymbolTableRecord
100
AcDbLinetypeTableRecord
  2
HIDDEN
 70
64
  3
- - - - - - - - - - - - - - - - - - - -
 72
65
 73
2
 40
0.2
 49
0.1
 74
0
 49
-0.1
 74
0
  0
LTYPE
  5
1F7
100
AcDbSymbolTableRecord
100
AcDbLinetypeTableRecord
  2
PHANTOM
 70
64
  3
_____ _ _ _____ _ _ _____ _ _ _____
 72
65
 73
6
 40
0.8
 49
0.45
 74
0
 49
-0.05
 74
0
 49
0.1
 74
0
 49
-0.05
 74
0
 49
0.1
 74
0
 49
-0.05
 74
0
  0
LTYPE
  5
1F8
100
AcDbSymbolTableRecord
100
AcDbLinetypeTableRecord
  2
DOT
 70
64
  3
. . . . . . . . . . . . . . . . . . . .
 72
65
 73
2
 40
0.2
 49
0.1
 74
0
 49
-0.1
 74
0
  0
LTYPE
  5
1F9
100
AcDbSymbolTableRecord
100
AcDbLinetypeTableRecord
  2
DASHED
 70
64
  3
- - - - - - - - - - - - - - - - - - - -
 72
65
 73
2
 40
0.2
 49
0.1
 74
0
 49
-0.1
 74
0
  0
ENDTAB
  0
TABLE
  2
LAYER
  5
2
100
AcDbSymbolTable
 70
36
  0
LAYER
  5
10
100
AcDbSymbolTableRecord
100
AcDbLayerTableRecord
  2
0
 70
0
 62
7
  6
CONTINUOUS
370
-3
390
F
  0
LAYER
  5
1FA
100
AcDbSymbolTableRecord
100
AcDbLayerTableRecord
  2
DEFAULT_1
 70
0
 62
7
  6
CENTER
370
-3
390
F
  0
LAYER
  5
1FB
100
AcDbSymbolTableRecord
100
AcDbLayerTableRecord
  2
DEFAULT_2
 70
0
 62
8
  6
HIDDEN
370
-3
390
F
  0
LAYER
  5
1FC
100
AcDbSymbolTableRecord
100
AcDbLayerTableRecord
  2
DEFAULT_3
 70
0
 62
7
  6
PHANTOM
370
-3
390
F
  0
LAYER
  5
1FD
100
AcDbSymbolTableRecord
100
AcDbLayerTableRecord
  2
DEFAULT_COORDINATE_SYSTEM
 70
0
 62
7
  6
CONTINUOUS
370
-3
390
F
  0
LAYER
  5
1FE
100
AcDbSymbolTableRecord
100
AcDbLayerTableRecord
  2
DEFAULT_DATUM_AXES
 70
0
 62
7
  6
CONTINUOUS
370
-3
390
F
  0
LAYER
  5
1FF
100
AcDbSymbolTableRecord
100
AcDbLayerTableRecord
  2
DEFAULT_DATUM_PLANES
 70
0
 62
7
  6
CONTINUOUS
370
-3
390
F
  0
ENDTAB
  0
TABLE
  2
STYLE
  5
3
100
AcDbSymbolTable
 70
1
  0
STYLE
  5
11
100
AcDbSymbolTableRecord
100
AcDbTextStyleTableRecord
  2
STANDARD
 70
0
 40
0.0
 41
0.8
 50
0.0
 71
0
 42
0.2
  3
txt
  4

  0
STYLE
  5
200
100
AcDbSymbolTableRecord
100
AcDbTextStyleTableRecord
  2
TEXTSTYLE_1
 70
0
 40
0.0
 41
0.8
 50
0.0
 71
0
 42
0.2
  3
gdt
  4

  0
ENDTAB
  0
TABLE
  2
VIEW
  5
6
100
AcDbSymbolTable
 70
0
  0
ENDTAB
  0
TABLE
  2
UCS
  5
7
100
AcDbSymbolTable
 70
0
  0
ENDTAB
  0
TABLE
  2
APPID
  5
9
100
AcDbSymbolTable
 70
1
  0
APPID
  5
201
100
AcDbSymbolTableRecord
100
AcDbRegAppTableRecord
  2
ACAD
 70
0
  0
ENDTAB
  0
TABLE
  2
BLOCK_RECORD
  5
1
100
AcDbSymbolTable
 70
0
  0
BLOCK_RECORD
  5
202
100
AcDbSymbolTableRecord
100
AcDbBlockTableRecord
  2
*Model_Space
  0
BLOCK_RECORD
  5
203
100
AcDbSymbolTableRecord
100
AcDbBlockTableRecord
  2
*Paper_Space
  0
BLOCK_RECORD
  5
204
100
AcDbSymbolTableRecord
100
AcDbBlockTableRecord
  2
_FILLED
  0
ENDTAB
  0
TABLE
  2
DIMSTYLE
  5
A
100
AcDbSymbolTable
 70
1
100
AcDbDimStyleTable
 71
0
  0
DIMSTYLE
105
205
100
AcDbSymbolTableRecord
100
AcDbDimStyleTableRecord
  2
STANDARD
 70
0
  3

  4

 40
1.0
 41
0.1
 42
0.0625
 43
0.38
 44
0.125
 45
0.0
 46
0.0
 47
0.01
 48
0.01
140
0.08
141
0.09
142
0.0
143
25.4
144
1.0
145
0.0
146
1.0
147
0.09
 71
1.0
 72
0.0
 73
1
 74
1
 75
0
 76
0
 77
0
 78
4
 79
1
170
1
171
1
172
0
173
0
174
0
175
0
176
0
177
0
178
0
270
2
179
2
271
2
272
2
273
2
274
2
275
0
280
0
281
0
282
0
283
1
284
4
285
0
286
0
287
3
288
0
340
11
278
46
341
204
342
204
343
204
344
204
  0
ENDTAB
  0
ENDSEC
  0
SECTION
  2
BLOCKS
  0
BLOCK
  5
20
100
AcDbEntity
  8
0
100
AcDbBlockBegin
  2
*Model_Space
 70
0
 10
0.0
 20
0.0
 30
0.0
  3
*Model_Space
  1

  0
ENDBLK
  5
21
100
AcDbEntity
  8
0
100
AcDbBlockEnd
  0
BLOCK
  5
1C
100
AcDbEntity
  8
0
100
AcDbBlockBegin
  2
*Paper_Space
 70
0
 10
0.0
 20
0.0
 30
0.0
  3
*Paper_Space
  1

  0
ENDBLK
  5
1D
100
AcDbEntity
  8
0
100
AcDbBlockEnd
  0
BLOCK
  5
206
100
AcDbEntity
  8
0
100
AcDbBlockBegin
  2
_FILLED
 70
64
 10
0.0
 20
0.0
  3
_FILLED
  1

  0
SOLID
  5
207
100
AcDbEntity
  8
0
  6
BYBLOCK
 62
0
100
AcDbTrace
 10
0.0
 20
0.0
 11
-1.0
 21
0.2
 12
-1.0
 22
-0.2
 13
-1.0
 23
-0.2
  0
ENDBLK
  5
208
100
AcDbEntity
  8
0
  6
BYBLOCK
 62
0
100
AcDbBlockEnd
  0
ENDSEC
  0
SECTION
  2
ENTITIES
  0
MTEXT
  5
209
100
AcDbEntity
  8
0
100
AcDbMText
 62
2
  6
CONTINUOUS
  7
STANDARD
 71
3
 72
1
 10
4.8889363354
 20
2.0641048137
 30
0.0
 11
1.0
 21
0.0
 31
0.0
 73
2
 44
0.9
  1
SCALE  .500
 40
0.08
 41
0.704
  0
LINE
  5
20A
100
AcDbEntity
  8
0
100
AcDbLine
 62
7
  6
CONTINUOUS
 10
0.0
 20
0.0
 11
0.0
 21
8.5
  0
LINE
  5
20B
100
AcDbEntity
  8
0
100
AcDbLine
 62
7
  6
CONTINUOUS
 10
0.0
 20
0.0
 11
11.0
 21
0.0
  0
LINE
  5
20C
100
AcDbEntity
  8
0
100
AcDbLine
 62
7
  6
CONTINUOUS
 10
0.0
 20
8.5
 11
11.0
 21
8.5
  0
LINE
  5
20D
100
AcDbEntity
  8
0
100
AcDbLine
 62
7
  6
CONTINUOUS
 10
11.0
 20
0.0
 11
11.0
 21
8.5
  0
LINE
  5
20E
100
AcDbEntity
  8
0
100
AcDbLine
 62
7
  6
CONTINUOUS
 10
2.1165722138
 20
5.378941976
 11
2.1127126315
 21
5.730669856
  0
LINE
  5
20F
100
AcDbEntity
  8
0
100
AcDbLine
 62
7
  6
CONTINUOUS
 10
2.4632479687
 20
5.3486117775
 11
2.5281258206
 21
5.6943259112
  0
LINE
  5
210
100
AcDbEntity
  8
0
100
AcDbLine
 62
7
  6
CONTINUOUS
 10
6.4332386845
 20
2.1591048137
 11
7.6082381951
 21
2.1591048137
  0
LINE
  5
211
100
AcDbEntity
  8
0
100
AcDbLine
 62
7
  6
CONTINUOUS
 10
6.4332384398
 20
2.2141048137
 11
7.6082384398
 21
2.2141048137
  0
LINE
  5
212
100
AcDbEntity
  8
0
100
AcDbLine
 62
7
  6
CONTINUOUS
 10
6.4482386054
 20
2.2291048137
 11
7.5932382742
 21
2.2291048137
  0
LINE
  5
213
100
AcDbEntity
  8
0
100
AcDbLine
 62
7
  6
CONTINUOUS
 10
3.2733386787
 20
6.2359229261
 11
3.3802199735
 21
6.5295768701
  0
LINE
  5
214
100
AcDbEntity
  8
0
100
AcDbLine
 62
7
  6
CONTINUOUS
 10
6.5857385043
 20
2.3491048137
 11
7.4557383753
 21
2.3491048137
  0
LINE
  5
215
100
AcDbEntity
  8
0
100
AcDbLine
 62
7
  6
CONTINUOUS
 10
6.7557387593
 20
2.5141048137
 11
7.2857381203
 21
2.5141048137
  0
LINE
  5
216
100
AcDbEntity
  8
0
100
AcDbLine
 62
7
  6
CONTINUOUS
 10
6.745389065
 20
2.5307739326
 11
7.2960878146
 21
2.5307739326
  0
LINE
  5
217
100
AcDbEntity
  8
0
100
AcDbLine
 62
7
  6
CONTINUOUS
 10
6.6760755594
 20
3.1120523303
 11
7.3654013202
 21
3.1120523303
  0
LINE
  5
218
100
AcDbEntity
  8
0
100
AcDbLine
 62
7
  6
CONTINUOUS
 10
7.3507384398
 20
3.1391048137
 11
6.6907384398
 21
3.1391048137
  0
LINE
  5
219
100
AcDbEntity
  8
0
100
AcDbLine
 62
7
  6
CONTINUOUS
 10
6.7027118061
 20
3.1544470325
 11
7.3387650735
 21
3.1544470325
  0
LINE
  5
21A
100
AcDbEntity
  8
0
100
AcDbLine
 62
7
  6
CONTINUOUS
 10
4.3985376445
 20
5.8263839949
 11
4.5054189393
 21
6.1200379389
  0
LINE
  5
21B
100
AcDbEntity
  8
0
100
AcDbLine
 62
7
  6
CONTINUOUS
 10
6.7174956297
 20
3.7429046303
 11
7.3239812499
 21
3.7429046303
  0
LINE
  5
21C
100
AcDbEntity
  8
0
100
AcDbLine
 62
7
  6
CONTINUOUS
 10
6.7474884399
 20
3.7641048137
 11
7.2939884397
 21
3.7641048137
  0
LINE
  5
21D
100
AcDbEntity
  8
0
100
AcDbLine
 62
7
  6
CONTINUOUS
 10
7.3308450146
 20
3.839615123
 11
7.322517446
 21
3.839615123
  0
LINE
  5
21E
100
AcDbEntity
  8
0
100
AcDbLine
 62
7
  6
CONTINUOUS
 10
7.2332460652
 20
3.839615123
 11
7.1098085335
 21
3.839615123
  0
LINE
  5
21F
100
AcDbEntity
  8
0
100
AcDbLine
 62
7
  6
CONTINUOUS
 10
6.710631865
 20
3.839615123
 11
6.7188959064
 21
3.839615123
  0
LINE
  5
220
100
AcDbEntity
  8
0
100
AcDbLine
 62
7
  6
CONTINUOUS
 10
6.8080295273
 20
3.839615123
 11
6.9314035319
 21
3.839615123
  0
LINE
  5
221
100
AcDbEntity
  8
0
100
AcDbLine
 62
7
  6
CONTINUOUS
 10
6.7585470414
 20
3.9556048137
 11
7.2829298382
 21
3.9556048137
  0
LINE
  5
222
100
AcDbEntity
  8
0
100
AcDbLine
 62
7
  6
CONTINUOUS
 10
7.3802419726
 20
4.8336718346
 11
7.2084329635
 21
4.7908288516
  0
LINE
  5
223
100
AcDbEntity
  8
0
100
AcDbLine
 62
7
  6
CONTINUOUS
 10
7.4034995724
 20
4.8821862109
 11
7.2260532272
 21
4.8379374791
  0
LINE
  5
224
100
AcDbEntity
  8
0
100
AcDbLine
 62
7
  6
CONTINUOUS
 10
4.7084933994
 20
5.7717304325
 11
4.7084933994
 21
6.0842304325
  0
LINE
  5
225
100
AcDbEntity
  8
0
100
AcDbLine
 62
7
  6
CONTINUOUS
 10
6.8169884398
 20
5.0291048137
 11
6.8082534298
 21
5.0267642748
  0
LINE
  5
226
100
AcDbEntity
  8
0
100
AcDbLine
 62
7
  6
CONTINUOUS
 10
6.8121708138
 20
4.3971190196
 11
7.2293060659
 21
4.3971190196
  0
LINE
  5
227
100
AcDbEntity
  8
0
100
AcDbLine
 62
7
  6
CONTINUOUS
 10
6.8369885419
 20
4.4191048137
 11
7.2044883377
 21
4.4191048137
  0
LINE
  5
228
100
AcDbEntity
  8
0
100
AcDbLine
 62
7
  6
CONTINUOUS
 10
6.8699884321
 20
4.4291048137
 11
7.1714884475
 21
4.4291048137
  0
LINE
  5
229
100
AcDbEntity
  8
0
100
AcDbLine
 62
7
  6
CONTINUOUS
 10
7.1481788651
 20
5.0562812694
 11
7.148263421
 21
5.0562930296
  0
LINE
  5
22A
100
AcDbEntity
  8
0
100
AcDbLine
 62
7
  6
CONTINUOUS
 10
7.1714884398
 20
4.5741048137
 11
6.8699884398
 21
4.5741048137
  0
LINE
  5
22B
100
AcDbEntity
  8
0
100
AcDbLine
 62
7
  6
CONTINUOUS
 10
6.6223801155
 20
4.6041048137
 11
7.4190967641
 21
4.6041048137
  0
LINE
  5
22C
100
AcDbEntity
  8
0
100
AcDbLine
 62
7
  6
CONTINUOUS
 10
6.8423067551
 20
4.6091048137
 11
7.1991701245
 21
4.6091048137
  0
LINE
  5
22D
100
AcDbEntity
  8
0
100
AcDbLine
 62
7
  6
CONTINUOUS
 10
6.6577354545
 20
4.6541048137
 11
6.9009044153
 21
4.6541048137
  0
LINE
  5
22E
100
AcDbEntity
  8
0
100
AcDbLine
 62
7
  6
CONTINUOUS
 10
7.1405602597
 20
4.6541048137
 11
7.3837414251
 21
4.6541048137
  0
LINE
  5
22F
100
AcDbEntity
  8
0
100
AcDbLine
 62
7
  6
CONTINUOUS
 10
6.8688161058
 20
5.0559095222
 11
6.8684765134
 21
5.055711297
  0
LINE
  5
230
100
AcDbEntity
  8
0
100
AcDbLine
 62
7
  6
CONTINUOUS
 10
6.8688161714
 20
5.0559093948
 11
6.8684757402
 21
5.0557127946
  0
LINE
  5
231
100
AcDbEntity
  8
0
100
AcDbLine
 62
7
  6
CONTINUOUS
 10
6.8704959825
 20
5.0568921513
 11
6.8707384398
 21
5.0570317951
  0
LINE
  5
232
100
AcDbEntity
  8
0
100
AcDbLine
 62
7
  6
CONTINUOUS
 10
6.8732244439
 20
5.0543102714
 11
6.8729917602
 21
5.0541765286
  0
LINE
  5
233
100
AcDbEntity
  8
0
100
AcDbLine
 62
7
  6
CONTINUOUS
 10
6.9923174201
 20
5.0952740417
 11
6.9923645871
 21
5.0952785102
  0
LINE
  5
234
100
AcDbEntity
  8
0
100
AcDbLine
 62
7
  6
CONTINUOUS
 10
7.1353050638
 20
5.0567016976
 11
7.1354334621
 21
5.0567062575
  0
LINE
  5
235
100
AcDbEntity
  8
0
100
AcDbLine
 62
7
  6
CONTINUOUS
 10
7.1571611748
 20
5.0403766037
 11
7.1572378035
 21
5.0403786159
  0
LINE
  5
236
100
AcDbEntity
  8
0
100
AcDbLine
 62
7
  6
CONTINUOUS
 10
6.7457384398
 20
4.8816048137
 11
7.2957384398
 21
4.8816048137
  0
LINE
  5
237
100
AcDbEntity
  8
0
100
AcDbLine
 62
7
  6
CONTINUOUS
 10
6.7507385403
 20
4.8866048137
 11
7.2907383393
 21
4.8866048137
  0
LINE
  5
238
100
AcDbEntity
  8
0
100
AcDbLine
 62
7
  6
CONTINUOUS
 10
7.2919884398
 20
4.8941048137
 11
6.7494884398
 21
4.8941048137
  0
LINE
  5
239
100
AcDbEntity
  8
0
100
AcDbLine
 62
7
  6
CONTINUOUS
 10
6.7419884398
 20
4.9016048137
 11
7.2994884398
 21
4.9016048137
  0
LINE
  5
23A
100
AcDbEntity
  8
0
100
AcDbLine
 62
7
  6
CONTINUOUS
 10
6.7419884398
 20
4.9446099162
 11
7.2994884398
 21
4.9446099162
  0
LINE
  5
23B
100
AcDbEntity
  8
0
100
AcDbLine
 62
7
  6
CONTINUOUS
 10
6.7619884398
 20
4.9691048137
 11
7.2794884398
 21
4.9691048137
  0
LINE
  5
23C
100
AcDbEntity
  8
0
100
AcDbLine
 62
7
  6
CONTINUOUS
 10
6.8547962641
 20
5.0393599248
 11
6.8553233491
 21
5.0397509572
  0
LINE
  5
23D
100
AcDbEntity
  8
0
100
AcDbLine
 62
7
  6
CONTINUOUS
 10
6.8450780606
 20
5.0391622007
 11
6.8453629337
 21
5.0393661043
  0
LINE
  5
23E
100
AcDbEntity
  8
0
100
AcDbLine
 62
7
  6
CONTINUOUS
 10
6.847892302
 20
5.0411543732
 11
6.8483875297
 21
5.0415005761
  0
LINE
  5
23F
100
AcDbEntity
  8
0
100
AcDbLine
 62
7
  6
CONTINUOUS
 10
6.8503378242
 20
5.044144535
 11
6.8497686974
 21
5.0437490105
  0
LINE
  5
240
100
AcDbEntity
  8
0
100
AcDbLine
 62
7
  6
CONTINUOUS
 10
6.8503394719
 20
5.0441418429
 11
6.8497686974
 21
5.0437490105
  0
LINE
  5
241
100
AcDbEntity
  8
0
100
AcDbLine
 62
7
  6
CONTINUOUS
 10
6.850114847
 20
5.0442041532
 11
6.8502384398
 21
5.0442886397
  0
LINE
  5
242
100
AcDbEntity
  8
0
100
AcDbLine
 62
7
  6
CONTINUOUS
 10
6.8548210643
 20
5.0471884313
 11
6.8545387423
 21
5.0470004605
  0
LINE
  5
243
100
AcDbEntity
  8
0
100
AcDbLine
 62
7
  6
CONTINUOUS
 10
6.8545281116
 20
5.0470293157
 11
6.8547371994
 21
5.0471682697
  0
LINE
  5
244
100
AcDbEntity
  8
0
100
AcDbLine
 62
7
  6
CONTINUOUS
 10
6.861775221
 20
5.0517597633
 11
6.8620367754
 21
5.0519205401
  0
LINE
  5
245
100
AcDbEntity
  8
0
100
AcDbLine
 62
7
  6
CONTINUOUS
 10
6.8657960377
 20
5.0541423382
 11
6.8662203532
 21
5.0543983132
  0
LINE
  5
246
100
AcDbEntity
  8
0
100
AcDbLine
 62
7
  6
CONTINUOUS
 10
6.8657957029
 20
5.0541429719
 11
6.8662210555
 21
5.0543969786
  0
LINE
  5
247
100
AcDbEntity
  8
0
100
AcDbLine
 62
7
  6
CONTINUOUS
 10
6.8082534298
 20
5.0267642748
 11
7.2332234498
 21
5.0267642748
  0
LINE
  5
248
100
AcDbEntity
  8
0
100
AcDbLine
 62
7
  6
CONTINUOUS
 10
6.8169884398
 20
5.0291048137
 11
7.2244884398
 21
5.0291048137
  0
LINE
  5
249
100
AcDbEntity
  8
0
100
AcDbLine
 62
7
  6
CONTINUOUS
 10
7.1801593956
 20
5.0402936294
 11
7.1803972563
 21
5.0402883334
  0
LINE
  5
24A
100
AcDbEntity
  8
0
100
AcDbLine
 62
7
  6
CONTINUOUS
 10
7.1671220532
 20
5.0501148443
 11
7.1671855578
 21
5.050113339
  0
LINE
  5
24B
100
AcDbEntity
  8
0
100
AcDbLine
 62
7
  6
CONTINUOUS
 10
2.1307203667
 20
5.3636710326
 11
2.4466629866
 21
5.336029635
  0
LINE
  5
24C
100
AcDbEntity
  8
0
100
AcDbLine
 62
7
  6
CONTINUOUS
 10
2.1165722138
 20
5.378941976
 11
2.4632479687
 21
5.3486117775
  0
LINE
  5
24D
100
AcDbEntity
  8
0
100
AcDbLine
 62
7
  6
CONTINUOUS
 10
2.1127126315
 20
5.730669856
 11
2.5281258206
 21
5.6943259112
  0
LINE
  5
24E
100
AcDbEntity
  8
0
100
AcDbLine
 62
7
  6
CONTINUOUS
 10
6.8328143973
 20
4.7908860853
 11
6.661234907
 21
4.8336718346
  0
LINE
  5
24F
100
AcDbEntity
  8
0
100
AcDbLine
 62
7
  6
CONTINUOUS
 10
6.8150797289
 20
4.8380232413
 11
6.637977307
 21
4.8821862109
  0
LINE
  5
250
100
AcDbEntity
  8
0
100
AcDbLine
 62
7
  6
CONTINUOUS
 10
6.7942384398
 20
5.5741048137
 11
7.2472384398
 21
5.5741048137
  0
LINE
  5
251
100
AcDbEntity
  8
0
100
AcDbLine
 62
7
  6
CONTINUOUS
 10
7.2383690173
 20
5.6376048137
 11
6.8031080073
 21
5.6376048137
  0
LINE
  5
252
100
AcDbEntity
  8
0
100
AcDbLine
 62
7
  6
CONTINUOUS
 10
6.8095850449
 20
5.6426048137
 11
7.2318918347
 21
5.6426048137
  0
LINE
  5
253
100
AcDbEntity
  8
0
100
AcDbLine
 62
7
  6
CONTINUOUS
 10
6.4459933994
 20
5.7244804325
 11
6.6413137083
 21
5.7244804325
  0
LINE
  5
254
100
AcDbEntity
  8
0
100
AcDbLine
 62
7
  6
CONTINUOUS
 10
2.1260829861
 20
5.7917040016
 11
2.52555706
 21
5.7567545488
  0
LINE
  5
255
100
AcDbEntity
  8
0
100
AcDbLine
 62
7
  6
CONTINUOUS
 10
7.2244884398
 20
5.0291048137
 11
7.2332234498
 21
5.0267642748
  0
LINE
  5
256
100
AcDbEntity
  8
0
100
AcDbLine
 62
7
  6
CONTINUOUS
 10
4.3985376445
 20
5.8263839949
 11
3.2733386787
 21
6.2359229261
  0
LINE
  5
257
100
AcDbEntity
  8
0
100
AcDbLine
 62
7
  6
CONTINUOUS
 10
6.3834933994
 20
5.7717304325
 11
4.7084933994
 21
5.7717304325
  0
LINE
  5
258
100
AcDbEntity
  8
0
100
AcDbLine
 62
7
  6
CONTINUOUS
 10
7.6124933994
 20
5.7874804325
 11
7.5944933994
 21
5.7874804325
  0
LINE
  5
259
100
AcDbEntity
  8
0
100
AcDbLine
 62
7
  6
CONTINUOUS
 10
7.4379933994
 20
5.8267304325
 11
7.3609933994
 21
5.8267304325
  0
LINE
  5
25A
100
AcDbEntity
  8
0
100
AcDbLine
 62
7
  6
CONTINUOUS
 10
7.5644933994
 20
5.8387304325
 11
7.5489933994
 21
5.8387304325
  0
LINE
  5
25B
100
AcDbEntity
  8
0
100
AcDbLine
 62
7
  6
CONTINUOUS
 10
4.5054189393
 20
6.1200379389
 11
3.3802199735
 21
6.5295768701
  0
LINE
  5
25C
100
AcDbEntity
  8
0
100
AcDbLine
 62
7
  6
CONTINUOUS
 10
6.3834933994
 20
6.1314804325
 11
6.3834933994
 21
5.7244804325
  0
LINE
  5
25D
100
AcDbEntity
  8
0
100
AcDbLine
 62
7
  6
CONTINUOUS
 10
6.4332384398
 20
2.2141048137
 11
6.4332384398
 21
2.1591048137
  0
LINE
  5
25E
100
AcDbEntity
  8
0
100
AcDbLine
 62
7
  6
CONTINUOUS
 10
6.4459933994
 20
6.1314804325
 11
6.4459933994
 21
5.7244804325
  0
LINE
  5
25F
100
AcDbEntity
  8
0
100
AcDbLine
 62
7
  6
CONTINUOUS
 10
7.5644933994
 20
6.0172304325
 11
7.5489933994
 21
6.0172304325
  0
LINE
  5
260
100
AcDbEntity
  8
0
100
AcDbLine
 62
7
  6
CONTINUOUS
 10
7.4379933994
 20
6.0292304325
 11
7.3609933994
 21
6.0292304325
  0
LINE
  5
261
100
AcDbEntity
  8
0
100
AcDbLine
 62
7
  6
CONTINUOUS
 10
7.6124933994
 20
6.0684804325
 11
7.5944933994
 21
6.0684804325
  0
LINE
  5
262
100
AcDbEntity
  8
0
100
AcDbLine
 62
7
  6
CONTINUOUS
 10
6.3834933994
 20
6.0842304325
 11
4.7084933994
 21
6.0842304325
  0
LINE
  5
263
100
AcDbEntity
  8
0
100
AcDbLine
 62
7
  6
CONTINUOUS
 10
6.4459933994
 20
6.1314804325
 11
6.6413137083
 21
6.1314804325
  0
LINE
  5
264
100
AcDbEntity
  8
0
100
AcDbLine
 62
7
  6
CONTINUOUS
 10
7.1662165563
 20
5.0415501449
 11
7.1666736444
 21
5.0413043873
  0
LINE
  5
265
100
AcDbEntity
  8
0
100
AcDbLine
 62
7
  6
CONTINUOUS
 10
7.1662712717
 20
5.0409099403
 11
7.1666558316
 21
5.040702657
  0
LINE
  5
266
100
AcDbEntity
  8
0
100
AcDbLine
 62
7
  6
CONTINUOUS
 10
7.1662712812
 20
5.0409099583
 11
7.1666558309
 21
5.0407026557
  0
LINE
  5
267
100
AcDbEntity
  8
0
100
AcDbLine
 62
7
  6
CONTINUOUS
 10
7.1705323428
 20
5.0571400758
 11
7.1710340469
 21
5.0568558213
  0
LINE
  5
268
100
AcDbEntity
  8
0
100
AcDbLine
 62
7
  6
CONTINUOUS
 10
7.1746203603
 20
5.0547868395
 11
7.1750280598
 21
5.0545475919
  0
LINE
  5
269
100
AcDbEntity
  8
0
100
AcDbLine
 62
7
  6
CONTINUOUS
 10
7.1834046526
 20
5.0494499904
 11
7.1836748487
 21
5.0492788451
  0
LINE
  5
26A
100
AcDbEntity
  8
0
100
AcDbLine
 62
7
  6
CONTINUOUS
 10
7.1839074139
 20
5.0491312159
 11
7.1844270324
 21
5.0488002985
  0
LINE
  5
26B
100
AcDbEntity
  8
0
100
AcDbLine
 62
7
  6
CONTINUOUS
 10
7.1871158394
 20
5.0470633974
 11
7.1873937815
 21
5.0468823276
  0
LINE
  5
26C
100
AcDbEntity
  8
0
100
AcDbLine
 62
7
  6
CONTINUOUS
 10
7.1873937815
 20
5.0468823276
 11
7.187827724
 21
5.0465976665
  0
LINE
  5
26D
100
AcDbEntity
  8
0
100
AcDbLine
 62
7
  6
CONTINUOUS
 10
6.6413137083
 20
6.1314804325
 11
6.6413137083
 21
5.7244804325
  0
LINE
  5
26E
100
AcDbEntity
  8
0
100
AcDbLine
 62
7
  6
CONTINUOUS
 10
6.6676706334
 20
6.1172304325
 11
6.6676706334
 21
5.7387304325
  0
LINE
  5
26F
100
AcDbEntity
  8
0
100
AcDbLine
 62
7
  6
CONTINUOUS
 10
6.7206547066
 20
6.1176505489
 11
6.7206547066
 21
5.738310316
  0
LINE
  5
270
100
AcDbEntity
  8
0
100
AcDbLine
 62
7
  6
CONTINUOUS
 10
6.7419884398
 20
4.9446099162
 11
6.7419884398
 21
4.9016048137
  0
LINE
  5
271
100
AcDbEntity
  8
0
100
AcDbLine
 62
7
  6
CONTINUOUS
 10
6.7457384398
 20
4.8816048137
 11
6.7457384398
 21
4.855314463
  0
LINE
  5
272
100
AcDbEntity
  8
0
100
AcDbLine
 62
7
  6
CONTINUOUS
 10
6.7889884398
 20
6.6746048137
 11
6.7889884398
 21
6.6476048137
  0
LINE
  5
273
100
AcDbEntity
  8
0
100
AcDbLine
 62
7
  6
CONTINUOUS
 10
6.7982384398
 20
4.8941048137
 11
6.7982384398
 21
4.8866048137
  0
LINE
  5
274
100
AcDbEntity
  8
0
100
AcDbLine
 62
7
  6
CONTINUOUS
 10
6.8407384398
 20
5.0371039622
 11
6.8407384398
 21
5.0376108583
  0
LINE
  5
275
100
AcDbEntity
  8
0
100
AcDbLine
 62
7
  6
CONTINUOUS
 10
6.8448876586
 20
5.0388392878
 11
6.8448876586
 21
5.0394552291
  0
LINE
  5
276
100
AcDbEntity
  8
0
100
AcDbLine
 62
7
  6
CONTINUOUS
 10
6.8450874894
 20
5.0391365387
 11
6.8450874894
 21
5.0397517397
  0
LINE
  5
277
100
AcDbEntity
  8
0
100
AcDbLine
 62
7
  6
CONTINUOUS
 10
6.8452384398
 20
5.0403516624
 11
6.8452384398
 21
5.0408519316
  0
LINE
  5
278
100
AcDbEntity
  8
0
100
AcDbLine
 62
7
  6
CONTINUOUS
 10
6.8485314445
 20
5.0402401083
 11
6.8485314445
 21
5.0408525764
  0
LINE
  5
279
100
AcDbEntity
  8
0
100
AcDbLine
 62
7
  6
CONTINUOUS
 10
6.8491276011
 20
5.0432984001
 11
6.8491276011
 21
5.0435257907
  0
LINE
  5
27A
100
AcDbEntity
  8
0
100
AcDbLine
 62
7
  6
CONTINUOUS
 10
6.8494884398
 20
6.3836048137
 11
6.8494884398
 21
6.2511048137
  0
LINE
  5
27B
100
AcDbEntity
  8
0
100
AcDbLine
 62
7
  6
CONTINUOUS
 10
6.8502384398
 20
5.0440723081
 11
6.8502384398
 21
5.0442886397
  0
LINE
  5
27C
100
AcDbEntity
  8
0
100
AcDbLine
 62
7
  6
CONTINUOUS
 10
6.851018462
 20
5.0408172444
 11
6.851018462
 21
5.0414282928
  0
LINE
  5
27D
100
AcDbEntity
  8
0
100
AcDbLine
 62
7
  6
CONTINUOUS
 10
6.8525677821
 20
5.0446743339
 11
6.8525677821
 21
5.0449633793
  0
LINE
  5
27E
100
AcDbEntity
  8
0
100
AcDbLine
 62
7
  6
CONTINUOUS
 10
6.8547384398
 20
5.0471305887
 11
6.8547384398
 21
5.0472994913
  0
LINE
  5
27F
100
AcDbEntity
  8
0
100
AcDbLine
 62
7
  6
CONTINUOUS
 10
6.8561928955
 20
5.0451965052
 11
6.8561928955
 21
5.045796992
  0
LINE
  5
280
100
AcDbEntity
  8
0
100
AcDbLine
 62
7
  6
CONTINUOUS
 10
6.8577299891
 20
5.0477368624
 11
6.8577299891
 21
5.0483313879
  0
LINE
  5
281
100
AcDbEntity
  8
0
100
AcDbLine
 62
7
  6
CONTINUOUS
 10
6.8602610861
 20
5.0408310879
 11
6.8602610861
 21
5.0414421023
  0
LINE
  5
282
100
AcDbEntity
  8
0
100
AcDbLine
 62
7
  6
CONTINUOUS
 10
6.8617392084
 20
5.0443609056
 11
6.8617392084
 21
5.0449633793
  0
LINE
  5
283
100
AcDbEntity
  8
0
100
AcDbLine
 62
7
  6
CONTINUOUS
 10
6.8547922717
 20
5.0393401273
 11
6.8547962641
 21
5.0394815031
  0
LINE
  5
284
100
AcDbEntity
  8
0
100
AcDbLine
 62
7
  6
CONTINUOUS
 10
6.8121708138
 20
4.3971190196
 11
6.7585470414
 21
3.9556048137
  0
LINE
  5
285
100
AcDbEntity
  8
0
100
AcDbLine
 62
7
  6
CONTINUOUS
 10
7.1836390159
 20
5.048710499
 11
7.1836466302
 21
5.0487292142
  0
LINE
  5
286
100
AcDbEntity
  8
0
100
AcDbLine
 62
7
  6
CONTINUOUS
 10
7.1869434996
 20
5.0467992258
 11
7.1869388872
 21
5.0467906165
  0
LINE
  5
287
100
AcDbEntity
  8
0
100
AcDbLine
 62
7
  6
CONTINUOUS
 10
6.8582384398
 20
6.2436048137
 11
7.1832384398
 21
6.2436048137
  0
LINE
  5
288
100
AcDbEntity
  8
0
100
AcDbLine
 62
7
  6
CONTINUOUS
 10
6.8494884398
 20
6.2511048137
 11
7.1919884398
 21
6.2511048137
  0
LINE
  5
289
100
AcDbEntity
  8
0
100
AcDbLine
 62
7
  6
CONTINUOUS
 10
6.950649211
 20
6.3836048137
 11
6.8494884398
 21
6.3836048137
  0
LINE
  5
28A
100
AcDbEntity
  8
0
100
AcDbLine
 62
7
  6
CONTINUOUS
 10
7.0908276686
 20
6.3836048137
 11
7.1919884398
 21
6.3836048137
  0
LINE
  5
28B
100
AcDbEntity
  8
0
100
AcDbLine
 62
7
  6
CONTINUOUS
 10
6.9658909856
 20
6.395336694
 11
6.855141623
 21
6.395336694
  0
LINE
  5
28C
100
AcDbEntity
  8
0
100
AcDbLine
 62
7
  6
CONTINUOUS
 10
7.075585894
 20
6.395336694
 11
7.1863352566
 21
6.395336694
  0
LINE
  5
28D
100
AcDbEntity
  8
0
100
AcDbLine
 62
7
  6
CONTINUOUS
 10
7.1872563381
 20
5.0469722664
 11
7.1878267324
 21
5.0465961548
  0
LINE
  5
28E
100
AcDbEntity
  8
0
100
AcDbLine
 62
7
  6
CONTINUOUS
 10
7.1669553463
 20
5.0504204151
 11
7.1667229425
 21
5.0505817
  0
LINE
  5
28F
100
AcDbEntity
  8
0
100
AcDbLine
 62
7
  6
CONTINUOUS
 10
7.1706433605
 20
5.0490798202
 11
7.1716375358
 21
5.0483781347
  0
LINE
  5
290
100
AcDbEntity
  8
0
100
AcDbLine
 62
7
  6
CONTINUOUS
 10
7.1991749798
 20
5.0387567195
 11
7.2003185983
 21
5.0379246512
  0
LINE
  5
291
100
AcDbEntity
  8
0
100
AcDbLine
 62
7
  6
CONTINUOUS
 10
7.1458159619
 20
5.0542848626
 11
7.1459098957
 21
5.0542148794
  0
LINE
  5
292
100
AcDbEntity
  8
0
100
AcDbLine
 62
7
  6
CONTINUOUS
 10
6.8630614626
 20
5.0509735493
 11
6.8630614626
 21
5.0503851136
  0
LINE
  5
293
100
AcDbEntity
  8
0
100
AcDbLine
 62
7
  6
CONTINUOUS
 10
6.8644884398
 20
6.7511048137
 11
6.8644884398
 21
6.7351048137
  0
LINE
  5
294
100
AcDbEntity
  8
0
100
AcDbLine
 62
7
  6
CONTINUOUS
 10
6.8644884398
 20
6.6026048137
 11
6.8644884398
 21
6.5711048137
  0
LINE
  5
295
100
AcDbEntity
  8
0
100
AcDbLine
 62
7
  6
CONTINUOUS
 10
6.8646879677
 20
5.0408172444
 11
6.8646879677
 21
5.0414282928
  0
LINE
  5
296
100
AcDbEntity
  8
0
100
AcDbLine
 62
7
  6
CONTINUOUS
 10
6.8667548124
 20
5.0477368624
 11
6.8667548124
 21
5.0483313879
  0
LINE
  5
297
100
AcDbEntity
  8
0
100
AcDbLine
 62
7
  6
CONTINUOUS
 10
6.8684776291
 20
5.0544848422
 11
6.8684776291
 21
5.0549531702
  0
LINE
  5
298
100
AcDbEntity
  8
0
100
AcDbLine
 62
7
  6
CONTINUOUS
 10
6.8689875755
 20
5.0442227365
 11
6.8689875755
 21
5.04482554
  0
LINE
  5
299
100
AcDbEntity
  8
0
100
AcDbLine
 62
7
  6
CONTINUOUS
 10
6.8699884398
 20
4.5741048137
 11
6.8699884398
 21
4.4291048137
  0
LINE
  5
29A
100
AcDbEntity
  8
0
100
AcDbLine
 62
7
  6
CONTINUOUS
 10
6.8707384398
 20
5.0570460855
 11
6.8707384398
 21
5.0570195118
  0
LINE
  5
29B
100
AcDbEntity
  8
0
100
AcDbLine
 62
7
  6
CONTINUOUS
 10
6.8712585414
 20
5.054620384
 11
6.8712585414
 21
5.0551993353
  0
LINE
  5
29C
100
AcDbEntity
  8
0
100
AcDbLine
 62
7
  6
CONTINUOUS
 10
6.8732150151
 20
5.0543102714
 11
6.8732150151
 21
5.054368904
  0
LINE
  5
29D
100
AcDbEntity
  8
0
100
AcDbLine
 62
7
  6
CONTINUOUS
 10
6.8732793176
 20
5.0513304928
 11
6.8732793176
 21
5.0507428702
  0
LINE
  5
29E
100
AcDbEntity
  8
0
100
AcDbLine
 62
7
  6
CONTINUOUS
 10
6.8769894707
 20
5.0543736749
 11
6.8769894707
 21
5.0549531702
  0
LINE
  5
29F
100
AcDbEntity
  8
0
100
AcDbLine
 62
7
  6
CONTINUOUS
 10
6.8829708376
 20
5.0540613837
 11
6.8829708376
 21
5.0546415693
  0
LINE
  5
2A0
100
AcDbEntity
  8
0
100
AcDbLine
 62
7
  6
CONTINUOUS
 10
6.8872417041
 20
5.0541571017
 11
6.8872417041
 21
5.0547370756
  0
LINE
  5
2A1
100
AcDbEntity
  8
0
100
AcDbLine
 62
7
  6
CONTINUOUS
 10
6.950649211
 20
6.3836048137
 11
6.950649211
 21
6.2511048137
  0
LINE
  5
2A2
100
AcDbEntity
  8
0
100
AcDbLine
 62
7
  6
CONTINUOUS
 10
6.9857384398
 20
5.0651877778
 11
6.9857384398
 21
5.0792610211
  0
LINE
  5
2A3
100
AcDbEntity
  8
0
100
AcDbLine
 62
7
  6
CONTINUOUS
 10
6.9857384398
 20
5.0808690072
 11
6.9857384398
 21
5.0890626758
  0
LINE
  5
2A4
100
AcDbEntity
  8
0
100
AcDbLine
 62
7
  6
CONTINUOUS
 10
6.9957384398
 20
5.0949151893
 11
6.9957384398
 21
5.0944123917
  0
LINE
  5
2A5
100
AcDbEntity
  8
0
100
AcDbLine
 62
7
  6
CONTINUOUS
 10
6.9957384398
 20
5.070812645
 11
6.9957384398
 21
5.0662854788
  0
LINE
  5
2A6
100
AcDbEntity
  8
0
100
AcDbLine
 62
7
  6
CONTINUOUS
 10
6.9957384398
 20
5.0797767007
 11
6.9957384398
 21
5.0803050626
  0
LINE
  5
2A7
100
AcDbEntity
  8
0
100
AcDbLine
 62
7
  6
CONTINUOUS
 10
6.9957384398
 20
5.0895613444
 11
6.9957384398
 21
5.0900723371
  0
LINE
  5
2A8
100
AcDbEntity
  8
0
100
AcDbLine
 62
7
  6
CONTINUOUS
 10
7.0023716894
 20
5.0789256806
 11
7.0023716894
 21
5.0794556092
  0
LINE
  5
2A9
100
AcDbEntity
  8
0
100
AcDbLine
 62
7
  6
CONTINUOUS
 10
7.0076626798
 20
5.0885013268
 11
7.0076626798
 21
5.0890141459
  0
LINE
  5
2AA
100
AcDbEntity
  8
0
100
AcDbLine
 62
7
  6
CONTINUOUS
 10
7.0094884398
 20
5.0567984543
 11
7.0094884398
 21
5.057372646
  0
LINE
  5
2AB
100
AcDbEntity
  8
0
100
AcDbLine
 62
7
  6
CONTINUOUS
 10
7.0344884398
 20
5.056680218
 11
7.0344884398
 21
5.057254666
  0
LINE
  5
2AC
100
AcDbEntity
  8
0
100
AcDbLine
 62
7
  6
CONTINUOUS
 10
7.0363141998
 20
5.0883803333
 11
7.0363141998
 21
5.0888933617
  0
LINE
  5
2AD
100
AcDbEntity
  8
0
100
AcDbLine
 62
7
  6
CONTINUOUS
 10
7.0416051902
 20
5.0787544462
 11
7.0416051902
 21
5.0792846911
  0
LINE
  5
2AE
100
AcDbEntity
  8
0
100
AcDbLine
 62
7
  6
CONTINUOUS
 10
7.0457384398
 20
5.0944123917
 11
7.0457384398
 21
5.0949151893
  0
LINE
  5
2AF
100
AcDbEntity
  8
0
100
AcDbLine
 62
7
  6
CONTINUOUS
 10
7.0482384398
 20
5.066045733
 11
7.0482384398
 21
5.0705768015
  0
LINE
  5
2B0
100
AcDbEntity
  8
0
100
AcDbLine
 62
7
  6
CONTINUOUS
 10
7.0482384398
 20
5.0795482207
 11
7.0482384398
 21
5.0800770024
  0
LINE
  5
2B1
100
AcDbEntity
  8
0
100
AcDbLine
 62
7
  6
CONTINUOUS
 10
7.0482384398
 20
5.0893403943
 11
7.0482384398
 21
5.0898517666
  0
LINE
  5
2B2
100
AcDbEntity
  8
0
100
AcDbLine
 62
7
  6
CONTINUOUS
 10
7.0557384398
 20
5.0890626758
 11
7.0557384398
 21
5.0808690072
  0
LINE
  5
2B3
100
AcDbEntity
  8
0
100
AcDbLine
 62
7
  6
CONTINUOUS
 10
7.0557384398
 20
5.0792610211
 11
7.0557384398
 21
5.0651877778
  0
LINE
  5
2B4
100
AcDbEntity
  8
0
100
AcDbLine
 62
7
  6
CONTINUOUS
 10
7.0908276686
 20
6.3836048137
 11
7.0908276686
 21
6.2511048137
  0
LINE
  5
2B5
100
AcDbEntity
  8
0
100
AcDbLine
 62
7
  6
CONTINUOUS
 10
6.8644884398
 20
6.5711048137
 11
7.1769884398
 21
6.5711048137
  0
LINE
  5
2B6
100
AcDbEntity
  8
0
100
AcDbLine
 62
7
  6
CONTINUOUS
 10
7.2074884398
 20
6.6026048137
 11
6.8339885442
 21
6.6026048137
  0
LINE
  5
2B7
100
AcDbEntity
  8
0
100
AcDbLine
 62
7
  6
CONTINUOUS
 10
6.7889884398
 20
6.6476048137
 11
7.2524884398
 21
6.6476048137
  0
LINE
  5
2B8
100
AcDbEntity
  8
0
100
AcDbLine
 62
7
  6
CONTINUOUS
 10
6.7889884398
 20
6.6746048137
 11
7.2524884398
 21
6.6746048137
  0
LINE
  5
2B9
100
AcDbEntity
  8
0
100
AcDbLine
 62
7
  6
CONTINUOUS
 10
7.1425478471
 20
5.0566746782
 11
7.1425478471
 21
5.0572491383
  0
LINE
  5
2BA
100
AcDbEntity
  8
0
100
AcDbLine
 62
7
  6
CONTINUOUS
 10
7.1460306379
 20
5.0537960628
 11
7.1460306379
 21
5.0540775829
  0
LINE
  5
2BB
100
AcDbEntity
  8
0
100
AcDbLine
 62
7
  6
CONTINUOUS
 10
7.1485288383
 20
5.0507430281
 11
7.1485288383
 21
5.0513306503
  0
LINE
  5
2BC
100
AcDbEntity
  8
0
100
AcDbLine
 62
7
  6
CONTINUOUS
 10
7.1511628094
 20
5.0566013436
 11
7.1511628094
 21
5.0571759628
  0
LINE
  5
2BD
100
AcDbEntity
  8
0
100
AcDbLine
 62
7
  6
CONTINUOUS
 10
7.154377916
 20
5.0396508936
 11
7.154377916
 21
5.0402648178
  0
LINE
  5
2BE
100
AcDbEntity
  8
0
100
AcDbLine
 62
7
  6
CONTINUOUS
 10
7.1572378035
 20
5.0397649742
 11
7.1572378035
 21
5.0403786159
  0
LINE
  5
2BF
100
AcDbEntity
  8
0
100
AcDbLine
 62
7
  6
CONTINUOUS
 10
7.1573437981
 20
5.0398449054
 11
7.1573437981
 21
5.0404583493
  0
LINE
  5
2C0
100
AcDbEntity
  8
0
100
AcDbLine
 62
7
  6
CONTINUOUS
 10
7.1605877891
 20
5.0564588743
 11
7.1605877891
 21
5.0570338029
  0
LINE
  5
2C1
100
AcDbEntity
  8
0
100
AcDbLine
 62
7
  6
CONTINUOUS
 10
7.1611534285
 20
5.0401273867
 11
7.1611534285
 21
5.0407401327
  0
LINE
  5
2C2
100
AcDbEntity
  8
0
100
AcDbLine
 62
7
  6
CONTINUOUS
 10
7.1618552646
 20
5.0397649742
 11
7.1618552646
 21
5.0403786159
  0
LINE
  5
2C3
100
AcDbEntity
  8
0
100
AcDbLine
 62
7
  6
CONTINUOUS
 10
7.16367063
 20
5.0494896002
 11
7.16367063
 21
5.0500800812
  0
LINE
  5
2C4
100
AcDbEntity
  8
0
100
AcDbLine
 62
7
  6
CONTINUOUS
 10
7.1646323623
 20
5.0538596351
 11
7.1646323623
 21
5.0544402674
  0
LINE
  5
2C5
100
AcDbEntity
  8
0
100
AcDbLine
 62
7
  6
CONTINUOUS
 10
7.1647151521
 20
5.0396508936
 11
7.1647151521
 21
5.0402648178
  0
LINE
  5
2C6
100
AcDbEntity
  8
0
100
AcDbLine
 62
7
  6
CONTINUOUS
 10
7.1662712717
 20
5.0405583525
 11
7.1662712717
 21
5.0409393962
  0
LINE
  5
2C7
100
AcDbEntity
  8
0
100
AcDbLine
 62
7
  6
CONTINUOUS
 10
7.1662870609
 20
5.0496468697
 11
7.1662870609
 21
5.0502369904
  0
LINE
  5
2C8
100
AcDbEntity
  8
0
100
AcDbLine
 62
7
  6
CONTINUOUS
 10
7.1666139921
 20
5.0495335748
 11
7.1666139921
 21
5.0501239551
  0
LINE
  5
2C9
100
AcDbEntity
  8
0
100
AcDbLine
 62
7
  6
CONTINUOUS
 10
7.1667825956
 20
5.0471130261
 11
7.1667825956
 21
5.0475373133
  0
LINE
  5
2CA
100
AcDbEntity
  8
0
100
AcDbLine
 62
7
  6
CONTINUOUS
 10
7.1671855578
 20
5.0495229344
 11
7.1671855578
 21
5.050113339
  0
LINE
  5
2CB
100
AcDbEntity
  8
0
100
AcDbLine
 62
7
  6
CONTINUOUS
 10
7.1672361608
 20
5.0495522972
 11
7.1672361608
 21
5.0501426346
  0
LINE
  5
2CC
100
AcDbEntity
  8
0
100
AcDbLine
 62
7
  6
CONTINUOUS
 10
7.1677079232
 20
5.0511129378
 11
7.1677079232
 21
5.0516997216
  0
LINE
  5
2CD
100
AcDbEntity
  8
0
100
AcDbLine
 62
7
  6
CONTINUOUS
 10
7.1682016486
 20
5.0398614647
 11
7.1682016486
 21
5.0404748676
  0
LINE
  5
2CE
100
AcDbEntity
  8
0
100
AcDbLine
 62
7
  6
CONTINUOUS
 10
7.1690409762
 20
5.0547508276
 11
7.1690409762
 21
5.0541708843
  0
LINE
  5
2CF
100
AcDbEntity
  8
0
100
AcDbLine
 62
7
  6
CONTINUOUS
 10
7.1705323428
 20
5.0570819387
 11
7.1705323428
 21
5.0571400758
  0
LINE
  5
2D0
100
AcDbEntity
  8
0
100
AcDbLine
 62
7
  6
CONTINUOUS
 10
7.1714884398
 20
4.5741048137
 11
7.1714884398
 21
4.4291048137
  0
LINE
  5
2D1
100
AcDbEntity
  8
0
100
AcDbLine
 62
7
  6
CONTINUOUS
 10
7.1769884398
 20
6.7511048137
 11
7.1769884398
 21
6.7351048137
  0
LINE
  5
2D2
100
AcDbEntity
  8
0
100
AcDbLine
 62
7
  6
CONTINUOUS
 10
7.1769884398
 20
6.6026048137
 11
7.1769884398
 21
6.5711048137
  0
LINE
  5
2D3
100
AcDbEntity
  8
0
100
AcDbLine
 62
7
  6
CONTINUOUS
 10
7.177786951
 20
5.0396689937
 11
7.177786951
 21
5.040282873
  0
LINE
  5
2D4
100
AcDbEntity
  8
0
100
AcDbLine
 62
7
  6
CONTINUOUS
 10
7.179368626
 20
5.042687688
 11
7.179368626
 21
5.0432941803
  0
LINE
  5
2D5
100
AcDbEntity
  8
0
100
AcDbLine
 62
7
  6
CONTINUOUS
 10
7.1803972563
 20
5.0396744676
 11
7.1803972563
 21
5.0402883334
  0
LINE
  5
2D6
100
AcDbEntity
  8
0
100
AcDbLine
 62
7
  6
CONTINUOUS
 10
7.1804478593
 20
5.0397080082
 11
7.1804478593
 21
5.0403217909
  0
LINE
  5
2D7
100
AcDbEntity
  8
0
100
AcDbLine
 62
7
  6
CONTINUOUS
 10
7.1841264434
 20
5.0483291286
 11
7.1841264434
 21
5.0489222812
  0
LINE
  5
2D8
100
AcDbEntity
  8
0
100
AcDbLine
 62
7
  6
CONTINUOUS
 10
7.1848552283
 20
5.0392274183
 11
7.1848552283
 21
5.0398423933
  0
LINE
  5
2D9
100
AcDbEntity
  8
0
100
AcDbLine
 62
7
  6
CONTINUOUS
 10
7.1869388872
 20
5.0461924507
 11
7.1869388872
 21
5.0467905861
  0
LINE
  5
2DA
100
AcDbEntity
  8
0
100
AcDbLine
 62
7
  6
CONTINUOUS
 10
7.1902224854
 20
5.0405807722
 11
7.1902224854
 21
5.0411924015
  0
LINE
  5
2DB
100
AcDbEntity
  8
0
100
AcDbLine
 62
7
  6
CONTINUOUS
 10
7.1919884398
 20
6.3836048137
 11
7.1919884398
 21
6.2511048137
  0
LINE
  5
2DC
100
AcDbEntity
  8
0
100
AcDbLine
 62
7
  6
CONTINUOUS
 10
7.1948456123
 20
5.0417703759
 11
7.1948456123
 21
5.0418439048
  0
LINE
  5
2DD
100
AcDbEntity
  8
0
100
AcDbLine
 62
7
  6
CONTINUOUS
 10
7.1966264405
 20
5.0395640843
 11
7.1966264405
 21
5.0401782236
  0
LINE
  5
2DE
100
AcDbEntity
  8
0
100
AcDbLine
 62
7
  6
CONTINUOUS
 10
7.1969602997
 20
5.0396516246
 11
7.1969602997
 21
5.040265547
  0
LINE
  5
2DF
100
AcDbEntity
  8
0
100
AcDbLine
 62
7
  6
CONTINUOUS
 10
7.1975066448
 20
5.0393413557
 11
7.1975066448
 21
5.0399560476
  0
LINE
  5
2E0
100
AcDbEntity
  8
0
100
AcDbLine
 62
7
  6
CONTINUOUS
 10
7.2432384398
 20
4.8941048137
 11
7.2432384398
 21
4.8866048137
  0
LINE
  5
2E1
100
AcDbEntity
  8
0
100
AcDbLine
 62
7
  6
CONTINUOUS
 10
7.2524884398
 20
6.6746048137
 11
7.2524884398
 21
6.6476048137
  0
LINE
  5
2E2
100
AcDbEntity
  8
0
100
AcDbLine
 62
7
  6
CONTINUOUS
 10
7.2957384398
 20
4.8816048137
 11
7.2957384398
 21
4.855314463
  0
LINE
  5
2E3
100
AcDbEntity
  8
0
100
AcDbLine
 62
7
  6
CONTINUOUS
 10
7.2994884398
 20
4.9446099162
 11
7.2994884398
 21
4.9016048137
  0
LINE
  5
2E4
100
AcDbEntity
  8
0
100
AcDbLine
 62
7
  6
CONTINUOUS
 10
7.2074884398
 20
6.7196048137
 11
6.8339885442
 21
6.7196048137
  0
LINE
  5
2E5
100
AcDbEntity
  8
0
100
AcDbLine
 62
7
  6
CONTINUOUS
 10
6.8644884398
 20
6.7351048137
 11
7.1769884398
 21
6.7351048137
  0
LINE
  5
2E6
100
AcDbEntity
  8
0
100
AcDbLine
 62
7
  6
CONTINUOUS
 10
6.8644884398
 20
6.7511048137
 11
7.1769884398
 21
6.7511048137
  0
LINE
  5
2E7
100
AcDbEntity
  8
0
100
AcDbLine
 62
7
  6
CONTINUOUS
 10
6.9269884398
 20
6.8136048137
 11
7.1144884398
 21
6.8136048137
  0
LINE
  5
2E8
100
AcDbEntity
  8
0
100
AcDbLine
 62
7
  6
CONTINUOUS
 10
7.2293060659
 20
4.3971190196
 11
7.2829298382
 21
3.9556048137
  0
LINE
  5
2E9
100
AcDbEntity
  8
0
100
AcDbLine
 62
7
  6
CONTINUOUS
 10
7.3609933994
 20
5.8267304325
 11
7.3609933994
 21
6.0292304325
  0
LINE
  5
2EA
100
AcDbEntity
  8
0
100
AcDbLine
 62
7
  6
CONTINUOUS
 10
7.4379933994
 20
5.8267304325
 11
7.4379933994
 21
6.0292304325
  0
LINE
  5
2EB
100
AcDbEntity
  8
0
100
AcDbLine
 62
7
  6
CONTINUOUS
 10
7.4570952303
 20
5.8369194976
 11
7.4570952303
 21
6.0190413674
  0
LINE
  5
2EC
100
AcDbEntity
  8
0
100
AcDbLine
 62
7
  6
CONTINUOUS
 10
7.5414435887
 20
5.8421729666
 11
7.5414435887
 21
6.0137878984
  0
LINE
  5
2ED
100
AcDbEntity
  8
0
100
AcDbLine
 62
7
  6
CONTINUOUS
 10
7.5489933994
 20
5.8387304325
 11
7.5489933994
 21
6.0172304325
  0
LINE
  5
2EE
100
AcDbEntity
  8
0
100
AcDbLine
 62
7
  6
CONTINUOUS
 10
7.5644933994
 20
5.8174804325
 11
7.5644933994
 21
6.0384804325
  0
LINE
  5
2EF
100
AcDbEntity
  8
0
100
AcDbLine
 62
7
  6
CONTINUOUS
 10
7.5944933994
 20
5.7874804325
 11
7.5944933994
 21
6.0684804325
  0
LINE
  5
2F0
100
AcDbEntity
  8
0
100
AcDbLine
 62
7
  6
CONTINUOUS
 10
7.6082384398
 20
2.2141048137
 11
7.6082384398
 21
2.1591048137
  0
LINE
  5
2F1
100
AcDbEntity
  8
0
100
AcDbLine
 62
7
  6
CONTINUOUS
 10
7.6124933994
 20
5.7874804325
 11
7.6124933994
 21
6.0684804325
  0
LINE
  5
2F2
100
AcDbEntity
  8
0
100
AcDbLine
 62
7
  6
CONTINUOUS
 10
7.6424933994
 20
5.8174804325
 11
7.6424933994
 21
6.0384804325
  0
LINE
  5
2F3
100
AcDbEntity
  8
0
100
AcDbLine
 62
7
  6
CONTINUOUS
 10
7.6859933994
 20
5.871458922
 11
7.6859933994
 21
5.984501943
  0
ARC
  5
2F4
100
AcDbEntity
  8
0
100
AcDbCircle
 62
7
  6
CONTINUOUS
 10
4.9445624288
 20
4.3554832507
 40
1.875
100
AcDbArc
 50
1.7022201484
 51
7.6198998136
  0
ARC
  5
2F5
100
AcDbEntity
  8
0
100
AcDbCircle
 62
7
  6
CONTINUOUS
 10
4.7084933994
 20
6.6779804325
 40
0.90625
100
AcDbArc
 50
250.0
 51
270.0
  0
ARC
  5
2F6
100
AcDbEntity
  8
0
100
AcDbCircle
 62
7
  6
CONTINUOUS
 10
3.0702642186
 20
5.6779804325
 40
0.90625
100
AcDbArc
 50
70.0
 51
173.0397067768
  0
ARC
  5
2F7
100
AcDbEntity
  8
0
100
AcDbCircle
 62
7
  6
CONTINUOUS
 10
4.7084933994
 20
6.6779804325
 40
0.59375
100
AcDbArc
 50
250.0
 51
270.0
  0
ARC
  5
2F8
100
AcDbEntity
  8
0
100
AcDbCircle
 62
7
  6
CONTINUOUS
 10
3.0702642186
 20
5.6779804325
 40
0.59375
100
AcDbArc
 50
70.0
 51
172.0071964443
  0
ARC
  5
2F9
100
AcDbEntity
  8
0
100
AcDbCircle
 62
7
  6
CONTINUOUS
 10
2.1233375802
 20
5.7603238686
 40
0.0315
100
AcDbArc
 50
85.0
 51
250.2875420391
  0
ARC
  5
2FA
100
AcDbEntity
  8
0
100
AcDbCircle
 62
7
  6
CONTINUOUS
 10
2.5228116541
 20
5.7253744158
 40
0.0315
100
AcDbArc
 50
279.7124579609
 51
85.0
  0
ARC
  5
2FB
100
AcDbEntity
  8
0
100
AcDbCircle
 62
7
  6
CONTINUOUS
 10
2.1320712807
 20
5.3791120504
 40
0.0155
100
AcDbArc
 50
180.6286931203
 51
265.0
  0
ARC
  5
2FC
100
AcDbEntity
  8
0
100
AcDbCircle
 62
7
  6
CONTINUOUS
 10
2.4480139006
 20
5.3514706528
 40
0.0155
100
AcDbArc
 50
265.0
 51
349.3713068797
  0
ARC
  5
2FD
100
AcDbEntity
  8
0
100
AcDbCircle
 62
7
  6
CONTINUOUS
 10
9.0969144508
 20
4.3554832507
 40
1.875
100
AcDbArc
 50
172.3801001864
 51
178.2977798516
  0
ARC
  5
2FE
100
AcDbEntity
  8
0
100
AcDbCircle
 62
7
  6
CONTINUOUS
 10
6.1222333819
 20
2.7512386263
 40
0.6610050579
100
AcDbArc
 50
340.5168569435
 51
33.0831922526
  0
ARC
  5
2FF
100
AcDbEntity
  8
0
100
AcDbCircle
 62
7
  6
CONTINUOUS
 10
7.9192434977
 20
2.7512386263
 40
0.6610050579
100
AcDbArc
 50
146.9168077474
 51
199.4831430565
  0
ARC
  5
300
100
AcDbEntity
  8
0
100
AcDbCircle
 62
7
  6
CONTINUOUS
 10
7.1507762176
 20
3.4376048137
 40
0.5300377778
100
AcDbArc
 50
144.8305640555
 51
212.2911569963
  0
ARC
  5
301
100
AcDbEntity
  8
0
100
AcDbCircle
 62
7
  6
CONTINUOUS
 10
6.890700662
 20
3.4376048137
 40
0.5300377778
100
AcDbArc
 50
327.7088430037
 51
35.1694359445
  0
ARC
  5
302
100
AcDbEntity
  8
0
100
AcDbCircle
 62
7
  6
CONTINUOUS
 10
6.5257577091
 20
3.9838780651
 40
0.2345
100
AcDbArc
 50
322.0339977482
 51
353.0751017558
  0
ARC
  5
303
100
AcDbEntity
  8
0
100
AcDbCircle
 62
7
  6
CONTINUOUS
 10
7.5157191705
 20
3.9838780651
 40
0.2345
100
AcDbArc
 50
186.9248982442
 51
217.9660022518
  0
ARC
  5
304
100
AcDbEntity
  8
0
100
AcDbCircle
 62
7
  6
CONTINUOUS
 10
7.2464119585
 20
2.3333330574
 40
0.185
100
AcDbArc
 50
4.890558368
 51
77.7266696591
  0
ARC
  5
305
100
AcDbEntity
  8
0
100
AcDbCircle
 62
7
  6
CONTINUOUS
 10
6.7950649211
 20
2.3333330574
 40
0.185
100
AcDbArc
 50
102.2733303409
 51
175.109441632
  0
ARC
  5
306
100
AcDbEntity
  8
0
100
AcDbCircle
 62
7
  6
CONTINUOUS
 10
7.5806383998
 20
2.3541048137
 40
0.125
100
AcDbArc
 50
182.292442776
 51
270.0
  0
ARC
  5
307
100
AcDbEntity
  8
0
100
AcDbCircle
 62
7
  6
CONTINUOUS
 10
6.4608384798
 20
2.3541048137
 40
0.125
100
AcDbArc
 50
270.0
 51
357.707557224
  0
ARC
  5
308
100
AcDbEntity
  8
0
100
AcDbCircle
 62
7
  6
CONTINUOUS
 10
6.7583682435
 20
3.7141048137
 40
0.05
100
AcDbArc
 50
90.0
 51
144.8305640555
  0
ARC
  5
309
100
AcDbEntity
  8
0
100
AcDbCircle
 62
7
  6
CONTINUOUS
 10
7.2831086361
 20
3.7141048137
 40
0.05
100
AcDbArc
 50
35.1694359445
 51
90.0
  0
ARC
  5
30A
100
AcDbEntity
  8
0
100
AcDbCircle
 62
7
  6
CONTINUOUS
 10
6.7474884398
 20
3.8108548137
 40
0.04675
100
AcDbArc
 50
142.0339977482
 51
270.0
  0
ARC
  5
30B
100
AcDbEntity
  8
0
100
AcDbCircle
 62
7
  6
CONTINUOUS
 10
7.2939884398
 20
3.8108548137
 40
0.04675
100
AcDbArc
 50
270.0
 51
37.9660022518
  0
ARC
  5
30C
100
AcDbEntity
  8
0
100
AcDbCircle
 62
7
  6
CONTINUOUS
 10
7.3144884398
 20
3.7418548137
 40
0.03175
100
AcDbArc
 50
319.2106132735
 51
77.7161301687
  0
ARC
  5
30D
100
AcDbEntity
  8
0
100
AcDbCircle
 62
7
  6
CONTINUOUS
 10
6.7269884398
 20
3.7418548137
 40
0.03175
100
AcDbArc
 50
102.2838698313
 51
220.7893867265
  0
ARC
  5
30E
100
AcDbEntity
  8
0
100
AcDbCircle
 62
7
  6
CONTINUOUS
 10
6.8369884398
 20
4.3941048137
 40
0.025
100
AcDbArc
 50
90.0
 51
173.0751017558
  0
ARC
  5
30F
100
AcDbEntity
  8
0
100
AcDbCircle
 62
7
  6
CONTINUOUS
 10
7.2044884398
 20
4.3941048137
 40
0.025
100
AcDbArc
 50
6.9248982442
 51
90.0
  0
ARC
  5
310
100
AcDbEntity
  8
0
100
AcDbCircle
 62
7
  6
CONTINUOUS
 10
6.6907384398
 20
3.1216048137
 40
0.0175
100
AcDbArc
 50
90.0
 51
213.0831922526
  0
ARC
  5
311
100
AcDbEntity
  8
0
100
AcDbCircle
 62
7
  6
CONTINUOUS
 10
7.3507384398
 20
3.1216048137
 40
0.0175
100
AcDbArc
 50
326.9168077474
 51
90.0
  0
ARC
  5
312
100
AcDbEntity
  8
0
100
AcDbCircle
 62
7
  6
CONTINUOUS
 10
7.5932384398
 20
2.2141048137
 40
0.015
100
AcDbArc
 50
0.0
 51
90.0
  0
ARC
  5
313
100
AcDbEntity
  8
0
100
AcDbCircle
 62
7
  6
CONTINUOUS
 10
6.4482384398
 20
2.2141048137
 40
0.015
100
AcDbArc
 50
90.0
 51
180.0
  0
ARC
  5
314
100
AcDbEntity
  8
0
100
AcDbCircle
 62
7
  6
CONTINUOUS
 10
6.7571733107
 20
2.5266048137
 40
0.0125
100
AcDbArc
 50
160.5168569435
 51
267.3932584987
  0
ARC
  5
315
100
AcDbEntity
  8
0
100
AcDbCircle
 62
7
  6
CONTINUOUS
 10
7.2843035689
 20
2.5266048137
 40
0.0125
100
AcDbArc
 50
272.6067415013
 51
19.4831430565
  0
ARC
  5
316
100
AcDbEntity
  8
0
100
AcDbCircle
 62
7
  6
CONTINUOUS
 10
6.6942583631
 20
3.1491048137
 40
0.01
100
AcDbArc
 50
270.0
 51
32.2911569963
  0
ARC
  5
317
100
AcDbEntity
  8
0
100
AcDbCircle
 62
7
  6
CONTINUOUS
 10
7.3472185165
 20
3.1491048137
 40
0.01
100
AcDbArc
 50
147.7088430037
 51
270.0
  0
ARC
  5
318
100
AcDbEntity
  8
0
100
AcDbCircle
 62
7
  6
CONTINUOUS
 10
5.7771300061
 20
5.2806048137
 40
1.0586084337
100
AcDbArc
 50
346.063368022
 51
16.0961901843
  0
ARC
  5
319
100
AcDbEntity
  8
0
100
AcDbCircle
 62
7
  6
CONTINUOUS
 10
6.6223699877
 20
4.8196648682
 40
0.0644399465
100
AcDbArc
 50
75.9836102393
 51
89.989261281
  0
ARC
  5
31A
100
AcDbEntity
  8
0
100
AcDbCircle
 62
7
  6
CONTINUOUS
 10
6.7669884398
 20
4.9446099162
 40
0.025
100
AcDbArc
 50
101.5369590328
 51
180.0
  0
ARC
  5
31B
100
AcDbEntity
  8
0
100
AcDbCircle
 62
7
  6
CONTINUOUS
 10
6.8121475956
 20
4.8489227308
 40
0.0106181676
100
AcDbArc
 50
280.7705528145
 51
283.8117470402
  0
ARC
  5
31C
100
AcDbEntity
  8
0
100
AcDbCircle
 62
7
  6
CONTINUOUS
 10
6.8121686342
 20
4.8488097311
 40
0.0105032271
100
AcDbArc
 50
277.6537246507
 51
280.7730019271
  0
ARC
  5
31D
100
AcDbEntity
  8
0
100
AcDbCircle
 62
7
  6
CONTINUOUS
 10
6.7494884398
 20
4.9016048137
 40
0.0075
100
AcDbArc
 50
180.0
 51
270.0
  0
ARC
  5
31E
100
AcDbEntity
  8
0
100
AcDbCircle
 62
7
  6
CONTINUOUS
 10
6.7507384398
 20
4.8816048137
 40
0.005
100
AcDbArc
 50
90.0
 51
180.0
  0
ARC
  5
31F
100
AcDbEntity
  8
0
100
AcDbCircle
 62
7
  6
CONTINUOUS
 10
7.020687157
 20
4.7927452411
 40
0.303883142
100
AcDbArc
 50
54.6551144334
 51
56.6384485332
  0
ARC
  5
320
100
AcDbEntity
  8
0
100
AcDbCircle
 62
7
  6
CONTINUOUS
 10
7.0207137402
 20
4.792784694
 40
0.303835573
100
AcDbArc
 50
57.5705702892
 51
58.9885001114
  0
ARC
  5
321
100
AcDbEntity
  8
0
100
AcDbCircle
 62
7
  6
CONTINUOUS
 10
7.0206637349
 20
4.7928100354
 40
0.3038096051
100
AcDbArc
 50
59.5584005292
 51
60.536957891
  0
ARC
  5
322
100
AcDbEntity
  8
0
100
AcDbCircle
 62
7
  6
CONTINUOUS
 10
7.0103669283
 20
4.8132695607
 40
0.2809138087
100
AcDbArc
 50
124.2762778825
 51
124.7274490316
  0
ARC
  5
323
100
AcDbEntity
  8
0
100
AcDbCircle
 62
7
  6
CONTINUOUS
 10
7.0100142151
 20
4.8133003353
 40
0.2807225951
100
AcDbArc
 50
124.2124067927
 51
124.6718711908
  0
ARC
  5
324
100
AcDbEntity
  8
0
100
AcDbCircle
 62
7
  6
CONTINUOUS
 10
7.0101167748
 20
4.8136372745
 40
0.2804690728
100
AcDbArc
 50
123.6905052404
 51
124.276355674
  0
ARC
  5
325
100
AcDbEntity
  8
0
100
AcDbCircle
 62
7
  6
CONTINUOUS
 10
7.0098085971
 20
4.8136026856
 40
0.2803569525
100
AcDbArc
 50
123.632717202
 51
124.2123991475
  0
ARC
  5
326
100
AcDbEntity
  8
0
100
AcDbCircle
 62
7
  6
CONTINUOUS
 10
7.0081204373
 20
4.8131952387
 40
0.2798765534
100
AcDbArc
 50
124.3713663377
 51
124.6165867773
  0
ARC
  5
327
100
AcDbEntity
  8
0
100
AcDbCircle
 62
7
  6
CONTINUOUS
 10
6.9930791136
 20
4.8085805331
 40
0.2798482587
100
AcDbArc
 50
54.9296217379
 51
55.9596049989
  0
ARC
  5
328
100
AcDbEntity
  8
0
100
AcDbCircle
 62
7
  6
CONTINUOUS
 10
7.0094796035
 20
4.8146055333
 40
0.2793099859
100
AcDbArc
 50
121.7757930953
 51
123.6223537997
  0
ARC
  5
329
100
AcDbEntity
  8
0
100
AcDbCircle
 62
7
  6
CONTINUOUS
 10
7.0072290318
 20
4.8145380568
 40
0.2782647409
100
AcDbArc
 50
121.5147693785
 51
123.2302851994
  0
ARC
  5
32A
100
AcDbEntity
  8
0
100
AcDbCircle
 62
7
  6
CONTINUOUS
 10
7.0088154726
 20
4.8156805344
 40
0.2780463819
100
AcDbArc
 50
120.3135761324
 51
121.7761030618
  0
ARC
  5
32B
100
AcDbEntity
  8
0
100
AcDbCircle
 62
7
  6
CONTINUOUS
 10
7.008356043
 20
4.8158992735
 40
0.2776391724
100
AcDbArc
 50
120.2495071559
 51
120.7932323852
  0
ARC
  5
32C
100
AcDbEntity
  8
0
100
AcDbCircle
 62
7
  6
CONTINUOUS
 10
7.008446713
 20
4.816310043
 40
0.2773168168
100
AcDbArc
 50
119.7735839664
 51
120.2322097587
  0
ARC
  5
32D
100
AcDbEntity
  8
0
100
AcDbCircle
 62
7
  6
CONTINUOUS
 10
7.0081292391
 20
4.8162877313
 40
0.2771893508
100
AcDbArc
 50
119.7708968731
 51
120.2494595734
  0
ARC
  5
32E
100
AcDbEntity
  8
0
100
AcDbCircle
 62
7
  6
CONTINUOUS
 10
7.0066326934
 20
4.8155023403
 40
0.2771309664
100
AcDbArc
 50
120.5476235668
 51
121.4504045672
  0
ARC
  5
32F
100
AcDbEntity
  8
0
100
AcDbCircle
 62
7
  6
CONTINUOUS
 10
6.8921825708
 20
4.5699620215
 40
0.0619887048
100
AcDbArc
 50
132.9187712499
 51
134.2168798477
  0
ARC
  5
330
100
AcDbEntity
  8
0
100
AcDbCircle
 62
7
  6
CONTINUOUS
 10
6.8399884398
 20
4.5741048137
 40
0.03
100
AcDbArc
 50
0.0
 51
90.0
  0
ARC
  5
331
100
AcDbEntity
  8
0
100
AcDbCircle
 62
7
  6
CONTINUOUS
 10
6.8901687444
 20
4.9822036244
 40
0.2660235325
100
AcDbArc
 50
12.6529736197
 51
12.8904407781
  0
ARC
  5
332
100
AcDbEntity
  8
0
100
AcDbCircle
 62
7
  6
CONTINUOUS
 10
6.9158354466
 20
4.9653073281
 40
0.1009096529
100
AcDbArc
 50
121.1006336007
 51
121.83270893
  0
ARC
  5
333
100
AcDbEntity
  8
0
100
AcDbCircle
 62
7
  6
CONTINUOUS
 10
6.8244296202
 20
4.9663939107
 40
0.0625
100
AcDbArc
 50
105.0
 51
177.5140472802
  0
ARC
  5
334
100
AcDbEntity
  8
0
100
AcDbCircle
 62
7
  6
CONTINUOUS
 10
6.8954926068
 20
5.0000259715
 40
0.0612111606
100
AcDbArc
 50
115.1470117195
 51
116.1894556508
  0
ARC
  5
335
100
AcDbEntity
  8
0
100
AcDbCircle
 62
7
  6
CONTINUOUS
 10
6.8968303526
 20
5.0053717392
 40
0.0534039221
100
AcDbArc
 50
110.3713828402
 51
111.8096868309
  0
ARC
  5
336
100
AcDbEntity
  8
0
100
AcDbCircle
 62
7
  6
CONTINUOUS
 10
6.8963217896
 20
5.0062182691
 40
0.0518910556
100
AcDbArc
 50
110.3925536203
 51
111.8733327812
  0
ARC
  5
337
100
AcDbEntity
  8
0
100
AcDbCircle
 62
7
  6
CONTINUOUS
 10
6.889563778
 20
5.0126187957
 40
0.0472924712
100
AcDbArc
 50
113.9077088421
 51
115.1280233301
  0
ARC
  5
338
100
AcDbEntity
  8
0
100
AcDbCircle
 62
7
  6
CONTINUOUS
 10
6.8938265514
 20
5.0134201619
 40
0.0448132477
100
AcDbArc
 50
108.7564825235
 51
110.3531708849
  0
ARC
  5
339
100
AcDbEntity
  8
0
100
AcDbCircle
 62
7
  6
CONTINUOUS
 10
6.8852403945
 20
5.0218188226
 40
0.0366017394
100
AcDbArc
 50
113.1975818914
 51
113.923267817
  0
ARC
  5
33A
100
AcDbEntity
  8
0
100
AcDbCircle
 62
7
  6
CONTINUOUS
 10
6.8572666379
 20
5.0761122924
 40
0.0340401595
100
AcDbArc
 50
310.717044551
 51
312.4235062017
  0
ARC
  5
33B
100
AcDbEntity
  8
0
100
AcDbCircle
 62
7
  6
CONTINUOUS
 10
6.8830913882
 20
5.0268494634
 40
0.0311313164
100
AcDbArc
 50
112.4038629068
 51
113.2092166829
  0
ARC
  5
33C
100
AcDbEntity
  8
0
100
AcDbCircle
 62
7
  6
CONTINUOUS
 10
6.8607549503
 20
5.0716056756
 40
0.0287947487
100
AcDbArc
 50
311.6611862826
 51
313.4802279438
  0
ARC
  5
33D
100
AcDbEntity
  8
0
100
AcDbCircle
 62
7
  6
CONTINUOUS
 10
6.866935331
 20
5.0255070346
 40
0.0277928905
100
AcDbArc
 50
61.2609085663
 51
63.1876970474
  0
ARC
  5
33E
100
AcDbEntity
  8
0
100
AcDbCircle
 62
7
  6
CONTINUOUS
 10
6.8324022444
 20
5.0599858507
 40
0.0230407198
100
AcDbArc
 50
303.8561096624
 51
304.0076994672
  0
ARC
  5
33F
100
AcDbEntity
  8
0
100
AcDbCircle
 62
7
  6
CONTINUOUS
 10
6.858072463
 20
5.0249957952
 40
0.0203014639
100
AcDbArc
 50
77.2118696501
 51
79.5944260908
  0
ARC
  5
340
100
AcDbEntity
  8
0
100
AcDbCircle
 62
7
  6
CONTINUOUS
 10
6.8580904014
 20
5.0245354472
 40
0.0201584373
100
AcDbArc
 50
78.6052061168
 51
79.5716121602
  0
ARC
  5
341
100
AcDbEntity
  8
0
100
AcDbCircle
 62
7
  6
CONTINUOUS
 10
6.8486952599
 20
5.0439797621
 40
0.018030891
100
AcDbArc
 50
19.0884247289
 51
20.5596174599
  0
ARC
  5
342
100
AcDbEntity
  8
0
100
AcDbCircle
 62
7
  6
CONTINUOUS
 10
6.8566715446
 20
5.0393391589
 40
0.0018792676
100
AcDbArc
 50
179.9701928642
 51
183.2315957017
  0
ARC
  5
343
100
AcDbEntity
  8
0
100
AcDbCircle
 62
7
  6
CONTINUOUS
 10
6.856582294
 20
5.0393343972
 40
0.0017898904
100
AcDbArc
 50
183.2404641706
 51
184.3829611988
  0
ARC
  5
344
100
AcDbEntity
  8
0
100
AcDbCircle
 62
7
  6
CONTINUOUS
 10
7.0132171402
 20
4.8236031468
 40
0.2760779691
100
AcDbArc
 50
50.8414698476
 51
51.5595060769
  0
ARC
  5
345
100
AcDbEntity
  8
0
100
AcDbCircle
 62
7
  6
CONTINUOUS
 10
7.0132656064
 20
4.8235861008
 40
0.2755797092
100
AcDbArc
 50
51.0101836195
 51
51.4901115308
  0
ARC
  5
346
100
AcDbEntity
  8
0
100
AcDbCircle
 62
7
  6
CONTINUOUS
 10
7.0105252809
 20
4.8253766587
 40
0.2740719256
100
AcDbArc
 50
51.7591852505
 51
54.2509517397
  0
ARC
  5
347
100
AcDbEntity
  8
0
100
AcDbCircle
 62
7
  6
CONTINUOUS
 10
7.0142909524
 20
4.8265894518
 40
0.2724180201
100
AcDbArc
 50
52.7011862307
 51
54.7186675836
  0
ARC
  5
348
100
AcDbEntity
  8
0
100
AcDbCircle
 62
7
  6
CONTINUOUS
 10
7.0142555378
 20
4.8264605994
 40
0.2720597099
100
AcDbArc
 50
52.6342979252
 51
54.6560635934
  0
ARC
  5
349
100
AcDbEntity
  8
0
100
AcDbCircle
 62
7
  6
CONTINUOUS
 10
7.0154307303
 20
4.8281984788
 40
0.2704462035
100
AcDbArc
 50
54.7188941671
 51
55.7323807577
  0
ARC
  5
34A
100
AcDbEntity
  8
0
100
AcDbCircle
 62
7
  6
CONTINUOUS
 10
7.0127008902
 20
4.8283959213
 40
0.270350352
100
AcDbArc
 50
55.2698001096
 51
55.7492025533
  0
ARC
  5
34B
100
AcDbEntity
  8
0
100
AcDbCircle
 62
7
  6
CONTINUOUS
 10
7.0154825876
 20
4.8281926795
 40
0.2699370193
100
AcDbArc
 50
54.9141200409
 51
55.6720421154
  0
ARC
  5
34C
100
AcDbEntity
  8
0
100
AcDbCircle
 62
7
  6
CONTINUOUS
 10
7.0128215154
 20
4.8303906088
 40
0.2679714212
100
AcDbArc
 50
56.8462125767
 51
57.8731944699
  0
ARC
  5
34D
100
AcDbEntity
  8
0
100
AcDbCircle
 62
7
  6
CONTINUOUS
 10
7.0049038322
 20
4.8302648788
 40
0.2676027018
100
AcDbArc
 50
56.7877177051
 51
57.8167761906
  0
ARC
  5
34E
100
AcDbEntity
  8
0
100
AcDbCircle
 62
7
  6
CONTINUOUS
 10
7.0181881783
 20
4.8305136101
 40
0.2675612956
100
AcDbArc
 50
56.8160038671
 51
57.8448966087
  0
ARC
  5
34F
100
AcDbEntity
  8
0
100
AcDbCircle
 62
7
  6
CONTINUOUS
 10
7.0181616654
 20
4.8303888019
 40
0.2671944579
100
AcDbArc
 50
56.7577472631
 51
57.7887133858
  0
ARC
  5
350
100
AcDbEntity
  8
0
100
AcDbCircle
 62
7
  6
CONTINUOUS
 10
7.0142877597
 20
4.8305489777
 40
0.265652696
100
AcDbArc
 50
92.7523362281
 51
93.8372669614
  0
ARC
  5
351
100
AcDbEntity
  8
0
100
AcDbCircle
 62
7
  6
CONTINUOUS
 10
6.9936359527
 20
4.858638671
 40
0.2447413303
100
AcDbArc
 50
48.0781527952
 51
51.9366106593
  0
ARC
  5
352
100
AcDbEntity
  8
0
100
AcDbCircle
 62
7
  6
CONTINUOUS
 10
6.9988096089
 20
4.8600356008
 40
0.2429190063
100
AcDbArc
 50
48.0636746179
 51
51.9510888366
  0
ARC
  5
353
100
AcDbEntity
  8
0
100
AcDbCircle
 62
7
  6
CONTINUOUS
 10
6.9987305964
 20
4.8597816539
 40
0.2427050879
100
AcDbArc
 50
47.9931922363
 51
51.8878507668
  0
ARC
  5
354
100
AcDbEntity
  8
0
100
AcDbCircle
 62
7
  6
CONTINUOUS
 10
6.9984244091
 20
4.8672624947
 40
0.2337167843
100
AcDbArc
 50
53.3027947189
 51
54.3795164026
  0
ARC
  5
355
100
AcDbEntity
  8
0
100
AcDbCircle
 62
7
  6
CONTINUOUS
 10
7.0066975355
 20
4.8676313125
 40
0.2332599987
100
AcDbArc
 50
53.3017404332
 51
54.3805706884
  0
ARC
  5
356
100
AcDbEntity
  8
0
100
AcDbCircle
 62
7
  6
CONTINUOUS
 10
7.0066907783
 20
4.8674582395
 40
0.2329377681
100
AcDbArc
 50
53.3258525627
 51
54.3217197487
  0
ARC
  5
357
100
AcDbEntity
  8
0
100
AcDbCircle
 62
7
  6
CONTINUOUS
 10
6.9741953776
 20
4.8248548137
 40
0.2322069378
100
AcDbArc
 50
162.6479087683
 51
164.5819266716
  0
ARC
  5
358
100
AcDbEntity
  8
0
100
AcDbCircle
 62
7
  6
CONTINUOUS
 10
6.9741953776
 20
4.8248548137
 40
0.2322069378
100
AcDbArc
 50
169.7019002567
 51
172.358132369
  0
ARC
  5
359
100
AcDbEntity
  8
0
100
AcDbCircle
 62
7
  6
CONTINUOUS
 10
7.0165721198
 20
4.9158057615
 40
0.195911644
100
AcDbArc
 50
38.4624509692
 51
38.6999415577
  0
ARC
  5
35A
100
AcDbEntity
  8
0
100
AcDbCircle
 62
7
  6
CONTINUOUS
 10
7.0180235185
 20
4.9172748518
 40
0.1942465306
100
AcDbArc
 50
38.2837234161
 51
39.3640577025
  0
ARC
  5
35B
100
AcDbEntity
  8
0
100
AcDbCircle
 62
7
  6
CONTINUOUS
 10
7.0187914308
 20
4.917589701
 40
0.1930642312
100
AcDbArc
 50
38.6985658393
 51
39.2956176224
  0
ARC
  5
35C
100
AcDbEntity
  8
0
100
AcDbCircle
 62
7
  6
CONTINUOUS
 10
7.0079171655
 20
4.9240401523
 40
0.1719448048
100
AcDbArc
 50
93.8040737389
 51
94.8115048677
  0
ARC
  5
35D
100
AcDbEntity
  8
0
100
AcDbCircle
 62
7
  6
CONTINUOUS
 10
7.0037984587
 20
4.9731250522
 40
0.1226874103
100
AcDbArc
 50
94.8175514056
 51
95.3474783531
  0
ARC
  5
35E
100
AcDbEntity
  8
0
100
AcDbCircle
 62
7
  6
CONTINUOUS
 10
7.0022803955
 20
4.9890928142
 40
0.1061476604
100
AcDbArc
 50
95.3601864289
 51
95.6321259217
  0
ARC
  5
35F
100
AcDbEntity
  8
0
100
AcDbCircle
 62
7
  6
CONTINUOUS
 10
7.0010062726
 20
5.0020365309
 40
0.0931413855
100
AcDbArc
 50
95.6335629247
 51
96.0226252351
  0
ARC
  5
360
100
AcDbEntity
  8
0
100
AcDbCircle
 62
7
  6
CONTINUOUS
 10
6.8022514138
 20
5.1391463266
 40
0.1090952735
100
AcDbArc
 50
305.4834566143
 51
306.0876299973
  0
ARC
  5
361
100
AcDbEntity
  8
0
100
AcDbCircle
 62
7
  6
CONTINUOUS
 10
6.8068406745
 20
5.1320341593
 40
0.101120228
100
AcDbArc
 50
305.8819241873
 51
306.1614846427
  0
ARC
  5
362
100
AcDbEntity
  8
0
100
AcDbCircle
 62
7
  6
CONTINUOUS
 10
6.8031078623
 20
5.6052353912
 40
0.0323694225
100
AcDbArc
 50
90.0
 51
254.0972010097
  0
ARC
  5
363
100
AcDbEntity
  8
0
100
AcDbCircle
 62
7
  6
CONTINUOUS
 10
6.7818198225
 20
6.487368303
 40
0.1176686173
100
AcDbArc
 50
308.5444150902
 51
45.36768663
  0
ARC
  5
364
100
AcDbEntity
  8
0
100
AcDbCircle
 62
7
  6
CONTINUOUS
 10
6.9269884398
 20
6.7511048137
 40
0.0625
100
AcDbArc
 50
90.0
 51
180.0
  0
ARC
  5
365
100
AcDbEntity
  8
0
100
AcDbCircle
 62
7
  6
CONTINUOUS
 10
6.8339884398
 20
6.6746048137
 40
0.045
100
AcDbArc
 50
90.0
 51
180.0
  0
ARC
  5
366
100
AcDbEntity
  8
0
100
AcDbCircle
 62
7
  6
CONTINUOUS
 10
6.8339884398
 20
6.6476048137
 40
0.045
100
AcDbArc
 50
180.0
 51
270.0
  0
ARC
  5
367
100
AcDbEntity
  8
0
100
AcDbCircle
 62
7
  6
CONTINUOUS
 10
6.6413137083
 20
6.0999804325
 40
0.0315
100
AcDbArc
 50
33.20382253
 51
90.0
  0
ARC
  5
368
100
AcDbEntity
  8
0
100
AcDbCircle
 62
7
  6
CONTINUOUS
 10
6.6413137083
 20
5.7559804325
 40
0.0315
100
AcDbArc
 50
270.0
 51
326.79617747
  0
ARC
  5
369
100
AcDbEntity
  8
0
100
AcDbCircle
 62
7
  6
CONTINUOUS
 10
6.6940275584
 20
6.1344804325
 40
0.0315
100
AcDbArc
 50
213.20382253
 51
327.7047672559
  0
ARC
  5
36A
100
AcDbEntity
  8
0
100
AcDbCircle
 62
7
  6
CONTINUOUS
 10
6.6940275584
 20
5.7214804325
 40
0.0315
100
AcDbArc
 50
32.2952327441
 51
146.79617747
  0
ARC
  5
36B
100
AcDbEntity
  8
0
100
AcDbCircle
 62
7
  6
CONTINUOUS
 10
6.4147433994
 20
6.1314804325
 40
0.03125
100
AcDbArc
 50
0.0
 51
180.0
  0
ARC
  5
36C
100
AcDbEntity
  8
0
100
AcDbCircle
 62
7
  6
CONTINUOUS
 10
6.4147433994
 20
5.7244804325
 40
0.03125
100
AcDbArc
 50
180.0
 51
360.0
  0
ARC
  5
36D
100
AcDbEntity
  8
0
100
AcDbCircle
 62
7
  6
CONTINUOUS
 10
6.8489884398
 20
6.7351048137
 40
0.0155
100
AcDbArc
 50
270.0
 51
360.0
  0
ARC
  5
36E
100
AcDbEntity
  8
0
100
AcDbCircle
 62
7
  6
CONTINUOUS
 10
6.8644884398
 20
6.3836048137
 40
0.015
100
AcDbArc
 50
128.5444150902
 51
180.0
  0
ARC
  5
36F
100
AcDbEntity
  8
0
100
AcDbCircle
 62
7
  6
CONTINUOUS
 10
7.0207384398
 20
4.792438147
 40
0.3041666667
100
AcDbArc
 50
121.4503141996
 51
121.5092690704
  0
ARC
  5
370
100
AcDbEntity
  8
0
100
AcDbCircle
 62
7
  6
CONTINUOUS
 10
7.0207384398
 20
4.792438147
 40
0.3041666667
100
AcDbArc
 50
51.0853165279
 51
53.7933586594
  0
ARC
  5
371
100
AcDbEntity
  8
0
100
AcDbCircle
 62
7
  6
CONTINUOUS
 10
7.0207384398
 20
4.792438147
 40
0.3041666667
100
AcDbArc
 50
60.583724828
 51
84.6475095744
  0
ARC
  5
372
100
AcDbEntity
  8
0
100
AcDbCircle
 62
7
  6
CONTINUOUS
 10
7.0207384398
 20
4.792438147
 40
0.3041666667
100
AcDbArc
 50
95.3525584537
 51
119.5478781715
  0
ARC
  5
373
100
AcDbEntity
  8
0
100
AcDbCircle
 62
7
  6
CONTINUOUS
 10
7.0207384398
 20
4.792438147
 40
0.3041540044
100
AcDbArc
 50
125.2405381732
 51
128.9146834721
  0
ARC
  5
374
100
AcDbEntity
  8
0
100
AcDbCircle
 62
7
  6
CONTINUOUS
 10
7.0209986879
 20
4.7927540588
 40
0.3037573118
100
AcDbArc
 50
55.0877104814
 51
56.6866070358
  0
ARC
  5
375
100
AcDbEntity
  8
0
100
AcDbCircle
 62
7
  6
CONTINUOUS
 10
7.0207384398
 20
4.792438147
 40
0.3037455532
100
AcDbArc
 50
125.2949884568
 51
126.3418201828
  0
ARC
  5
376
100
AcDbEntity
  8
0
100
AcDbCircle
 62
7
  6
CONTINUOUS
 10
7.0210171894
 20
4.792781753
 40
0.303724007
100
AcDbArc
 50
56.84713371
 51
57.4509903216
  0
ARC
  5
377
100
AcDbEntity
  8
0
100
AcDbCircle
 62
7
  6
CONTINUOUS
 10
7.0210191051
 20
4.792784542
 40
0.3037206256
100
AcDbArc
 50
57.6795280593
 51
58.9754704197
  0
ARC
  5
378
100
AcDbEntity
  8
0
100
AcDbCircle
 62
7
  6
CONTINUOUS
 10
7.0210592069
 20
4.7927473808
 40
0.3037199751
100
AcDbArc
 50
54.0946957787
 51
54.4823060895
  0
ARC
  5
379
100
AcDbEntity
  8
0
100
AcDbCircle
 62
7
  6
CONTINUOUS
 10
7.0207384398
 20
4.792438147
 40
0.3036666667
100
AcDbArc
 50
56.8385389567
 51
57.4415555532
  0
ARC
  5
37A
100
AcDbEntity
  8
0
100
AcDbCircle
 62
7
  6
CONTINUOUS
 10
7.0207384398
 20
4.792438147
 40
0.3036666667
100
AcDbArc
 50
53.9030831595
 51
54.517429444
  0
ARC
  5
37B
100
AcDbEntity
  8
0
100
AcDbCircle
 62
7
  6
CONTINUOUS
 10
7.0207384398
 20
4.792438147
 40
0.3036666667
100
AcDbArc
 50
84.6386706815
 51
85.3200159386
  0
ARC
  5
37C
100
AcDbEntity
  8
0
100
AcDbCircle
 62
7
  6
CONTINUOUS
 10
7.0207384398
 20
4.792438147
 40
0.3036666667
100
AcDbArc
 50
94.6801179541
 51
95.3613974595
  0
ARC
  5
37D
100
AcDbEntity
  8
0
100
AcDbCircle
 62
7
  6
CONTINUOUS
 10
7.0211024727
 20
4.7928141877
 40
0.3036403485
100
AcDbArc
 50
59.6293880081
 51
60.4106564039
  0
ARC
  5
37E
100
AcDbEntity
  8
0
100
AcDbCircle
 62
7
  6
CONTINUOUS
 10
7.0215511291
 20
4.7929152273
 40
0.303452867
100
AcDbArc
 50
123.8395100399
 51
125.5595506815
  0
ARC
  5
37F
100
AcDbEntity
  8
0
100
AcDbCircle
 62
7
  6
CONTINUOUS
 10
7.0215685378
 20
4.7928888793
 40
0.3029842198
100
AcDbArc
 50
124.9750392272
 51
125.5608281636
  0
ARC
  5
380
100
AcDbEntity
  8
0
100
AcDbCircle
 62
7
  6
CONTINUOUS
 10
7.0215599192
 20
4.7929011803
 40
0.3029691999
100
AcDbArc
 50
124.4639407471
 51
124.8607666718
  0
ARC
  5
381
100
AcDbEntity
  8
0
100
AcDbCircle
 62
7
  6
CONTINUOUS
 10
7.0228915001
 20
4.7929519371
 40
0.3011783637
100
AcDbArc
 50
119.848700288
 51
121.4534949598
  0
ARC
  5
382
100
AcDbEntity
  8
0
100
AcDbCircle
 62
7
  6
CONTINUOUS
 10
7.0207384398
 20
4.792438147
 40
0.2986822913
100
AcDbArc
 50
94.8013302065
 51
96.7294591658
  0
ARC
  5
383
100
AcDbEntity
  8
0
100
AcDbCircle
 62
7
  6
CONTINUOUS
 10
7.0207384398
 20
4.792438147
 40
0.2986822913
100
AcDbArc
 50
83.2705408342
 51
84.7172341721
  0
ARC
  5
384
100
AcDbEntity
  8
0
100
AcDbCircle
 62
7
  6
CONTINUOUS
 10
7.0207384398
 20
4.792438147
 40
0.2981730948
100
AcDbArc
 50
94.8095488357
 51
96.7296151851
  0
ARC
  5
385
100
AcDbEntity
  8
0
100
AcDbCircle
 62
7
  6
CONTINUOUS
 10
7.0207384398
 20
4.792438147
 40
0.2981730948
100
AcDbArc
 50
83.2704308268
 51
84.7081869637
  0
ARC
  5
386
100
AcDbEntity
  8
0
100
AcDbCircle
 62
7
  6
CONTINUOUS
 10
7.0207384398
 20
4.792438147
 40
0.296864108
100
AcDbArc
 50
86.9924445346
 51
92.5244827468
  0
ARC
  5
387
100
AcDbEntity
  8
0
100
AcDbCircle
 62
7
  6
CONTINUOUS
 10
7.0207384398
 20
4.792438147
 40
0.2963517875
100
AcDbArc
 50
86.9872404062
 51
92.5288498
  0
ARC
  5
388
100
AcDbEntity
  8
0
100
AcDbCircle
 62
7
  6
CONTINUOUS
 10
7.0207384398
 20
4.792438147
 40
0.2931139686
100
AcDbArc
 50
86.9539294039
 51
92.5568026376
  0
ARC
  5
389
100
AcDbEntity
  8
0
100
AcDbCircle
 62
7
  6
CONTINUOUS
 10
7.0207384398
 20
4.792438147
 40
0.2905466591
100
AcDbArc
 50
94.936101857
 51
96.918800095
  0
ARC
  5
38A
100
AcDbEntity
  8
0
100
AcDbCircle
 62
7
  6
CONTINUOUS
 10
7.0207384398
 20
4.792438147
 40
0.2905466591
100
AcDbArc
 50
83.081199905
 51
84.5688722772
  0
ARC
  5
38B
100
AcDbEntity
  8
0
100
AcDbCircle
 62
7
  6
CONTINUOUS
 10
7.0207384398
 20
4.792438147
 40
0.2889504475
100
AcDbArc
 50
94.9634379523
 51
96.9572091603
  0
ARC
  5
38C
100
AcDbEntity
  8
0
100
AcDbCircle
 62
7
  6
CONTINUOUS
 10
7.0207384398
 20
4.792438147
 40
0.2889504475
100
AcDbArc
 50
83.0427908397
 51
84.5387788628
  0
ARC
  5
38D
100
AcDbEntity
  8
0
100
AcDbCircle
 62
7
  6
CONTINUOUS
 10
7.0207384398
 20
4.792438147
 40
0.2884240705
100
AcDbArc
 50
94.9725190695
 51
96.957389101
  0
ARC
  5
38E
100
AcDbEntity
  8
0
100
AcDbCircle
 62
7
  6
CONTINUOUS
 10
7.0207384398
 20
4.792438147
 40
0.2884240705
100
AcDbArc
 50
83.0426616745
 51
84.5287816991
  0
ARC
  5
38F
100
AcDbEntity
  8
0
100
AcDbCircle
 62
7
  6
CONTINUOUS
 10
7.0207384398
 20
4.792438147
 40
0.2876045221
100
AcDbArc
 50
85.8393277682
 51
93.6614649594
  0
ARC
  5
390
100
AcDbEntity
  8
0
100
AcDbCircle
 62
7
  6
CONTINUOUS
 10
7.0207384398
 20
4.792438147
 40
0.2870756772
100
AcDbArc
 50
85.8316495255
 51
93.6682192565
  0
ARC
  5
391
100
AcDbEntity
  8
0
100
AcDbCircle
 62
7
  6
CONTINUOUS
 10
7.0207384398
 20
4.792438147
 40
0.2805550055
100
AcDbArc
 50
84.887644479
 51
94.599957045
  0
ARC
  5
392
100
AcDbEntity
  8
0
100
AcDbCircle
 62
7
  6
CONTINUOUS
 10
7.0287271079
 20
4.8052181421
 40
0.2921690219
100
AcDbArc
 50
124.8580709859
 51
126.5997370963
  0
ARC
  5
393
100
AcDbEntity
  8
0
100
AcDbCircle
 62
7
  6
CONTINUOUS
 10
7.0287043063
 20
4.8052189523
 40
0.2916611351
100
AcDbArc
 50
124.9221309608
 51
126.4741655642
  0
ARC
  5
394
100
AcDbEntity
  8
0
100
AcDbCircle
 62
7
  6
CONTINUOUS
 10
7.0261378279
 20
4.812207747
 40
0.2840232852
100
AcDbArc
 50
86.2133295613
 51
87.2138132594
  0
ARC
  5
395
100
AcDbEntity
  8
0
100
AcDbCircle
 62
7
  6
CONTINUOUS
 10
7.034111011
 20
4.7952973034
 40
0.2794500619
100
AcDbArc
 50
61.3252062544
 51
61.6816828133
  0
ARC
  5
396
100
AcDbEntity
  8
0
100
AcDbCircle
 62
7
  6
CONTINUOUS
 10
7.0341093653
 20
4.7952872319
 40
0.278921666
100
AcDbArc
 50
61.2654406601
 51
61.6269525127
  0
ARC
  5
397
100
AcDbEntity
  8
0
100
AcDbCircle
 62
7
  6
CONTINUOUS
 10
7.0345660559
 20
4.8071191513
 40
0.2876272869
100
AcDbArc
 50
120.7490705687
 51
122.4351340213
  0
ARC
  5
398
100
AcDbEntity
  8
0
100
AcDbCircle
 62
7
  6
CONTINUOUS
 10
7.0446423995
 20
4.805073735
 40
0.2736831114
100
AcDbArc
 50
63.6103951557
 51
64.0893358686
  0
ARC
  5
399
100
AcDbEntity
  8
0
100
AcDbCircle
 62
7
  6
CONTINUOUS
 10
7.0446405281
 20
4.8050410981
 40
0.2731846672
100
AcDbArc
 50
63.5580746423
 51
64.0915916336
  0
ARC
  5
39A
100
AcDbEntity
  8
0
100
AcDbCircle
 62
7
  6
CONTINUOUS
 10
7.0449255107
 20
4.8056711703
 40
0.2730220216
100
AcDbArc
 50
64.0879908956
 51
67.1004804162
  0
ARC
  5
39B
100
AcDbEntity
  8
0
100
AcDbCircle
 62
7
  6
CONTINUOUS
 10
7.044924231
 20
4.8056392564
 40
0.2725226683
100
AcDbArc
 50
64.0902951352
 51
67.0558345621
  0
ARC
  5
39C
100
AcDbEntity
  8
0
100
AcDbCircle
 62
7
  6
CONTINUOUS
 10
7.2014884398
 20
4.5741048137
 40
0.03
100
AcDbArc
 50
90.0
 51
180.0
  0
ARC
  5
39D
100
AcDbEntity
  8
0
100
AcDbCircle
 62
7
  6
CONTINUOUS
 10
7.050356551
 20
4.8348187187
 40
0.2524609208
100
AcDbArc
 50
54.9352410353
 51
55.0876610623
  0
ARC
  5
39E
100
AcDbEntity
  8
0
100
AcDbCircle
 62
7
  6
CONTINUOUS
 10
7.0574696993
 20
4.8449527033
 40
0.2400797042
100
AcDbArc
 50
54.7808172069
 51
54.9352747525
  0
ARC
  5
39F
100
AcDbEntity
  8
0
100
AcDbCircle
 62
7
  6
CONTINUOUS
 10
7.067281502
 20
4.8248548137
 40
0.2322069378
100
AcDbArc
 50
15.4180733284
 51
17.3520912317
  0
ARC
  5
3A0
100
AcDbEntity
  8
0
100
AcDbCircle
 62
7
  6
CONTINUOUS
 10
7.067281502
 20
4.8248548137
 40
0.2322069378
100
AcDbArc
 50
7.641867631
 51
10.2980997433
  0
ARC
  5
3A1
100
AcDbEntity
  8
0
100
AcDbCircle
 62
7
  6
CONTINUOUS
 10
7.0815961829
 20
4.8441077499
 40
0.2217223853
100
AcDbArc
 50
68.274044942
 51
70.9848465652
  0
ARC
  5
3A2
100
AcDbEntity
  8
0
100
AcDbCircle
 62
7
  6
CONTINUOUS
 10
7.0739827425
 20
4.8683503631
 40
0.2114417736
100
AcDbArc
 50
54.617040235
 51
54.7799483602
  0
ARC
  5
3A3
100
AcDbEntity
  8
0
100
AcDbCircle
 62
7
  6
CONTINUOUS
 10
7.0836975538
 20
4.8971687804
 40
0.181964044
100
AcDbArc
 50
59.0168008656
 51
59.4557094429
  0
ARC
  5
3A4
100
AcDbEntity
  8
0
100
AcDbCircle
 62
7
  6
CONTINUOUS
 10
7.0336631259
 20
4.9257418514
 40
0.1702400582
100
AcDbArc
 50
84.9679531313
 51
86.2169901562
  0
ARC
  5
3A5
100
AcDbEntity
  8
0
100
AcDbCircle
 62
7
  6
CONTINUOUS
 10
7.1034537774
 20
4.9281639036
 40
0.1438978017
100
AcDbArc
 50
56.7240337195
 51
57.1252040613
  0
ARC
  5
3A6
100
AcDbEntity
  8
0
100
AcDbCircle
 62
7
  6
CONTINUOUS
 10
7.1034061913
 20
4.9277766977
 40
0.1437509313
100
AcDbArc
 50
56.6630941818
 51
57.4568864496
  0
ARC
  5
3A7
100
AcDbEntity
  8
0
100
AcDbCircle
 62
7
  6
CONTINUOUS
 10
7.1038164981
 20
4.9287166193
 40
0.1432366959
100
AcDbArc
 50
56.3110943034
 51
56.7240290867
  0
ARC
  5
3A8
100
AcDbEntity
  8
0
100
AcDbCircle
 62
7
  6
CONTINUOUS
 10
7.1038636804
 20
4.9284707997
 40
0.1429196232
100
AcDbArc
 50
56.2490665504
 51
56.6633986361
  0
ARC
  5
3A9
100
AcDbEntity
  8
0
100
AcDbCircle
 62
7
  6
CONTINUOUS
 10
7.0380470322
 20
4.9770991915
 40
0.1186962144
100
AcDbArc
 50
84.6510904727
 51
84.9014875712
  0
ARC
  5
3AA
100
AcDbEntity
  8
0
100
AcDbCircle
 62
7
  6
CONTINUOUS
 10
7.1177384084
 20
4.9548903613
 40
0.1149524015
100
AcDbArc
 50
59.447173935
 51
59.7661761231
  0
ARC
  5
3AB
100
AcDbEntity
  8
0
100
AcDbCircle
 62
7
  6
CONTINUOUS
 10
7.0398795167
 20
4.9961730506
 40
0.0990345809
100
AcDbArc
 50
84.1478680435
 51
84.6508446283
  0
ARC
  5
3AC
100
AcDbEntity
  8
0
100
AcDbCircle
 62
7
  6
CONTINUOUS
 10
7.1595519064
 20
4.9462356522
 40
0.0941714084
100
AcDbArc
 50
91.9885216704
 51
93.1495457279
  0
ARC
  5
3AD
100
AcDbEntity
  8
0
100
AcDbCircle
 62
7
  6
CONTINUOUS
 10
7.1595436628
 20
4.9462920057
 40
0.0941150026
100
AcDbArc
 50
86.850089674
 51
88.5925905346
  0
ARC
  5
3AE
100
AcDbEntity
  8
0
100
AcDbCircle
 62
7
  6
CONTINUOUS
 10
7.1595481356
 20
4.9463368288
 40
0.0940701619
100
AcDbArc
 50
91.4539946487
 51
91.9883646662
  0
ARC
  5
3AF
100
AcDbEntity
  8
0
100
AcDbCircle
 62
7
  6
CONTINUOUS
 10
7.1595508316
 20
4.9458752928
 40
0.0939181685
100
AcDbArc
 50
91.4112301193
 51
93.1573900644
  0
ARC
  5
3B0
100
AcDbEntity
  8
0
100
AcDbCircle
 62
7
  6
CONTINUOUS
 10
7.1595436485
 20
4.9459106915
 40
0.0938827457
100
AcDbArc
 50
86.8422804889
 51
88.5890993273
  0
ARC
  5
3B1
100
AcDbEntity
  8
0
100
AcDbCircle
 62
7
  6
CONTINUOUS
 10
7.1621863701
 20
4.9448030105
 40
0.0931898385
100
AcDbArc
 50
84.8830959297
 51
95.1169040703
  0
ARC
  5
3B2
100
AcDbEntity
  8
0
100
AcDbCircle
 62
7
  6
CONTINUOUS
 10
7.1385460475
 20
4.9568938456
 40
0.1004350495
100
AcDbArc
 50
87.7164651143
 51
92.2835348857
  0
ARC
  5
3B3
100
AcDbEntity
  8
0
100
AcDbCircle
 62
7
  6
CONTINUOUS
 10
7.1385461311
 20
4.9565470524
 40
0.1002075605
100
AcDbArc
 50
87.7113261642
 51
91.7800202555
  0
ARC
  5
3B4
100
AcDbEntity
  8
0
100
AcDbCircle
 62
7
  6
CONTINUOUS
 10
7.2170472594
 20
4.9663939107
 40
0.0625
100
AcDbArc
 50
2.4859527198
 51
75.0
  0
ARC
  5
3B5
100
AcDbEntity
  8
0
100
AcDbCircle
 62
7
  6
CONTINUOUS
 10
7.1484532502
 20
5.0077065354
 40
0.0538545892
100
AcDbArc
 50
59.7049022804
 51
60.3371586339
  0
ARC
  5
3B6
100
AcDbEntity
  8
0
100
AcDbCircle
 62
7
  6
CONTINUOUS
 10
7.1551778876
 20
5.0055191943
 40
0.0518125717
100
AcDbArc
 50
94.4444406743
 51
98.5926434955
  0
ARC
  5
3B7
100
AcDbEntity
  8
0
100
AcDbCircle
 62
7
  6
CONTINUOUS
 10
7.1551632608
 20
5.0051945073
 40
0.0515622578
100
AcDbArc
 50
94.4497577077
 51
97.6901431534
  0
ARC
  5
3B8
100
AcDbEntity
  8
0
100
AcDbCircle
 62
7
  6
CONTINUOUS
 10
7.1551054125
 20
5.0062567816
 40
0.0510721289
100
AcDbArc
 50
83.8376671366
 51
89.7510328605
  0
ARC
  5
3B9
100
AcDbEntity
  8
0
100
AcDbCircle
 62
7
  6
CONTINUOUS
 10
7.1551013845
 20
5.0057327849
 40
0.0510219245
100
AcDbArc
 50
83.8270304318
 51
88.7000551532
  0
ARC
  5
3BA
100
AcDbEntity
  8
0
100
AcDbCircle
 62
7
  6
CONTINUOUS
 10
7.1659798006
 20
5.0005877943
 40
0.0495402203
100
AcDbArc
 50
88.6788098491
 51
89.2665053557
  0
ARC
  5
3BB
100
AcDbEntity
  8
0
100
AcDbCircle
 62
7
  6
CONTINUOUS
 10
7.165979772
 20
5.0001091946
 40
0.0494284493
100
AcDbArc
 50
88.6021553692
 51
89.2648134226
  0
ARC
  5
3BC
100
AcDbEntity
  8
0
100
AcDbCircle
 62
7
  6
CONTINUOUS
 10
7.1687739316
 20
4.9989890536
 40
0.0491633239
100
AcDbArc
 50
88.5949456311
 51
91.6374038747
  0
ARC
  5
3BD
100
AcDbEntity
  8
0
100
AcDbCircle
 62
7
  6
CONTINUOUS
 10
7.1492939291
 20
5.0112857549
 40
0.0484133533
100
AcDbArc
 50
64.7509096689
 51
65.2854543295
  0
ARC
  5
3BE
100
AcDbEntity
  8
0
100
AcDbCircle
 62
7
  6
CONTINUOUS
 10
7.1791916765
 20
4.9926619643
 40
0.0476416248
100
AcDbArc
 50
88.8361006048
 51
91.68954316
  0
ARC
  5
3BF
100
AcDbEntity
  8
0
100
AcDbCircle
 62
7
  6
CONTINUOUS
 10
7.1791917548
 20
4.9921519032
 40
0.0475378518
100
AcDbArc
 50
88.5468936732
 51
91.6934095213
  0
ARC
  5
3C0
100
AcDbEntity
  8
0
100
AcDbCircle
 62
7
  6
CONTINUOUS
 10
7.1820732174
 20
4.9906861175
 40
0.0473066528
100
AcDbArc
 50
83.3498853935
 51
93.4546879702
  0
ARC
  5
3C1
100
AcDbEntity
  8
0
100
AcDbCircle
 62
7
  6
CONTINUOUS
 10
7.1507953777
 20
5.0145375217
 40
0.0448316897
100
AcDbArc
 50
65.2910300724
 51
65.5972736928
  0
ARC
  5
3C2
100
AcDbEntity
  8
0
100
AcDbCircle
 62
7
  6
CONTINUOUS
 10
7.2023987631
 20
5.072921012
 40
0.0380058034
100
AcDbArc
 50
232.7017795224
 51
235.4521652332
  0
ARC
  5
3C3
100
AcDbEntity
  8
0
100
AcDbCircle
 62
7
  6
CONTINUOUS
 10
7.1613274717
 20
5.0302863715
 40
0.0278623928
100
AcDbArc
 50
60.3627318864
 51
60.5460869025
  0
ARC
  5
3C4
100
AcDbEntity
  8
0
100
AcDbCircle
 62
7
  6
CONTINUOUS
 10
7.1583113661
 20
5.0601157059
 40
0.0211087854
100
AcDbArc
 50
245.7533954959
 51
246.3033886929
  0
ARC
  5
3C5
100
AcDbEntity
  8
0
100
AcDbCircle
 62
7
  6
CONTINUOUS
 10
7.157456923
 20
5.058114512
 40
0.0189329368
100
AcDbArc
 50
246.2372191074
 51
249.4362528947
  0
ARC
  5
3C6
100
AcDbEntity
  8
0
100
AcDbCircle
 62
7
  6
CONTINUOUS
 10
7.1698296431
 20
5.0563303866
 40
0.001072093
100
AcDbArc
 50
49.0464777733
 51
52.3903892232
  0
ARC
  5
3C7
100
AcDbEntity
  8
0
100
AcDbCircle
 62
7
  6
CONTINUOUS
 10
7.1840827917
 20
5.0484342613
 40
0.0004899683
100
AcDbArc
 50
84.8886923966
 51
91.1339776591
  0
ARC
  5
3C8
100
AcDbEntity
  8
0
100
AcDbCircle
 62
7
  6
CONTINUOUS
 10
7.1840827916
 20
5.0478422371
 40
0.0004888443
100
AcDbArc
 50
84.8768908252
 51
91.13657564
  0
ARC
  5
3C9
100
AcDbEntity
  8
0
100
AcDbCircle
 62
7
  6
CONTINUOUS
 10
7.1872336635
 20
5.0463996452
 40
0.0004865975
100
AcDbArc
 50
84.848042114
 51
89.2241251683
  0
ARC
  5
3CA
100
AcDbEntity
  8
0
100
AcDbCircle
 62
7
  6
CONTINUOUS
 10
7.1969166003
 20
5.0397934949
 40
0.0004740704
100
AcDbArc
 50
84.7110234254
 51
89.2030731067
  0
ARC
  5
3CB
100
AcDbEntity
  8
0
100
AcDbCircle
 62
7
  6
CONTINUOUS
 10
7.4191068919
 20
4.8196648682
 40
0.0644399465
100
AcDbArc
 50
90.0107387736
 51
104.0163900373
  0
ARC
  5
3CC
100
AcDbEntity
  8
0
100
AcDbCircle
 62
7
  6
CONTINUOUS
 10
7.2744884398
 20
4.9446099162
 40
0.025
100
AcDbArc
 50
0.0
 51
78.4630409672
  0
ARC
  5
3CD
100
AcDbEntity
  8
0
100
AcDbCircle
 62
7
  6
CONTINUOUS
 10
7.2295458224
 20
4.8487276011
 40
0.0104360041
100
AcDbArc
 50
249.6925921866
 51
255.7749881739
  0
ARC
  5
3CE
100
AcDbEntity
  8
0
100
AcDbCircle
 62
7
  6
CONTINUOUS
 10
7.2294403358
 20
4.8483036556
 40
0.0099991364
100
AcDbArc
 50
255.7639625961
 51
261.5393047215
  0
ARC
  5
3CF
100
AcDbEntity
  8
0
100
AcDbCircle
 62
7
  6
CONTINUOUS
 10
7.2919884398
 20
4.9016048137
 40
0.0075
100
AcDbArc
 50
270.0
 51
360.0
  0
ARC
  5
3D0
100
AcDbEntity
  8
0
100
AcDbCircle
 62
7
  6
CONTINUOUS
 10
7.2907384398
 20
4.8816048137
 40
0.005
100
AcDbArc
 50
0.0
 51
90.0
  0
ARC
  5
3D1
100
AcDbEntity
  8
0
100
AcDbCircle
 62
7
  6
CONTINUOUS
 10
7.2383690173
 20
5.6052353912
 40
0.0323694225
100
AcDbArc
 50
285.9027989903
 51
90.0
  0
ARC
  5
3D2
100
AcDbEntity
  8
0
100
AcDbCircle
 62
7
  6
CONTINUOUS
 10
8.2643468735
 20
5.2806048137
 40
1.0586084337
100
AcDbArc
 50
163.9038098157
 51
193.936631978
  0
ARC
  5
3D3
100
AcDbEntity
  8
0
100
AcDbCircle
 62
7
  6
CONTINUOUS
 10
7.0207384398
 20
5.9279804325
 40
0.355
100
AcDbArc
 50
306.4982543829
 51
343.4285225231
  0
ARC
  5
3D4
100
AcDbEntity
  8
0
100
AcDbCircle
 62
7
  6
CONTINUOUS
 10
7.0207384398
 20
5.9279804325
 40
0.355
100
AcDbArc
 50
212.2952327441
 51
233.5017456171
  0
ARC
  5
3D5
100
AcDbEntity
  8
0
100
AcDbCircle
 62
7
  6
CONTINUOUS
 10
7.0207384398
 20
5.9279804325
 40
0.355
100
AcDbArc
 50
117.2417872344
 51
147.7047672559
  0
ARC
  5
3D6
100
AcDbEntity
  8
0
100
AcDbCircle
 62
7
  6
CONTINUOUS
 10
7.0207384398
 20
5.9279804325
 40
0.355
100
AcDbArc
 50
16.5714774769
 51
62.7582127656
  0
ARC
  5
3D7
100
AcDbEntity
  8
0
100
AcDbCircle
 62
7
  6
CONTINUOUS
 10
7.2596570571
 20
6.487368303
 40
0.1176686173
100
AcDbArc
 50
134.6323133701
 51
231.4555849098
  0
ARC
  5
3D8
100
AcDbEntity
  8
0
100
AcDbCircle
 62
7
  6
CONTINUOUS
 10
7.1144884398
 20
6.7511048137
 40
0.0625
100
AcDbArc
 50
0.0
 51
90.0
  0
ARC
  5
3D9
100
AcDbEntity
  8
0
100
AcDbCircle
 62
7
  6
CONTINUOUS
 10
7.5012785959
 20
5.8072872481
 40
0.0532
100
AcDbArc
 50
40.9762844863
 51
146.1516146287
  0
ARC
  5
3DA
100
AcDbEntity
  8
0
100
AcDbCircle
 62
7
  6
CONTINUOUS
 10
7.5012785959
 20
6.0486736168
 40
0.0532
100
AcDbArc
 50
213.8483853713
 51
319.0237155137
  0
ARC
  5
3DB
100
AcDbEntity
  8
0
100
AcDbCircle
 62
7
  6
CONTINUOUS
 10
7.2074884398
 20
6.6746048137
 40
0.045
100
AcDbArc
 50
0.0
 51
90.0
  0
ARC
  5
3DC
100
AcDbEntity
  8
0
100
AcDbCircle
 62
7
  6
CONTINUOUS
 10
7.2074884398
 20
6.6476048137
 40
0.045
100
AcDbArc
 50
270.0
 51
360.0
  0
ARC
  5
3DD
100
AcDbEntity
  8
0
100
AcDbCircle
 62
7
  6
CONTINUOUS
 10
7.6424933994
 20
5.8829804325
 40
0.045
100
AcDbArc
 50
270.0
 51
345.164888418
  0
ARC
  5
3DE
100
AcDbEntity
  8
0
100
AcDbCircle
 62
7
  6
CONTINUOUS
 10
7.6424933994
 20
5.9729804325
 40
0.045
100
AcDbArc
 50
14.835111582
 51
90.0
  0
ARC
  5
3DF
100
AcDbEntity
  8
0
100
AcDbCircle
 62
7
  6
CONTINUOUS
 10
7.6124933994
 20
5.8174804325
 40
0.03
100
AcDbArc
 50
270.0
 51
360.0
  0
ARC
  5
3E0
100
AcDbEntity
  8
0
100
AcDbCircle
 62
7
  6
CONTINUOUS
 10
7.5944933994
 20
5.8174804325
 40
0.03
100
AcDbArc
 50
180.0
 51
270.0
  0
ARC
  5
3E1
100
AcDbEntity
  8
0
100
AcDbCircle
 62
7
  6
CONTINUOUS
 10
7.6124933994
 20
6.0384804325
 40
0.03
100
AcDbArc
 50
0.0
 51
90.0
  0
ARC
  5
3E2
100
AcDbEntity
  8
0
100
AcDbCircle
 62
7
  6
CONTINUOUS
 10
7.5944933994
 20
6.0384804325
 40
0.03
100
AcDbArc
 50
90.0
 51
180.0
  0
ARC
  5
3E3
100
AcDbEntity
  8
0
100
AcDbCircle
 62
7
  6
CONTINUOUS
 10
7.4379933994
 20
5.8497304325
 40
0.023
100
AcDbArc
 50
270.0
 51
326.1516146287
  0
ARC
  5
3E4
100
AcDbEntity
  8
0
100
AcDbCircle
 62
7
  6
CONTINUOUS
 10
7.4379933994
 20
6.0062304325
 40
0.023
100
AcDbArc
 50
33.8483853713
 51
90.0
  0
ARC
  5
3E5
100
AcDbEntity
  8
0
100
AcDbCircle
 62
7
  6
CONTINUOUS
 10
7.1924884398
 20
6.7351048137
 40
0.0155
100
AcDbArc
 50
180.0
 51
270.0
  0
ARC
  5
3E6
100
AcDbEntity
  8
0
100
AcDbCircle
 62
7
  6
CONTINUOUS
 10
7.1769884398
 20
6.3836048137
 40
0.015
100
AcDbArc
 50
0.0
 51
51.4555849098
  0
ARC
  5
3E7
100
AcDbEntity
  8
0
100
AcDbCircle
 62
7
  6
CONTINUOUS
 10
7.5489933994
 20
5.8487304325
 40
0.01
100
AcDbArc
 50
220.9762844863
 51
270.0
  0
ARC
  5
3E8
100
AcDbEntity
  8
0
100
AcDbCircle
 62
7
  6
CONTINUOUS
 10
7.5489933994
 20
6.0072304325
 40
0.01
100
AcDbArc
 50
90.0
 51
139.0237155137
  0
SPLINE
  5
3E9
100
AcDbEntity
  8
0
100
AcDbSpline
 62
7
  6
CONTINUOUS
 70
0
 71
3
 72
31
 73
27
 74
0
 42
0.0000001
 43
0.0000001
 44
0.0000000001
 40
0.0
 40
0.0
 40
0.0
 40
0.0
 40
0.0014873162
 40
0.0023892628
 40
0.0034379994
 40
0.006040029
 40
0.0093626755
 40
0.0134154833
 40
0.018188638
 40
0.0236657707
 40
0.0298298147
 40
0.0441399892
 40
0.0609617493
 40
0.0801433758
 40
0.1015441399
 40
0.1505518284
 40
0.2072301156
 40
0.2710690139
 40
0.3413353747
 40
0.4167427662
 40
0.4958873974
 40
0.5775669894
 40
0.6608572967
 40
0.745104695
 40
0.8298747266
 40
1.0
 40
1.0
 40
1.0
 40
1.0
 10
7.0457379602
 20
5.0949152279
 30
0.0
 10
7.045737909
 20
5.0949276984
 30
0.0
 10
7.0457307168
 20
5.0949477137
 30
0.0
 10
7.0457130593
 20
5.094970486
 30
0.0
 10
7.0456852749
 20
5.0949968976
 30
0.0
 10
7.0456360944
 20
5.0950291245
 30
0.0
 10
7.0455610276
 20
5.0950662254
 30
0.0
 10
7.0454663189
 20
5.0951039615
 30
0.0
 10
7.045352632
 20
5.0951422481
 30
0.0
 10
7.0452205271
 20
5.0951809498
 30
0.0
 10
7.0450099145
 20
5.0952357152
 30
0.0
 10
7.0447044634
 20
5.0953031565
 30
0.0
 10
7.0442898361
 20
5.09538115
 30
0.0
 10
7.0438148352
 20
5.0954590606
 30
0.0
 10
7.0430714473
 20
5.0955671702
 30
0.0
 10
7.0420136448
 20
5.0956966644
 30
0.0
 10
7.0405994763
 20
5.0958405049
 30
0.0
 10
7.0390055389
 20
5.095976252
 30
0.0
 10
7.0372533118
 20
5.0961018598
 30
0.0
 10
7.0353716993
 20
5.0962156169
 30
0.0
 10
7.0333935046
 20
5.0963159437
 30
0.0
 10
7.0313484715
 20
5.0964016715
 30
0.0
 10
7.0292600481
 20
5.0964721121
 30
0.0
 10
7.0271452345
 20
5.0965269271
 30
0.0
 10
7.0243021162
 20
5.0965790952
 30
0.0
 10
7.0221648735
 20
5.0965945395
 30
0.0
 10
7.0207384398
 20
5.0965945395
 30
0.0
  0
SPLINE
  5
3EA
100
AcDbEntity
  8
0
100
AcDbSpline
 62
7
  6
CONTINUOUS
 70
0
 71
3
 72
31
 73
27
 74
0
 42
0.0000001
 43
0.0000001
 44
0.0000000001
 40
0.0
 40
0.0
 40
0.0
 40
0.0
 40
0.0016007871
 40
0.0034146013
 40
0.0055913931
 40
0.0082156753
 40
0.0113324882
 40
0.0149659402
 40
0.019128851
 40
0.023827653
 40
0.0348413899
 40
0.048016219
 40
0.0633450357
 40
0.0808189442
 40
0.1004283561
 40
0.1221665973
 40
0.1460293564
 40
0.1720110822
 40
0.2303078686
 40
0.2969338999
 40
0.3710756346
 40
0.4514226576
 40
0.5366523331
 40
0.6255663812
 40
0.8105159633
 40
1.0
 40
1.0
 40
1.0
 40
1.0
 10
7.0557384205
 20
5.0939215786
 30
0.0
 10
7.0557383975
 20
5.093902771
 30
0.0
 10
7.0557298753
 20
5.0938624074
 30
0.0
 10
7.0556947284
 20
5.0938058856
 30
0.0
 10
7.0556391266
 20
5.0937509257
 30
0.0
 10
7.0555632553
 20
5.093696652
 30
0.0
 10
7.0554670693
 20
5.09364268
 30
0.0
 10
7.0553505567
 20
5.0935889255
 30
0.0
 10
7.0552137992
 20
5.0935353711
 30
0.0
 10
7.0549926337
 20
5.0934602436
 30
0.0
 10
7.0546654602
 20
5.0933691121
 30
0.0
 10
7.0542127451
 20
5.0932656645
 30
0.0
 10
7.0536822
 20
5.0931635861
 30
0.0
 10
7.0530745813
 20
5.0930632907
 30
0.0
 10
7.0523904428
 20
5.0929652043
 30
0.0
 10
7.051630214
 20
5.0928698437
 30
0.0
 10
7.0507942214
 20
5.0927777516
 30
0.0
 10
7.0495295492
 20
5.0926554172
 30
0.0
 10
7.0477618253
 20
5.092517012
 30
0.0
 10
7.0454267654
 20
5.0923825869
 30
0.0
 10
7.042831015
 20
5.0922756664
 30
0.0
 10
7.0400157199
 20
5.0921937341
 30
0.0
 10
7.0370262926
 20
5.0921338428
 30
0.0
 10
7.0328076772
 20
5.0920777218
 30
0.0
 10
7.0273638751
 20
5.0920451222
 30
0.0
 10
7.0229646766
 20
5.0920397475
 30
0.0
 10
7.0207384398
 20
5.0920397343
 30
0.0
  0
SPLINE
  5
3EB
100
AcDbEntity
  8
0
100
AcDbSpline
 62
7
  6
CONTINUOUS
 70
0
 71
3
 72
20
 73
16
 74
0
 42
0.0000001
 43
0.0000001
 44
0.0000000001
 40
0.0
 40
0.0
 40
0.0
 40
0.0
 40
0.0371016588
 40
0.0717680406
 40
0.105732852
 40
0.1409348782
 40
0.1791897565
 40
0.2219458321
 40
0.2702302921
 40
0.3247246353
 40
0.3858209212
 40
0.4537306786
 40
0.6099871286
 40
0.7927501874
 40
1.0
 40
1.0
 40
1.0
 40
1.0
 10
6.8829708353
 20
5.0546415681
 30
0.0
 10
6.8829708315
 20
5.0546914731
 30
0.0
 10
6.8829625036
 20
5.0547883913
 30
0.0
 10
6.8829193423
 20
5.0549252585
 30
0.0
 10
6.8828450299
 20
5.0550452723
 30
0.0
 10
6.8827401258
 20
5.0551465833
 30
0.0
 10
6.8826057714
 20
5.055228503
 30
0.0
 10
6.8824427856
 20
5.0552912521
 30
0.0
 10
6.8822514802
 20
5.0553351131
 30
0.0
 10
6.8820321152
 20
5.0553600998
 30
0.0
 10
6.8817851124
 20
5.055366307
 30
0.0
 10
6.8814015685
 20
5.0553484666
 30
0.0
 10
6.8808582762
 20
5.055274098
 30
0.0
 10
6.8801399839
 20
5.0551171908
 30
0.0
 10
6.8796347307
 20
5.0549749237
 30
0.0
 10
6.8793681186
 20
5.0548934975
 30
0.0
  0
SPLINE
  5
3EC
100
AcDbEntity
  8
0
100
AcDbSpline
 62
7
  6
CONTINUOUS
 70
0
 71
3
 72
13
 73
9
 74
0
 42
0.0000001
 43
0.0000001
 44
0.0000000001
 40
0.0
 40
0.0
 40
0.0
 40
0.0
 40
0.1907255583
 40
0.3008708077
 40
0.4218625621
 40
0.5531410596
 40
0.693849822
 40
1.0
 40
1.0
 40
1.0
 40
1.0
 10
6.8770778282
 20
5.0495914631
 30
0.0
 10
6.8770768596
 20
5.0494362645
 30
0.0
 10
6.8770402219
 20
5.0491910855
 30
0.0
 10
6.8769374576
 20
5.0488633747
 30
0.0
 10
6.8768254939
 20
5.0485901612
 30
0.0
 10
6.8766856142
 20
5.0483024408
 30
0.0
 10
6.8764592578
 20
5.0478898558
 30
0.0
 10
6.8762658562
 20
5.0475815527
 30
0.0
 10
6.8761289223
 20
5.0473734334
 30
0.0
  0
LINE
  5
3ED
100
AcDbEntity
  8
0
100
AcDbLine
 62
7
  6
CONTINUOUS
 10
6.8547962624
 20
5.0394815043
 11
6.8545872141
 21
5.0397632899
  0
SPLINE
  5
3EE
100
AcDbEntity
  8
0
100
AcDbSpline
 62
7
  6
CONTINUOUS
 70
0
 71
3
 72
9
 73
5
 74
0
 42
0.0000001
 43
0.0000001
 44
0.0000000001
 40
0.0
 40
0.0
 40
0.0
 40
0.0
 40
0.2414879198
 40
1.0
 40
1.0
 40
1.0
 40
1.0
 10
6.8545872141
 20
5.0397632899
 30
0.0
 10
6.8545826622
 20
5.0397646945
 30
0.0
 10
6.8545637219
 20
5.0397702145
 30
0.0
 10
6.8545444522
 20
5.0397745813
 30
0.0
 10
6.8545297457
 20
5.0397773379
 30
0.0
  0
SPLINE
  5
3EF
100
AcDbEntity
  8
0
100
AcDbSpline
 62
7
  6
CONTINUOUS
 70
0
 71
3
 72
25
 73
21
 74
0
 42
0.0000001
 43
0.0000001
 44
0.0000000001
 40
0.0
 40
0.0
 40
0.0
 40
0.0
 40
0.0639349742
 40
0.1228749133
 40
0.1804303623
 40
0.2387369763
 40
0.3620148853
 40
0.4285549047
 40
0.4982720031
 40
0.5703554515
 40
0.6432803684
 40
0.7149694503
 40
0.7828270408
 40
0.8145596357
 40
0.8444683247
 40
0.8985492583
 40
0.9235263122
 40
0.9480544043
 40
0.9731893959
 40
1.0
 40
1.0
 40
1.0
 40
1.0
 10
6.8689875836
 20
5.0448255445
 30
0.0
 10
6.8689876067
 20
5.0449090047
 30
0.0
 10
6.8689674617
 20
5.0450703165
 30
0.0
 10
6.8688796216
 20
5.0452911254
 30
0.0
 10
6.8687499951
 20
5.0454808317
 30
0.0
 10
6.8685287889
 20
5.0457029948
 30
0.0
 10
6.8682499445
 20
5.0458762655
 30
0.0
 10
6.8679375214
 20
5.0460076033
 30
0.0
 10
6.8676787812
 20
5.0460923465
 30
0.0
 10
6.8674078351
 20
5.0461643711
 30
0.0
 10
6.8671325524
 20
5.0462295155
 30
0.0
 10
6.8668627825
 20
5.046293905
 30
0.0
 10
6.8666476215
 20
5.0463554824
 30
0.0
 10
6.8664891468
 20
5.046414856
 30
0.0
 10
6.8663521846
 20
5.0464784445
 30
0.0
 10
6.8662319189
 20
5.0465587714
 30
0.0
 10
6.8661433633
 20
5.0466620461
 30
0.0
 10
6.8660959757
 20
5.0467480602
 30
0.0
 10
6.8660680259
 20
5.046844691
 30
0.0
 10
6.8660627167
 20
5.0469127399
 30
0.0
 10
6.8660627399
 20
5.0469477382
 30
0.0
  0
LINE
  5
3F0
100
AcDbEntity
  8
0
100
AcDbLine
 62
7
  6
CONTINUOUS
 10
6.8873368196
 20
5.0554901512
 11
6.8872624125
 21
5.0549031578
  0
SPLINE
  5
3F1
100
AcDbEntity
  8
0
100
AcDbSpline
 62
7
  6
CONTINUOUS
 70
0
 71
3
 72
19
 73
15
 74
0
 42
0.0000001
 43
0.0000001
 44
0.0000000001
 40
0.0
 40
0.0
 40
0.0
 40
0.0
 40
0.0253074239
 40
0.0486150808
 40
0.0730089312
 40
0.1012658011
 40
0.135218681
 40
0.1759203107
 40
0.2239610409
 40
0.2796307975
 40
0.4142476341
 40
0.5798684213
 40
0.775639011
 40
1.0
 40
1.0
 40
1.0
 40
1.0
 10
6.8712585391
 20
5.055199334
 30
0.0
 10
6.8712585359
 20
5.0552163484
 30
0.0
 10
6.8712544369
 20
5.0552494314
 30
0.0
 10
6.8712307678
 20
5.0552938014
 30
0.0
 10
6.871190622
 20
5.0553270796
 30
0.0
 10
6.8711361594
 20
5.0553493101
 30
0.0
 10
6.8710677724
 20
5.0553617705
 30
0.0
 10
6.8709851472
 20
5.0553648449
 30
0.0
 10
6.8708881393
 20
5.0553586093
 30
0.0
 10
6.8707293452
 20
5.0553364098
 30
0.0
 10
6.8704957981
 20
5.055282633
 30
0.0
 10
6.870176486
 20
5.055186075
 30
0.0
 10
6.8698052564
 20
5.0550542897
 30
0.0
 10
6.8695424617
 20
5.0549506201
 30
0.0
 10
6.8694028557
 20
5.0548934975
 30
0.0
  0
SPLINE
  5
3F2
100
AcDbEntity
  8
0
100
AcDbSpline
 62
7
  6
CONTINUOUS
 70
0
 71
3
 72
18
 73
14
 74
0
 42
0.0000001
 43
0.0000001
 44
0.0000000001
 40
0.0
 40
0.0
 40
0.0
 40
0.0
 40
0.0242214901
 40
0.0530855752
 40
0.0870362571
 40
0.1262421939
 40
0.1707092273
 40
0.220351373
 40
0.3349794918
 40
0.4716952286
 40
0.6306461651
 40
0.8080015411
 40
1.0
 40
1.0
 40
1.0
 40
1.0
 10
6.8641808113
 20
5.0505151624
 30
0.0
 10
6.8641808244
 20
5.0504816322
 30
0.0
 10
6.8641709164
 20
5.0504081499
 30
0.0
 10
6.8641348447
 20
5.0502928746
 30
0.0
 10
6.8640772207
 20
5.0501636667
 30
0.0
 10
6.8639985644
 20
5.0500209485
 30
0.0
 10
6.8638995666
 20
5.0498650888
 30
0.0
 10
6.8637330954
 20
5.0496288091
 30
0.0
 10
6.8634737358
 20
5.0493022678
 30
0.0
 10
6.8630945171
 20
5.0488791099
 30
0.0
 10
6.8626361515
 20
5.0484112864
 30
0.0
 10
6.8621105906
 20
5.0479026503
 30
0.0
 10
6.8617368157
 20
5.0475537324
 30
0.0
 10
6.8615415354
 20
5.0473734334
 30
0.0
  0
SPLINE
  5
3F3
100
AcDbEntity
  8
0
100
AcDbSpline
 62
7
  6
CONTINUOUS
 70
0
 71
3
 72
31
 73
27
 74
0
 42
0.0000001
 43
0.0000001
 44
0.0000000001
 40
0.0
 40
0.0
 40
0.0
 40
0.0
 40
0.189496115
 40
0.3744573871
 40
0.4633763584
 40
0.5486092717
 40
0.6289567689
 40
0.7030976586
 40
0.7697169838
 40
0.8280084585
 40
0.853986278
 40
0.8778460299
 40
0.8995817526
 40
0.9191885257
 40
0.9366608025
 40
0.9519881067
 40
0.9651616983
 40
0.9761750081
 40
0.9808740437
 40
0.9850378721
 40
0.9886721813
 40
0.9917890587
 40
0.9944120952
 40
0.996586788
 40
0.9983993305
 40
1.0
 40
1.0
 40
1.0
 40
1.0
 10
7.0207384398
 20
5.0920397343
 30
0.0
 10
7.0185120673
 20
5.0920397211
 30
0.0
 10
7.0141126018
 20
5.0920450442
 30
0.0
 10
7.0086684775
 20
5.0920776062
 30
0.0
 10
7.0044496407
 20
5.0921337318
 30
0.0
 10
7.0014601205
 20
5.092193638
 30
0.0
 10
6.9986448014
 20
5.0922756273
 30
0.0
 10
6.9960491417
 20
5.0923825645
 30
0.0
 10
6.9937142472
 20
5.0925171176
 30
0.0
 10
6.9919467174
 20
5.0926555413
 30
0.0
 10
6.9906821981
 20
5.092777929
 30
0.0
 10
6.9898463224
 20
5.0928700469
 30
0.0
 10
6.9890861934
 20
5.0929654153
 30
0.0
 10
6.9884021411
 20
5.0930635272
 30
0.0
 10
6.9877945936
 20
5.0931638251
 30
0.0
 10
6.9872641034
 20
5.0932659096
 30
0.0
 10
6.9868114298
 20
5.0933693645
 30
0.0
 10
6.9864842734
 20
5.0934604908
 30
0.0
 10
6.9862630997
 20
5.0935356179
 30
0.0
 10
6.9861263125
 20
5.093589159
 30
0.0
 10
6.9860097693
 20
5.0936428983
 30
0.0
 10
6.9859135795
 20
5.0936968559
 30
0.0
 10
6.9858377513
 20
5.0937511276
 30
0.0
 10
6.9857822496
 20
5.0938061181
 30
0.0
 10
6.9857472259
 20
5.0938626667
 30
0.0
 10
6.9857387271
 20
5.0939030032
 30
0.0
 10
6.9857386786
 20
5.0939218093
 30
0.0
  0
SPLINE
  5
3F4
100
AcDbEntity
  8
0
100
AcDbSpline
 62
7
  6
CONTINUOUS
 70
0
 71
3
 72
18
 73
14
 74
0
 42
0.0000001
 43
0.0000001
 44
0.0000000001
 40
0.0
 40
0.0
 40
0.0
 40
0.0
 40
0.1602906233
 40
0.3164645763
 40
0.4647623373
 40
0.6019376019
 40
0.7254097167
 40
0.7814188486
 40
0.833379419
 40
0.8811963324
 40
0.9248488083
 40
0.9644007964
 40
1.0
 40
1.0
 40
1.0
 40
1.0
 10
7.0076626798
 20
5.0852603168
 30
0.0
 10
7.0069901173
 20
5.085230284
 30
0.0
 10
7.0056635208
 20
5.0851369157
 30
0.0
 10
7.0037252214
 20
5.0848984416
 30
0.0
 10
7.0018984546
 20
5.0845701049
 30
0.0
 10
7.000228824
 20
5.0841621396
 30
0.0
 10
6.998961371
 20
5.0837536572
 30
0.0
 10
6.9980588886
 20
5.0833915183
 30
0.0
 10
6.9974648322
 20
5.0831164233
 30
0.0
 10
6.9969340265
 20
5.0828306749
 30
0.0
 10
6.9964687262
 20
5.0825357916
 30
0.0
 10
6.9960710146
 20
5.0822333677
 30
0.0
 10
6.9958402776
 20
5.0820167257
 30
0.0
 10
6.9957384398
 20
5.0819072492
 30
0.0
  0
SPLINE
  5
3F5
100
AcDbEntity
  8
0
100
AcDbSpline
 62
7
  6
CONTINUOUS
 70
0
 71
3
 72
25
 73
21
 74
0
 42
0.0000001
 43
0.0000001
 44
0.0000000001
 40
0.0
 40
0.0
 40
0.0
 40
0.0
 40
0.0861277201
 40
0.1713359955
 40
0.2547585262
 40
0.3356143721
 40
0.4132439285
 40
0.4871202281
 40
0.5568541249
 40
0.6221902217
 40
0.6830019543
 40
0.7392880515
 40
0.7911757351
 40
0.8389309697
 40
0.8829782809
 40
0.9239224988
 40
0.9434943261
 40
0.9626113964
 40
0.9814022424
 40
1.0
 40
1.0
 40
1.0
 40
1.0
 10
7.0207384398
 20
5.0479618467
 30
0.0
 10
7.0195293888
 20
5.0479618467
 30
0.0
 10
7.0171237039
 20
5.0480251647
 30
0.0
 10
7.0135570477
 20
5.0483083951
 30
0.0
 10
7.0100839924
 20
5.048773211
 30
0.0
 10
7.0067464363
 20
5.0494095217
 30
0.0
 10
7.0035809434
 20
5.0502044025
 30
0.0
 10
7.0006183216
 20
5.0511431058
 30
0.0
 10
6.9978836323
 20
5.0522099105
 30
0.0
 10
6.9953966562
 20
5.0533888941
 30
0.0
 10
6.9931726207
 20
5.0546644897
 30
0.0
 10
6.991223023
 20
5.0560219246
 30
0.0
 10
6.9895565243
 20
5.0574474302
 30
0.0
 10
6.9881797603
 20
5.0589286258
 30
0.0
 10
6.9870985392
 20
5.0604537178
 30
0.0
 10
6.9864385358
 20
5.0617729442
 30
0.0
 10
6.9860735669
 20
5.0628309566
 30
0.0
 10
6.9858804754
 20
5.0636156472
 30
0.0
 10
6.985764406
 20
5.0644014934
 30
0.0
 10
6.9857384398
 20
5.0649267046
 30
0.0
 10
6.9857384398
 20
5.0651877778
 30
0.0
  0
SPLINE
  5
3F6
100
AcDbEntity
  8
0
100
AcDbSpline
 62
7
  6
CONTINUOUS
 70
0
 71
3
 72
9
 73
5
 74
0
 42
0.0000001
 43
0.0000001
 44
0.0000000001
 40
0.0
 40
0.0
 40
0.0
 40
0.0
 40
0.5287256749
 40
1.0
 40
1.0
 40
1.0
 40
1.0
 10
6.8450874805
 20
5.0397517333
 30
0.0
 10
6.8450874805
 20
5.0397566432
 30
0.0
 10
6.8450862992
 20
5.0397660846
 30
0.0
 10
6.845081175
 20
5.0397742633
 30
0.0
 10
6.8450780606
 20
5.0397773379
 30
0.0
  0
LINE
  5
3F7
100
AcDbEntity
  8
0
100
AcDbLine
 62
7
  6
CONTINUOUS
 10
6.8497686974
 20
5.0437490105
 11
6.8452384398
 21
5.0403516624
  0
SPLINE
  5
3F8
100
AcDbEntity
  8
0
100
AcDbSpline
 62
7
  6
CONTINUOUS
 70
0
 71
3
 72
18
 73
14
 74
0
 42
0.0000001
 43
0.0000001
 44
0.0000000001
 40
0.0
 40
0.0
 40
0.0
 40
0.0
 40
0.1920881618
 40
0.3696735862
 40
0.530393391
 40
0.6718424907
 40
0.791472882
 40
0.842342812
 40
0.8868834354
 40
0.9248837876
 40
0.9562459592
 40
0.9810863475
 40
1.0
 40
1.0
 40
1.0
 40
1.0
 10
6.85272479
 20
5.044793686
 30
0.0
 10
6.8524275125
 20
5.044569987
 30
0.0
 10
6.8518587885
 20
5.0441349415
 30
0.0
 10
6.8510549797
 20
5.0434951443
 30
0.0
 10
6.8503417428
 20
5.0428993776
 30
0.0
 10
6.8497309962
 20
5.0423566011
 30
0.0
 10
6.8492961926
 20
5.0419365897
 30
0.0
 10
6.8490117964
 20
5.0416321804
 30
0.0
 10
6.8488436968
 20
5.0414357866
 30
0.0
 10
6.8487101894
 20
5.041259987
 30
0.0
 10
6.848612267
 20
5.0411055499
 30
0.0
 10
6.8485504029
 20
5.0409735326
 30
0.0
 10
6.8485314634
 20
5.040889218
 30
0.0
 10
6.8485314585
 20
5.0408525855
 30
0.0
  0
SPLINE
  5
3F9
100
AcDbEntity
  8
0
100
AcDbSpline
 62
7
  6
CONTINUOUS
 70
0
 71
3
 72
21
 73
17
 74
0
 42
0.0000001
 43
0.0000001
 44
0.0000000001
 40
0.0
 40
0.0
 40
0.0
 40
0.0
 40
0.2238740457
 40
0.419033819
 40
0.5840941811
 40
0.6550911588
 40
0.7183512414
 40
0.7739153932
 40
0.8219341337
 40
0.8627380314
 40
0.8806178731
 40
0.8969491813
 40
0.925566234
 40
0.9504454418
 40
0.9742649941
 40
1.0
 40
1.0
 40
1.0
 40
1.0
 10
6.8483106056
 20
5.038628039
 30
0.0
 10
6.8479865733
 20
5.0385031466
 30
0.0
 10
6.8473770783
 20
5.0382769262
 30
0.0
 10
6.846516951
 20
5.0379915839
 30
0.0
 10
6.8458723315
 20
5.0378112881
 30
0.0
 10
6.8454187849
 20
5.0377113933
 30
0.0
 10
6.8451285388
 20
5.0376611214
 30
0.0
 10
6.8448712184
 20
5.0376316835
 30
0.0
 10
6.8446471644
 20
5.037623186
 30
0.0
 10
6.8444815147
 20
5.0376338791
 30
0.0
 10
6.8443668529
 20
5.0376545521
 30
0.0
 10
6.8442727947
 20
5.0376803253
 30
0.0
 10
6.8441727084
 20
5.0377246518
 30
0.0
 10
6.8440803398
 20
5.0378048201
 30
0.0
 10
6.8440258636
 20
5.037909642
 30
0.0
 10
6.8440163208
 20
5.0379873941
 30
0.0
 10
6.8440163195
 20
5.0380273136
 30
0.0
  0
SPLINE
  5
3FA
100
AcDbEntity
  8
0
100
AcDbSpline
 62
7
  6
CONTINUOUS
 70
0
 71
3
 72
22
 73
18
 74
0
 42
0.0000001
 43
0.0000001
 44
0.0000000001
 40
0.0
 40
0.0
 40
0.0
 40
0.0
 40
0.0491283728
 40
0.1040837145
 40
0.1638239284
 40
0.2274273784
 40
0.3629738062
 40
0.5047882168
 40
0.5762754877
 40
0.6471379033
 40
0.7165141466
 40
0.7834108537
 40
0.8466613124
 40
0.9048983703
 40
0.9565622443
 40
0.9794176144
 40
1.0
 40
1.0
 40
1.0
 40
1.0
 10
6.8615415354
 20
5.0473734334
 30
0.0
 10
6.8613501219
 20
5.0471967045
 30
0.0
 10
6.8609362785
 20
5.0468312782
 30
0.0
 10
6.8602683467
 20
5.0462756568
 30
0.0
 10
6.8595277351
 20
5.045687774
 30
0.0
 10
6.8584365383
 20
5.0448545713
 30
0.0
 10
6.8569729085
 20
5.0437924838
 30
0.0
 10
6.8554473326
 20
5.042745793
 30
0.0
 10
6.8541882662
 20
5.0419177824
 30
0.0
 10
6.853241701
 20
5.0413138806
 30
0.0
 10
6.8523068861
 20
5.0407370386
 30
0.0
 10
6.8513970859
 20
5.0401967967
 30
0.0
 10
6.8505279547
 20
5.0397040926
 30
0.0
 10
6.8497179392
 20
5.0392714744
 30
0.0
 10
6.8490861822
 20
5.0389603201
 30
0.0
 10
6.8486256299
 20
5.0387547032
 30
0.0
 10
6.848412449
 20
5.0386672928
 30
0.0
 10
6.8483106056
 20
5.038628039
 30
0.0
  0
SPLINE
  5
3FB
100
AcDbEntity
  8
0
100
AcDbSpline
 62
7
  6
CONTINUOUS
 70
0
 71
3
 72
21
 73
17
 74
0
 42
0.0000001
 43
0.0000001
 44
0.0000000001
 40
0.0
 40
0.0
 40
0.0
 40
0.0
 40
0.1193042454
 40
0.2630491438
 40
0.4312192166
 40
0.6200682939
 40
0.7138282692
 40
0.7944854985
 40
0.8566291743
 40
0.9038856629
 40
0.940041277
 40
0.9673626196
 40
0.9780866238
 40
0.9869684108
 40
0.9941719351
 40
1.0
 40
1.0
 40
1.0
 40
1.0
 10
6.8694028557
 20
5.0548934975
 30
0.0
 10
6.8691255124
 20
5.0547800169
 30
0.0
 10
6.8685212182
 20
5.0545121978
 30
0.0
 10
6.8675479144
 20
5.0540366021
 30
0.0
 10
6.8664361575
 20
5.0534479297
 30
0.0
 10
6.8654533834
 20
5.0528849919
 30
0.0
 10
6.8646781583
 20
5.0524035775
 30
0.0
 10
6.8641844363
 20
5.0520726537
 30
0.0
 10
6.8638007417
 20
5.0517883292
 30
0.0
 10
6.8635186477
 20
5.0515554096
 30
0.0
 10
6.8633158082
 20
5.0513648833
 30
0.0
 10
6.8631905726
 20
5.0512262519
 30
0.0
 10
6.8631215185
 20
5.0511305779
 30
0.0
 10
6.8630876451
 20
5.0510721835
 30
0.0
 10
6.8630670259
 20
5.0510209108
 30
0.0
 10
6.8630614738
 20
5.0509881906
 30
0.0
 10
6.8630614672
 20
5.050973552
 30
0.0
  0
LINE
  5
3FC
100
AcDbEntity
  8
0
100
AcDbLine
 62
7
  6
CONTINUOUS
 10
6.8735315155
 20
5.0549031578
 11
6.8732150275
 21
5.0543689106
  0
SPLINE
  5
3FD
100
AcDbEntity
  8
0
100
AcDbSpline
 62
7
  6
CONTINUOUS
 70
0
 71
3
 72
15
 73
11
 74
0
 42
0.0000001
 43
0.0000001
 44
0.0000000001
 40
0.0
 40
0.0
 40
0.0
 40
0.0
 40
0.1731884883
 40
0.3342075994
 40
0.4820131698
 40
0.6157119552
 40
0.7345405873
 40
0.83797156
 40
0.9260581026
 40
1.0
 40
1.0
 40
1.0
 40
1.0
 10
6.8625661205
 20
5.044793686
 30
0.0
 10
6.8623947448
 20
5.0446271419
 30
0.0
 10
6.8620689226
 20
5.0443006558
 30
0.0
 10
6.8616167714
 20
5.0438126568
 30
0.0
 10
6.8612220354
 20
5.0433464782
 30
0.0
 10
6.8608887575
 20
5.0429055038
 30
0.0
 10
6.8606208299
 20
5.0424932545
 30
0.0
 10
6.8604221249
 20
5.0421128519
 30
0.0
 10
6.8602961467
 20
5.0417676475
 30
0.0
 10
6.8602611005
 20
5.0415441326
 30
0.0
 10
6.8602610924
 20
5.0414421057
 30
0.0
  0
SPLINE
  5
3FE
100
AcDbEntity
  8
0
100
AcDbSpline
 62
7
  6
CONTINUOUS
 70
0
 71
3
 72
20
 73
16
 74
0
 42
0.0000001
 43
0.0000001
 44
0.0000000001
 40
0.0
 40
0.0
 40
0.0
 40
0.0
 40
0.1888511208
 40
0.3602968888
 40
0.5130832943
 40
0.5822363819
 40
0.6464780002
 40
0.7058060987
 40
0.7602828557
 40
0.8100302905
 40
0.8552707039
 40
0.8963308897
 40
0.9336800556
 40
0.9679620691
 40
1.0
 40
1.0
 40
1.0
 40
1.0
 10
6.8632246523
 20
5.038628039
 30
0.0
 10
6.8627178961
 20
5.0384831686
 30
0.0
 10
6.8617460782
 20
5.0382236603
 30
0.0
 10
6.8603469311
 20
5.0379165355
 30
0.0
 10
6.8592621451
 20
5.0377417279
 30
0.0
 10
6.85846745
 20
5.0376599348
 30
0.0
 10
6.8579303389
 20
5.0376280176
 30
0.0
 10
6.8574332119
 20
5.0376235628
 30
0.0
 10
6.8569770212
 20
5.0376465244
 30
0.0
 10
6.8565625294
 20
5.0376969455
 30
0.0
 10
6.8561903155
 20
5.0377746357
 30
0.0
 10
6.8558607907
 20
5.0378794987
 30
0.0
 10
6.855574276
 20
5.0380115475
 30
0.0
 10
6.8553311726
 20
5.0381705395
 30
0.0
 10
6.8551950619
 20
5.0382977525
 30
0.0
 10
6.8551359688
 20
5.0383648552
 30
0.0
  0
LINE
  5
3FF
100
AcDbEntity
  8
0
100
AcDbLine
 62
7
  6
CONTINUOUS
 10
6.8551359688
 20
5.0383648552
 11
6.854797638
 21
5.0391976092
  0
SPLINE
  5
400
100
AcDbEntity
  8
0
100
AcDbSpline
 62
7
  6
CONTINUOUS
 70
0
 71
3
 72
21
 73
17
 74
0
 42
0.0000001
 43
0.0000001
 44
0.0000000001
 40
0.0
 40
0.0
 40
0.0
 40
0.0
 40
0.0409164591
 40
0.0881191656
 40
0.1408341931
 40
0.1983076215
 40
0.2598267402
 40
0.3247256235
 40
0.4621184365
 40
0.6053789791
 40
0.677428798
 40
0.7485989823
 40
0.8178204007
 40
0.8838154316
 40
0.9450887484
 40
1.0
 40
1.0
 40
1.0
 40
1.0
 10
6.8761289223
 20
5.0473734334
 30
0.0
 10
6.8760106967
 20
5.0471937479
 30
0.0
 10
6.8757314593
 20
5.0468229876
 30
0.0
 10
6.8752408594
 20
5.046267981
 30
0.0
 10
6.8746575341
 20
5.0456806636
 30
0.0
 10
6.8739927778
 20
5.0450696915
 30
0.0
 10
6.8732567505
 20
5.0444426837
 30
0.0
 10
6.8721721083
 20
5.0435781958
 30
0.0
 10
6.8707019385
 20
5.0425096026
 30
0.0
 10
6.8691466515
 20
5.0414985786
 30
0.0
 10
6.8678511827
 20
5.0407302841
 30
0.0
 10
6.8668738807
 20
5.0401894699
 30
0.0
 10
6.8659073958
 20
5.0396960267
 30
0.0
 10
6.864969545
 20
5.0392623855
 30
0.0
 10
6.8640817802
 20
5.0389021696
 30
0.0
 10
6.8635021932
 20
5.0387073819
 30
0.0
 10
6.8632246523
 20
5.038628039
 30
0.0
  0
SPLINE
  5
401
100
AcDbEntity
  8
0
100
AcDbSpline
 62
7
  6
CONTINUOUS
 70
0
 71
3
 72
19
 73
15
 74
0
 42
0.0000001
 43
0.0000001
 44
0.0000000001
 40
0.0
 40
0.0
 40
0.0
 40
0.0
 40
0.1251672357
 40
0.2635465753
 40
0.4141668578
 40
0.5749856819
 40
0.6572794739
 40
0.7378545074
 40
0.8119514262
 40
0.8732187155
 40
0.9193206386
 40
0.9376781527
 40
0.9535756086
 40
1.0
 40
1.0
 40
1.0
 40
1.0
 10
6.8793681186
 20
5.0548934975
 30
0.0
 10
6.8790795633
 20
5.0548053697
 30
0.0
 10
6.8784772503
 20
5.0546023971
 30
0.0
 10
6.8775467407
 20
5.0542398311
 30
0.0
 10
6.8765545394
 20
5.0538017295
 30
0.0
 10
6.8757049171
 20
5.0533776157
 30
0.0
 10
6.8750233873
 20
5.0529974613
 30
0.0
 10
6.8745357701
 20
5.0526996023
 30
0.0
 10
6.8741061741
 20
5.0524050925
 30
0.0
 10
6.8737656796
 20
5.0521293467
 30
0.0
 10
6.8735541213
 20
5.0519109852
 30
0.0
 10
6.8734374481
 20
5.0517557606
 30
0.0
 10
6.8733349816
 20
5.0515913833
 30
0.0
 10
6.8732792808
 20
5.0514423617
 30
0.0
 10
6.8732792506
 20
5.0513304567
 30
0.0
  0
LINE
  5
402
100
AcDbEntity
  8
0
100
AcDbLine
 62
7
  6
CONTINUOUS
 10
6.8872624125
 20
5.0549031578
 11
6.8872417138
 21
5.0547370799
  0
LINE
  5
403
100
AcDbEntity
  8
0
100
AcDbLine
 62
7
  6
CONTINUOUS
 10
6.8561928735
 20
5.0457969779
 11
6.8558273123
 21
5.0464515343
  0
SPLINE
  5
404
100
AcDbEntity
  8
0
100
AcDbSpline
 62
7
  6
CONTINUOUS
 70
0
 71
3
 72
14
 73
10
 74
0
 42
0.0000001
 43
0.0000001
 44
0.0000000001
 40
0.0
 40
0.0
 40
0.0
 40
0.0
 40
0.0685825563
 40
0.1515566121
 40
0.2506267205
 40
0.3665710342
 40
0.4996330854
 40
0.649772013
 40
1.0
 40
1.0
 40
1.0
 40
1.0
 10
6.8746688272
 20
5.0566780543
 30
0.0
 10
6.8746688325
 20
5.0566291715
 30
0.0
 10
6.8746526864
 20
5.0565211886
 30
0.0
 10
6.8745943635
 20
5.0563518089
 30
0.0
 10
6.8745008612
 20
5.056160643
 30
0.0
 10
6.8743725529
 20
5.055948055
 30
0.0
 10
6.8742100596
 20
5.0557143446
 30
0.0
 10
6.8739342007
 20
5.055356781
 30
0.0
 10
6.8736996403
 20
5.0550876795
 30
0.0
 10
6.8735315155
 20
5.0549031578
 30
0.0
  0
LINE
  5
405
100
AcDbEntity
  8
0
100
AcDbLine
 62
7
  6
CONTINUOUS
 10
7.1662712685
 20
5.0411700383
 11
7.1662165563
 21
5.0415501449
  0
SPLINE
  5
406
100
AcDbEntity
  8
0
100
AcDbSpline
 62
7
  6
CONTINUOUS
 70
0
 71
3
 72
25
 73
21
 74
0
 42
0.0000001
 43
0.0000001
 44
0.0000000001
 40
0.0
 40
0.0
 40
0.0
 40
0.0
 40
0.0185977577
 40
0.0373886034
 40
0.0565056726
 40
0.0760774987
 40
0.117021717
 40
0.1610690276
 40
0.2088242596
 40
0.2607119427
 40
0.3169980382
 40
0.377809766
 40
0.4431458654
 40
0.5128797552
 40
0.5867560604
 40
0.6643856135
 40
0.7452414656
 40
0.8286639974
 40
0.9138722782
 40
1.0
 40
1.0
 40
1.0
 40
1.0
 10
7.0557384398
 20
5.0651877778
 30
0.0
 10
7.0557384398
 20
5.0649267046
 30
0.0
 10
7.0557124736
 20
5.0644014934
 30
0.0
 10
7.0555964042
 20
5.0636156473
 30
0.0
 10
7.0554033127
 20
5.0628309566
 30
0.0
 10
7.0550383438
 20
5.0617729443
 30
0.0
 10
7.0543783404
 20
5.0604537179
 30
0.0
 10
7.0532971194
 20
5.0589286259
 30
0.0
 10
7.0519203555
 20
5.0574474303
 30
0.0
 10
7.0502538568
 20
5.0560219248
 30
0.0
 10
7.0483042592
 20
5.0546644899
 30
0.0
 10
7.0460802237
 20
5.0533888943
 30
0.0
 10
7.0435932477
 20
5.0522099108
 30
0.0
 10
7.0408585585
 20
5.0511431059
 30
0.0
 10
7.0378959367
 20
5.0502044026
 30
0.0
 10
7.0347304438
 20
5.0494095217
 30
0.0
 10
7.0313928876
 20
5.0487732111
 30
0.0
 10
7.0279198321
 20
5.0483083951
 30
0.0
 10
7.0243531758
 20
5.0480251647
 30
0.0
 10
7.0219474908
 20
5.0479618467
 30
0.0
 10
7.0207384398
 20
5.0479618467
 30
0.0
  0
SPLINE
  5
407
100
AcDbEntity
  8
0
100
AcDbSpline
 62
7
  6
CONTINUOUS
 70
0
 71
3
 72
18
 73
14
 74
0
 42
0.0000001
 43
0.0000001
 44
0.0000000001
 40
0.0
 40
0.0
 40
0.0
 40
0.0
 40
0.035700172
 40
0.075349991
 40
0.119090616
 40
0.1669812253
 40
0.2189978712
 40
0.2750435519
 40
0.3985290675
 40
0.5356451737
 40
0.683830135
 40
0.8398615855
 40
1.0
 40
1.0
 40
1.0
 40
1.0
 10
7.0482384398
 20
5.0816804522
 30
0.0
 10
7.0481365743
 20
5.0817909248
 30
0.0
 10
7.0479058139
 20
5.0820097457
 30
0.0
 10
7.0475080495
 20
5.0823158598
 30
0.0
 10
7.0470427389
 20
5.0826149685
 30
0.0
 10
7.0465119816
 20
5.0829054626
 30
0.0
 10
7.0459180421
 20
5.0831858082
 30
0.0
 10
7.0450159863
 20
5.0835557926
 30
0.0
 10
7.0437491455
 20
5.0839752862
 30
0.0
 10
7.0420799795
 20
5.084397788
 30
0.0
 10
7.0402533912
 20
5.0847420149
 30
0.0
 10
7.0383146928
 20
5.0849973256
 30
0.0
 10
7.0369873015
 20
5.085102165
 30
0.0
 10
7.0363141998
 20
5.0851379835
 30
0.0
  0
LINE
  5
408
100
AcDbEntity
  8
0
100
AcDbLine
 62
7
  6
CONTINUOUS
 10
7.1573437929
 20
5.0404583517
 11
7.1571516289
 21
5.0407401327
  0
LINE
  5
409
100
AcDbEntity
  8
0
100
AcDbLine
 62
7
  6
CONTINUOUS
 10
7.1804478582
 20
5.0403217915
 11
7.1801670449
 21
5.0406371807
  0
LINE
  5
40A
100
AcDbEntity
  8
0
100
AcDbLine
 62
7
  6
CONTINUOUS
 10
7.1672361584
 20
5.0501426358
 11
7.1669553463
 21
5.0504204151
  0
SPLINE
  5
40B
100
AcDbEntity
  8
0
100
AcDbSpline
 62
7
  6
CONTINUOUS
 70
0
 71
3
 72
23
 73
19
 74
0
 42
0.0000001
 43
0.0000001
 44
0.0000000001
 40
0.0
 40
0.0
 40
0.0
 40
0.0
 40
0.1752456992
 40
0.3449574978
 40
0.5062528061
 40
0.5824799354
 40
0.654838839
 40
0.7224782495
 40
0.7843943403
 40
0.8395219081
 40
0.8870608096
 40
0.9267743929
 40
0.9436777735
 40
0.9586194615
 40
0.9716298843
 40
0.9827700904
 40
0.9921549484
 40
1.0
 40
1.0
 40
1.0
 40
1.0
 10
7.1760204947
 20
5.0479029576
 30
0.0
 10
7.1753058359
 20
5.0483793717
 30
0.0
 10
7.1739029284
 20
5.0493229479
 30
0.0
 10
7.1718586866
 20
5.0507292469
 30
0.0
 10
7.1702305677
 20
5.051883952
 30
0.0
 10
7.1690063739
 20
5.0527828975
 30
0.0
 10
7.1681609083
 20
5.0534219097
 30
0.0
 10
7.1673820455
 20
5.0540325063
 30
0.0
 10
7.1666828842
 20
5.054607534
 30
0.0
 10
7.166076322
 20
5.0551395919
 30
0.0
 10
7.1655724852
 20
5.0556227414
 30
0.0
 10
7.1652247521
 20
5.0559971742
 30
0.0
 10
7.1650038971
 20
5.0562697892
 30
0.0
 10
7.1648750042
 20
5.0564480564
 30
0.0
 10
7.1647738096
 20
5.0566109765
 30
0.0
 10
7.1647003959
 20
5.0567584234
 30
0.0
 10
7.1646548289
 20
5.0568902554
 30
0.0
 10
7.1646424502
 20
5.0569747026
 30
0.0
 10
7.1646424554
 20
5.057013152
 30
0.0
  0
SPLINE
  5
40C
100
AcDbEntity
  8
0
100
AcDbSpline
 62
7
  6
CONTINUOUS
 70
0
 71
3
 72
23
 73
19
 74
0
 42
0.0000001
 43
0.0000001
 44
0.0000000001
 40
0.0
 40
0.0
 40
0.0
 40
0.0
 40
0.0082347357
 40
0.0187513676
 40
0.0316472886
 40
0.0468733446
 40
0.0643191276
 40
0.0838674492
 40
0.1288282516
 40
0.1810429842
 40
0.2398648099
 40
0.3043693902
 40
0.3734425154
 40
0.4460021524
 40
0.5212045414
 40
0.6770308268
 40
0.8373085671
 40
1.0
 40
1.0
 40
1.0
 40
1.0
 10
7.1902224854
 20
5.0411924015
 30
0.0
 10
7.1902224815
 20
5.0412230866
 30
0.0
 10
7.1902079497
 20
5.0412926711
 30
0.0
 10
7.1901609608
 20
5.0414010766
 30
0.0
 10
7.1900879553
 20
5.0415255224
 30
0.0
 10
7.1899902493
 20
5.0416645214
 30
0.0
 10
7.1898692712
 20
5.0418170441
 30
0.0
 10
7.1896690846
 20
5.0420477619
 30
0.0
 10
7.1893668936
 20
5.0423609725
 30
0.0
 10
7.1889442713
 20
5.0427602767
 30
0.0
 10
7.1884528867
 20
5.0431922122
 30
0.0
 10
7.1879013974
 20
5.0436504258
 30
0.0
 10
7.1873000721
 20
5.0441284489
 30
0.0
 10
7.1866590386
 20
5.0446203663
 30
0.0
 10
7.1857519499
 20
5.0452963936
 30
0.0
 10
7.184567521
 20
5.0461470362
 30
0.0
 10
7.1831008958
 20
5.0471630894
 30
0.0
 10
7.1821026351
 20
5.0478353433
 30
0.0
 10
7.1815980451
 20
5.0481713699
 30
0.0
  0
SPLINE
  5
40D
100
AcDbEntity
  8
0
100
AcDbSpline
 62
7
  6
CONTINUOUS
 70
0
 71
3
 72
29
 73
25
 74
0
 42
0.0000001
 43
0.0000001
 44
0.0000000001
 40
0.0
 40
0.0
 40
0.0
 40
0.0
 40
0.0066352741
 40
0.009724128
 40
0.0128863438
 40
0.0162999511
 40
0.0201134661
 40
0.029338557
 40
0.0410985503
 40
0.0555788555
 40
0.0727735955
 40
0.0925955254
 40
0.1149434519
 40
0.139704694
 40
0.1959806399
 40
0.2604323265
 40
0.3319973979
 40
0.4093747601
 40
0.4907903331
 40
0.5746466007
 40
0.6597892809
 40
0.7454004573
 40
0.8309012179
 40
1.0
 40
1.0
 40
1.0
 40
1.0
 10
7.194620952
 20
5.0383339029
 30
0.0
 10
7.1946209446
 20
5.0382865203
 30
0.0
 10
7.1946093374
 20
5.0382151269
 30
0.0
 10
7.1945610967
 20
5.0381356871
 30
0.0
 10
7.194511137
 20
5.0380870623
 30
0.0
 10
7.1944471001
 20
5.0380485317
 30
0.0
 10
7.1943362558
 20
5.0380079286
 30
0.0
 10
7.1941584555
 20
5.0379869908
 30
0.0
 10
7.1939050834
 20
5.0380010028
 30
0.0
 10
7.1935987088
 20
5.0380525112
 30
0.0
 10
7.1932414331
 20
5.0381404609
 30
0.0
 10
7.19283568
 20
5.0382637984
 30
0.0
 10
7.1923843583
 20
5.0384214275
 30
0.0
 10
7.1916955763
 20
5.03868747
 30
0.0
 10
7.1907421626
 20
5.0391012873
 30
0.0
 10
7.1895039799
 20
5.0396955101
 30
0.0
 10
7.1881509957
 20
5.0403971011
 30
0.0
 10
7.18671134
 20
5.0411932689
 30
0.0
 10
7.1852124892
 20
5.0420628775
 30
0.0
 10
7.1836799831
 20
5.0429844698
 30
0.0
 10
7.1821335181
 20
5.0439406772
 30
0.0
 10
7.1805867029
 20
5.0449184558
 30
0.0
 10
7.1785438245
 20
5.0462333524
 30
0.0
 10
7.1770252417
 20
5.0472331615
 30
0.0
 10
7.1760204947
 20
5.0479029576
 30
0.0
  0
SPLINE
  5
40E
100
AcDbEntity
  8
0
100
AcDbSpline
 62
7
  6
CONTINUOUS
 70
0
 71
3
 72
12
 73
8
 74
0
 42
0.0000001
 43
0.0000001
 44
0.0000000001
 40
0.0
 40
0.0
 40
0.0
 40
0.0
 40
0.2494228172
 40
0.5082917876
 40
0.7639893631
 40
0.885683528
 40
1.0
 40
1.0
 40
1.0
 40
1.0
 10
7.1648585108
 20
5.0518626333
 30
0.0
 10
7.1644318481
 20
5.0521531447
 30
0.0
 10
7.1635441908
 20
5.052718804
 30
0.0
 10
7.1621667661
 20
5.0534963036
 30
0.0
 10
7.160985206
 20
5.0540795634
 30
0.0
 10
7.1600507474
 20
5.054482836
 30
0.0
 10
7.1595947766
 20
5.0546584459
 30
0.0
 10
7.1593719085
 20
5.054737806
 30
0.0
  0
SPLINE
  5
40F
100
AcDbEntity
  8
0
100
AcDbSpline
 62
7
  6
CONTINUOUS
 70
0
 71
3
 72
13
 73
9
 74
0
 42
0.0000001
 43
0.0000001
 44
0.0000000001
 40
0.0
 40
0.0
 40
0.0
 40
0.0
 40
0.3092502227
 40
0.5838903706
 40
0.7056173397
 40
0.8157985249
 40
0.9139690746
 40
1.0
 40
1.0
 40
1.0
 40
1.0
 10
7.1538373739
 20
5.053731285
 30
0.0
 10
7.1536023003
 20
5.0538122806
 30
0.0
 10
7.1531542013
 20
5.0539532469
 30
0.0
 10
7.1526014916
 20
5.0540846422
 30
0.0
 10
7.1521989467
 20
5.0541477521
 30
0.0
 10
7.1519345018
 20
5.0541725379
 30
0.0
 10
7.1516975995
 20
5.0541764309
 30
0.0
 10
7.1515496055
 20
5.0541642836
 30
0.0
 10
7.1514812279
 20
5.0541538537
 30
0.0
  0
SPLINE
  5
410
100
AcDbEntity
  8
0
100
AcDbSpline
 62
7
  6
CONTINUOUS
 70
0
 71
3
 72
30
 73
26
 74
0
 42
0.0000001
 43
0.0000001
 44
0.0000000001
 40
0.0
 40
0.0
 40
0.0
 40
0.0
 40
0.0191790753
 40
0.0416924563
 40
0.0674093699
 40
0.0960779791
 40
0.1273570586
 40
0.1608725578
 40
0.233105697
 40
0.3100126291
 40
0.3892917834
 40
0.4691082745
 40
0.5479760829
 40
0.6246291232
 40
0.697908514
 40
0.7666745103
 40
0.8297366438
 40
0.8587358608
 40
0.8858219511
 40
0.910822748
 40
0.9335699748
 40
0.9539133758
 40
0.9717440265
 40
0.9870477227
 40
1.0
 40
1.0
 40
1.0
 40
1.0
 10
7.1792225587
 20
5.0379068031
 30
0.0
 10
7.1790871435
 20
5.0378986233
 30
0.0
 10
7.1787912467
 20
5.0379058854
 30
0.0
 10
7.1783181576
 20
5.037969664
 30
0.0
 10
7.1777862781
 20
5.0380858869
 30
0.0
 10
7.1772032324
 20
5.0382519547
 30
0.0
 10
7.176576963
 20
5.0384644314
 30
0.0
 10
7.1756723614
 20
5.0388130834
 30
0.0
 10
7.1744917929
 20
5.0393401282
 30
0.0
 10
7.1730514382
 20
5.0400732962
 30
0.0
 10
7.1715967269
 20
5.040893075
 30
0.0
 10
7.1701618608
 20
5.0417737459
 30
0.0
 10
7.1687741789
 20
5.0426937952
 30
0.0
 10
7.1674569302
 20
5.0436346262
 30
0.0
 10
7.1662314714
 20
5.0445793543
 30
0.0
 10
7.16511924
 20
5.0455115708
 30
0.0
 10
7.1642831951
 20
5.0462840243
 30
0.0
 10
7.1636924099
 20
5.0468852838
 30
0.0
 10
7.1633058305
 20
5.0473092022
 30
0.0
 10
7.16296685
 20
5.0477160325
 30
0.0
 10
7.1626792983
 20
5.048102807
 30
0.0
 10
7.1624470809
 20
5.0484663325
 30
0.0
 10
7.1622740708
 20
5.0488036509
 30
0.0
 10
7.1621639751
 20
5.049111597
 30
0.0
 10
7.1621334236
 20
5.0493114449
 30
0.0
 10
7.1621334235
 20
5.049403062
 30
0.0
  0
SPLINE
  5
411
100
AcDbEntity
  8
0
100
AcDbSpline
 62
7
  6
CONTINUOUS
 70
0
 71
3
 72
11
 73
7
 74
0
 42
0.0000001
 43
0.0000001
 44
0.0000000001
 40
0.0
 40
0.0
 40
0.0
 40
0.0
 40
0.2645708314
 40
0.5004192791
 40
0.7360395057
 40
1.0
 40
1.0
 40
1.0
 40
1.0
 10
7.2004094468
 20
5.03786775
 30
0.0
 10
7.2003571903
 20
5.0379060049
 30
0.0
 10
7.2002496223
 20
5.0379684128
 30
0.0
 10
7.2000689701
 20
5.0380041191
 30
0.0
 10
7.1998882536
 20
5.0379694591
 30
0.0
 10
7.1997805841
 20
5.0379076013
 30
0.0
 10
7.1997283114
 20
5.0378696222
 30
0.0
  0
LINE
  5
412
100
AcDbEntity
  8
0
100
AcDbLine
 62
7
  6
CONTINUOUS
 10
7.1997283114
 20
5.0378696222
 11
7.1996314017
 21
5.0377891427
  0
LINE
  5
413
100
AcDbEntity
  8
0
100
AcDbLine
 62
7
  6
CONTINUOUS
 10
7.1703808662
 20
5.0572484665
 11
7.1704839179
 21
5.0571796851
  0
LINE
  5
414
100
AcDbEntity
  8
0
100
AcDbLine
 62
7
  6
CONTINUOUS
 10
7.1460938954
 20
5.0546577327
 11
7.1460306374
 21
5.0543768363
  0
SPLINE
  5
415
100
AcDbEntity
  8
0
100
AcDbSpline
 62
7
  6
CONTINUOUS
 70
0
 71
3
 72
12
 73
8
 74
0
 42
0.0000001
 43
0.0000001
 44
0.0000000001
 40
0.0
 40
0.0
 40
0.0
 40
0.0
 40
0.2341346439
 40
0.4865577011
 40
0.7467818925
 40
0.8754211142
 40
1.0
 40
1.0
 40
1.0
 40
1.0
 10
7.1445270387
 20
5.0513306503
 30
0.0
 10
7.1440793958
 20
5.0516809118
 30
0.0
 10
7.1431099333
 20
5.0523593774
 30
0.0
 10
7.1415386564
 20
5.0532673523
 30
0.0
 10
7.1401278715
 20
5.0539311159
 30
0.0
 10
7.1389650342
 20
5.0543810339
 30
0.0
 10
7.1383804816
 20
5.0545725473
 30
0.0
 10
7.1380902963
 20
5.0546577327
 30
0.0
  0
LINE
  5
416
100
AcDbEntity
  8
0
100
AcDbLine
 62
7
  6
CONTINUOUS
 10
7.1773702245
 20
5.0531698832
 11
7.1775582341
 21
5.0530569369
  0
LINE
  5
417
100
AcDbEntity
  8
0
100
AcDbLine
 62
7
  6
CONTINUOUS
 10
7.1772528984
 20
5.0531911981
 11
7.1745918659
 21
5.0547382826
  0
LINE
  5
418
100
AcDbEntity
  8
0
100
AcDbLine
 62
7
  6
CONTINUOUS
 10
7.1841264434
 20
5.0489222812
 11
7.183648729
 21
5.049237896
  0
SPLINE
  5
419
100
AcDbEntity
  8
0
100
AcDbSpline
 62
7
  6
CONTINUOUS
 70
0
 71
3
 72
44
 73
40
 74
0
 42
0.0000001
 43
0.0000001
 44
0.0000000001
 40
0.0
 40
0.0
 40
0.0
 40
0.0
 40
0.0016323091
 40
0.0028577277
 40
0.00440026
 40
0.0084836715
 40
0.0139197242
 40
0.0206924573
 40
0.0287703739
 40
0.0486333401
 40
0.0730363283
 40
0.101439112
 40
0.1332927758
 40
0.1680708518
 40
0.2052855121
 40
0.2445010226
 40
0.2853227043
 40
0.3274035226
 40
0.414115184
 40
0.5024331742
 40
0.5903980592
 40
0.676094146
 40
0.7174586339
 40
0.7574640048
 40
0.7957997553
 40
0.8321254814
 40
0.866066336
 40
0.8972072778
 40
0.925101151
 40
0.9492719829
 40
0.9598100143
 40
0.9692365353
 40
0.9774964985
 40
0.9845377764
 40
0.9903167015
 40
0.9948058862
 40
0.9980011278
 40
0.999136251
 40
1.0
 40
1.0
 40
1.0
 40
1.0
 10
7.1996314017
 20
5.0377891427
 30
0.0
 10
7.1996236775
 20
5.0377819253
 30
0.0
 10
7.1996032833
 20
5.0377786698
 30
0.0
 10
7.1995753687
 20
5.0377808164
 30
0.0
 10
7.19953149
 20
5.0377892446
 30
0.0
 10
7.1994632734
 20
5.0378111932
 30
0.0
 10
7.1993652909
 20
5.0378505789
 30
0.0
 10
7.1992458246
 20
5.0379053036
 30
0.0
 10
7.1990444461
 20
5.0380053197
 30
0.0
 10
7.1987462305
 20
5.0381666918
 30
0.0
 10
7.1983380466
 20
5.038400994
 30
0.0
 10
7.1978673338
 20
5.0386821904
 30
0.0
 10
7.1973429129
 20
5.0390043839
 30
0.0
 10
7.1967732472
 20
5.0393618913
 30
0.0
 10
7.1961661031
 20
5.0397493286
 30
0.0
 10
7.1955285101
 20
5.0401617815
 30
0.0
 10
7.1948667173
 20
5.0405948256
 30
0.0
 10
7.1939502878
 20
5.0412004888
 30
0.0
 10
7.1927819899
 20
5.0419829203
 30
0.0
 10
7.1913733516
 20
5.0429404339
 30
0.0
 10
7.1899764251
 20
5.0439034125
 30
0.0
 10
7.1888352608
 20
5.0447015787
 30
0.0
 10
7.1879523466
 20
5.0453269972
 30
0.0
 10
7.1873217066
 20
5.0457779085
 30
0.0
 10
7.186719794
 20
5.0462128764
 30
0.0
 10
7.1861521561
 20
5.0466281987
 30
0.0
 10
7.1856249027
 20
5.0470197794
 30
0.0
 10
7.1851447004
 20
5.0473830927
 30
0.0
 10
7.1847187603
 20
5.0477131984
 30
0.0
 10
7.1844022131
 20
5.0479665803
 30
0.0
 10
7.1841823945
 20
5.0481493033
 30
0.0
 10
7.1840436277
 20
5.0482682963
 30
0.0
 10
7.1839241267
 20
5.0483749385
 30
0.0
 10
7.1838247583
 20
5.0484685643
 30
0.0
 10
7.183746117
 20
5.0485485771
 30
0.0
 10
7.1836889478
 20
5.048614366
 30
0.0
 10
7.183655679
 20
5.0486612738
 30
0.0
 10
7.1836418183
 20
5.0486920074
 30
0.0
 10
7.1836390458
 20
5.0487048933
 30
0.0
 10
7.1836390396
 20
5.0487104873
 30
0.0
  0
LINE
  5
41A
100
AcDbEntity
  8
0
100
AcDbLine
 62
7
  6
CONTINUOUS
 10
7.1964157167
 20
5.0407388502
 11
7.1974189371
 21
5.040019831
  0
LINE
  5
41B
100
AcDbEntity
  8
0
100
AcDbLine
 62
7
  6
CONTINUOUS
 10
7.1974189371
 20
5.040019831
 11
7.1975066448
 21
5.0399560476
  0
SPLINE
  5
41C
100
AcDbEntity
  8
0
100
AcDbSpline
 62
7
  6
CONTINUOUS
 70
0
 71
3
 72
25
 73
21
 74
0
 42
0.0000001
 43
0.0000001
 44
0.0000000001
 40
0.0
 40
0.0
 40
0.0
 40
0.0
 40
0.0634303325
 40
0.1266805357
 40
0.1897313354
 40
0.2525838029
 40
0.3152526939
 40
0.3777629708
 40
0.4401467833
 40
0.5024370726
 40
0.5646654379
 40
0.6268572518
 40
0.6890335759
 40
0.7201285425
 40
0.7512238444
 40
0.81340237
 40
0.8755891401
 40
0.9066945934
 40
0.9378013748
 40
1.0
 40
1.0
 40
1.0
 40
1.0
 10
7.4876733589
 20
4.8223693848
 30
0.0
 10
7.4872772727
 20
4.8244493534
 30
0.0
 10
7.4863363961
 20
4.8285765289
 30
0.0
 10
7.4844790123
 20
4.8346371667
 30
0.0
 10
7.4821808276
 20
4.8405246784
 30
0.0
 10
7.479447152
 20
4.8462017507
 30
0.0
 10
7.4762847271
 20
4.8516311747
 30
0.0
 10
7.4727028508
 20
4.8567748953
 30
0.0
 10
7.4687139788
 20
4.861593941
 30
0.0
 10
7.4643348741
 20
4.8660486841
 30
0.0
 10
7.459587222
 20
4.8700992035
 30
0.0
 10
7.4544989369
 20
4.8737061443
 30
0.0
 10
7.4500015909
 20
4.8763115288
 30
0.0
 10
7.4462716932
 20
4.8781372431
 30
0.0
 10
7.442460181
 20
4.8797860366
 30
0.0
 10
7.4375555213
 20
4.8815065538
 30
0.0
 10
7.4325084669
 20
4.8827509038
 30
0.0
 10
7.4284139516
 20
4.8834513779
 30
0.0
 10
7.4242903477
 20
4.8839534937
 30
0.0
 10
7.4211729949
 20
4.8841048137
 30
0.0
 10
7.4190967641
 20
4.8841048137
 30
0.0
  0
SPLINE
  5
41D
100
AcDbEntity
  8
0
100
AcDbSpline
 62
7
  6
CONTINUOUS
 70
0
 71
3
 72
13
 73
9
 74
0
 42
0.0000001
 43
0.0000001
 44
0.0000000001
 40
0.0
 40
0.0
 40
0.0
 40
0.0
 40
0.2491318146
 40
0.3744605857
 40
0.5000000272
 40
0.6255394641
 40
0.750868222
 40
1.0
 40
1.0
 40
1.0
 40
1.0
 10
7.4876733587
 20
4.6658402416
 30
0.0
 10
7.490118676
 20
4.6786813426
 30
0.0
 10
7.4928649955
 20
4.6981755171
 30
0.0
 10
7.494696293
 20
4.724352553
 30
0.0
 10
7.4951557367
 20
4.7441048172
 30
0.0
 10
7.4946962927
 20
4.7638570808
 30
0.0
 10
7.492864995
 20
4.7900341137
 30
0.0
 10
7.4901186758
 20
4.8095282857
 30
0.0
 10
7.4876733589
 20
4.8223693848
 30
0.0
  0
SPLINE
  5
41E
100
AcDbEntity
  8
0
100
AcDbSpline
 62
7
  6
CONTINUOUS
 70
0
 71
3
 72
25
 73
21
 74
0
 42
0.0000001
 43
0.0000001
 44
0.0000000001
 40
0.0
 40
0.0
 40
0.0
 40
0.0
 40
0.0621971113
 40
0.0933034381
 40
0.1244085297
 40
0.1865948582
 40
0.248773377
 40
0.2798688488
 40
0.3109640751
 40
0.3731409862
 40
0.4353336049
 40
0.4975627405
 40
0.5598538141
 40
0.6222383019
 40
0.6847490039
 40
0.74741825
 40
0.8102707469
 40
0.8733213535
 40
0.9365707398
 40
1.0
 40
1.0
 40
1.0
 40
1.0
 10
7.4190967641
 20
4.6041048137
 30
0.0
 10
7.4211729443
 20
4.6041048137
 30
0.0
 10
7.4242902306
 20
4.6042561324
 30
0.0
 10
7.4284137598
 20
4.6047582173
 30
0.0
 10
7.4325082343
 20
4.6054586808
 30
0.0
 10
7.4375552677
 20
4.6067030014
 30
0.0
 10
7.442459924
 20
4.6084234987
 30
0.0
 10
7.4462714611
 20
4.6100722705
 30
0.0
 10
7.4500013895
 20
4.6118979992
 30
0.0
 10
7.4544987956
 20
4.6145033891
 30
0.0
 10
7.4595871454
 20
4.6181103644
 30
0.0
 10
7.4643348621
 20
4.6221609296
 30
0.0
 10
7.4687140176
 20
4.6266157274
 30
0.0
 10
7.4727029247
 20
4.6314348259
 30
0.0
 10
7.4762848189
 20
4.6365785933
 30
0.0
 10
7.4794472439
 20
4.6420080484
 30
0.0
 10
7.4821809096
 20
4.6476851324
 30
0.0
 10
7.4844790645
 20
4.6535726204
 30
0.0
 10
7.4863364221
 20
4.6596331932
 30
0.0
 10
7.4872772792
 20
4.6637603082
 30
0.0
 10
7.4876733587
 20
4.6658402416
 30
0.0
  0
SPLINE
  5
41F
100
AcDbEntity
  8
0
100
AcDbSpline
 62
7
  6
CONTINUOUS
 70
0
 71
3
 72
25
 73
21
 74
0
 42
0.0000001
 43
0.0000001
 44
0.0000000001
 40
0.0
 40
0.0
 40
0.0
 40
0.0
 40
0.0634303325
 40
0.1266805356
 40
0.1897313353
 40
0.2525838028
 40
0.3152526938
 40
0.3777629708
 40
0.4401467833
 40
0.5024370726
 40
0.5646654379
 40
0.6268572518
 40
0.6890335759
 40
0.7201285425
 40
0.7512238444
 40
0.81340237
 40
0.87558914
 40
0.9066945933
 40
0.9378013748
 40
1.0
 40
1.0
 40
1.0
 40
1.0
 10
6.5538035209
 20
4.8223693856
 30
0.0
 10
6.5541996071
 20
4.8244493542
 30
0.0
 10
6.5551404837
 20
4.8285765297
 30
0.0
 10
6.5569978675
 20
4.8346371674
 30
0.0
 10
6.5592960522
 20
4.8405246791
 30
0.0
 10
6.5620297279
 20
4.8462017512
 30
0.0
 10
6.5651921528
 20
4.8516311751
 30
0.0
 10
6.5687740291
 20
4.8567748957
 30
0.0
 10
6.5727629011
 20
4.8615939414
 30
0.0
 10
6.5771420058
 20
4.8660486843
 30
0.0
 10
6.5818896579
 20
4.8700992037
 30
0.0
 10
6.586977943
 20
4.8737061445
 30
0.0
 10
6.591475289
 20
4.8763115289
 30
0.0
 10
6.5952051866
 20
4.8781372432
 30
0.0
 10
6.5990166987
 20
4.8797860366
 30
0.0
 10
6.6039213584
 20
4.8815065539
 30
0.0
 10
6.6089684128
 20
4.8827509039
 30
0.0
 10
6.6130629281
 20
4.8834513779
 30
0.0
 10
6.6171865319
 20
4.8839534937
 30
0.0
 10
6.6203038847
 20
4.8841048137
 30
0.0
 10
6.6223801155
 20
4.8841048137
 30
0.0
  0
SPLINE
  5
420
100
AcDbEntity
  8
0
100
AcDbSpline
 62
7
  6
CONTINUOUS
 70
0
 71
3
 72
13
 73
9
 74
0
 42
0.0000001
 43
0.0000001
 44
0.0000000001
 40
0.0
 40
0.0
 40
0.0
 40
0.0
 40
0.2491318147
 40
0.3744605858
 40
0.5000000272
 40
0.6255394642
 40
0.750868222
 40
1.0
 40
1.0
 40
1.0
 40
1.0
 10
6.5538035207
 20
4.6658402426
 30
0.0
 10
6.5513582034
 20
4.6786813435
 30
0.0
 10
6.548611884
 20
4.6981755181
 30
0.0
 10
6.5467805866
 20
4.7243525539
 30
0.0
 10
6.5463211429
 20
4.7441048181
 30
0.0
 10
6.546780587
 20
4.7638570817
 30
0.0
 10
6.5486118847
 20
4.7900341146
 30
0.0
 10
6.5513582039
 20
4.8095282865
 30
0.0
 10
6.5538035209
 20
4.8223693856
 30
0.0
  0
SPLINE
  5
421
100
AcDbEntity
  8
0
100
AcDbSpline
 62
7
  6
CONTINUOUS
 70
0
 71
3
 72
25
 73
21
 74
0
 42
0.0000001
 43
0.0000001
 44
0.0000000001
 40
0.0
 40
0.0
 40
0.0
 40
0.0
 40
0.0621971113
 40
0.0933034381
 40
0.1244085297
 40
0.1865948582
 40
0.2487733769
 40
0.2798688488
 40
0.310964075
 40
0.3731409862
 40
0.4353336048
 40
0.4975627405
 40
0.559853814
 40
0.6222383019
 40
0.6847490039
 40
0.74741825
 40
0.8102707468
 40
0.8733213535
 40
0.9365707398
 40
1.0
 40
1.0
 40
1.0
 40
1.0
 10
6.6223801155
 20
4.6041048137
 30
0.0
 10
6.6203039353
 20
4.6041048137
 30
0.0
 10
6.617186649
 20
4.6042561324
 30
0.0
 10
6.6130631197
 20
4.6047582173
 30
0.0
 10
6.6089686452
 20
4.6054586808
 30
0.0
 10
6.6039216118
 20
4.6067030014
 30
0.0
 10
6.5990169554
 20
4.6084234988
 30
0.0
 10
6.5952054183
 20
4.6100722706
 30
0.0
 10
6.5914754899
 20
4.6118979994
 30
0.0
 10
6.5869780837
 20
4.6145033893
 30
0.0
 10
6.5818897338
 20
4.6181103646
 30
0.0
 10
6.5771420171
 20
4.6221609299
 30
0.0
 10
6.5727628616
 20
4.6266157278
 30
0.0
 10
6.5687739546
 20
4.6314348263
 30
0.0
 10
6.5651920604
 20
4.6365785939
 30
0.0
 10
6.5620296354
 20
4.642008049
 30
0.0
 10
6.5592959697
 20
4.6476851331
 30
0.0
 10
6.5569978149
 20
4.6535726212
 30
0.0
 10
6.5551404573
 20
4.659633194
 30
0.0
 10
6.5541996002
 20
4.6637603091
 30
0.0
 10
6.5538035207
 20
4.6658402426
 30
0.0
  0
SPLINE
  5
422
100
AcDbEntity
  8
0
100
AcDbSpline
 62
7
  6
CONTINUOUS
 70
0
 71
3
 72
17
 73
13
 74
0
 42
0.0000001
 43
0.0000001
 44
0.0000000001
 40
0.0
 40
0.0
 40
0.0
 40
0.0
 40
0.1725193712
 40
0.3381528177
 40
0.4913241876
 40
0.6281139073
 40
0.7463782997
 40
0.8457897538
 40
0.8890276874
 40
0.9285701656
 40
0.9652135532
 40
1.0
 40
1.0
 40
1.0
 40
1.0
 10
6.9982384398
 20
5.0720894676
 30
0.0
 10
6.99806729
 20
5.0720756973
 30
0.0
 10
6.997732806
 20
5.0720341132
 30
0.0
 10
6.9972540794
 20
5.0719313145
 30
0.0
 10
6.9968209787
 20
5.0717945365
 30
0.0
 10
6.9964481338
 20
5.0716305732
 30
0.0
 10
6.9961458987
 20
5.0714464248
 30
0.0
 10
6.9959493639
 20
5.0712732352
 30
0.0
 10
6.9958388594
 20
5.0711287605
 30
0.0
 10
6.9957815429
 20
5.0710239993
 30
0.0
 10
6.9957465483
 20
5.070918556
 30
0.0
 10
6.9957384398
 20
5.0708472668
 30
0.0
 10
6.9957384398
 20
5.070812645
 30
0.0
  0
SPLINE
  5
423
100
AcDbEntity
  8
0
100
AcDbSpline
 62
7
  6
CONTINUOUS
 70
0
 71
3
 72
17
 73
13
 74
0
 42
0.0000001
 43
0.0000001
 44
0.0000000001
 40
0.0
 40
0.0
 40
0.0
 40
0.0
 40
0.034789998
 40
0.0714871698
 40
0.1111186761
 40
0.1544637946
 40
0.2540841146
 40
0.3724732238
 40
0.5092606885
 40
0.662305733
 40
0.8277271351
 40
1.0
 40
1.0
 40
1.0
 40
1.0
 10
7.0482384398
 20
5.0705768015
 30
0.0
 10
7.0482384398
 20
5.0706115298
 30
0.0
 10
7.0482302914
 20
5.0706830855
 30
0.0
 10
7.04819522
 20
5.0707889979
 30
0.0
 10
7.0481378218
 20
5.0708943947
 30
0.0
 10
7.048027225
 20
5.0710399761
 30
0.0
 10
7.0478307059
 20
5.0712149633
 30
0.0
 10
7.0475285608
 20
5.0714018695
 30
0.0
 10
7.0471559082
 20
5.0715692065
 30
0.0
 10
7.046723015
 20
5.0717099205
 30
0.0
 10
7.0462443605
 20
5.0718170988
 30
0.0
 10
7.0459097233
 20
5.0718617451
 30
0.0
 10
7.0457384398
 20
5.071877069
 30
0.0
  0
LINE
  5
424
100
AcDbEntity
  8
0
100
AcDbLine
 62
7
  6
CONTINUOUS
 10
7.170648017
 20
5.0478089625
 11
7.1699794344
 21
5.0481375955
  0
SPLINE
  5
425
100
AcDbEntity
  8
0
100
AcDbSpline
 62
7
  6
CONTINUOUS
 70
0
 71
3
 72
15
 73
11
 74
0
 42
0.0000001
 43
0.0000001
 44
0.0000000001
 40
0.0
 40
0.0
 40
0.0
 40
0.0
 40
0.1694466158
 40
0.3192787006
 40
0.4513167863
 40
0.5687739833
 40
0.6763980742
 40
0.7801011154
 40
0.8861570128
 40
1.0
 40
1.0
 40
1.0
 40
1.0
 10
7.167369129
 20
5.0481323028
 30
0.0
 10
7.1673231566
 20
5.0481309885
 30
0.0
 10
7.167236548
 20
5.0481248254
 30
0.0
 10
7.1671158094
 20
5.0481023219
 30
0.0
 10
7.1670128031
 20
5.0480670598
 30
0.0
 10
7.166927901
 20
5.0480188811
 30
0.0
 10
7.166861611
 20
5.0479577944
 30
0.0
 10
7.166814845
 20
5.0478842697
 30
0.0
 10
7.1667877691
 20
5.0477998374
 30
0.0
 10
7.1667825936
 20
5.0477399037
 30
0.0
 10
7.1667825957
 20
5.0477090044
 30
0.0
  0
SPLINE
  5
426
100
AcDbEntity
  8
0
100
AcDbSpline
 62
7
  6
CONTINUOUS
 70
0
 71
3
 72
31
 73
27
 74
0
 42
0.0000001
 43
0.0000001
 44
0.0000000001
 40
0.0
 40
0.0
 40
0.0
 40
0.0
 40
0.1701257551
 40
0.2548959813
 40
0.3391434555
 40
0.4224336709
 40
0.5041132305
 40
0.5832575067
 40
0.6586635663
 40
0.7289301294
 40
0.7927666805
 40
0.8494467566
 40
0.8984548492
 40
0.9198556487
 40
0.9390375247
 40
0.9558591857
 40
0.9701697313
 40
0.9763339247
 40
0.9818112358
 40
0.9865844784
 40
0.9906370165
 40
0.9939592447
 40
0.996560962
 40
0.9976098836
 40
0.9985121975
 40
1.0
 40
1.0
 40
1.0
 40
1.0
 10
7.0207384398
 20
5.0965945395
 30
0.0
 10
7.0193120018
 20
5.0965945395
 30
0.0
 10
7.0171747532
 20
5.0965790951
 30
0.0
 10
7.0143316283
 20
5.0965269267
 30
0.0
 10
7.0122168128
 20
5.0964721116
 30
0.0
 10
7.0101283895
 20
5.0964016709
 30
0.0
 10
7.0080833602
 20
5.0963159429
 30
0.0
 10
7.0061051796
 20
5.0962156173
 30
0.0
 10
7.0042235794
 20
5.0961018593
 30
0.0
 10
7.0024713807
 20
5.0959762584
 30
0.0
 10
7.0008774466
 20
5.0958405062
 30
0.0
 10
6.9994632788
 20
5.0956966706
 30
0.0
 10
6.9984054575
 20
5.0955671737
 30
0.0
 10
6.9976620638
 20
5.0954590632
 30
0.0
 10
6.9971870611
 20
5.0953811537
 30
0.0
 10
6.9967724297
 20
5.0953031586
 30
0.0
 10
6.9964669749
 20
5.0952357174
 30
0.0
 10
6.9962563563
 20
5.0951809514
 30
0.0
 10
6.9961242479
 20
5.0951422494
 30
0.0
 10
6.9960105606
 20
5.0951039637
 30
0.0
 10
6.9959158576
 20
5.0950662273
 30
0.0
 10
6.9958407987
 20
5.0950291279
 30
0.0
 10
6.9957916278
 20
5.0949968958
 30
0.0
 10
6.9957638398
 20
5.0949704855
 30
0.0
 10
6.9957461679
 20
5.0949477147
 30
0.0
 10
6.9957389528
 20
5.0949277002
 30
0.0
 10
6.9957388917
 20
5.0949152257
 30
0.0
  0
SPLINE
  5
427
100
AcDbEntity
  8
0
100
AcDbSpline
 62
7
  6
CONTINUOUS
 70
0
 71
3
 72
32
 73
28
 74
0
 42
0.0000001
 43
0.0000001
 44
0.0000000001
 40
0.0
 40
0.0
 40
0.0
 40
0.0
 40
0.1541032215
 40
0.2318397694
 40
0.3100175547
 40
0.3885099831
 40
0.467012535
 40
0.5449502516
 40
0.6213871139
 40
0.6949951831
 40
0.7643282222
 40
0.796992803
 40
0.8280874799
 40
0.8574037628
 40
0.8846937978
 40
0.9096771583
 40
0.9320281146
 40
0.9513928762
 40
0.9673978187
 40
0.9740446213
 40
0.9797595273
 40
0.9845471209
 40
0.9884785373
 40
0.9917118269
 40
0.9944889398
 40
0.997139322
 40
1.0
 40
1.0
 40
1.0
 40
1.0
 10
7.1815980451
 20
5.0481713699
 30
0.0
 10
7.1809826555
 20
5.0485811823
 30
0.0
 10
7.1800529096
 20
5.049191879
 30
0.0
 10
7.1787998927
 20
5.0499933589
 30
0.0
 10
7.1778469252
 20
5.0505906101
 30
0.0
 10
7.1768846335
 20
5.0511797969
 30
0.0
 10
7.1759163047
 20
5.0517567774
 30
0.0
 10
7.174948567
 20
5.0523152909
 30
0.0
 10
7.1739923373
 20
5.0528465091
 30
0.0
 10
7.173062355
 20
5.0533395788
 30
0.0
 10
7.1723091563
 20
5.0537173297
 30
0.0
 10
7.171732739
 20
5.0539921291
 30
0.0
 10
7.1713268543
 20
5.0541783793
 30
0.0
 10
7.1709415045
 20
5.054347419
 30
0.0
 10
7.1705799344
 20
5.0544975097
 30
0.0
 10
7.1702459554
 20
5.0546266404
 30
0.0
 10
7.1699439218
 20
5.0547326371
 30
0.0
 10
7.1696788291
 20
5.0548130116
 30
0.0
 10
7.1694823914
 20
5.0548595414
 30
0.0
 10
7.169347711
 20
5.054879724
 30
0.0
 10
7.1692655697
 20
5.0548859507
 30
0.0
 10
7.1691961677
 20
5.054884034
 30
0.0
 10
7.1691394428
 20
5.054873779
 30
0.0
 10
7.1690949433
 20
5.0548551684
 30
0.0
 10
7.169062735
 20
5.0548275127
 30
0.0
 10
7.1690441759
 20
5.0547912818
 30
0.0
 10
7.1690409885
 20
5.054764547
 30
0.0
 10
7.1690409862
 20
5.054750822
 30
0.0
  0
LINE
  5
428
100
AcDbEntity
  8
0
100
AcDbLine
 62
7
  6
CONTINUOUS
 10
7.1877986925
 20
5.0465536308
 11
7.1872773587
 21
5.0468842769
  0
LINE
  5
429
100
AcDbEntity
  8
0
100
AcDbLine
 62
7
  6
CONTINUOUS
 10
7.1872402526
 20
5.0468861981
 11
7.1869434996
 21
5.0467992258
  0
LINE
  5
42A
100
AcDbEntity
  8
0
100
AcDbLine
 62
7
  6
CONTINUOUS
 10
7.1969602997
 20
5.040265547
 11
7.1964825852
 21
5.040618054
  0
LINE
  5
42B
100
AcDbEntity
  8
0
100
AcDbLine
 62
7
  6
CONTINUOUS
 10
7.1666139921
 20
5.0495335748
 11
7.1662870609
 21
5.0496468697
  0
LINE
  5
42C
100
AcDbEntity
  8
0
100
AcDbLine
 62
7
  6
CONTINUOUS
 10
7.16367063
 20
5.0494896002
 11
7.1632629898
 21
5.0495195377
  0
LINE
  5
42D
100
AcDbEntity
  8
0
100
AcDbLine
 62
7
  6
CONTINUOUS
 10
7.1632629898
 20
5.0495195377
 11
7.1630813796
 21
5.0495177094
  0
SPLINE
  5
42E
100
AcDbEntity
  8
0
100
AcDbSpline
 62
7
  6
CONTINUOUS
 70
0
 71
3
 72
13
 73
9
 74
0
 42
0.0000001
 43
0.0000001
 44
0.0000000001
 40
0.0
 40
0.0
 40
0.0
 40
0.0
 40
0.3154821708
 40
0.452264514
 40
0.5767401556
 40
0.7967494298
 40
0.8988533742
 40
1.0
 40
1.0
 40
1.0
 40
1.0
 10
7.1630813796
 20
5.0495177094
 30
0.0
 10
7.1629703913
 20
5.0495129695
 30
0.0
 10
7.1628109633
 20
5.0494962353
 30
0.0
 10
7.1626143655
 20
5.0494434714
 30
0.0
 10
7.1624570614
 20
5.0493799206
 30
0.0
 10
7.1623239808
 20
5.0492895805
 30
0.0
 10
7.1622295554
 20
5.0491731658
 30
0.0
 10
7.1621958707
 20
5.049109423
 30
0.0
 10
7.1621822461
 20
5.0490765157
 30
0.0
  0
LINE
  5
42F
100
AcDbEntity
  8
0
100
AcDbLine
 62
7
  6
CONTINUOUS
 10
7.1848552283
 20
5.0392274183
 11
7.1808458969
 21
5.0416174171
  0
SPLINE
  5
430
100
AcDbEntity
  8
0
100
AcDbSpline
 62
7
  6
CONTINUOUS
 70
0
 71
3
 72
29
 73
25
 74
0
 42
0.0000001
 43
0.0000001
 44
0.0000000001
 40
0.0
 40
0.0
 40
0.0
 40
0.0
 40
0.0191988319
 40
0.0417720627
 40
0.0675596794
 40
0.0962946423
 40
0.1276293668
 40
0.1611875423
 40
0.2334721955
 40
0.3104056386
 40
0.3897093776
 40
0.4695628944
 40
0.54848545
 40
0.6252097018
 40
0.6985713369
 40
0.7674189387
 40
0.8305433718
 40
0.8866317424
 40
0.9116059125
 40
0.9342968366
 40
0.9545421497
 40
0.972225329
 40
0.9873203238
 40
1.0
 40
1.0
 40
1.0
 40
1.0
 10
7.177786951
 20
5.0396689937
 30
0.0
 10
7.1776995388
 20
5.039666409
 30
0.0
 10
7.1775088905
 20
5.039676319
 30
0.0
 10
7.1772045729
 20
5.0397241341
 30
0.0
 10
7.1768626009
 20
5.0398052321
 30
0.0
 10
7.1764879123
 20
5.0399178508
 30
0.0
 10
7.1760855796
 20
5.0400596965
 30
0.0
 10
7.1755046815
 20
5.0402902101
 30
0.0
 10
7.1747465147
 20
5.0406354064
 30
0.0
 10
7.1738210758
 20
5.0411125811
 30
0.0
 10
7.1728859125
 20
5.0416440988
 30
0.0
 10
7.1719628896
 20
5.0422137737
 30
0.0
 10
7.171069577
 20
5.042808009
 30
0.0
 10
7.1702209667
 20
5.0434149827
 30
0.0
 10
7.1694309199
 20
5.0440238859
 30
0.0
 10
7.1687132287
 20
5.0446241071
 30
0.0
 10
7.1680827427
 20
5.0452044918
 30
0.0
 10
7.1676267084
 20
5.0456780711
 30
0.0
 10
7.1673223362
 20
5.046039832
 30
0.0
 10
7.1671362979
 20
5.0462872142
 30
0.0
 10
7.1669859894
 20
5.0465191656
 30
0.0
 10
7.1668739628
 20
5.0467337308
 30
0.0
 10
7.1668026025
 20
5.0469288019
 30
0.0
 10
7.1667825997
 20
5.0470552702
 30
0.0
 10
7.1667825957
 20
5.047113026
 30
0.0
  0
SPLINE
  5
431
100
AcDbEntity
  8
0
100
AcDbSpline
 62
7
  6
CONTINUOUS
 70
0
 71
3
 72
16
 73
12
 74
0
 42
0.0000001
 43
0.0000001
 44
0.0000000001
 40
0.0
 40
0.0
 40
0.0
 40
0.0
 40
0.1708500811
 40
0.3310047378
 40
0.4790275734
 40
0.613651036
 40
0.7336244537
 40
0.837960591
 40
0.8841585474
 40
0.9264239459
 40
1.0
 40
1.0
 40
1.0
 40
1.0
 10
7.1485288383
 20
5.0507430281
 30
0.0
 10
7.148348177
 20
5.0508847094
 30
0.0
 10
7.1480030559
 20
5.0511655389
 30
0.0
 10
7.1475210878
 20
5.0515925816
 30
0.0
 10
7.1470955819
 20
5.0520089467
 30
0.0
 10
7.1467321116
 20
5.0524103054
 30
0.0
 10
7.1464365337
 20
5.0527921609
 30
0.0
 10
7.1462441851
 20
5.053101853
 30
0.0
 10
7.1461337711
 20
5.0533366974
 30
0.0
 10
7.1460597612
 20
5.0535414399
 30
0.0
 10
7.1460306246
 20
5.0536971903
 30
0.0
 10
7.1460306374
 20
5.0537960631
 30
0.0
  0
SPLINE
  5
432
100
AcDbEntity
  8
0
100
AcDbSpline
 62
7
  6
CONTINUOUS
 70
0
 71
3
 72
12
 73
8
 74
0
 42
0.0000001
 43
0.0000001
 44
0.0000000001
 40
0.0
 40
0.0
 40
0.0
 40
0.0
 40
0.0989600181
 40
0.2067417191
 40
0.4464413431
 40
0.7133273878
 40
1.0
 40
1.0
 40
1.0
 40
1.0
 10
7.154377916
 20
5.0396508936
 30
0.0
 10
7.1542570809
 20
5.0396442284
 30
0.0
 10
7.1540039177
 20
5.0396421214
 30
0.0
 10
7.1534587937
 20
5.0396783359
 30
0.0
 10
7.1527157579
 20
5.0398007622
 30
0.0
 10
7.151776292
 20
5.0400461455
 30
0.0
 10
7.1511350312
 20
5.0402649479
 30
0.0
 10
7.1508067422
 20
5.0403879446
 30
0.0
  0
LINE
  5
433
100
AcDbEntity
  8
0
100
AcDbLine
 62
7
  6
CONTINUOUS
 10
7.1618552646
 20
5.0397649742
 11
7.1611534285
 21
5.0401273867
  0
SPLINE
  5
434
100
AcDbEntity
  8
0
100
AcDbSpline
 62
7
  6
CONTINUOUS
 70
0
 71
3
 72
37
 73
33
 74
0
 42
0.0000001
 43
0.0000001
 44
0.0000000001
 40
0.0
 40
0.0
 40
0.0
 40
0.0
 40
0.0077759954
 40
0.0155587764
 40
0.023349044
 40
0.0311468951
 40
0.0389498219
 40
0.0467562727
 40
0.054567431
 40
0.0623828027
 40
0.0662908597
 40
0.0701984236
 40
0.0780121511
 40
0.0858249606
 40
0.0936378922
 40
0.1092649412
 40
0.1248920797
 40
0.1405189141
 40
0.1561458183
 40
0.1873997081
 40
0.2186535566
 40
0.2499074173
 40
0.2811612741
 40
0.312415132
 40
0.3749228471
 40
0.4374305623
 40
0.4999382774
 40
0.5624459925
 40
0.6249537076
 40
0.749969138
 40
0.8749845688
 40
1.0
 40
1.0
 40
1.0
 40
1.0
 10
6.8328143973
 20
4.7908860853
 30
0.0
 10
6.8327781164
 20
4.7905333632
 30
0.0
 10
6.8327088532
 20
4.7898272647
 30
0.0
 10
6.8326145264
 20
4.7887667276
 30
0.0
 10
6.8325295132
 20
4.7877044067
 30
0.0
 10
6.8324530606
 20
4.7866405067
 30
0.0
 10
6.8323914186
 20
4.7855748751
 30
0.0
 10
6.8323522503
 20
4.7845075066
 30
0.0
 10
6.8323410799
 20
4.7834389449
 30
0.0
 10
6.832343826
 20
4.7825481765
 30
0.0
 10
6.8323472386
 20
4.781835416
 30
0.0
 10
6.832349227
 20
4.7811227245
 30
0.0
 10
6.83234936
 20
4.7802319742
 30
0.0
 10
6.8323477821
 20
4.7791631426
 30
0.0
 10
6.832346366
 20
4.777738025
 30
0.0
 10
6.8323472782
 20
4.7759565757
 30
0.0
 10
6.8323477639
 20
4.7738188151
 30
0.0
 10
6.8323474847
 20
4.7716810609
 30
0.0
 10
6.832347643
 20
4.7688307315
 30
0.0
 10
6.8323479404
 20
4.7652678149
 30
0.0
 10
6.8323481919
 20
4.7609923137
 30
0.0
 10
6.8323485757
 20
4.756716814
 30
0.0
 10
6.8323489692
 20
4.7524413139
 30
0.0
 10
6.8323495636
 20
4.7467406472
 30
0.0
 10
6.8323503856
 20
4.7396148139
 30
0.0
 10
6.8323514731
 20
4.7310638139
 30
0.0
 10
6.832352617
 20
4.7225128139
 30
0.0
 10
6.8323537783
 20
4.713961814
 30
0.0
 10
6.8323552957
 20
4.7025604807
 30
0.0
 10
6.8323570337
 20
4.688308814
 30
0.0
 10
6.832358543
 20
4.6712068139
 30
0.0
 10
6.8323589501
 20
4.6598054804
 30
0.0
 10
6.8323589501
 20
4.6541048137
 30
0.0
  0
SPLINE
  5
435
100
AcDbEntity
  8
0
100
AcDbSpline
 62
7
  6
CONTINUOUS
 70
0
 71
3
 72
22
 73
18
 74
0
 42
0.0000001
 43
0.0000001
 44
0.0000000001
 40
0.0
 40
0.0
 40
0.0
 40
0.0
 40
0.066338745
 40
0.1321132224
 40
0.1972961553
 40
0.2618797845
 40
0.3258648743
 40
0.3892659165
 40
0.4520991965
 40
0.5143935913
 40
0.6375085038
 40
0.6984271315
 40
0.7590020728
 40
0.8193167229
 40
0.8794811565
 40
0.9396428488
 40
1.0
 40
1.0
 40
1.0
 40
1.0
 10
6.9009044153
 20
4.6541048137
 30
0.0
 10
6.8999588961
 20
4.6530465911
 30
0.0
 10
6.8980237758
 20
4.6509850631
 30
0.0
 10
6.8949891729
 20
4.6480497286
 30
0.0
 10
6.8918538253
 20
4.64527887
 30
0.0
 10
6.8886386325
 20
4.6426618049
 30
0.0
 10
6.8853646856
 20
4.6401817179
 30
0.0
 10
6.8820509941
 20
4.6378193416
 30
0.0
 10
6.8787147165
 20
4.6355530789
 30
0.0
 10
6.8742739702
 20
4.6326408616
 30
0.0
 10
6.8698269396
 20
4.6298140069
 30
0.0
 10
6.8654313164
 20
4.6269751792
 30
0.0
 10
6.8621895099
 20
4.6248262978
 30
0.0
 10
6.8590034717
 20
4.6226234874
 30
0.0
 10
6.8558871547
 20
4.6203374122
 30
0.0
 10
6.852857605
 20
4.617935524
 30
0.0
 10
6.8509161895
 20
4.6162368305
 30
0.0
 10
6.8499706911
 20
4.61535758
 30
0.0
  0
SPLINE
  5
436
100
AcDbEntity
  8
0
100
AcDbSpline
 62
7
  6
CONTINUOUS
 70
0
 71
3
 72
18
 73
14
 74
0
 42
0.0000001
 43
0.0000001
 44
0.0000000001
 40
0.0
 40
0.0
 40
0.0
 40
0.0
 40
0.0498805166
 40
0.1030594968
 40
0.1592426491
 40
0.218117161
 40
0.2793454501
 40
0.3425735826
 40
0.4735354202
 40
0.6079301425
 40
0.7425810523
 40
0.8743040275
 40
1.0
 40
1.0
 40
1.0
 40
1.0
 10
6.8328143973
 20
4.7908860853
 30
0.0
 10
6.8339242629
 20
4.7906834456
 30
0.0
 10
6.8362246437
 20
4.7903039283
 30
0.0
 10
6.8397941748
 20
4.7898198796
 30
0.0
 10
6.8435771051
 20
4.7894050138
 30
0.0
 10
6.8475499317
 20
4.7890619804
 30
0.0
 10
6.851688131
 20
4.7887929652
 30
0.0
 10
6.8574596855
 20
4.7885323332
 30
0.0
 10
6.8648924067
 20
4.7884065178
 30
0.0
 10
6.8739401667
 20
4.7885639156
 30
0.0
 10
6.8829949239
 20
4.7890246322
 30
0.0
 10
6.891832583
 20
4.7897770253
 30
0.0
 10
6.897613889
 20
4.7904820466
 30
0.0
 10
6.9004280626
 20
4.7908860853
 30
0.0
  0
SPLINE
  5
437
100
AcDbEntity
  8
0
100
AcDbSpline
 62
7
  6
CONTINUOUS
 70
0
 71
3
 72
15
 73
11
 74
0
 42
0.0000001
 43
0.0000001
 44
0.0000000001
 40
0.0
 40
0.0
 40
0.0
 40
0.0
 40
0.163859794
 40
0.3132175141
 40
0.4496887644
 40
0.5749696876
 40
0.6907913463
 40
0.7989652799
 40
0.9013853184
 40
1.0
 40
1.0
 40
1.0
 40
1.0
 10
6.8423067551
 20
4.6091048137
 30
0.0
 10
6.8416780405
 20
4.6087058999
 30
0.0
 10
6.8404721056
 20
4.6079497649
 30
0.0
 10
6.8387094283
 20
4.6069151726
 30
0.0
 10
6.8370568629
 20
4.6060422538
 30
0.0
 10
6.8354937905
 20
4.605331757
 30
0.0
 10
6.8340030472
 20
4.6047821747
 30
0.0
 10
6.8325698989
 20
4.6043915015
 30
0.0
 10
6.8311819729
 20
4.6041577148
 30
0.0
 10
6.8302677206
 20
4.6041048137
 30
0.0
 10
6.8298196089
 20
4.6041048137
 30
0.0
  0
SPLINE
  5
438
100
AcDbEntity
  8
0
100
AcDbSpline
 62
7
  6
CONTINUOUS
 70
0
 71
3
 72
22
 73
18
 74
0
 42
0.0000001
 43
0.0000001
 44
0.0000000001
 40
0.0
 40
0.0
 40
0.0
 40
0.0
 40
0.1448631048
 40
0.216476146
 40
0.2870771464
 40
0.3563691987
 40
0.4240895795
 40
0.4900197285
 40
0.5539945707
 40
0.6159122622
 40
0.6757436665
 40
0.7335409859
 40
0.7894444578
 40
0.8436852577
 40
0.8965833171
 40
0.9485356208
 40
1.0
 40
1.0
 40
1.0
 40
1.0
 10
6.6577354545
 20
4.6541048137
 30
0.0
 10
6.6577354545
 20
4.6508454365
 30
0.0
 10
6.6573990296
 20
4.645965372
 30
0.0
 10
6.6562744881
 20
4.6396010212
 30
0.0
 10
6.6551089581
 20
4.6349823772
 30
0.0
 10
6.6536294957
 20
4.6305469294
 30
0.0
 10
6.6518499817
 20
4.6263365196
 30
0.0
 10
6.6497871767
 20
4.6223915185
 30
0.0
 10
6.647460412
 20
4.6187496302
 30
0.0
 10
6.6448914282
 20
4.6154458025
 30
0.0
 10
6.6421041628
 20
4.6125119165
 30
0.0
 10
6.6391245874
 20
4.6099765872
 30
0.0
 10
6.6359805454
 20
4.6078649866
 30
0.0
 10
6.6327018031
 20
4.6061986108
 30
0.0
 10
6.6293196161
 20
4.6049950388
 30
0.0
 10
6.6258680728
 20
4.6042673858
 30
0.0
 10
6.6235380488
 20
4.6041048137
 30
0.0
 10
6.6223801155
 20
4.6041048137
 30
0.0
  0
LINE
  5
439
100
AcDbEntity
  8
0
100
AcDbLine
 62
7
  6
CONTINUOUS
 10
6.862611063
 20
5.0510390256
 11
6.8577299891
 21
5.0477368624
  0
LINE
  5
43A
100
AcDbEntity
  8
0
100
AcDbLine
 62
7
  6
CONTINUOUS
 10
6.8577299891
 20
5.0477368624
 11
6.8567080603
 21
5.0468997673
  0
LINE
  5
43B
100
AcDbEntity
  8
0
100
AcDbLine
 62
7
  6
CONTINUOUS
 10
6.8567080603
 20
5.0468997673
 11
6.8559942782
 21
5.0461949948
  0
SPLINE
  5
43C
100
AcDbEntity
  8
0
100
AcDbSpline
 62
7
  6
CONTINUOUS
 70
0
 71
3
 72
20
 73
16
 74
0
 42
0.0000001
 43
0.0000001
 44
0.0000000001
 40
0.0
 40
0.0
 40
0.0
 40
0.0
 40
0.2237180348
 40
0.420548907
 40
0.5881935572
 40
0.6605453193
 40
0.7250555518
 40
0.7816534722
 40
0.8303567137
 40
0.871372669
 40
0.9051495707
 40
0.9325974201
 40
0.9554993649
 40
0.9767951842
 40
1.0
 40
1.0
 40
1.0
 40
1.0
 10
6.851018462
 20
5.0408172444
 30
0.0
 10
6.8508341748
 20
5.0407324527
 30
0.0
 10
6.8504859329
 20
5.0405769225
 30
0.0
 10
6.8499923645
 20
5.0403745764
 30
0.0
 10
6.8496197151
 20
5.0402396948
 30
0.0
 10
6.8493557414
 20
5.0401585311
 30
0.0
 10
6.8491860932
 20
5.0401136722
 30
0.0
 10
6.8490353458
 20
5.0400818815
 30
0.0
 10
6.848903844
 20
5.0400633042
 30
0.0
 10
6.8487917761
 20
5.0400579158
 30
0.0
 10
6.8486990102
 20
5.0400657712
 30
0.0
 10
6.8486250725
 20
5.0400872926
 30
0.0
 10
6.8485698217
 20
5.0401243333
 30
0.0
 10
6.8485368583
 20
5.0401780534
 30
0.0
 10
6.8485314561
 20
5.0402190766
 30
0.0
 10
6.848531459
 20
5.0402401178
 30
0.0
  0
SPLINE
  5
43D
100
AcDbEntity
  8
0
100
AcDbSpline
 62
7
  6
CONTINUOUS
 70
0
 71
3
 72
21
 73
17
 74
0
 42
0.0000001
 43
0.0000001
 44
0.0000000001
 40
0.0
 40
0.0
 40
0.0
 40
0.0
 40
0.1803157859
 40
0.2648382192
 40
0.3440565828
 40
0.417838697
 40
0.4864965866
 40
0.5505577449
 40
0.6105945079
 40
0.6671763294
 40
0.7208137837
 40
0.771938133
 40
0.8208991055
 40
0.8679834855
 40
0.9134175452
 40
1.0
 40
1.0
 40
1.0
 40
1.0
 10
6.8323589501
 20
4.6541048137
 30
0.0
 10
6.8323589209
 20
4.6514619267
 30
0.0
 10
6.8325775997
 20
4.6475743809
 30
0.0
 10
6.8333139398
 20
4.6425834658
 30
0.0
 10
6.834025651
 20
4.6391733942
 30
0.0
 10
6.8348763737
 20
4.6360359653
 30
0.0
 10
6.8358417378
 20
4.6331654847
 30
0.0
 10
6.8368989918
 20
4.6305437698
 30
0.0
 10
6.8380342415
 20
4.6281495226
 30
0.0
 10
6.8392325979
 20
4.6259591339
 30
0.0
 10
6.8404809389
 20
4.6239493154
 30
0.0
 10
6.8417691431
 20
4.6220995847
 30
0.0
 10
6.8430889002
 20
4.6203923395
 30
0.0
 10
6.8444325185
 20
4.6188118615
 30
0.0
 10
6.8462203896
 20
4.6168889197
 30
0.0
 10
6.8476250471
 20
4.6155542578
 30
0.0
 10
6.8485779537
 20
4.6147161484
 30
0.0
  0
LINE
  5
43E
100
AcDbEntity
  8
0
100
AcDbLine
 62
7
  6
CONTINUOUS
 10
6.8485779537
 20
4.6147161484
 11
6.8489530905
 21
4.6143896232
  0
SPLINE
  5
43F
100
AcDbEntity
  8
0
100
AcDbSpline
 62
7
  6
CONTINUOUS
 70
0
 71
3
 72
9
 73
5
 74
0
 42
0.0000001
 43
0.0000001
 44
0.0000000001
 40
0.0
 40
0.0
 40
0.0
 40
0.0
 40
0.5083766679
 40
1.0
 40
1.0
 40
1.0
 40
1.0
 10
6.8489530905
 20
4.6143896232
 30
0.0
 10
6.8479206511
 20
4.6133845775
 30
0.0
 10
6.8457933268
 20
4.6115038923
 30
0.0
 10
6.843483282
 20
4.6098513095
 30
0.0
 10
6.8423067551
 20
4.6091048137
 30
0.0
  0
LINE
  5
440
100
AcDbEntity
  8
0
100
AcDbLine
 62
7
  6
CONTINUOUS
 10
6.8448876586
 20
5.0388392878
 11
6.84411544
 21
5.0377771041
  0
SPLINE
  5
441
100
AcDbEntity
  8
0
100
AcDbSpline
 62
7
  6
CONTINUOUS
 70
0
 71
3
 72
18
 73
14
 74
0
 42
0.0000001
 43
0.0000001
 44
0.0000000001
 40
0.0
 40
0.0
 40
0.0
 40
0.0
 40
0.1456955712
 40
0.2865731093
 40
0.4213069506
 40
0.5490767875
 40
0.6697259656
 40
0.7276146179
 40
0.7840351452
 40
0.8392014567
 40
0.8933742708
 40
0.9468663887
 40
1.0
 40
1.0
 40
1.0
 40
1.0
 10
6.6382762146
 20
4.6751936086
 30
0.0
 10
6.6385579858
 20
4.6737139429
 30
0.0
 10
6.6392844398
 20
4.6708327331
 30
0.0
 10
6.6408746798
 20
4.6667651218
 30
0.0
 10
6.6429125954
 20
4.6631101472
 30
0.0
 10
6.6453468031
 20
4.6599650157
 30
0.0
 10
6.6476910942
 20
4.6578081534
 30
0.0
 10
6.6496986562
 20
4.6564345591
 30
0.0
 10
6.6512388426
 20
4.655592706
 30
0.0
 10
6.6528233826
 20
4.6549315667
 30
0.0
 10
6.6544418125
 20
4.6544557123
 30
0.0
 10
6.6560827556
 20
4.6541688335
 30
0.0
 10
6.6571861394
 20
4.6541048137
 30
0.0
 10
6.6577354545
 20
4.6541048137
 30
0.0
  0
SPLINE
  5
442
100
AcDbEntity
  8
0
100
AcDbSpline
 62
7
  6
CONTINUOUS
 70
0
 71
3
 72
22
 73
18
 74
0
 42
0.0000001
 43
0.0000001
 44
0.0000000001
 40
0.0
 40
0.0
 40
0.0
 40
0.0
 40
0.1456387095
 40
0.216782543
 40
0.2865391731
 40
0.3547545639
 40
0.4213076084
 40
0.4861135967
 40
0.5491294617
 40
0.6103581563
 40
0.6698526789
 40
0.7277190668
 40
0.7841176544
 40
0.839262391
 40
0.8934158595
 40
0.9468839066
 40
1.0
 40
1.0
 40
1.0
 40
1.0
 10
6.5687818581
 20
4.6621914944
 30
0.0
 10
6.5695579601
 20
4.6581159479
 30
0.0
 10
6.5710728032
 20
4.6521079072
 30
0.0
 10
6.5738132607
 20
4.6444147959
 30
0.0
 10
6.5761768408
 20
4.63894156
 30
0.0
 10
6.5788484165
 20
4.6337586595
 30
0.0
 10
6.5818105979
 20
4.6289000843
 30
0.0
 10
6.5850439806
 20
4.6243982838
 30
0.0
 10
6.588527454
 20
4.6202832656
 30
0.0
 10
6.5922382906
 20
4.6165826245
 30
0.0
 10
6.5961522694
 20
4.6133213486
 30
0.0
 10
6.6002437711
 20
4.6105217128
 30
0.0
 10
6.6044858783
 20
4.6082031138
 30
0.0
 10
6.608850351
 20
4.6063819653
 30
0.0
 10
6.6133080738
 20
4.6050713745
 30
0.0
 10
6.6178278723
 20
4.6042810842
 30
0.0
 10
6.6208670065
 20
4.6041048137
 30
0.0
 10
6.6223801155
 20
4.6041048137
 30
0.0
  0
SPLINE
  5
443
100
AcDbEntity
  8
0
100
AcDbSpline
 62
7
  6
CONTINUOUS
 70
0
 71
3
 72
23
 73
19
 74
0
 42
0.0000001
 43
0.0000001
 44
0.0000000001
 40
0.0
 40
0.0
 40
0.0
 40
0.0
 40
0.0526859386
 40
0.1093965939
 40
0.169627982
 40
0.2328334718
 40
0.2984342004
 40
0.3658247125
 40
0.4343803785
 40
0.5034640843
 40
0.572433111
 40
0.6406459575
 40
0.7074691642
 40
0.7722841932
 40
0.8344941379
 40
0.8935311659
 40
0.9488623071
 40
1.0
 40
1.0
 40
1.0
 40
1.0
 10
6.6382762146
 20
4.6751936086
 30
0.0
 10
6.6371110933
 20
4.6747498629
 30
0.0
 10
6.6346756673
 20
4.6738706558
 30
0.0
 10
6.6308624204
 20
4.6726154758
 30
0.0
 10
6.626780729
 20
4.6713839668
 30
0.0
 10
6.6224697796
 20
4.6701881301
 30
0.0
 10
6.6179709615
 20
4.6690395712
 30
0.0
 10
6.6133275135
 20
4.6679494167
 30
0.0
 10
6.6085840883
 20
4.6669282035
 30
0.0
 10
6.6037863145
 20
4.6659857846
 30
0.0
 10
6.5989803519
 20
4.665131234
 30
0.0
 10
6.594212442
 20
4.6643727595
 30
0.0
 10
6.5895284586
 20
4.6637176206
 30
0.0
 10
6.5849734604
 20
4.6631720569
 30
0.0
 10
6.580591252
 20
4.662741217
 30
0.0
 10
6.5764239372
 20
4.6624291024
 30
0.0
 10
6.5725115778
 20
4.6622385211
 30
0.0
 10
6.5699919832
 20
4.6621914944
 30
0.0
 10
6.5687818581
 20
4.6621914944
 30
0.0
  0
SPLINE
  5
444
100
AcDbEntity
  8
0
100
AcDbSpline
 62
7
  6
CONTINUOUS
 70
0
 71
3
 72
13
 73
9
 74
0
 42
0.0000001
 43
0.0000001
 44
0.0000000001
 40
0.0
 40
0.0
 40
0.0
 40
0.0
 40
0.2488884324
 40
0.3743086938
 40
0.4999999998
 40
0.6256913059
 40
0.7511115674
 40
1.0
 40
1.0
 40
1.0
 40
1.0
 10
6.6382762146
 20
4.8130160187
 30
0.0
 10
6.6361252605
 20
4.8017207079
 30
0.0
 10
6.6337104904
 20
4.7845630492
 30
0.0
 10
6.632099341
 20
4.7615145866
 30
0.0
 10
6.6316947588
 20
4.7441048137
 30
0.0
 10
6.632099341
 20
4.7266950408
 30
0.0
 10
6.6337104904
 20
4.7036465781
 30
0.0
 10
6.6361252605
 20
4.6864889195
 30
0.0
 10
6.6382762146
 20
4.6751936086
 30
0.0
  0
SPLINE
  5
445
100
AcDbEntity
  8
0
100
AcDbSpline
 62
7
  6
CONTINUOUS
 70
0
 71
3
 72
13
 73
9
 74
0
 42
0.0000001
 43
0.0000001
 44
0.0000000001
 40
0.0
 40
0.0
 40
0.0
 40
0.0
 40
0.2488885472
 40
0.374308766
 40
0.5
 40
0.625691234
 40
0.7511114528
 40
1.0
 40
1.0
 40
1.0
 40
1.0
 10
6.5687818581
 20
4.8260181329
 30
0.0
 10
6.5662250623
 20
4.8125916251
 30
0.0
 10
6.5633546751
 20
4.7921966684
 30
0.0
 10
6.5614395362
 20
4.7647994391
 30
0.0
 10
6.5609586183
 20
4.7441048137
 30
0.0
 10
6.5614395362
 20
4.7234101882
 30
0.0
 10
6.5633546751
 20
4.696012959
 30
0.0
 10
6.5662250623
 20
4.6756180022
 30
0.0
 10
6.5687818581
 20
4.6621914944
 30
0.0
  0
SPLINE
  5
446
100
AcDbEntity
  8
0
100
AcDbSpline
 62
7
  6
CONTINUOUS
 70
0
 71
3
 72
23
 73
19
 74
0
 42
0.0000001
 43
0.0000001
 44
0.0000000001
 40
0.0
 40
0.0
 40
0.0
 40
0.0
 40
0.0526859383
 40
0.1093965933
 40
0.1696279814
 40
0.2328334712
 40
0.2984341999
 40
0.3658247122
 40
0.4343803783
 40
0.5034640843
 40
0.5724331112
 40
0.6406459579
 40
0.7074691647
 40
0.7722841938
 40
0.8344941385
 40
0.8935311664
 40
0.9488623074
 40
1.0
 40
1.0
 40
1.0
 40
1.0
 10
6.6382762146
 20
4.8130160187
 30
0.0
 10
6.6371110933
 20
4.8134597644
 30
0.0
 10
6.6346756673
 20
4.8143389713
 30
0.0
 10
6.6308624203
 20
4.8155941511
 30
0.0
 10
6.6267807289
 20
4.8168256599
 30
0.0
 10
6.6224697794
 20
4.8180214965
 30
0.0
 10
6.6179709614
 20
4.8191700553
 30
0.0
 10
6.6133275133
 20
4.8202602097
 30
0.0
 10
6.6085840881
 20
4.8212814229
 30
0.0
 10
6.6037863143
 20
4.8222238418
 30
0.0
 10
6.5989803517
 20
4.8230783924
 30
0.0
 10
6.5942124418
 20
4.823836867
 30
0.0
 10
6.5895284585
 20
4.824492006
 30
0.0
 10
6.5849734603
 20
4.8250375698
 30
0.0
 10
6.580591252
 20
4.8254684098
 30
0.0
 10
6.5764239371
 20
4.8257805246
 30
0.0
 10
6.5725115778
 20
4.8259711061
 30
0.0
 10
6.5699919832
 20
4.8260181329
 30
0.0
 10
6.5687818581
 20
4.8260181329
 30
0.0
  0
SPLINE
  5
447
100
AcDbEntity
  8
0
100
AcDbSpline
 62
7
  6
CONTINUOUS
 70
0
 71
3
 72
21
 73
17
 74
0
 42
0.0000001
 43
0.0000001
 44
0.0000000001
 40
0.0
 40
0.0
 40
0.0
 40
0.0
 40
0.054452835
 40
0.108503078
 40
0.1626046765
 40
0.2172171738
 40
0.2727653814
 40
0.3296242078
 40
0.3880996889
 40
0.4484205221
 40
0.5107348661
 40
0.5751121203
 40
0.7098520281
 40
0.7801327274
 40
0.8520870746
 40
1.0
 40
1.0
 40
1.0
 40
1.0
 10
6.661234907
 20
4.8336718346
 30
0.0
 10
6.6606263955
 20
4.8338235755
 30
0.0
 10
6.6593931534
 20
4.8340494017
 30
0.0
 10
6.6575176453
 20
4.8341441787
 30
0.0
 10
6.6556437804
 20
4.8339921127
 30
0.0
 10
6.6537888241
 20
4.8335947378
 30
0.0
 10
6.6519691408
 20
4.8329559419
 30
0.0
 10
6.6502006531
 20
4.8320819014
 30
0.0
 10
6.6484985019
 20
4.8309807363
 30
0.0
 10
6.6468770937
 20
4.8296624567
 30
0.0
 10
6.6453498762
 20
4.8281385731
 30
0.0
 10
6.6434278778
 20
4.8258161575
 30
0.0
 10
6.6417813177
 20
4.8231657336
 30
0.0
 10
6.6404247814
 20
4.8202762022
 30
0.0
 10
6.6392354138
 20
4.8171506099
 30
0.0
 10
6.6385948924
 20
4.8146894925
 30
0.0
 10
6.6382762146
 20
4.8130160187
 30
0.0
  0
SPLINE
  5
448
100
AcDbEntity
  8
0
100
AcDbSpline
 62
7
  6
CONTINUOUS
 70
0
 71
3
 72
22
 73
18
 74
0
 42
0.0000001
 43
0.0000001
 44
0.0000000001
 40
0.0
 40
0.0
 40
0.0
 40
0.0
 40
0.1465820394
 40
0.2183786361
 40
0.2888313119
 40
0.3577303035
 40
0.424901424
 40
0.4902112097
 40
0.5535739183
 40
0.6149578701
 40
0.6743915946
 40
0.731968957
 40
0.7878524837
 40
0.8422737925
 40
0.8955297222
 40
0.9479736734
 40
1.0
 40
1.0
 40
1.0
 40
1.0
 10
6.661234907
 20
4.8336718346
 30
0.0
 10
6.6615888644
 20
4.8365107168
 30
0.0
 10
6.6618587797
 20
4.8407793545
 30
0.0
 10
6.6616657298
 20
4.8464161078
 30
0.0
 10
6.6612494925
 20
4.8505194823
 30
0.0
 10
6.6605638588
 20
4.8544948854
 30
0.0
 10
6.6596138891
 20
4.8583125304
 30
0.0
 10
6.658406569
 20
4.8619433831
 30
0.0
 10
6.6569507709
 20
4.8653599091
 30
0.0
 10
6.6552571654
 20
4.8685361045
 30
0.0
 10
6.6533381532
 20
4.8714476812
 30
0.0
 10
6.651207808
 20
4.8740721808
 30
0.0
 10
6.6488818241
 20
4.8763891037
 30
0.0
 10
6.6463775853
 20
4.8783800173
 30
0.0
 10
6.6437139053
 20
4.8800288327
 30
0.0
 10
6.6409119987
 20
4.8813217681
 30
0.0
 10
6.6389625426
 20
4.8819405303
 30
0.0
 10
6.6379773073
 20
4.882186212
 30
0.0
  0
LINE
  5
449
100
AcDbEntity
  8
0
100
AcDbLine
 62
7
  6
CONTINUOUS
 10
6.8769894707
 20
5.0543736749
 11
6.8729083016
 21
5.0523477306
  0
SPLINE
  5
44A
100
AcDbEntity
  8
0
100
AcDbSpline
 62
7
  6
CONTINUOUS
 70
0
 71
3
 72
16
 73
12
 74
0
 42
0.0000001
 43
0.0000001
 44
0.0000000001
 40
0.0
 40
0.0
 40
0.0
 40
0.0
 40
0.3016731368
 40
0.4455738922
 40
0.5817737619
 40
0.7079214658
 40
0.8215018362
 40
0.8727394818
 40
0.919804097
 40
0.9623469376
 40
1.0
 40
1.0
 40
1.0
 40
1.0
 10
6.8729083016
 20
5.0523477306
 30
0.0
 10
6.8722350544
 20
5.0519605093
 30
0.0
 10
6.8712554838
 20
5.0513620598
 30
0.0
 10
6.870011631
 20
5.0505274124
 30
0.0
 10
6.8691614705
 20
5.0499178596
 30
0.0
 10
6.8683954188
 20
5.0493260203
 30
0.0
 10
6.8678228845
 20
5.0488423693
 30
0.0
 10
6.867422631
 20
5.0484716156
 30
0.0
 10
6.8671655976
 20
5.0482157002
 30
0.0
 10
6.8669438934
 20
5.0479743172
 30
0.0
 10
6.8668130213
 20
5.0478143785
 30
0.0
 10
6.8667548124
 20
5.0477368624
 30
0.0
  0
LINE
  5
44B
100
AcDbEntity
  8
0
100
AcDbLine
 62
7
  6
CONTINUOUS
 10
6.8667548124
 20
5.0477368624
 11
6.8661297273
 21
5.0466868332
  0
SPLINE
  5
44C
100
AcDbEntity
  8
0
100
AcDbSpline
 62
7
  6
CONTINUOUS
 70
0
 71
3
 72
21
 73
17
 74
0
 42
0.0000001
 43
0.0000001
 44
0.0000000001
 40
0.0
 40
0.0
 40
0.0
 40
0.0
 40
0.2074179535
 40
0.391930598
 40
0.4746516558
 40
0.5506280779
 40
0.6196645809
 40
0.6816879096
 40
0.7367956634
 40
0.7852882596
 40
0.8277772873
 40
0.8652526727
 40
0.8992121593
 40
0.9316006245
 40
0.9645612189
 40
1.0
 40
1.0
 40
1.0
 40
1.0
 10
6.8646879677
 20
5.0408172444
 30
0.0
 10
6.8643667012
 20
5.0407013451
 30
0.0
 10
6.8637549901
 20
5.040494906
 30
0.0
 10
6.8630011248
 20
5.0402862806
 30
0.0
 10
6.8624483734
 20
5.0401678976
 30
0.0
 10
6.8620783346
 20
5.0401062305
 30
0.0
 10
6.861739279
 20
5.0400688007
 30
0.0
 10
6.8614327156
 20
5.0400559639
 30
0.0
 10
6.8611598401
 20
5.0400677586
 30
0.0
 10
6.8609214786
 20
5.0401043211
 30
0.0
 10
6.8607180926
 20
5.0401655808
 30
0.0
 10
6.8605501367
 20
5.0402520288
 30
0.0
 10
6.8604185393
 20
5.0403639429
 30
0.0
 10
6.8603253064
 20
5.0405007776
 30
0.0
 10
6.8602713102
 20
5.0406595808
 30
0.0
 10
6.8602610878
 20
5.0407727382
 30
0.0
 10
6.8602610925
 20
5.0408310914
 30
0.0
  0
SPLINE
  5
44D
100
AcDbEntity
  8
0
100
AcDbSpline
 62
7
  6
CONTINUOUS
 70
0
 71
3
 72
29
 73
25
 74
0
 42
0.0000001
 43
0.0000001
 44
0.0000000001
 40
0.0
 40
0.0
 40
0.0
 40
0.0
 40
0.1250205775
 40
0.2500411549
 40
0.3750617324
 40
0.4375720211
 40
0.5000823098
 40
0.5625925986
 40
0.6251028873
 40
0.687613176
 40
0.7188683205
 40
0.7501234648
 40
0.781378609
 40
0.812633754
 40
0.8438888887
 40
0.8595164713
 40
0.875144051
 40
0.8907716249
 40
0.9063987644
 40
0.9376459437
 40
0.9532610214
 40
0.9688633979
 40
0.9844462925
 40
1.0
 40
1.0
 40
1.0
 40
1.0
 10
7.2091296091
 20
4.6541048137
 30
0.0
 10
7.2091296091
 20
4.6598035338
 30
0.0
 10
7.209129609
 20
4.671200974
 30
0.0
 10
7.2091296095
 20
4.6882971344
 30
0.0
 10
7.209129608
 20
4.7025439347
 30
0.0
 10
7.2091296113
 20
4.713941375
 30
0.0
 10
7.2091296013
 20
4.7224894552
 30
0.0
 10
7.2091296308
 20
4.7310375354
 30
0.0
 10
7.2091295531
 20
4.7395856156
 30
0.0
 10
7.2091297245
 20
4.7467090157
 30
0.0
 10
7.2091295262
 20
4.7524077358
 30
0.0
 10
7.209129258
 20
4.7566817759
 30
0.0
 10
7.2091307271
 20
4.7609558161
 30
0.0
 10
7.2091285613
 20
4.7652298554
 30
0.0
 10
7.2091284556
 20
4.7687915558
 30
0.0
 10
7.2091304984
 20
4.7716409158
 30
0.0
 10
7.2091315017
 20
4.7737779359
 30
0.0
 10
7.2091260083
 20
4.7759149405
 30
0.0
 10
7.2091028911
 20
4.778763822
 30
0.0
 10
7.209045222
 20
4.7816119105
 30
0.0
 10
7.2089307316
 20
4.7844569859
 30
0.0
 10
7.2088097811
 20
4.7865869386
 30
0.0
 10
7.208648363
 20
4.7887114136
 30
0.0
 10
7.2085107131
 20
4.7901241546
 30
0.0
 10
7.2084329635
 20
4.7908288516
 30
0.0
  0
SPLINE
  5
44E
100
AcDbEntity
  8
0
100
AcDbSpline
 62
7
  6
CONTINUOUS
 70
0
 71
3
 72
15
 73
11
 74
0
 42
0.0000001
 43
0.0000001
 44
0.0000000001
 40
0.0
 40
0.0
 40
0.0
 40
0.0
 40
0.0986146816
 40
0.2010347202
 40
0.3092086537
 40
0.4250303124
 40
0.5503112356
 40
0.6867824859
 40
0.8361402061
 40
1.0
 40
1.0
 40
1.0
 40
1.0
 10
7.2116572707
 20
4.6041048137
 30
0.0
 10
7.211209159
 20
4.6041048137
 30
0.0
 10
7.2102949067
 20
4.6041577148
 30
0.0
 10
7.2089069807
 20
4.6043915015
 30
0.0
 10
7.2074738324
 20
4.6047821747
 30
0.0
 10
7.2059830891
 20
4.605331757
 30
0.0
 10
7.2044200167
 20
4.6060422538
 30
0.0
 10
7.2027674513
 20
4.6069151726
 30
0.0
 10
7.201004774
 20
4.6079497649
 30
0.0
 10
7.1997988391
 20
4.6087058999
 30
0.0
 10
7.1991701245
 20
4.6091048137
 30
0.0
  0
SPLINE
  5
44F
100
AcDbEntity
  8
0
100
AcDbSpline
 62
7
  6
CONTINUOUS
 70
0
 71
3
 72
9
 73
5
 74
0
 42
0.0000001
 43
0.0000001
 44
0.0000000001
 40
0.0
 40
0.0
 40
0.0
 40
0.0
 40
0.4919777736
 40
1.0
 40
1.0
 40
1.0
 40
1.0
 10
7.1991701245
 20
4.6091048137
 30
0.0
 10
7.198047556
 20
4.6098170734
 30
0.0
 10
7.1958414578
 20
4.6113868397
 30
0.0
 10
7.1938010886
 20
4.6131656173
 30
0.0
 10
7.1928089577
 20
4.6141144652
 30
0.0
  0
SPLINE
  5
450
100
AcDbEntity
  8
0
100
AcDbSpline
 62
7
  6
CONTINUOUS
 70
0
 71
3
 72
39
 73
35
 74
0
 42
0.0000001
 43
0.0000001
 44
0.0000000001
 40
0.0
 40
0.0
 40
0.0
 40
0.0
 40
0.0428347825
 40
0.0868245684
 40
0.1320113252
 40
0.1551008924
 40
0.1785570532
 40
0.2024205549
 40
0.2267378597
 40
0.2515535344
 40
0.2769138098
 40
0.3028828491
 40
0.3295434849
 40
0.3852864721
 40
0.4145131418
 40
0.4447330031
 40
0.4760565031
 40
0.5085975414
 40
0.5424282416
 40
0.57760535
 40
0.6141832164
 40
0.6522092333
 40
0.6717735994
 40
0.6917079355
 40
0.7326300416
 40
0.7535735173
 40
0.7748169264
 40
0.796359674
 40
0.8182031839
 40
0.8626980051
 40
0.9080009792
 40
0.9308751246
 40
0.9538606522
 40
1.0
 40
1.0
 40
1.0
 40
1.0
 10
7.1928089577
 20
4.6141144652
 30
0.0
 10
7.1933179757
 20
4.6145070293
 30
0.0
 10
7.1943387483
 20
4.6153171977
 30
0.0
 10
7.1958458777
 20
4.6166036749
 30
0.0
 10
7.1970782009
 20
4.6177536438
 30
0.0
 10
7.1980447169
 20
4.6187341517
 30
0.0
 10
7.198763017
 20
4.619509301
 30
0.0
 10
7.1994688129
 20
4.6203204195
 30
0.0
 10
7.200163411
 20
4.6211676804
 30
0.0
 10
7.2008479565
 20
4.6220516429
 30
0.0
 10
7.2015234663
 20
4.622973483
 30
0.0
 10
7.2021837782
 20
4.6239401137
 30
0.0
 10
7.2030487782
 20
4.6253178286
 30
0.0
 10
7.2038455585
 20
4.626793699
 30
0.0
 10
7.2045911592
 20
4.6283533824
 30
0.0
 10
7.2051394409
 20
4.6296006443
 30
0.0
 10
7.2056611339
 20
4.6309129752
 30
0.0
 10
7.2061508331
 20
4.6322952197
 30
0.0
 10
7.2066089119
 20
4.6337489604
 30
0.0
 10
7.2070355656
 20
4.6352752194
 30
0.0
 10
7.2074286244
 20
4.636875368
 30
0.0
 10
7.2077231191
 20
4.6382577572
 30
0.0
 10
7.2079385306
 20
4.639401079
 30
0.0
 10
7.2081425206
 20
4.6405906204
 30
0.0
 10
7.2083229237
 20
4.6418049947
 30
0.0
 10
7.2084880925
 20
4.6430412099
 30
0.0
 10
7.2086053486
 20
4.6439903917
 30
0.0
 10
7.2087119044
 20
4.6449544351
 30
0.0
 10
7.2088362679
 20
4.6462674261
 30
0.0
 10
7.2089550923
 20
4.6479387815
 30
0.0
 10
7.2090410829
 20
4.649627535
 30
0.0
 10
7.209089072
 20
4.6509947773
 30
0.0
 10
7.2091215813
 20
4.652375025
 30
0.0
 10
7.2091297707
 20
4.653412412
 30
0.0
 10
7.2091296091
 20
4.6541048137
 30
0.0
  0
SPLINE
  5
451
100
AcDbEntity
  8
0
100
AcDbSpline
 62
7
  6
CONTINUOUS
 70
0
 71
3
 72
22
 73
18
 74
0
 42
0.0000001
 43
0.0000001
 44
0.0000000001
 40
0.0
 40
0.0
 40
0.0
 40
0.0
 40
0.1448631061
 40
0.216476148
 40
0.2870771493
 40
0.3563692024
 40
0.4240895839
 40
0.4900197335
 40
0.5539945762
 40
0.6159122679
 40
0.6757436723
 40
0.7335409914
 40
0.7894444627
 40
0.8436852617
 40
0.89658332
 40
0.9485356223
 40
1.0
 40
1.0
 40
1.0
 40
1.0
 10
7.3837414251
 20
4.6541048137
 30
0.0
 10
7.3837414252
 20
4.6508454365
 30
0.0
 10
7.3840778502
 20
4.645965372
 30
0.0
 10
7.3852023919
 20
4.6396010212
 30
0.0
 10
7.386367922
 20
4.6349823772
 30
0.0
 10
7.3878473844
 20
4.6305469294
 30
0.0
 10
7.3896268985
 20
4.6263365196
 30
0.0
 10
7.3916897035
 20
4.6223915185
 30
0.0
 10
7.3940164682
 20
4.6187496302
 30
0.0
 10
7.396585452
 20
4.6154458025
 30
0.0
 10
7.3993727174
 20
4.6125119165
 30
0.0
 10
7.4023522927
 20
4.6099765872
 30
0.0
 10
7.4054963346
 20
4.6078649866
 30
0.0
 10
7.4087750769
 20
4.6061986108
 30
0.0
 10
7.4121572638
 20
4.6049950388
 30
0.0
 10
7.415608807
 20
4.6042673858
 30
0.0
 10
7.4179388308
 20
4.6041048137
 30
0.0
 10
7.4190967641
 20
4.6041048137
 30
0.0
  0
SPLINE
  5
452
100
AcDbEntity
  8
0
100
AcDbSpline
 62
7
  6
CONTINUOUS
 70
0
 71
3
 72
18
 73
14
 74
0
 42
0.0000001
 43
0.0000001
 44
0.0000000001
 40
0.0
 40
0.0
 40
0.0
 40
0.0
 40
0.0531336113
 40
0.1066257292
 40
0.1607985433
 40
0.2159648548
 40
0.2723853821
 40
0.3302740344
 40
0.4509232125
 40
0.5786930494
 40
0.7134268907
 40
0.8543044288
 40
1.0
 40
1.0
 40
1.0
 40
1.0
 10
7.3837414251
 20
4.6541048137
 30
0.0
 10
7.3842907403
 20
4.6541048137
 30
0.0
 10
7.385394124
 20
4.6541688335
 30
0.0
 10
7.3870350671
 20
4.6544557123
 30
0.0
 10
7.388653497
 20
4.6549315667
 30
0.0
 10
7.390238037
 20
4.655592706
 30
0.0
 10
7.3917782234
 20
4.6564345591
 30
0.0
 10
7.3937857854
 20
4.6578081534
 30
0.0
 10
7.3961300765
 20
4.6599650157
 30
0.0
 10
7.3985642842
 20
4.6631101472
 30
0.0
 10
7.4006021998
 20
4.6667651218
 30
0.0
 10
7.4021924398
 20
4.6708327331
 30
0.0
 10
7.4029188938
 20
4.6737139429
 30
0.0
 10
7.403200665
 20
4.6751936086
 30
0.0
  0
SPLINE
  5
453
100
AcDbEntity
  8
0
100
AcDbSpline
 62
7
  6
CONTINUOUS
 70
0
 71
3
 72
23
 73
19
 74
0
 42
0.0000001
 43
0.0000001
 44
0.0000000001
 40
0.0
 40
0.0
 40
0.0
 40
0.0
 40
0.0526859383
 40
0.1093965933
 40
0.1696279814
 40
0.2328334712
 40
0.2984341999
 40
0.3658247122
 40
0.4343803783
 40
0.5034640843
 40
0.5724331112
 40
0.6406459579
 40
0.7074691647
 40
0.7722841938
 40
0.8344941385
 40
0.8935311664
 40
0.9488623074
 40
1.0
 40
1.0
 40
1.0
 40
1.0
 10
7.403200665
 20
4.6751936086
 30
0.0
 10
7.4043657863
 20
4.674749863
 30
0.0
 10
7.4068012123
 20
4.673870656
 30
0.0
 10
7.4106144593
 20
4.6726154762
 30
0.0
 10
7.4146961507
 20
4.6713839674
 30
0.0
 10
7.4190071002
 20
4.6701881308
 30
0.0
 10
7.4235059182
 20
4.6690395721
 30
0.0
 10
7.4281493663
 20
4.6679494176
 30
0.0
 10
7.4328927915
 20
4.6669282044
 30
0.0
 10
7.4376905653
 20
4.6659857856
 30
0.0
 10
7.4424965279
 20
4.6651312349
 30
0.0
 10
7.4472644378
 20
4.6643727603
 30
0.0
 10
7.4519484211
 20
4.6637176214
 30
0.0
 10
7.4565034193
 20
4.6631720576
 30
0.0
 10
7.4608856276
 20
4.6627412176
 30
0.0
 10
7.4650529425
 20
4.6624291027
 30
0.0
 10
7.4689653018
 20
4.6622385213
 30
0.0
 10
7.4714848964
 20
4.6621914944
 30
0.0
 10
7.4726950215
 20
4.6621914944
 30
0.0
  0
SPLINE
  5
454
100
AcDbEntity
  8
0
100
AcDbSpline
 62
7
  6
CONTINUOUS
 70
0
 71
3
 72
13
 73
9
 74
0
 42
0.0000001
 43
0.0000001
 44
0.0000000001
 40
0.0
 40
0.0
 40
0.0
 40
0.0
 40
0.2488884326
 40
0.3743086941
 40
0.5000000002
 40
0.6256913062
 40
0.7511115676
 40
1.0
 40
1.0
 40
1.0
 40
1.0
 10
7.403200665
 20
4.6751936086
 30
0.0
 10
7.4053516192
 20
4.6864889195
 30
0.0
 10
7.4077663892
 20
4.7036465781
 30
0.0
 10
7.4093775386
 20
4.7266950408
 30
0.0
 10
7.4097821208
 20
4.7441048137
 30
0.0
 10
7.4093775386
 20
4.7615145866
 30
0.0
 10
7.4077663892
 20
4.7845630492
 30
0.0
 10
7.4053516191
 20
4.8017207079
 30
0.0
 10
7.403200665
 20
4.8130160187
 30
0.0
  0
SPLINE
  5
455
100
AcDbEntity
  8
0
100
AcDbSpline
 62
7
  6
CONTINUOUS
 70
0
 71
3
 72
23
 73
19
 74
0
 42
0.0000001
 43
0.0000001
 44
0.0000000001
 40
0.0
 40
0.0
 40
0.0
 40
0.0
 40
0.0526859386
 40
0.1093965938
 40
0.1696279819
 40
0.2328334717
 40
0.2984342003
 40
0.3658247125
 40
0.4343803785
 40
0.5034640843
 40
0.572433111
 40
0.6406459576
 40
0.7074691643
 40
0.7722841933
 40
0.8344941379
 40
0.893531166
 40
0.9488623072
 40
1.0
 40
1.0
 40
1.0
 40
1.0
 10
7.403200665
 20
4.8130160187
 30
0.0
 10
7.4043657863
 20
4.8134597644
 30
0.0
 10
7.4068012123
 20
4.8143389715
 30
0.0
 10
7.4106144592
 20
4.8155941515
 30
0.0
 10
7.4146961506
 20
4.8168256604
 30
0.0
 10
7.4190071001
 20
4.8180214971
 30
0.0
 10
7.4235059181
 20
4.819170056
 30
0.0
 10
7.4281493662
 20
4.8202602105
 30
0.0
 10
7.4328927913
 20
4.8212814237
 30
0.0
 10
7.4376905651
 20
4.8222238426
 30
0.0
 10
7.4424965277
 20
4.8230783932
 30
0.0
 10
7.4472644376
 20
4.8238368677
 30
0.0
 10
7.451948421
 20
4.8244920066
 30
0.0
 10
7.4565034192
 20
4.8250375703
 30
0.0
 10
7.4608856276
 20
4.8254684102
 30
0.0
 10
7.4650529424
 20
4.8257805249
 30
0.0
 10
7.4689653018
 20
4.8259711062
 30
0.0
 10
7.4714848964
 20
4.8260181329
 30
0.0
 10
7.4726950215
 20
4.8260181329
 30
0.0
  0
SPLINE
  5
456
100
AcDbEntity
  8
0
100
AcDbSpline
 62
7
  6
CONTINUOUS
 70
0
 71
3
 72
21
 73
17
 74
0
 42
0.0000001
 43
0.0000001
 44
0.0000000001
 40
0.0
 40
0.0
 40
0.0
 40
0.0
 40
0.1479129254
 40
0.2198672726
 40
0.2901479719
 40
0.4248878797
 40
0.4892651339
 40
0.5515794779
 40
0.6119003111
 40
0.6703757922
 40
0.7272346186
 40
0.7827828262
 40
0.8373953235
 40
0.891496922
 40
0.945547165
 40
1.0
 40
1.0
 40
1.0
 40
1.0
 10
7.403200665
 20
4.8130160187
 30
0.0
 10
7.4028819872
 20
4.8146894925
 30
0.0
 10
7.4022414658
 20
4.8171506099
 30
0.0
 10
7.4010520982
 20
4.8202762022
 30
0.0
 10
7.3996955619
 20
4.8231657336
 30
0.0
 10
7.3980490018
 20
4.8258161575
 30
0.0
 10
7.3961270034
 20
4.8281385731
 30
0.0
 10
7.3945997859
 20
4.8296624567
 30
0.0
 10
7.3929783777
 20
4.8309807363
 30
0.0
 10
7.3912762265
 20
4.8320819014
 30
0.0
 10
7.3895077388
 20
4.8329559419
 30
0.0
 10
7.3876880555
 20
4.8335947378
 30
0.0
 10
7.3858330992
 20
4.8339921127
 30
0.0
 10
7.3839592343
 20
4.8341441787
 30
0.0
 10
7.3820837262
 20
4.8340494017
 30
0.0
 10
7.3808504841
 20
4.8338235755
 30
0.0
 10
7.3802419726
 20
4.8336718346
 30
0.0
  0
SPLINE
  5
457
100
AcDbEntity
  8
0
100
AcDbSpline
 62
7
  6
CONTINUOUS
 70
0
 71
3
 72
27
 73
23
 74
0
 42
0.0000001
 43
0.0000001
 44
0.0000000001
 40
0.0
 40
0.0
 40
0.0
 40
0.0
 40
0.0805732077
 40
0.1599847087
 40
0.3134273229
 40
0.3866352849
 40
0.456942493
 40
0.5240106384
 40
0.5875851623
 40
0.6475172483
 40
0.6761193896
 40
0.7038317119
 40
0.7567782091
 40
0.8069573593
 40
0.8312704949
 40
0.8552210754
 40
0.8789493851
 40
0.9026106404
 40
0.926370303
 40
0.9504033658
 40
0.9748880926
 40
1.0
 40
1.0
 40
1.0
 40
1.0
 10
7.2084329635
 20
4.7908288516
 30
0.0
 10
7.2082981547
 20
4.7922793527
 30
0.0
 10
7.2080851976
 20
4.7951650898
 30
0.0
 10
7.2079164377
 20
4.8008304644
 30
0.0
 10
7.208143822
 20
4.8063707547
 30
0.0
 10
7.2087954893
 20
4.8117022307
 30
0.0
 10
7.2094681024
 20
4.8154518848
 30
0.0
 10
7.2103235098
 20
4.818985352
 30
0.0
 10
7.2113530688
 20
4.8222762424
 30
0.0
 10
7.2123645339
 20
4.8248369146
 30
0.0
 10
7.2132590973
 20
4.8267394554
 30
0.0
 10
7.2141790877
 20
4.8284881749
 30
0.0
 10
7.2154301553
 20
4.8305010421
 30
0.0
 10
7.2168668502
 20
4.8323106322
 30
0.0
 10
7.218108058
 20
4.8335879727
 30
0.0
 10
7.2190788269
 20
4.8344567277
 30
0.0
 10
7.220101068
 20
4.8352452096
 30
0.0
 10
7.221176983
 20
4.8359525727
 30
0.0
 10
7.222308807
 20
4.8365780401
 30
0.0
 10
7.2234988933
 20
4.837120904
 30
0.0
 10
7.2247495159
 20
4.8375805071
 30
0.0
 10
7.2256124518
 20
4.8378275525
 30
0.0
 10
7.2260529788
 20
4.8379374153
 30
0.0
  0
SPLINE
  5
458
100
AcDbEntity
  8
0
100
AcDbSpline
 62
7
  6
CONTINUOUS
 70
0
 71
3
 72
22
 73
18
 74
0
 42
0.0000001
 43
0.0000001
 44
0.0000000001
 40
0.0
 40
0.0
 40
0.0
 40
0.0
 40
0.1465820382
 40
0.2183786343
 40
0.2888313094
 40
0.3577303004
 40
0.4249014203
 40
0.4902112055
 40
0.5535739137
 40
0.6149578653
 40
0.6743915898
 40
0.7319689525
 40
0.7878524796
 40
0.8422737891
 40
0.8955297197
 40
0.947973672
 40
1.0
 40
1.0
 40
1.0
 40
1.0
 10
7.3802419726
 20
4.8336718346
 30
0.0
 10
7.3798880151
 20
4.8365107168
 30
0.0
 10
7.3796180997
 20
4.8407793545
 30
0.0
 10
7.3798111495
 20
4.8464161078
 30
0.0
 10
7.3802273867
 20
4.8505194822
 30
0.0
 10
7.3809130203
 20
4.8544948853
 30
0.0
 10
7.38186299
 20
4.8583125303
 30
0.0
 10
7.38307031
 20
4.861943383
 30
0.0
 10
7.3845261082
 20
4.865359909
 30
0.0
 10
7.3862197137
 20
4.8685361044
 30
0.0
 10
7.3881387259
 20
4.8714476811
 30
0.0
 10
7.3902690711
 20
4.8740721807
 30
0.0
 10
7.392595055
 20
4.8763891036
 30
0.0
 10
7.3950992939
 20
4.8783800172
 30
0.0
 10
7.3977629739
 20
4.8800288327
 30
0.0
 10
7.4005648807
 20
4.881321768
 30
0.0
 10
7.4025143368
 20
4.8819405302
 30
0.0
 10
7.4034995721
 20
4.882186212
 30
0.0
  0
SPLINE
  5
459
100
AcDbEntity
  8
0
100
AcDbSpline
 62
7
  6
CONTINUOUS
 70
0
 71
3
 72
21
 73
17
 74
0
 42
0.0000001
 43
0.0000001
 44
0.0000000001
 40
0.0
 40
0.0
 40
0.0
 40
0.0
 40
0.0500007941
 40
0.1032569291
 40
0.1594850089
 40
0.2183805772
 40
0.279612318
 40
0.342831052
 40
0.4076711101
 40
0.4737542367
 40
0.6080845105
 40
0.7426655376
 40
0.8090606728
 40
0.8743330768
 40
0.9381043821
 40
1.0
 40
1.0
 40
1.0
 40
1.0
 10
7.2084329635
 20
4.7908288516
 30
0.0
 10
7.2073343626
 20
4.7905871334
 30
0.0
 10
7.2050553097
 20
4.7901341851
 30
0.0
 10
7.2015136427
 20
4.7895560498
 30
0.0
 10
7.1977575737
 20
4.7890604606
 30
0.0
 10
7.1938108317
 20
4.788650617
 30
0.0
 10
7.1896981821
 20
4.7883291915
 30
0.0
 10
7.1854455648
 20
4.7880982666
 30
0.0
 10
7.181079761
 20
4.7879593273
 30
0.0
 10
7.1751122347
 20
4.7878977147
 30
0.0
 10
7.1675752175
 20
4.7880555149
 30
0.0
 10
7.1600436255
 20
4.7885162071
 30
0.0
 10
7.1540787866
 20
4.7890670762
 30
0.0
 10
7.1497098072
 20
4.7895643751
 30
0.0
 10
7.1454532037
 20
4.7901444276
 30
0.0
 10
7.1426612651
 20
4.7905913476
 30
0.0
 10
7.1412891904
 20
4.7908288516
 30
0.0
  0
SPLINE
  5
45A
100
AcDbEntity
  8
0
100
AcDbSpline
 62
7
  6
CONTINUOUS
 70
0
 71
3
 72
23
 73
19
 74
0
 42
0.0000001
 43
0.0000001
 44
0.0000000001
 40
0.0
 40
0.0
 40
0.0
 40
0.0
 40
0.0603636655
 40
0.120424391
 40
0.1804230576
 40
0.2405520599
 40
0.3009469943
 40
0.3617177142
 40
0.4229455632
 40
0.4846898034
 40
0.5469973404
 40
0.6099008238
 40
0.6734199168
 40
0.7375576504
 40
0.8023078079
 40
0.8676518509
 40
0.9335630136
 40
1.0
 40
1.0
 40
1.0
 40
1.0
 10
7.1928103391
 20
4.6141132721
 30
0.0
 10
7.191850465
 20
4.6150312704
 30
0.0
 10
7.1898712213
 20
4.6167961914
 30
0.0
 10
7.1867621179
 20
4.6192670767
 30
0.0
 10
7.1835512138
 20
4.6215944284
 30
0.0
 10
7.1802632159
 20
4.6238237107
 30
0.0
 10
7.1769134486
 20
4.6259900216
 30
0.0
 10
7.173519714
 20
4.6281321195
 30
0.0
 10
7.1700970589
 20
4.6302839798
 30
0.0
 10
7.1666593691
 20
4.632475438
 30
0.0
 10
7.1632225415
 20
4.6347363322
 30
0.0
 10
7.1598026074
 20
4.6370925873
 30
0.0
 10
7.1564156978
 20
4.6395653555
 30
0.0
 10
7.1530778049
 20
4.6421708079
 30
0.0
 10
7.149805153
 20
4.644920879
 30
0.0
 10
7.1466134896
 20
4.647823128
 30
0.0
 10
7.1435176596
 20
4.6508804998
 30
0.0
 10
7.1415334701
 20
4.6530133563
 30
0.0
 10
7.1405602597
 20
4.6541041238
 30
0.0
  0
SPLINE
  5
45B
100
AcDbEntity
  8
0
100
AcDbSpline
 62
7
  6
CONTINUOUS
 70
0
 71
3
 72
22
 73
18
 74
0
 42
0.0000001
 43
0.0000001
 44
0.0000000001
 40
0.0
 40
0.0
 40
0.0
 40
0.0
 40
0.1456387095
 40
0.216782543
 40
0.2865391731
 40
0.3547545639
 40
0.4213076084
 40
0.4861135967
 40
0.5491294617
 40
0.6103581563
 40
0.6698526789
 40
0.7277190668
 40
0.7841176544
 40
0.839262391
 40
0.8934158595
 40
0.9468839066
 40
1.0
 40
1.0
 40
1.0
 40
1.0
 10
7.4726950215
 20
4.6621914944
 30
0.0
 10
7.4719189195
 20
4.6581159479
 30
0.0
 10
7.4704040764
 20
4.6521079073
 30
0.0
 10
7.4676636189
 20
4.6444147959
 30
0.0
 10
7.4653000388
 20
4.63894156
 30
0.0
 10
7.4626284631
 20
4.6337586595
 30
0.0
 10
7.4596662817
 20
4.6289000843
 30
0.0
 10
7.456432899
 20
4.6243982838
 30
0.0
 10
7.4529494256
 20
4.6202832656
 30
0.0
 10
7.449238589
 20
4.6165826245
 30
0.0
 10
7.4453246102
 20
4.6133213486
 30
0.0
 10
7.4412331085
 20
4.6105217128
 30
0.0
 10
7.4369910013
 20
4.6082031138
 30
0.0
 10
7.4326265286
 20
4.6063819654
 30
0.0
 10
7.4281688058
 20
4.6050713745
 30
0.0
 10
7.4236490073
 20
4.6042810842
 30
0.0
 10
7.4206098731
 20
4.6041048137
 30
0.0
 10
7.4190967641
 20
4.6041048137
 30
0.0
  0
SPLINE
  5
45C
100
AcDbEntity
  8
0
100
AcDbSpline
 62
7
  6
CONTINUOUS
 70
0
 71
3
 72
13
 73
9
 74
0
 42
0.0000001
 43
0.0000001
 44
0.0000000001
 40
0.0
 40
0.0
 40
0.0
 40
0.0
 40
0.2488885472
 40
0.374308766
 40
0.5
 40
0.625691234
 40
0.7511114528
 40
1.0
 40
1.0
 40
1.0
 40
1.0
 10
7.4726950215
 20
4.8260181329
 30
0.0
 10
7.4752518173
 20
4.8125916251
 30
0.0
 10
7.4781222045
 20
4.7921966684
 30
0.0
 10
7.4800373434
 20
4.7647994391
 30
0.0
 10
7.4805182613
 20
4.7441048137
 30
0.0
 10
7.4800373434
 20
4.7234101882
 30
0.0
 10
7.4781222045
 20
4.696012959
 30
0.0
 10
7.4752518173
 20
4.6756180022
 30
0.0
 10
7.4726950215
 20
4.6621914944
 30
0.0
  0
SPLINE
  5
45D
100
AcDbEntity
  8
0
100
AcDbSpline
 62
7
  6
CONTINUOUS
 70
0
 71
3
 72
9
 73
5
 74
0
 42
0.0000001
 43
0.0000001
 44
0.0000000001
 40
0.0
 40
0.0
 40
0.0
 40
0.0
 40
0.4713639608
 40
1.0
 40
1.0
 40
1.0
 40
1.0
 10
7.0457379917
 20
5.0944124278
 30
0.0
 10
7.045738029
 20
5.0944049684
 30
0.0
 10
7.0457348407
 20
5.0943890144
 30
0.0
 10
7.0457263224
 20
5.0943753542
 30
0.0
 10
7.045721125
 20
5.0943687987
 30
0.0
  0
SPLINE
  5
45E
100
AcDbEntity
  8
0
100
AcDbSpline
 62
7
  6
CONTINUOUS
 70
0
 71
3
 72
29
 73
25
 74
0
 42
0.0000001
 43
0.0000001
 44
0.0000000001
 40
0.0
 40
0.0
 40
0.0
 40
0.0
 40
0.001985141
 40
0.0046154655
 40
0.0079391547
 40
0.0119629215
 40
0.0220731988
 40
0.0348375406
 40
0.0501108861
 40
0.067744158
 40
0.0875971877
 40
0.109552004
 40
0.1334998313
 40
0.1593518793
 40
0.2164790701
 40
0.2804594444
 40
0.3504951466
 40
0.4253036822
 40
0.5035614183
 40
0.5841575336
 40
0.6662311742
 40
0.7491806241
 40
0.8326134439
 40
1.0
 40
1.0
 40
1.0
 40
1.0
 10
7.045721125
 20
5.0943687987
 30
0.0
 10
7.0457108308
 20
5.0943558146
 30
0.0
 10
7.045680517
 20
5.0943309523
 30
0.0
 10
7.0456219922
 20
5.0942996952
 30
0.0
 10
7.0455443853
 20
5.0942690285
 30
0.0
 10
7.045405159
 20
5.0942257996
 30
0.0
 10
7.0451858461
 20
5.0941764266
 30
0.0
 10
7.0448718877
 20
5.0941230825
 30
0.0
 10
7.04449396
 20
5.0940726123
 30
0.0
 10
7.0440561388
 20
5.0940249873
 30
0.0
 10
7.043561983
 20
5.0939803038
 30
0.0
 10
7.0430146974
 20
5.0939386344
 30
0.0
 10
7.042417004
 20
5.0939000064
 30
0.0
 10
7.0415258252
 20
5.0938510931
 30
0.0
 10
7.0403001939
 20
5.0937996233
 30
0.0
 10
7.0387053138
 20
5.0937552576
 30
0.0
 10
7.0369624565
 20
5.0937279279
 30
0.0
 10
7.0351002696
 20
5.0937156904
 30
0.0
 10
7.0331499043
 20
5.0937156101
 30
0.0
 10
7.0311389222
 20
5.0937242203
 30
0.0
 10
7.0290888091
 20
5.0937379041
 30
0.0
 10
7.0270150298
 20
5.0937532865
 30
0.0
 10
7.0242291615
 20
5.0937721999
 30
0.0
 10
7.0221355982
 20
5.093780468
 30
0.0
 10
7.0207384398
 20
5.093780468
 30
0.0
  0
SPLINE
  5
45F
100
AcDbEntity
  8
0
100
AcDbSpline
 62
7
  6
CONTINUOUS
 70
0
 71
3
 72
32
 73
28
 74
0
 42
0.0000001
 43
0.0000001
 44
0.0000000001
 40
0.0
 40
0.0
 40
0.0
 40
0.0
 40
0.0007073825
 40
0.001469475
 40
0.0023390182
 40
0.0033511947
 40
0.0058712724
 40
0.0091058422
 40
0.0130679887
 40
0.0177510223
 40
0.0292243889
 40
0.0433885508
 40
0.0600873854
 40
0.0791633314
 40
0.100481928
 40
0.1239216464
 40
0.1493797477
 40
0.2060140424
 40
0.2698714963
 40
0.3402021307
 40
0.4157199026
 40
0.4950012122
 40
0.5768361483
 40
0.6602811313
 40
0.74467968
 40
0.8295991493
 40
1.0
 40
1.0
 40
1.0
 40
1.0
 10
6.9957388917
 20
5.0949152257
 30
0.0
 10
6.9957388627
 20
5.0949093101
 30
0.0
 10
6.9957407792
 20
5.0948969384
 30
0.0
 10
6.9957494088
 20
5.0948791382
 30
0.0
 10
6.9957634921
 20
5.0948619011
 30
0.0
 10
6.9957914132
 20
5.0948377217
 30
0.0
 10
6.9958407668
 20
5.0948092488
 30
0.0
 10
6.9959158302
 20
5.0947779515
 30
0.0
 10
6.9960104513
 20
5.0947473613
 30
0.0
 10
6.9961732317
 20
5.0947046339
 30
0.0
 10
6.9964222101
 20
5.0946555953
 30
0.0
 10
6.996772309
 20
5.0946025893
 30
0.0
 10
6.9971869875
 20
5.0945526109
 30
0.0
 10
6.9976621445
 20
5.0945055918
 30
0.0
 10
6.9981941823
 20
5.0944616826
 30
0.0
 10
6.9987799758
 20
5.0944208911
 30
0.0
 10
6.9996609944
 20
5.0943689731
 30
0.0
 10
7.0008803525
 20
5.0943140014
 30
0.0
 10
7.0024754595
 20
5.0942656786
 30
0.0
 10
7.0042289387
 20
5.0942349988
 30
0.0
 10
7.0061115969
 20
5.0942204671
 30
0.0
 10
7.0080905078
 20
5.0942189866
 30
0.0
 10
7.01013569
 20
5.0942269926
 30
0.0
 10
7.0122236338
 20
5.0942406178
 30
0.0
 10
7.0143373588
 20
5.0942562798
 30
0.0
 10
7.0171782595
 20
5.0942757266
 30
0.0
 10
7.0193134276
 20
5.0942843183
 30
0.0
 10
7.0207384398
 20
5.0942843183
 30
0.0
  0
SPLINE
  5
460
100
AcDbEntity
  8
0
100
AcDbSpline
 62
7
  6
CONTINUOUS
 70
0
 71
3
 72
23
 73
19
 74
0
 42
0.0000001
 43
0.0000001
 44
0.0000000001
 40
0.0
 40
0.0
 40
0.0
 40
0.0
 40
0.006564705
 40
0.0137254327
 40
0.0219370132
 40
0.0314912331
 40
0.0552331356
 40
0.0856923167
 40
0.1231234741
 40
0.1676262158
 40
0.2192212236
 40
0.2779031142
 40
0.3436484121
 40
0.4164286704
 40
0.4962288277
 40
0.583031308
 40
0.7775834331
 40
1.0
 40
1.0
 40
1.0
 40
1.0
 10
6.9857386786
 20
5.0939218093
 30
0.0
 10
6.9857386401
 20
5.0939367432
 30
0.0
 10
6.985743642
 20
5.0939681468
 30
0.0
 10
6.9857654949
 20
5.0940135855
 30
0.0
 10
6.9858008824
 20
5.0940583256
 30
0.0
 10
6.9858708719
 20
5.0941221407
 30
0.0
 10
6.9859948293
 20
5.0941992262
 30
0.0
 10
6.9861844982
 20
5.0942861634
 30
0.0
 10
6.9864252137
 20
5.0943730928
 30
0.0
 10
6.9867164468
 20
5.0944597778
 30
0.0
 10
6.9870579236
 20
5.0945459829
 30
0.0
 10
6.9874491669
 20
5.0946315052
 30
0.0
 10
6.9878897676
 20
5.0947161818
 30
0.0
 10
6.9883793605
 20
5.0947998738
 30
0.0
 10
6.9889176505
 20
5.0948824786
 30
0.0
 10
6.9897314663
 20
5.0949953762
 30
0.0
 10
6.9908694945
 20
5.0951313369
 30
0.0
 10
6.9918132946
 20
5.0952266282
 30
0.0
 10
6.9923170405
 20
5.0952740448
 30
0.0
  0
LINE
  5
461
100
AcDbEntity
  8
0
100
AcDbLine
 62
7
  6
CONTINUOUS
 10
7.0555170804
 20
5.0936711026
 11
7.0547401175
 21
5.0939592832
  0
LINE
  5
462
100
AcDbEntity
  8
0
100
AcDbLine
 62
7
  6
CONTINUOUS
 10
7.0547401175
 20
5.0939592832
 11
7.0499772283
 21
5.0946914978
  0
SPLINE
  5
463
100
AcDbEntity
  8
0
100
AcDbSpline
 62
7
  6
CONTINUOUS
 70
0
 71
3
 72
18
 73
14
 74
0
 42
0.0000001
 43
0.0000001
 44
0.0000000001
 40
0.0
 40
0.0
 40
0.0
 40
0.0
 40
0.1641420469
 40
0.3241413868
 40
0.4759955971
 40
0.6159534957
 40
0.7406948534
 40
0.7964787719
 40
0.8474771892
 40
0.8934595783
 40
0.934254013
 40
0.9697702045
 40
1.0
 40
1.0
 40
1.0
 40
1.0
 10
7.0076626798
 20
5.0885013268
 30
0.0
 10
7.0070039991
 20
5.0884722359
 30
0.0
 10
7.0057023621
 20
5.0884332932
 30
0.0
 10
7.0037901189
 20
5.0884320674
 30
0.0
 10
7.001975803
 20
5.0884881083
 30
0.0
 10
7.0003059443
 20
5.0885996304
 30
0.0
 10
6.9990257354
 20
5.0887402841
 30
0.0
 10
6.9981064587
 20
5.0888818683
 30
0.0
 10
6.9975032996
 20
5.0889954493
 30
0.0
 10
6.9969637973
 20
5.0891195147
 30
0.0
 10
6.9964908368
 20
5.0892532285
 30
0.0
 10
6.9960869627
 20
5.0893956499
 30
0.0
 10
6.9958456747
 20
5.0895043789
 30
0.0
 10
6.9957384398
 20
5.0895613444
 30
0.0
  0
SPLINE
  5
464
100
AcDbEntity
  8
0
100
AcDbSpline
 62
7
  6
CONTINUOUS
 70
0
 71
3
 72
18
 73
14
 74
0
 42
0.0000001
 43
0.0000001
 44
0.0000000001
 40
0.0
 40
0.0
 40
0.0
 40
0.0
 40
0.0301616266
 40
0.0656179873
 40
0.1063637629
 40
0.1523100943
 40
0.2032854142
 40
0.2590588129
 40
0.383812164
 40
0.5238146015
 40
0.6757302259
 40
0.8357948628
 40
1.0
 40
1.0
 40
1.0
 40
1.0
 10
7.0482384398
 20
5.0893403943
 30
0.0
 10
7.0481311637
 20
5.0892842678
 30
0.0
 10
7.0478897697
 20
5.0891774534
 30
0.0
 10
7.0474858028
 20
5.0890383147
 30
0.0
 10
7.0470127046
 20
5.0889084727
 30
0.0
 10
7.0464730206
 20
5.0887888516
 30
0.0
 10
7.0458696423
 20
5.0886802671
 30
0.0
 10
7.0449499366
 20
5.088546324
 30
0.0
 10
7.0436692703
 20
5.0884164089
 30
0.0
 10
7.0419991756
 20
5.0883189867
 30
0.0
 10
7.0401849761
 20
5.0882783152
 30
0.0
 10
7.0382733289
 20
5.0882957455
 30
0.0
 10
7.0369724238
 20
5.0883456903
 30
0.0
 10
7.0363141998
 20
5.0883803333
 30
0.0
  0
SPLINE
  5
465
100
AcDbEntity
  8
0
100
AcDbSpline
 62
7
  6
CONTINUOUS
 70
0
 71
3
 72
32
 73
28
 74
0
 42
0.0000001
 43
0.0000001
 44
0.0000000001
 40
0.0
 40
0.0
 40
0.0
 40
0.0
 40
0.170400735
 40
0.2553201029
 40
0.3397183529
 40
0.4231629166
 40
0.504997264
 40
0.5842779797
 40
0.6597946162
 40
0.7301238785
 40
0.793980374
 40
0.8506138954
 40
0.8760717634
 40
0.8995117018
 40
0.9208300458
 40
0.9399065382
 40
0.9566052642
 40
0.9707697652
 40
0.9822442516
 40
0.9869283664
 40
0.9908915756
 40
0.9941264543
 40
0.9966462758
 40
0.9976582941
 40
0.9985281457
 40
0.9992913736
 40
1.0
 40
1.0
 40
1.0
 40
1.0
 10
7.0207384398
 20
5.093780468
 30
0.0
 10
7.0193134176
 20
5.093780468
 30
0.0
 10
7.0171782348
 20
5.0937718619
 30
0.0
 10
7.0143373167
 20
5.0937523824
 30
0.0
 10
7.0122235825
 20
5.0937366941
 30
0.0
 10
7.0101356336
 20
5.0937230462
 30
0.0
 10
7.0080904491
 20
5.0937150271
 30
0.0
 10
7.0061115423
 20
5.09371651
 30
0.0
 10
7.0042288955
 20
5.0937310659
 30
0.0
 10
7.0024754327
 20
5.0937618009
 30
0.0
 10
7.0008803414
 20
5.0938101976
 30
0.0
 10
6.9996609945
 20
5.0938652644
 30
0.0
 10
6.9987799807
 20
5.0939172694
 30
0.0
 10
6.9981941893
 20
5.0939581259
 30
0.0
 10
6.9976621495
 20
5.0940021131
 30
0.0
 10
6.9971869945
 20
5.0940492063
 30
0.0
 10
6.9967723163
 20
5.09409927
 30
0.0
 10
6.9964222167
 20
5.094152366
 30
0.0
 10
6.9961732304
 20
5.0942014873
 30
0.0
 10
6.9960104382
 20
5.0942442824
 30
0.0
 10
6.9959158093
 20
5.0942749188
 30
0.0
 10
6.9958407565
 20
5.0943062683
 30
0.0
 10
6.9957914303
 20
5.0943347924
 30
0.0
 10
6.9957635507
 20
5.0943590214
 30
0.0
 10
6.9957495008
 20
5.0943762986
 30
0.0
 10
6.995740871
 20
5.0943941201
 30
0.0
 10
6.9957389335
 20
5.0944065068
 30
0.0
 10
6.9957389502
 20
5.0944124329
 30
0.0
  0
LINE
  5
466
100
AcDbEntity
  8
0
100
AcDbLine
 62
7
  6
CONTINUOUS
 10
6.8872417138
 20
5.0547370799
 11
6.8874397655
 21
5.0543526639
  0
SPLINE
  5
467
100
AcDbEntity
  8
0
100
AcDbSpline
 62
7
  6
CONTINUOUS
 70
0
 71
3
 72
9
 73
5
 74
0
 42
0.0000001
 43
0.0000001
 44
0.0000000001
 40
0.0
 40
0.0
 40
0.0
 40
0.0
 40
0.2434836775
 40
1.0
 40
1.0
 40
1.0
 40
1.0
 10
6.8874397655
 20
5.0543526639
 30
0.0
 10
6.8874450911
 20
5.0543488722
 30
0.0
 10
6.8874672227
 20
5.0543336648
 30
0.0
 10
6.887490342
 20
5.0543199089
 30
0.0
 10
6.8875082225
 20
5.0543102714
 30
0.0
  0
SPLINE
  5
468
100
AcDbEntity
  8
0
100
AcDbSpline
 62
7
  6
CONTINUOUS
 70
0
 71
3
 72
15
 73
11
 74
0
 42
0.0000001
 43
0.0000001
 44
0.0000000001
 40
0.0
 40
0.0
 40
0.0
 40
0.0
 40
0.0715321168
 40
0.1578057061
 40
0.2601808604
 40
0.3787316285
 40
0.5129085876
 40
0.6618513552
 40
0.8245522403
 40
1.0
 40
1.0
 40
1.0
 40
1.0
 10
6.8829708349
 20
5.0540613823
 30
0.0
 10
6.8829708429
 20
5.0539613916
 30
0.0
 10
6.8829336416
 20
5.0537409521
 30
0.0
 10
6.8828017895
 20
5.0534007149
 30
0.0
 10
6.8825941916
 20
5.0530236969
 30
0.0
 10
6.8823145074
 20
5.0526130228
 30
0.0
 10
6.8819668494
 20
5.0521716899
 30
0.0
 10
6.881555533
 20
5.0517032196
 30
0.0
 10
6.8810849593
 20
5.0512109071
 30
0.0
 10
6.8807466362
 20
5.050880681
 30
0.0
 10
6.8805687383
 20
5.0507118642
 30
0.0
  0
SPLINE
  5
469
100
AcDbEntity
  8
0
100
AcDbSpline
 62
7
  6
CONTINUOUS
 70
0
 71
3
 72
27
 73
23
 74
0
 42
0.0000001
 43
0.0000001
 44
0.0000000001
 40
0.0
 40
0.0
 40
0.0
 40
0.0
 40
0.0222781755
 40
0.04324256
 40
0.0645520232
 40
0.0876548383
 40
0.1134665538
 40
0.1423930639
 40
0.1744399325
 40
0.2093846972
 40
0.2864213473
 40
0.3696067575
 40
0.4539930395
 40
0.5351414902
 40
0.6099542748
 40
0.6777142894
 40
0.7385149993
 40
0.7931576712
 40
0.8437248846
 40
0.8932220016
 40
0.9445537312
 40
1.0
 40
1.0
 40
1.0
 40
1.0
 10
6.8732792506
 20
5.0513304567
 30
0.0
 10
6.8732792412
 20
5.0512955676
 30
0.0
 10
6.8732874397
 20
5.0512273816
 30
0.0
 10
6.8733278442
 20
5.0511331682
 30
0.0
 10
6.8733947716
 20
5.0510539063
 30
0.0
 10
6.8734852604
 20
5.050989866
 30
0.0
 10
6.873596677
 20
5.0509391443
 30
0.0
 10
6.8737272191
 20
5.0509002613
 30
0.0
 10
6.8738748203
 20
5.0508714927
 30
0.0
 10
6.8740988373
 20
5.0508440602
 30
0.0
 10
6.8744044648
 20
5.0508298651
 30
0.0
 10
6.8747875078
 20
5.0508285807
 30
0.0
 10
6.875177024
 20
5.0508268957
 30
0.0
 10
6.8755533236
 20
5.0508117829
 30
0.0
 10
6.8759017482
 20
5.0507707598
 30
0.0
 10
6.8762133309
 20
5.0507013947
 30
0.0
 10
6.8764834034
 20
5.0506010807
 30
0.0
 10
6.8767076539
 20
5.0504654646
 30
0.0
 10
6.8768802757
 20
5.0502916487
 30
0.0
 10
6.8769994758
 20
5.0500836617
 30
0.0
 10
6.8770663964
 20
5.0498461461
 30
0.0
 10
6.8770783701
 20
5.049678294
 30
0.0
 10
6.8770778282
 20
5.0495914631
 30
0.0
  0
SPLINE
  5
46A
100
AcDbEntity
  8
0
100
AcDbSpline
 62
7
  6
CONTINUOUS
 70
0
 71
3
 72
14
 73
10
 74
0
 42
0.0000001
 43
0.0000001
 44
0.0000000001
 40
0.0
 40
0.0
 40
0.0
 40
0.0
 40
0.2347823993
 40
0.3495667942
 40
0.4660508778
 40
0.5871251177
 40
0.7154470138
 40
0.8527537794
 40
1.0
 40
1.0
 40
1.0
 40
1.0
 10
6.8770506969
 20
5.0492922233
 30
0.0
 10
6.8770303176
 20
5.049391056
 30
0.0
 10
6.8769802208
 20
5.0495358058
 30
0.0
 10
6.8768703928
 20
5.0497041972
 30
0.0
 10
6.8767677306
 20
5.0498164662
 30
0.0
 10
6.8766440745
 20
5.0499146194
 30
0.0
 10
6.876499761
 20
5.0499980923
 30
0.0
 10
6.8763361949
 20
5.0500678014
 30
0.0
 10
6.8762192574
 20
5.0501042975
 30
0.0
 10
6.8761581382
 20
5.0501207234
 30
0.0
  0
SPLINE
  5
46B
100
AcDbEntity
  8
0
100
AcDbSpline
 62
7
  6
CONTINUOUS
 70
0
 71
3
 72
19
 73
15
 74
0
 42
0.0000001
 43
0.0000001
 44
0.0000000001
 40
0.0
 40
0.0
 40
0.0
 40
0.0
 40
0.1291536693
 40
0.2737904101
 40
0.4284092575
 40
0.5815622242
 40
0.6532790847
 40
0.7198418098
 40
0.7801400591
 40
0.8334507265
 40
0.8798333403
 40
0.9206960527
 40
0.9592663013
 40
1.0
 40
1.0
 40
1.0
 40
1.0
 10
6.8761581382
 20
5.0501207234
 30
0.0
 10
6.8760285147
 20
5.0501555598
 30
0.0
 10
6.8757475184
 20
5.0502066728
 30
0.0
 10
6.8753028634
 20
5.050236862
 30
0.0
 10
6.8748326552
 20
5.0502401994
 30
0.0
 10
6.8744382073
 20
5.0502401673
 30
0.0
 10
6.8741355782
 20
5.0502542458
 30
0.0
 10
6.8739300399
 20
5.0502741158
 30
0.0
 10
6.8737453093
 20
5.0503062488
 30
0.0
 10
6.8735853062
 20
5.0503533504
 30
0.0
 10
6.8734533516
 20
5.0504184003
 30
0.0
 10
6.8733531649
 20
5.0505056115
 30
0.0
 10
6.8732911661
 20
5.0506171011
 30
0.0
 10
6.8732792564
 20
5.0507005298
 30
0.0
 10
6.8732793029
 20
5.0507428623
 30
0.0
  0
SPLINE
  5
46C
100
AcDbEntity
  8
0
100
AcDbSpline
 62
7
  6
CONTINUOUS
 70
0
 71
3
 72
21
 73
17
 74
0
 42
0.0000001
 43
0.0000001
 44
0.0000000001
 40
0.0
 40
0.0
 40
0.0
 40
0.0
 40
0.035369323
 40
0.0682720587
 40
0.1006193765
 40
0.1345562568
 40
0.1720255195
 40
0.2145205042
 40
0.2630265681
 40
0.3181516055
 40
0.3801941337
 40
0.4492504987
 40
0.5252467699
 40
0.607987379
 40
0.7925393146
 40
1.0
 40
1.0
 40
1.0
 40
1.0
 10
6.8602610924
 20
5.0414421057
 30
0.0
 10
6.8602610878
 20
5.041383889
 30
0.0
 10
6.8602713145
 20
5.0412709822
 30
0.0
 10
6.8603253357
 20
5.0411125428
 30
0.0
 10
6.8604185953
 20
5.0409760432
 30
0.0
 10
6.8605502025
 20
5.0408644243
 30
0.0
 10
6.8607181509
 20
5.040778211
 30
0.0
 10
6.860921521
 20
5.0407171161
 30
0.0
 10
6.861159863
 20
5.0406806508
 30
0.0
 10
6.8614327162
 20
5.0406688862
 30
0.0
 10
6.8617392558
 20
5.04068169
 30
0.0
 10
6.8620782882
 20
5.0407190227
 30
0.0
 10
6.8624483071
 20
5.0407805313
 30
0.0
 10
6.8630010352
 20
5.0408986125
 30
0.0
 10
6.8637549063
 20
5.0411067194
 30
0.0
 10
6.8643666663
 20
5.0413126654
 30
0.0
 10
6.8646879677
 20
5.0414282928
 30
0.0
  0
SPLINE
  5
46D
100
AcDbEntity
  8
0
100
AcDbSpline
 62
7
  6
CONTINUOUS
 70
0
 71
3
 72
18
 73
14
 74
0
 42
0.0000001
 43
0.0000001
 44
0.0000000001
 40
0.0
 40
0.0
 40
0.0
 40
0.0
 40
0.0548388049
 40
0.1257569068
 40
0.1707498131
 40
0.2242560317
 40
0.2875855281
 40
0.3607142664
 40
0.4415238478
 40
0.526556346
 40
0.6972017718
 40
0.8568155966
 40
1.0
 40
1.0
 40
1.0
 40
1.0
 10
6.8689875862
 20
5.0442227424
 30
0.0
 10
6.8689875568
 20
5.0441183326
 30
0.0
 10
6.8689503421
 20
5.043878248
 30
0.0
 10
6.8688153415
 20
5.0435788177
 30
0.0
 10
6.8686378436
 20
5.0433090386
 30
0.0
 10
6.8684422963
 20
5.0430701948
 30
0.0
 10
6.8681880168
 20
5.0428123911
 30
0.0
 10
6.8678746517
 20
5.0425417685
 30
0.0
 10
6.8675109847
 20
5.0422678833
 30
0.0
 10
6.8669788542
 20
5.0419107138
 30
0.0
 10
6.866292993
 20
5.0415152373
 30
0.0
 10
6.8654801705
 20
5.0411239968
 30
0.0
 10
6.8649444054
 20
5.0409097562
 30
0.0
 10
6.8646879677
 20
5.0408172444
 30
0.0
  0
SPLINE
  5
46E
100
AcDbEntity
  8
0
100
AcDbSpline
 62
7
  6
CONTINUOUS
 70
0
 71
3
 72
12
 73
8
 74
0
 42
0.0000001
 43
0.0000001
 44
0.0000000001
 40
0.0
 40
0.0
 40
0.0
 40
0.0
 40
0.1861035413
 40
0.2963232008
 40
0.4178412189
 40
0.6915225028
 40
1.0
 40
1.0
 40
1.0
 40
1.0
 10
6.8660627399
 20
5.0469477382
 30
0.0
 10
6.8660628043
 20
5.0470449401
 30
0.0
 10
6.8660959029
 20
5.0471993933
 30
0.0
 10
6.8661742247
 20
5.0474028598
 30
0.0
 10
6.8662894202
 20
5.0476408148
 30
0.0
 10
6.8664808081
 20
5.0479552915
 30
0.0
 10
6.8666579214
 20
5.0482026592
 30
0.0
 10
6.8667548124
 20
5.0483313879
 30
0.0
  0
LINE
  5
46F
100
AcDbEntity
  8
0
100
AcDbLine
 62
7
  6
CONTINUOUS
 10
6.8873067909
 20
5.0552385418
 11
6.8872564861
 21
5.0554269031
  0
LINE
  5
470
100
AcDbEntity
  8
0
100
AcDbLine
 62
7
  6
CONTINUOUS
 10
6.8872564861
 20
5.0554269031
 11
6.8868182824
 21
5.0560235171
  0
SPLINE
  5
471
100
AcDbEntity
  8
0
100
AcDbSpline
 62
7
  6
CONTINUOUS
 70
0
 71
3
 72
17
 73
13
 74
0
 42
0.0000001
 43
0.0000001
 44
0.0000000001
 40
0.0
 40
0.0
 40
0.0
 40
0.0
 40
0.0700623584
 40
0.1097259762
 40
0.1530400138
 40
0.2003099572
 40
0.2517522726
 40
0.3675630216
 40
0.5008751676
 40
0.6513287423
 40
0.8180908554
 40
1.0
 40
1.0
 40
1.0
 40
1.0
 10
6.8868182824
 20
5.0560235171
 30
0.0
 10
6.8866870279
 20
5.05612264
 30
0.0
 10
6.8864544875
 20
5.0562431323
 30
0.0
 10
6.8861117978
 20
5.0563514983
 30
0.0
 10
6.885811969
 20
5.0564142669
 30
0.0
 10
6.8854807313
 20
5.0564548606
 30
0.0
 10
6.8849773986
 20
5.0564802977
 30
0.0
 10
6.8842709799
 20
5.0564501992
 30
0.0
 10
6.8833400733
 20
5.0563284325
 30
0.0
 10
6.8823023174
 20
5.0561208334
 30
0.0
 10
6.88116682
 20
5.055829941
 30
0.0
 10
6.8803832358
 20
5.0555924183
 30
0.0
 10
6.8799767864
 20
5.0554613832
 30
0.0
  0
LINE
  5
472
100
AcDbEntity
  8
0
100
AcDbLine
 62
7
  6
CONTINUOUS
 10
6.8799767864
 20
5.0554613832
 11
6.8782403392
 21
5.0548571713
  0
SPLINE
  5
473
100
AcDbEntity
  8
0
100
AcDbSpline
 62
7
  6
CONTINUOUS
 70
0
 71
3
 72
9
 73
5
 74
0
 42
0.0000001
 43
0.0000001
 44
0.0000000001
 40
0.0
 40
0.0
 40
0.0
 40
0.0
 40
0.262040417
 40
1.0
 40
1.0
 40
1.0
 40
1.0
 10
6.8732150275
 20
5.0543689106
 30
0.0
 10
6.8732150269
 20
5.0543637093
 30
0.0
 10
6.8732157332
 20
5.0543438754
 30
0.0
 10
6.8732195771
 20
5.0543240869
 30
0.0
 10
6.8732244439
 20
5.0543102714
 30
0.0
  0
SPLINE
  5
474
100
AcDbEntity
  8
0
100
AcDbSpline
 62
7
  6
CONTINUOUS
 70
0
 71
3
 72
19
 73
15
 74
0
 42
0.0000001
 43
0.0000001
 44
0.0000000001
 40
0.0
 40
0.0
 40
0.0
 40
0.0
 40
0.0174991191
 40
0.0411953264
 40
0.0717255244
 40
0.109181284
 40
0.1534364219
 40
0.204247698
 40
0.261316393
 40
0.3243094202
 40
0.4666630368
 40
0.6285078699
 40
0.8071154372
 40
1.0
 40
1.0
 40
1.0
 40
1.0
 10
6.8712585387
 20
5.0546203824
 30
0.0
 10
6.8712585462
 20
5.0545829753
 30
0.0
 10
6.8712359426
 20
5.0544956471
 30
0.0
 10
6.8711649251
 20
5.0543595304
 30
0.0
 10
6.8710526773
 20
5.0541982835
 30
0.0
 10
6.8708998068
 20
5.0540132055
 30
0.0
 10
6.8707074243
 20
5.0538050956
 30
0.0
 10
6.8704771254
 20
5.0535753909
 30
0.0
 10
6.8702106793
 20
5.0533254687
 30
0.0
 10
6.869792353
 20
5.0529516789
 30
0.0
 10
6.8691915781
 20
5.0524462725
 30
0.0
 10
6.8683845502
 20
5.0518028176
 30
0.0
 10
6.8674790762
 20
5.0511099493
 30
0.0
 10
6.8668408738
 20
5.0506373221
 30
0.0
 10
6.8665079877
 20
5.0503940205
 30
0.0
  0
SPLINE
  5
475
100
AcDbEntity
  8
0
100
AcDbSpline
 62
7
  6
CONTINUOUS
 70
0
 71
3
 72
25
 73
21
 74
0
 42
0.0000001
 43
0.0000001
 44
0.0000000001
 40
0.0
 40
0.0
 40
0.0
 40
0.0
 40
0.0216585734
 40
0.0418253423
 40
0.0837829267
 40
0.1080470261
 40
0.1350700235
 40
0.1974746431
 40
0.2698425989
 40
0.3493328997
 40
0.4321965485
 40
0.5146597757
 40
0.5935987783
 40
0.6663368576
 40
0.7314809264
 40
0.7896449164
 40
0.842430457
 40
0.8925452328
 40
0.9437106468
 40
1.0
 40
1.0
 40
1.0
 40
1.0
 10
6.8630614672
 20
5.050973552
 30
0.0
 10
6.8630614628
 20
5.0509638446
 30
0.0
 10
6.8630636161
 20
5.0509449579
 30
0.0
 10
6.8630786378
 20
5.0509099357
 30
0.0
 10
6.8631091866
 20
5.0508833217
 30
0.0
 10
6.863146878
 20
5.0508653002
 30
0.0
 10
6.8631954734
 20
5.0508494483
 30
0.0
 10
6.8632672487
 20
5.0508373346
 30
0.0
 10
6.8633630963
 20
5.0508306808
 30
0.0
 10
6.8634683047
 20
5.0508287441
 30
0.0
 10
6.8635780257
 20
5.0508282819
 30
0.0
 10
6.8636874991
 20
5.0508261773
 30
0.0
 10
6.8637923036
 20
5.0508199658
 30
0.0
 10
6.8638887746
 20
5.0508070392
 30
0.0
 10
6.8639740902
 20
5.050784863
 30
0.0
 10
6.8640467444
 20
5.0507529203
 30
0.0
 10
6.8641057562
 20
5.0507101353
 30
0.0
 10
6.8641494661
 20
5.0506554386
 30
0.0
 10
6.864175814
 20
5.0505888708
 30
0.0
 10
6.8641808014
 20
5.0505403914
 30
0.0
 10
6.8641808113
 20
5.0505151624
 30
0.0
  0
SPLINE
  5
476
100
AcDbEntity
  8
0
100
AcDbSpline
 62
7
  6
CONTINUOUS
 70
0
 71
3
 72
18
 73
14
 74
0
 42
0.0000001
 43
0.0000001
 44
0.0000000001
 40
0.0
 40
0.0
 40
0.0
 40
0.0
 40
0.0302226466
 40
0.0657341257
 40
0.1065256976
 40
0.1525066968
 40
0.2035047655
 40
0.2592890359
 40
0.3840326812
 40
0.5239938532
 40
0.675851564
 40
0.8358544321
 40
1.0
 40
1.0
 40
1.0
 40
1.0
 10
6.9957384398
 20
5.0900723371
 30
0.0
 10
6.9958456861
 20
5.0900154633
 30
0.0
 10
6.9960869918
 20
5.0899069156
 30
0.0
 10
6.9964908726
 20
5.0897647393
 30
0.0
 10
6.9969638419
 20
5.0896312556
 30
0.0
 10
6.9975033539
 20
5.0895074041
 30
0.0
 10
6.9981065218
 20
5.0893940194
 30
0.0
 10
6.999025812
 20
5.0892526803
 30
0.0
 10
7.0003060242
 20
5.0891122728
 30
0.0
 10
7.0019758723
 20
5.0890009471
 30
0.0
 10
7.0037901676
 20
5.0889450059
 30
0.0
 10
7.0057023851
 20
5.0889462306
 30
0.0
 10
7.0070040059
 20
5.0889851056
 30
0.0
 10
7.0076626798
 20
5.0890141459
 30
0.0
  0
SPLINE
  5
477
100
AcDbEntity
  8
0
100
AcDbSpline
 62
7
  6
CONTINUOUS
 70
0
 71
3
 72
14
 73
10
 74
0
 42
0.0000001
 43
0.0000001
 44
0.0000000001
 40
0.0
 40
0.0
 40
0.0
 40
0.0
 40
0.0851337268
 40
0.1842710969
 40
0.2967939701
 40
0.4214586406
 40
0.55648955
 40
0.6996724605
 40
1.0
 40
1.0
 40
1.0
 40
1.0
 10
6.9957384398
 20
5.0803050626
 30
0.0
 10
6.9959071828
 20
5.0802141775
 30
0.0
 10
6.9962880934
 20
5.0800464158
 30
0.0
 10
6.9969255955
 20
5.0798436228
 30
0.0
 10
6.9976644362
 20
5.0796746416
 30
0.0
 10
6.9984926104
 20
5.0795435004
 30
0.0
 10
6.9993956016
 20
5.0794534418
 30
0.0
 10
7.0006969301
 20
5.0793904776
 30
0.0
 10
7.0016969408
 20
5.0794124308
 30
0.0
 10
7.0023716894
 20
5.0794556092
 30
0.0
  0
LINE
  5
478
100
AcDbEntity
  8
0
100
AcDbLine
 62
7
  6
CONTINUOUS
 10
6.8640678746
 20
5.0501476333
 11
6.8630614678
 21
5.0503851166
  0
SPLINE
  5
479
100
AcDbEntity
  8
0
100
AcDbSpline
 62
7
  6
CONTINUOUS
 70
0
 71
3
 72
14
 73
10
 74
0
 42
0.0000001
 43
0.0000001
 44
0.0000000001
 40
0.0
 40
0.0
 40
0.0
 40
0.0
 40
0.0737733481
 40
0.1601444253
 40
0.2608647865
 40
0.3768909992
 40
0.5087301262
 40
0.6565794819
 40
1.0
 40
1.0
 40
1.0
 40
1.0
 10
6.8440163195
 20
5.0380273136
 30
0.0
 10
6.844016318
 20
5.0380690967
 30
0.0
 10
6.8440279418
 20
5.0381598396
 30
0.0
 10
6.8440718324
 20
5.0383013734
 30
0.0
 10
6.844142734
 20
5.0384580999
 30
0.0
 10
6.8442403932
 20
5.0386299106
 30
0.0
 10
6.8443645596
 20
5.0388166669
 30
0.0
 10
6.8445758362
 20
5.0390995004
 30
0.0
 10
6.8447572326
 20
5.0393109356
 30
0.0
 10
6.8448876586
 20
5.0394552291
 30
0.0
  0
LINE
  5
47A
100
AcDbEntity
  8
0
100
AcDbLine
 62
7
  6
CONTINUOUS
 10
6.8450874805
 20
5.0391365323
 11
6.8448876586
 21
5.0388392878
  0
LINE
  5
47B
100
AcDbEntity
  8
0
100
AcDbLine
 62
7
  6
CONTINUOUS
 10
6.8452890182
 20
5.0408859598
 11
6.8461386432
 21
5.0414663878
  0
LINE
  5
47C
100
AcDbEntity
  8
0
100
AcDbLine
 62
7
  6
CONTINUOUS
 10
6.8461386432
 20
5.0414663878
 11
6.8491276011
 21
5.0435257907
  0
SPLINE
  5
47D
100
AcDbEntity
  8
0
100
AcDbSpline
 62
7
  6
CONTINUOUS
 70
0
 71
3
 72
21
 73
17
 74
0
 42
0.0000001
 43
0.0000001
 44
0.0000000001
 40
0.0
 40
0.0
 40
0.0
 40
0.0
 40
0.2237566621
 40
0.4195725967
 40
0.5856512108
 40
0.6571389209
 40
0.720793785
 40
0.7766229572
 40
0.8247278036
 40
0.8653998017
 40
0.8831261868
 40
0.8992443186
 40
0.9272698276
 40
0.9514308893
 40
0.9746146424
 40
1.0
 40
1.0
 40
1.0
 40
1.0
 10
6.870397814
 20
5.0558535462
 30
0.0
 10
6.8707165817
 20
5.0559945599
 30
0.0
 10
6.8713177572
 20
5.0562513811
 30
0.0
 10
6.8721689498
 20
5.0565802357
 30
0.0
 10
6.8728098424
 20
5.0567938885
 30
0.0
 10
6.8732625493
 20
5.0569177975
 30
0.0
 10
6.873552807
 20
5.0569835436
 30
0.0
 10
6.8738104575
 20
5.0570268134
 30
0.0
 10
6.8740350164
 20
5.0570474428
 30
0.0
 10
6.8742013978
 20
5.0570457834
 30
0.0
 10
6.8743167321
 20
5.05703134
 30
0.0
 10
6.8744109545
 20
5.0570107567
 30
0.0
 10
6.8745113819
 20
5.0569721089
 30
0.0
 10
6.874604733
 20
5.0568966709
 30
0.0
 10
6.8746595239
 20
5.0567941975
 30
0.0
 10
6.874668823
 20
5.0567175993
 30
0.0
 10
6.8746688272
 20
5.0566780543
 30
0.0
  0
LINE
  5
47E
100
AcDbEntity
  8
0
100
AcDbLine
 62
7
  6
CONTINUOUS
 10
6.8577299891
 20
5.0483313879
 11
6.8633437361
 21
5.0520755
  0
LINE
  5
47F
100
AcDbEntity
  8
0
100
AcDbLine
 62
7
  6
CONTINUOUS
 10
6.8633437361
 20
5.0520755
 11
6.8684776291
 21
5.0549531702
  0
SPLINE
  5
480
100
AcDbEntity
  8
0
100
AcDbSpline
 62
7
  6
CONTINUOUS
 70
0
 71
3
 72
21
 73
17
 74
0
 42
0.0000001
 43
0.0000001
 44
0.0000000001
 40
0.0
 40
0.0
 40
0.0
 40
0.0
 40
0.1679235963
 40
0.2699866721
 40
0.3810026249
 40
0.4933596639
 40
0.5954093926
 40
0.6797806098
 40
0.7473651423
 40
0.8018601845
 40
0.8465025609
 40
0.8836163124
 40
0.9148293499
 40
0.9413023131
 40
0.9639002556
 40
1.0
 40
1.0
 40
1.0
 40
1.0
 10
6.851018462
 20
5.0414282928
 30
0.0
 10
6.8513723767
 20
5.0415907316
 30
0.0
 10
6.8519298009
 20
5.0418775102
 30
0.0
 10
6.8526942264
 20
5.0423207334
 30
0.0
 10
6.8533328514
 20
5.0427232419
 30
0.0
 10
6.853954949
 20
5.0431508566
 30
0.0
 10
6.8545063663
 20
5.0435709286
 30
0.0
 10
6.8549544591
 20
5.0439537712
 30
0.0
 10
6.8552994753
 20
5.0442861155
 30
0.0
 10
6.8555608974
 20
5.0445713152
 30
0.0
 10
6.8557588923
 20
5.0448178478
 30
0.0
 10
6.8559084059
 20
5.0450332625
 30
0.0
 10
6.8560197099
 20
5.0452230705
 30
0.0
 10
6.8560999702
 20
5.0453914726
 30
0.0
 10
6.8561669492
 20
5.0455772219
 30
0.0
 10
6.8561928952
 20
5.0457132631
 30
0.0
 10
6.8561928735
 20
5.0457969779
 30
0.0
  0
LINE
  5
481
100
AcDbEntity
  8
0
100
AcDbLine
 62
7
  6
CONTINUOUS
 10
6.8525677821
 20
5.0449633793
 11
6.85272479
 21
5.044793686
  0
LINE
  5
482
100
AcDbEntity
  8
0
100
AcDbLine
 62
7
  6
CONTINUOUS
 10
6.8448876586
 20
5.0394552291
 11
6.8450874805
 21
5.0397517333
  0
SPLINE
  5
483
100
AcDbEntity
  8
0
100
AcDbSpline
 62
7
  6
CONTINUOUS
 70
0
 71
3
 72
19
 73
15
 74
0
 42
0.0000001
 43
0.0000001
 44
0.0000000001
 40
0.0
 40
0.0
 40
0.0
 40
0.0
 40
0.1929705228
 40
0.3716341046
 40
0.5335053902
 40
0.6758575084
 40
0.7388404121
 40
0.7958938078
 40
0.8466853479
 40
0.8909175333
 40
0.928348072
 40
0.9588523058
 40
0.9825231074
 40
1.0
 40
1.0
 40
1.0
 40
1.0
 10
6.8665109192
 20
5.0509845738
 30
0.0
 10
6.8668436917
 20
5.0512272577
 30
0.0
 10
6.8674816417
 20
5.0516986647
 30
0.0
 10
6.8683867189
 20
5.0523897326
 30
0.0
 10
6.8691932981
 20
5.0530314588
 30
0.0
 10
6.8697936876
 20
5.0535354806
 30
0.0
 10
6.8702117046
 20
5.0539082242
 30
0.0
 10
6.8704779211
 20
5.054157422
 30
0.0
 10
6.8707080054
 20
5.0543864521
 30
0.0
 10
6.870900196
 20
5.0545939433
 30
0.0
 10
6.8710529042
 20
5.0547784672
 30
0.0
 10
6.8711650274
 20
5.054939231
 30
0.0
 10
6.8712359652
 20
5.0550749435
 30
0.0
 10
6.8712585462
 20
5.0551620323
 30
0.0
 10
6.8712585391
 20
5.055199334
 30
0.0
  0
SPLINE
  5
484
100
AcDbEntity
  8
0
100
AcDbSpline
 62
7
  6
CONTINUOUS
 70
0
 71
3
 72
22
 73
18
 74
0
 42
0.0000001
 43
0.0000001
 44
0.0000000001
 40
0.0
 40
0.0
 40
0.0
 40
0.0
 40
0.2065169719
 40
0.3010538108
 40
0.389308459
 40
0.4710054123
 40
0.5459359084
 40
0.6139902053
 40
0.6751790331
 40
0.729678377
 40
0.7778861868
 40
0.8204908637
 40
0.858573966
 40
0.8936553133
 40
0.9276321017
 40
0.9624986209
 40
1.0
 40
1.0
 40
1.0
 40
1.0
 10
6.879417004
 20
5.0558535462
 30
0.0
 10
6.879997428
 20
5.0560502112
 30
0.0
 10
6.8808503297
 20
5.056318079
 30
0.0
 10
6.8819677209
 20
5.0566121664
 30
0.0
 10
6.8827335298
 20
5.0567849625
 30
0.0
 10
6.8834486191
 20
5.0569156071
 30
0.0
 10
6.8841098972
 20
5.0570032286
 30
0.0
 10
6.8847145985
 20
5.0570473238
 30
0.0
 10
6.8852604367
 20
5.0570475804
 30
0.0
 10
6.8857456545
 20
5.0570039027
 30
0.0
 10
6.8861690843
 20
5.056916309
 30
0.0
 10
6.8865299753
 20
5.0567845072
 30
0.0
 10
6.8868275234
 20
5.0566079724
 30
0.0
 10
6.8870596777
 20
5.0563861759
 30
0.0
 10
6.8872236912
 20
5.0561209982
 30
0.0
 10
6.8873186654
 20
5.0558170373
 30
0.0
 10
6.8873368272
 20
5.0556014362
 30
0.0
 10
6.8873368196
 20
5.0554901512
 30
0.0
  0
SPLINE
  5
485
100
AcDbEntity
  8
0
100
AcDbSpline
 62
7
  6
CONTINUOUS
 70
0
 71
3
 72
19
 73
15
 74
0
 42
0.0000001
 43
0.0000001
 44
0.0000000001
 40
0.0
 40
0.0
 40
0.0
 40
0.0
 40
0.0368342341
 40
0.0803943316
 40
0.1299134028
 40
0.1846389311
 40
0.243840241
 40
0.3068365621
 40
0.4416480006
 40
0.5841030696
 40
0.7290024117
 40
0.8702188312
 40
0.9371075673
 40
1.0
 40
1.0
 40
1.0
 40
1.0
 10
6.8667548124
 20
5.0483313879
 30
0.0
 10
6.8668454439
 20
5.0484518004
 30
0.0
 10
6.8670598189
 20
5.0487020926
 30
0.0
 10
6.8674343993
 20
5.0490795636
 30
0.0
 10
6.867882809
 20
5.0494856999
 30
0.0
 10
6.8683965066
 20
5.0499140941
 30
0.0
 10
6.868967657
 20
5.050359036
 30
0.0
 10
6.8698152736
 20
5.0509815857
 30
0.0
 10
6.8709681618
 20
5.051762982
 30
0.0
 10
6.8724377562
 20
5.052671541
 30
0.0
 10
6.8739657102
 20
5.0535328277
 30
0.0
 10
6.8752536647
 20
5.0541878532
 30
0.0
 10
6.8762613289
 20
5.0546508002
 30
0.0
 10
6.8767505463
 20
5.0548576057
 30
0.0
 10
6.8769894707
 20
5.0549531702
 30
0.0
  0
SPLINE
  5
486
100
AcDbEntity
  8
0
100
AcDbSpline
 62
7
  6
CONTINUOUS
 70
0
 71
3
 72
18
 73
14
 74
0
 42
0.0000001
 43
0.0000001
 44
0.0000000001
 40
0.0
 40
0.0
 40
0.0
 40
0.0
 40
0.1432341745
 40
0.3029079595
 40
0.4736305635
 40
0.5587022787
 40
0.639542533
 40
0.7126812117
 40
0.7759981746
 40
0.8294744985
 40
0.8744279885
 40
0.9452529426
 40
1.0
 40
1.0
 40
1.0
 40
1.0
 10
6.8646879677
 20
5.0414282928
 30
0.0
 10
6.8649443253
 20
5.0415205488
 30
0.0
 10
6.8654799614
 20
5.0417342049
 30
0.0
 10
6.86629272
 20
5.0421244337
 30
0.0
 10
6.8669786528
 20
5.0425189608
 30
0.0
 10
6.8675109199
 20
5.0428753444
 30
0.0
 10
6.8678746871
 20
5.0431486356
 30
0.0
 10
6.8681881156
 20
5.0434186698
 30
0.0
 10
6.8684424125
 20
5.0436758904
 30
0.0
 10
6.8686379443
 20
5.0439141704
 30
0.0
 10
6.8688153877
 20
5.044183251
 30
0.0
 10
6.8689503446
 20
5.0444819003
 30
0.0
 10
6.8689875548
 20
5.0447214075
 30
0.0
 10
6.8689875836
 20
5.0448255445
 30
0.0
  0
SPLINE
  5
487
100
AcDbEntity
  8
0
100
AcDbSpline
 62
7
  6
CONTINUOUS
 70
0
 71
3
 72
16
 73
12
 74
0
 42
0.0000001
 43
0.0000001
 44
0.0000000001
 40
0.0
 40
0.0
 40
0.0
 40
0.0
 40
0.1763470303
 40
0.3399620427
 40
0.4897157454
 40
0.6244655288
 40
0.743183784
 40
0.8451463866
 40
0.8898143689
 40
0.9303625202
 40
1.0
 40
1.0
 40
1.0
 40
1.0
 10
6.8802303095
 20
5.0509845738
 30
0.0
 10
6.8804319059
 20
5.0511691503
 30
0.0
 10
6.8808156787
 20
5.0515303605
 30
0.0
 10
6.881350586
 20
5.0520691321
 30
0.0
 10
6.8818192933
 20
5.0525820304
 30
0.0
 10
6.8822165027
 20
5.0530650444
 30
0.0
 10
6.8825367206
 20
5.0535139366
 30
0.0
 10
6.8827437788
 20
5.0538704479
 30
0.0
 10
6.882861771
 20
5.0541359515
 30
0.0
 10
6.8829397887
 20
5.0543628545
 30
0.0
 10
6.8829708436
 20
5.0545336329
 30
0.0
 10
6.8829708353
 20
5.0546415681
 30
0.0
  0
SPLINE
  5
488
100
AcDbEntity
  8
0
100
AcDbSpline
 62
7
  6
CONTINUOUS
 70
0
 71
3
 72
20
 73
16
 74
0
 42
0.0000001
 43
0.0000001
 44
0.0000000001
 40
0.0
 40
0.0
 40
0.0
 40
0.0
 40
0.0231570342
 40
0.0444219464
 40
0.067312284
 40
0.0947620325
 40
0.1285475187
 40
0.1695747081
 40
0.2182894224
 40
0.2748977708
 40
0.3394169138
 40
0.4117759502
 40
0.5794312297
 40
0.7762707986
 40
1.0
 40
1.0
 40
1.0
 40
1.0
 10
6.8485314585
 20
5.0408525855
 30
0.0
 10
6.8485314557
 20
5.0408315952
 30
0.0
 10
6.8485368631
 20
5.0407906557
 30
0.0
 10
6.8485698425
 20
5.0407370664
 30
0.0
 10
6.8486250877
 20
5.0407001336
 30
0.0
 10
6.848699008
 20
5.0406786705
 30
0.0
 10
6.8487917601
 20
5.0406708334
 30
0.0
 10
6.8489038157
 20
5.0406762056
 30
0.0
 10
6.8490353062
 20
5.0406947329
 30
0.0
 10
6.8491860428
 20
5.0407264402
 30
0.0
 10
6.8493556811
 20
5.0407711831
 30
0.0
 10
6.8496196402
 20
5.0408521385
 30
0.0
 10
6.8499922853
 20
5.0409866819
 30
0.0
 10
6.8504858774
 20
5.0411885368
 30
0.0
 10
6.8508341529
 20
5.0413436991
 30
0.0
 10
6.851018462
 20
5.0414282928
 30
0.0
  0
SPLINE
  5
489
100
AcDbEntity
  8
0
100
AcDbSpline
 62
7
  6
CONTINUOUS
 70
0
 71
3
 72
21
 73
17
 74
0
 42
0.0000001
 43
0.0000001
 44
0.0000000001
 40
0.0
 40
0.0
 40
0.0
 40
0.0
 40
0.0361597365
 40
0.0587910217
 40
0.0852994965
 40
0.1165487311
 40
0.1537001107
 40
0.1983804876
 40
0.2529114692
 40
0.320523865
 40
0.4049009541
 40
0.5069164222
 40
0.6192010216
 40
0.7301435288
 40
0.8321501977
 40
1.0
 40
1.0
 40
1.0
 40
1.0
 10
6.8561928837
 20
5.0451964977
 30
0.0
 10
6.8561928957
 20
5.0451125594
 30
0.0
 10
6.856166942
 20
5.044976165
 30
0.0
 10
6.8560999219
 20
5.0447899001
 30
0.0
 10
6.8560196157
 20
5.0446210429
 30
0.0
 10
6.8559082564
 20
5.0444307165
 30
0.0
 10
6.8557586655
 20
5.0442147185
 30
0.0
 10
6.8555605744
 20
5.043967523
 30
0.0
 10
6.8552990441
 20
5.0436815739
 30
0.0
 10
6.8549539348
 20
5.0433483983
 30
0.0
 10
6.8545058207
 20
5.0429646696
 30
0.0
 10
6.8539545031
 20
5.0425437021
 30
0.0
 10
6.8533326
 20
5.0421152022
 30
0.0
 10
6.8526941693
 20
5.0417118411
 30
0.0
 10
6.8519298548
 20
5.0412675965
 30
0.0
 10
6.8513724256
 20
5.0409801054
 30
0.0
 10
6.851018462
 20
5.0408172444
 30
0.0
  0
SPLINE
  5
48A
100
AcDbEntity
  8
0
100
AcDbSpline
 62
7
  6
CONTINUOUS
 70
0
 71
3
 72
17
 73
13
 74
0
 42
0.0000001
 43
0.0000001
 44
0.0000000001
 40
0.0
 40
0.0
 40
0.0
 40
0.0
 40
0.0440269001
 40
0.0731761228
 40
0.1082202654
 40
0.1498374209
 40
0.1984360915
 40
0.3159566723
 40
0.4586645469
 40
0.6228600804
 40
0.8044602509
 40
1.0
 40
1.0
 40
1.0
 40
1.0
 10
6.8558273123
 20
5.0464515343
 30
0.0
 10
6.8558272912
 20
5.0464912853
 30
0.0
 10
6.855845277
 20
5.0465570752
 30
0.0
 10
6.855889311
 20
5.0466441258
 30
0.0
 10
6.8559411998
 20
5.0467246254
 30
0.0
 10
6.8560098974
 20
5.0468145306
 30
0.0
 10
6.8561325377
 20
5.0469565647
 30
0.0
 10
6.8563286041
 20
5.0471551628
 30
0.0
 10
6.8566111179
 20
5.047414171
 30
0.0
 10
6.8569458653
 20
5.0477014559
 30
0.0
 10
6.8573239005
 20
5.0480112984
 30
0.0
 10
6.8575908842
 20
5.0482226711
 30
0.0
 10
6.8577299891
 20
5.0483313879
 30
0.0
  0
LINE
  5
48B
100
AcDbEntity
  8
0
100
AcDbLine
 62
7
  6
CONTINUOUS
 10
6.8745840532
 20
5.0563332747
 11
6.8736609367
 21
5.0564259339
  0
LINE
  5
48C
100
AcDbEntity
  8
0
100
AcDbLine
 62
7
  6
CONTINUOUS
 10
6.8736609367
 20
5.0564259339
 11
6.8712262253
 21
5.0556309985
  0
LINE
  5
48D
100
AcDbEntity
  8
0
100
AcDbLine
 62
7
  6
CONTINUOUS
 10
7.1869389063
 20
5.0467905734
 11
7.1875661158
 21
5.0462357346
  0
SPLINE
  5
48E
100
AcDbEntity
  8
0
100
AcDbSpline
 62
7
  6
CONTINUOUS
 70
0
 71
3
 72
30
 73
26
 74
0
 42
0.0000001
 43
0.0000001
 44
0.0000000001
 40
0.0
 40
0.0
 40
0.0
 40
0.0
 40
0.0523670037
 40
0.1140052691
 40
0.2566001133
 40
0.334089178
 40
0.4137843666
 40
0.4944098403
 40
0.5747213493
 40
0.6534113159
 40
0.7290180711
 40
0.7998253008
 40
0.8327985246
 40
0.8637679882
 40
0.8924100852
 40
0.9183842993
 40
0.941335459
 40
0.9609091991
 40
0.976774712
 40
0.9832250949
 40
0.9886508887
 40
0.9930299043
 40
0.9963531768
 40
0.9986425771
 40
1.0
 40
1.0
 40
1.0
 40
1.0
 10
7.1875661158
 20
5.0462357346
 30
0.0
 10
7.1877168759
 20
5.0461192809
 30
0.0
 10
7.1880482171
 20
5.0458698135
 30
0.0
 10
7.188801347
 20
5.0453183133
 30
0.0
 10
7.1896367486
 20
5.0447245893
 30
0.0
 10
7.1905307091
 20
5.044100019
 30
0.0
 10
7.1912424677
 20
5.043608283
 30
0.0
 10
7.1919650589
 20
5.0431141843
 30
0.0
 10
7.1926870064
 20
5.0426256399
 30
0.0
 10
7.1933962873
 20
5.0421509721
 30
0.0
 10
7.1940794926
 20
5.0416995298
 30
0.0
 10
7.1946264837
 20
5.0413436361
 30
0.0
 10
7.1950392854
 20
5.0410792815
 30
0.0
 10
7.1953239454
 20
5.0408992641
 30
0.0
 10
7.1955882307
 20
5.040734676
 30
0.0
 10
7.1958290525
 20
5.0405876094
 30
0.0
 10
7.1960431899
 20
5.0404601607
 30
0.0
 10
7.196227429
 20
5.0403544427
 30
0.0
 10
7.1963613272
 20
5.0402816126
 30
0.0
 10
7.1964514496
 20
5.040236208
 30
0.0
 10
7.1965050304
 20
5.0402110965
 30
0.0
 10
7.1965489883
 20
5.0401925939
 30
0.0
 10
7.1965836051
 20
5.040180711
 30
0.0
 10
7.1966079739
 20
5.0401752325
 30
0.0
 10
7.1966222357
 20
5.0401756345
 30
0.0
 10
7.1966264405
 20
5.0401782236
 30
0.0
  0
SPLINE
  5
48F
100
AcDbEntity
  8
0
100
AcDbSpline
 62
7
  6
CONTINUOUS
 70
0
 71
3
 72
18
 73
14
 74
0
 42
0.0000001
 43
0.0000001
 44
0.0000000001
 40
0.0
 40
0.0
 40
0.0
 40
0.0
 40
0.0624683065
 40
0.1249452364
 40
0.1874446361
 40
0.2499574269
 40
0.3436850706
 40
0.4374383167
 40
0.5312012195
 40
0.624968413
 40
0.7187364028
 40
0.8125020966
 40
1.0
 40
1.0
 40
1.0
 40
1.0
 10
6.950649211
 20
6.3836048137
 30
0.0
 10
6.950649211
 20
6.3840313627
 30
0.0
 10
6.950739543
 20
6.3848870302
 30
0.0
 10
6.9511268924
 20
6.3861145012
 30
0.0
 10
6.9517212797
 20
6.3872547062
 30
0.0
 10
6.9525995676
 20
6.3884679208
 30
0.0
 10
6.9538000953
 20
6.3896919494
 30
0.0
 10
6.9553181547
 20
6.3908746155
 30
0.0
 10
6.9569478491
 20
6.3918960057
 30
0.0
 10
6.9586536684
 20
6.392782462
 30
0.0
 10
6.9604133061
 20
6.3935554735
 30
0.0
 10
6.9628109759
 20
6.3944573696
 30
0.0
 10
6.9646530765
 20
6.395010039
 30
0.0
 10
6.9658909856
 20
6.395336694
 30
0.0
  0
SPLINE
  5
490
100
AcDbEntity
  8
0
100
AcDbSpline
 62
7
  6
CONTINUOUS
 70
0
 71
3
 72
14
 73
10
 74
0
 42
0.0000001
 43
0.0000001
 44
0.0000000001
 40
0.0
 40
0.0
 40
0.0
 40
0.0
 40
0.2499887426
 40
0.3749891793
 40
0.4999909801
 40
0.624993562
 40
0.749994822
 40
0.8749986533
 40
1.0
 40
1.0
 40
1.0
 40
1.0
 10
6.9658909856
 20
6.395336694
 30
0.0
 10
6.9703732105
 20
6.3965194475
 30
0.0
 10
6.9771241752
 20
6.3981957773
 30
0.0
 10
6.9861984728
 20
6.4001028833
 30
0.0
 10
6.9930435057
 20
6.4013350048
 30
0.0
 10
6.9999265071
 20
6.4023357295
 30
0.0
 10
7.0068428609
 20
6.403075297
 30
0.0
 10
7.0137838973
 20
6.4035295949
 30
0.0
 10
7.0184204857
 20
6.4036317924
 30
0.0
 10
7.0207384398
 20
6.4036317924
 30
0.0
  0
SPLINE
  5
491
100
AcDbEntity
  8
0
100
AcDbSpline
 62
7
  6
CONTINUOUS
 70
0
 71
3
 72
15
 73
11
 74
0
 42
0.0000001
 43
0.0000001
 44
0.0000000001
 40
0.0
 40
0.0
 40
0.0
 40
0.0
 40
0.1062670813
 40
0.2061057995
 40
0.3056194448
 40
0.411718159
 40
0.5305965884
 40
0.6667602329
 40
0.8229065474
 40
1.0
 40
1.0
 40
1.0
 40
1.0
 10
7.1662712685
 20
5.0405583539
 30
0.0
 10
7.1662712745
 20
5.0404858597
 30
0.0
 10
7.1662577018
 20
5.0403445182
 30
0.0
 10
7.1661857703
 20
5.0401461482
 30
0.0
 10
7.1660605425
 20
5.0399759838
 30
0.0
 10
7.1658833136
 20
5.0398392425
 30
0.0
 10
7.1656569018
 20
5.0397376764
 30
0.0
 10
7.1653830597
 20
5.0396715258
 30
0.0
 10
7.1650635013
 20
5.0396409878
 30
0.0
 10
7.1648357799
 20
5.0396442399
 30
0.0
 10
7.1647151521
 20
5.0396508936
 30
0.0
  0
SPLINE
  5
492
100
AcDbEntity
  8
0
100
AcDbSpline
 62
7
  6
CONTINUOUS
 70
0
 71
3
 72
14
 73
10
 74
0
 42
0.0000001
 43
0.0000001
 44
0.0000000001
 40
0.0
 40
0.0
 40
0.0
 40
0.0
 40
0.3004616867
 40
0.4437102892
 40
0.5787905007
 40
0.7034710769
 40
0.815961362
 40
0.9150093793
 40
1.0
 40
1.0
 40
1.0
 40
1.0
 10
7.0416051902
 20
5.0792846911
 30
0.0
 10
7.042279174
 20
5.0792356619
 30
0.0
 10
7.0432784168
 20
5.0792049339
 30
0.0
 10
7.0445795268
 20
5.0792564705
 30
0.0
 10
7.0454826707
 20
5.0793386406
 30
0.0
 10
7.0463111903
 20
5.0794626193
 30
0.0
 10
7.0470504428
 20
5.0796253004
 30
0.0
 10
7.0476883156
 20
5.0798227482
 30
0.0
 10
7.0480695671
 20
5.079987443
 30
0.0
 10
7.0482384398
 20
5.0800770024
 30
0.0
  0
SPLINE
  5
493
100
AcDbEntity
  8
0
100
AcDbSpline
 62
7
  6
CONTINUOUS
 70
0
 71
3
 72
18
 73
14
 74
0
 42
0.0000001
 43
0.0000001
 44
0.0000000001
 40
0.0
 40
0.0
 40
0.0
 40
0.0
 40
0.1642084582
 40
0.32427642
 40
0.4761953563
 40
0.6162009311
 40
0.7409565439
 40
0.7967303337
 40
0.8477053824
 40
0.8936504405
 40
0.9343935061
 40
0.9698453329
 40
1.0
 40
1.0
 40
1.0
 40
1.0
 10
7.0363141998
 20
5.0888933617
 30
0.0
 10
7.0369724186
 20
5.0888587789
 30
0.0
 10
7.03827331
 20
5.0888089209
 30
0.0
 10
7.0401849334
 20
5.0887915202
 30
0.0
 10
7.0419991127
 20
5.0888321189
 30
0.0
 10
7.0436691959
 20
5.0889293692
 30
0.0
 10
7.0449498639
 20
5.0890590565
 30
0.0
 10
7.0458695817
 20
5.0891927671
 30
0.0
 10
7.0464729681
 20
5.0893011635
 30
0.0
 10
7.0470126611
 20
5.0894205778
 30
0.0
 10
7.0474857677
 20
5.089550196
 30
0.0
 10
7.0478897409
 20
5.0896890948
 30
0.0
 10
7.0481311524
 20
5.0897957306
 30
0.0
 10
7.0482384398
 20
5.0898517666
 30
0.0
  0
LINE
  5
494
100
AcDbEntity
  8
0
100
AcDbLine
 62
7
  6
CONTINUOUS
 10
7.1573437936
 20
5.0398449075
 11
7.1572378035
 21
5.0397649742
  0
SPLINE
  5
495
100
AcDbEntity
  8
0
100
AcDbSpline
 62
7
  6
CONTINUOUS
 70
0
 71
3
 72
21
 73
17
 74
0
 42
0.0000001
 43
0.0000001
 44
0.0000000001
 40
0.0
 40
0.0
 40
0.0
 40
0.0
 40
0.0625028812
 40
0.1250110668
 40
0.1875209951
 40
0.2500288744
 40
0.3437862087
 40
0.4375426942
 40
0.531296169
 40
0.6250431221
 40
0.7187729836
 40
0.8124575843
 40
0.8593493863
 40
0.9062345543
 40
0.9531202831
 40
1.0
 40
1.0
 40
1.0
 40
1.0
 10
7.075585894
 20
6.395336694
 30
0.0
 10
7.0759985981
 20
6.3952277911
 30
0.0
 10
7.0768216321
 20
6.3950006883
 30
0.0
 10
7.0780473035
 20
6.39462926
 30
0.0
 10
7.0792624212
 20
6.3942243715
 30
0.0
 10
7.0806649204
 20
6.3937088909
 30
0.0
 10
7.0822418135
 20
6.3930518429
 30
0.0
 10
7.0839675656
 20
6.3922052806
 30
0.0
 10
7.085625707
 20
6.3912316247
 30
0.0
 10
7.0871861695
 20
6.3901057811
 30
0.0
 10
7.0885999762
 20
6.3887984027
 30
0.0
 10
7.0895910202
 20
6.3875283462
 30
0.0
 10
7.0902046763
 20
6.386401718
 30
0.0
 10
7.0905558149
 20
6.3855044442
 30
0.0
 10
7.0907771221
 20
6.384566371
 30
0.0
 10
7.0908276686
 20
6.3839249542
 30
0.0
 10
7.0908276686
 20
6.3836048137
 30
0.0
  0
SPLINE
  5
496
100
AcDbEntity
  8
0
100
AcDbSpline
 62
7
  6
CONTINUOUS
 70
0
 71
3
 72
16
 73
12
 74
0
 42
0.0000001
 43
0.0000001
 44
0.0000000001
 40
0.0
 40
0.0
 40
0.0
 40
0.0
 40
0.0734968583
 40
0.115726107
 40
0.1618924197
 40
0.2661828189
 40
0.3861378299
 40
0.5207720605
 40
0.6688347208
 40
0.8290569252
 40
1.0
 40
1.0
 40
1.0
 40
1.0
 10
7.1460306374
 20
5.0543768363
 30
0.0
 10
7.1460306246
 20
5.0542781995
 30
0.0
 10
7.146059756
 20
5.054122809
 30
0.0
 10
7.1461337386
 20
5.0539185706
 30
0.0
 10
7.1462441339
 20
5.0536842607
 30
0.0
 10
7.1464364638
 20
5.0533752693
 30
0.0
 10
7.1467320133
 20
5.0529942831
 30
0.0
 10
7.147095476
 20
5.0525938175
 30
0.0
 10
7.1475210001
 20
5.0521783612
 30
0.0
 10
7.1480030131
 20
5.0517522379
 30
0.0
 10
7.1483481597
 20
5.0514720236
 30
0.0
 10
7.1485288383
 20
5.0513306503
 30
0.0
  0
SPLINE
  5
497
100
AcDbEntity
  8
0
100
AcDbSpline
 62
7
  6
CONTINUOUS
 70
0
 71
3
 72
14
 73
10
 74
0
 42
0.0000001
 43
0.0000001
 44
0.0000000001
 40
0.0
 40
0.0
 40
0.0
 40
0.0
 40
0.1250013675
 40
0.2500052406
 40
0.3750065135
 40
0.5000091035
 40
0.6250108874
 40
0.7500113054
 40
1.0
 40
1.0
 40
1.0
 40
1.0
 10
7.0207384398
 20
6.4036317924
 30
0.0
 10
7.0230563943
 20
6.4036317924
 30
0.0
 10
7.0276929838
 20
6.4035295944
 30
0.0
 10
7.0346340216
 20
6.4030752962
 30
0.0
 10
7.0415503766
 20
6.4023357292
 30
0.0
 10
7.0484333781
 20
6.4013350046
 30
0.0
 10
7.0552784103
 20
6.4001028821
 30
0.0
 10
7.0643527066
 20
6.3981957774
 30
0.0
 10
7.0711036699
 20
6.3965194473
 30
0.0
 10
7.075585894
 20
6.395336694
 30
0.0
  0
SPLINE
  5
498
100
AcDbEntity
  8
0
100
AcDbSpline
 62
7
  6
CONTINUOUS
 70
0
 71
3
 72
29
 73
25
 74
0
 42
0.0000001
 43
0.0000001
 44
0.0000000001
 40
0.0
 40
0.0
 40
0.0
 40
0.0
 40
0.0126570618
 40
0.0277287218
 40
0.0453894832
 40
0.0656143454
 40
0.0882874102
 40
0.1132467152
 40
0.1693149805
 40
0.2324320676
 40
0.3012837906
 40
0.3746589221
 40
0.4514034062
 40
0.5303498631
 40
0.6102277422
 40
0.6895529759
 40
0.7665023393
 40
0.8387960688
 40
0.8723566083
 40
0.9036929125
 40
0.9324293937
 40
0.9582193353
 40
0.980796222
 40
1.0
 40
1.0
 40
1.0
 40
1.0
 10
7.1667825957
 20
5.0477090044
 30
0.0
 10
7.1667825997
 20
5.0476513972
 30
0.0
 10
7.1668025973
 20
5.0475252384
 30
0.0
 10
7.1668739342
 20
5.0473306635
 30
0.0
 10
7.1669859296
 20
5.0471166366
 30
0.0
 10
7.1671362081
 20
5.0468852549
 30
0.0
 10
7.1673222249
 20
5.0466384652
 30
0.0
 10
7.1676266126
 20
5.0462775195
 30
0.0
 10
7.1680827091
 20
5.0458049881
 30
0.0
 10
7.1687133062
 20
5.0452258807
 30
0.0
 10
7.1694311771
 20
5.0446269538
 30
0.0
 10
7.1702214529
 20
5.0440193566
 30
0.0
 10
7.1710703134
 20
5.043413699
 30
0.0
 10
7.1719638627
 20
5.0428207873
 30
0.0
 10
7.172887069
 20
5.0422524372
 30
0.0
 10
7.173822322
 20
5.041722229
 30
0.0
 10
7.174747723
 20
5.041246315
 30
0.0
 10
7.1755057484
 20
5.0409020988
 30
0.0
 10
7.1760864557
 20
5.040672283
 30
0.0
 10
7.1764886155
 20
5.0405308867
 30
0.0
 10
7.1768631177
 20
5.0404186377
 30
0.0
 10
7.1772049034
 20
5.0403378147
 30
0.0
 10
7.17750905
 20
5.0402901677
 30
0.0
 10
7.1776995851
 20
5.0402802962
 30
0.0
 10
7.177786951
 20
5.040282873
 30
0.0
  0
SPLINE
  5
499
100
AcDbEntity
  8
0
100
AcDbSpline
 62
7
  6
CONTINUOUS
 70
0
 71
3
 72
11
 73
7
 74
0
 42
0.0000001
 43
0.0000001
 44
0.0000000001
 40
0.0
 40
0.0
 40
0.0
 40
0.0
 40
0.2193710837
 40
0.4273670641
 40
0.6767086807
 40
1.0
 40
1.0
 40
1.0
 40
1.0
 10
7.180447857
 20
5.0397080095
 30
0.0
 10
7.1804478535
 20
5.0397029846
 30
0.0
 10
7.1804461923
 20
5.0396928652
 30
0.0
 10
7.1804352346
 20
5.0396808076
 30
0.0
 10
7.1804178357
 20
5.0396749432
 30
0.0
 10
7.1804046593
 20
5.0396742797
 30
0.0
 10
7.1803972563
 20
5.0396744676
 30
0.0
  0
SPLINE
  5
49A
100
AcDbEntity
  8
0
100
AcDbSpline
 62
7
  6
CONTINUOUS
 70
0
 71
3
 72
15
 73
11
 74
0
 42
0.0000001
 43
0.0000001
 44
0.0000000001
 40
0.0
 40
0.0
 40
0.0
 40
0.0
 40
0.099753121
 40
0.1925011404
 40
0.2863833342
 40
0.389919198
 40
0.5097764258
 40
0.6502029806
 40
0.8134357557
 40
1.0
 40
1.0
 40
1.0
 40
1.0
 10
7.1621334235
 20
5.049403062
 30
0.0
 10
7.1621334234
 20
5.0494667698
 30
0.0
 10
7.1621466848
 20
5.0495906447
 30
0.0
 10
7.1622199232
 20
5.0497616069
 30
0.0
 10
7.1623468376
 20
5.049901086
 30
0.0
 10
7.1625235253
 20
5.0500050581
 30
0.0
 10
7.1627467821
 20
5.0500745477
 30
0.0
 10
7.1630157944
 20
5.0501105307
 30
0.0
 10
7.1633294421
 20
5.0501132122
 30
0.0
 10
7.163552325
 20
5.0500942469
 30
0.0
 10
7.16367063
 20
5.0500800812
 30
0.0
  0
SPLINE
  5
49B
100
AcDbEntity
  8
0
100
AcDbSpline
 62
7
  6
CONTINUOUS
 70
0
 71
3
 72
11
 73
7
 74
0
 42
0.0000001
 43
0.0000001
 44
0.0000000001
 40
0.0
 40
0.0
 40
0.0
 40
0.0
 40
0.2468524401
 40
0.500004048
 40
0.7531579682
 40
1.0
 40
1.0
 40
1.0
 40
1.0
 10
7.0094884398
 20
5.0567984543
 30
0.0
 10
7.0115307027
 20
5.056506694
 30
0.0
 10
7.0156900205
 20
5.0560658834
 30
0.0
 10
7.0219842556
 20
5.0558262602
 30
0.0
 10
7.0282804169
 20
5.0560056326
 30
0.0
 10
7.0324436597
 20
5.056407313
 30
0.0
 10
7.0344884398
 20
5.056680218
 30
0.0
  0
SPLINE
  5
49C
100
AcDbEntity
  8
0
100
AcDbSpline
 62
7
  6
CONTINUOUS
 70
0
 71
3
 72
11
 73
7
 74
0
 42
0.0000001
 43
0.0000001
 44
0.0000000001
 40
0.0
 40
0.0
 40
0.0
 40
0.0
 40
0.2035575077
 40
0.406723577
 40
0.6630479192
 40
1.0
 40
1.0
 40
1.0
 40
1.0
 10
7.1672361584
 20
5.0495522985
 30
0.0
 10
7.1672361555
 20
5.0495478405
 30
0.0
 10
7.167234302
 20
5.0495385746
 30
0.0
 10
7.1672230704
 20
5.0495282063
 30
0.0
 10
7.167205974
 20
5.0495233191
 30
0.0
 10
7.1671929349
 20
5.0495227543
 30
0.0
 10
7.1671855578
 20
5.0495229344
 30
0.0
  0
LINE
  5
49D
100
AcDbEntity
  8
0
100
AcDbLine
 62
7
  6
CONTINUOUS
 10
7.1966264405
 20
5.0395640843
 11
7.1969602997
 21
5.0396516246
  0
SPLINE
  5
49E
100
AcDbEntity
  8
0
100
AcDbSpline
 62
7
  6
CONTINUOUS
 70
0
 71
3
 72
23
 73
19
 74
0
 42
0.0000001
 43
0.0000001
 44
0.0000000001
 40
0.0
 40
0.0
 40
0.0
 40
0.0
 40
0.1737260038
 40
0.341857256
 40
0.501717732
 40
0.5773834896
 40
0.6493545136
 40
0.7168415779
 40
0.778907831
 40
0.8344818856
 40
0.8827752993
 40
0.9234515637
 40
0.9408920305
 40
0.9563956621
 40
0.9699806863
 40
0.9816948148
 40
0.9916369845
 40
1.0
 40
1.0
 40
1.0
 40
1.0
 10
7.1832675047
 20
5.0478983654
 30
0.0
 10
7.1839897302
 20
5.0474168949
 30
0.0
 10
7.1854023533
 20
5.0464565074
 30
0.0
 10
7.1874469489
 20
5.0450058719
 30
0.0
 10
7.189064893
 20
5.0438013575
 30
0.0
 10
7.1902769235
 20
5.0428571164
 30
0.0
 10
7.1911136387
 20
5.0421823462
 30
0.0
 10
7.191884645
 20
5.0415346232
 30
0.0
 10
7.1925779704
 20
5.0409221923
 30
0.0
 10
7.1931813761
 20
5.0403533307
 30
0.0
 10
7.1936849841
 20
5.0398353631
 30
0.0
 10
7.1940334344
 20
5.0394331082
 30
0.0
 10
7.1942553815
 20
5.0391396109
 30
0.0
 10
7.1943855364
 20
5.0389468126
 30
0.0
 10
7.1944879173
 20
5.0387702947
 30
0.0
 10
7.1945622887
 20
5.0386103119
 30
0.0
 10
7.1946084539
 20
5.0384671563
 30
0.0
 10
7.1946209585
 20
5.0383756876
 30
0.0
 10
7.194620952
 20
5.0383339029
 30
0.0
  0
SPLINE
  5
49F
100
AcDbEntity
  8
0
100
AcDbSpline
 62
7
  6
CONTINUOUS
 70
0
 71
3
 72
22
 73
18
 74
0
 42
0.0000001
 43
0.0000001
 44
0.0000000001
 40
0.0
 40
0.0
 40
0.0
 40
0.0
 40
0.0407890066
 40
0.0824034975
 40
0.1256023878
 40
0.1710748
 40
0.2193910409
 40
0.2710056073
 40
0.326265234
 40
0.3854150039
 40
0.4486106679
 40
0.515923525
 40
0.5873418555
 40
0.6627766944
 40
0.7420591801
 40
0.824930912
 40
1.0
 40
1.0
 40
1.0
 40
1.0
 10
6.9957384398
 20
5.0662854788
 30
0.0
 10
6.9957384398
 20
5.0660463314
 30
0.0
 10
6.995777273
 20
5.0655623511
 30
0.0
 10
6.9959509815
 20
5.0648438945
 30
0.0
 10
6.996239511
 20
5.0641337622
 30
0.0
 10
6.996641525
 20
5.0634358616
 30
0.0
 10
6.9971557124
 20
5.0627534721
 30
0.0
 10
6.9977807389
 20
5.0620900075
 30
0.0
 10
6.9985150797
 20
5.0614489731
 30
0.0
 10
6.9993568926
 20
5.060834081
 30
0.0
 10
7.000303854
 20
5.0602492912
 30
0.0
 10
7.0013529631
 20
5.0596987745
 30
0.0
 10
7.0025003779
 20
5.0591868396
 30
0.0
 10
7.0037412624
 20
5.0587179252
 30
0.0
 10
7.0050696738
 20
5.0582964763
 30
0.0
 10
7.0069826711
 20
5.0577945379
 30
0.0
 10
7.0084722764
 20
5.0575175018
 30
0.0
 10
7.0094884398
 20
5.057372646
 30
0.0
  0
SPLINE
  5
4A0
100
AcDbEntity
  8
0
100
AcDbSpline
 62
7
  6
CONTINUOUS
 70
0
 71
3
 72
11
 73
7
 74
0
 42
0.0000001
 43
0.0000001
 44
0.0000000001
 40
0.0
 40
0.0
 40
0.0
 40
0.0
 40
0.2468418949
 40
0.4999959701
 40
0.7531477424
 40
1.0
 40
1.0
 40
1.0
 40
1.0
 10
7.0344884398
 20
5.057254666
 30
0.0
 10
7.0324436086
 20
5.0569823463
 30
0.0
 10
7.02828035
 20
5.0565815445
 30
0.0
 10
7.0219842737
 20
5.0564025688
 30
0.0
 10
7.015690115
 20
5.0566416608
 30
0.0
 10
7.0115307643
 20
5.0570815092
 30
0.0
 10
7.0094884398
 20
5.057372646
 30
0.0
  0
SPLINE
  5
4A1
100
AcDbEntity
  8
0
100
AcDbSpline
 62
7
  6
CONTINUOUS
 70
0
 71
3
 72
22
 73
18
 74
0
 42
0.0000001
 43
0.0000001
 44
0.0000000001
 40
0.0
 40
0.0
 40
0.0
 40
0.0
 40
0.1752960154
 40
0.258250444
 40
0.3375892694
 40
0.4130515065
 40
0.48446768
 40
0.5517503349
 40
0.6148913814
 40
0.6739678114
 40
0.7291431935
 40
0.7806721805
 40
0.8289124829
 40
0.8743303936
 40
0.9175076672
 40
0.9591428485
 40
1.0
 40
1.0
 40
1.0
 40
1.0
 10
7.0344884398
 20
5.057254666
 30
0.0
 10
7.0355043296
 20
5.0573899569
 30
0.0
 10
7.0369939775
 20
5.0576530354
 30
0.0
 10
7.0389079157
 20
5.0581375135
 30
0.0
 10
7.0402369692
 20
5.058546989
 30
0.0
 10
7.0414784758
 20
5.0590049027
 30
0.0
 10
7.0426264052
 20
5.059506836
 30
0.0
 10
7.0436758616
 20
5.0600483568
 30
0.0
 10
7.0446229705
 20
5.0606251505
 30
0.0
 10
7.045464725
 20
5.0612330312
 30
0.0
 10
7.0461988182
 20
5.0618680184
 30
0.0
 10
7.0468234412
 20
5.0625263794
 30
0.0
 10
7.0473371142
 20
5.0632045854
 30
0.0
 10
7.0477385602
 20
5.0638991938
 30
0.0
 10
7.0480265342
 20
5.0646068906
 30
0.0
 10
7.0481997872
 20
5.0653237278
 30
0.0
 10
7.0482384398
 20
5.0658068638
 30
0.0
 10
7.0482384398
 20
5.066045733
 30
0.0
  0
SPLINE
  5
4A2
100
AcDbEntity
  8
0
100
AcDbSpline
 62
7
  6
CONTINUOUS
 70
0
 71
3
 72
11
 73
7
 74
0
 42
0.0000001
 43
0.0000001
 44
0.0000000001
 40
0.0
 40
0.0
 40
0.0
 40
0.0
 40
0.3235723556
 40
0.5730714856
 40
0.7809610661
 40
1.0
 40
1.0
 40
1.0
 40
1.0
 10
7.1803972563
 20
5.0402883334
 30
0.0
 10
7.1804046591
 20
5.040288146
 30
0.0
 10
7.1804178337
 20
5.0402888093
 30
0.0
 10
7.1804352263
 20
5.0402946548
 30
0.0
 10
7.1804461933
 20
5.0403066762
 30
0.0
 10
7.180447856
 20
5.0403167787
 30
0.0
 10
7.1804478582
 20
5.0403217915
 30
0.0
  0
SPLINE
  5
4A3
100
AcDbEntity
  8
0
100
AcDbSpline
 62
7
  6
CONTINUOUS
 70
0
 71
3
 72
47
 73
43
 74
0
 42
0.0000001
 43
0.0000001
 44
0.0000000001
 40
0.0
 40
0.0
 40
0.0
 40
0.0
 40
0.0624975236
 40
0.0937475763
 40
0.1249975101
 40
0.1874950692
 40
0.2499926371
 40
0.3124896917
 40
0.3749854658
 40
0.4062361226
 40
0.4374864301
 40
0.4687370514
 40
0.4999877252
 40
0.5312378978
 40
0.5624872521
 40
0.5937349931
 40
0.609362283
 40
0.6249900863
 40
0.6406172845
 40
0.6562445294
 40
0.6718713744
 40
0.6874970603
 40
0.7031211168
 40
0.7187431776
 40
0.7343630508
 40
0.7499814666
 40
0.7577967667
 40
0.7656119681
 40
0.7734273606
 40
0.7812425762
 40
0.7968637403
 40
0.8124870196
 40
0.8203024463
 40
0.8281176087
 40
0.8437438023
 40
0.8593709965
 40
0.874998565
 40
0.8906257517
 40
0.9062535645
 40
0.9375005214
 40
0.9687502097
 40
1.0
 40
1.0
 40
1.0
 40
1.0
 10
7.0206060327
 20
3.7705869605
 30
0.0
 10
7.0243214668
 20
3.7705869605
 30
0.0
 10
7.0298949765
 20
3.7706478762
 30
0.0
 10
7.037323175
 20
3.7708570178
 30
0.0
 10
7.0447484232
 20
3.771153535
 30
0.0
 10
7.0540222083
 20
3.7716990982
 30
0.0
 10
7.0651276532
 20
3.7726736108
 30
0.0
 10
7.0761932178
 20
3.7740325637
 30
0.0
 10
7.0853594657
 20
3.7755605131
 30
0.0
 10
7.0926336599
 20
3.7770836873
 30
0.0
 10
7.0980509407
 20
3.7783984622
 30
0.0
 10
7.1034170841
 20
3.7799097306
 30
0.0
 10
7.1087145354
 20
3.7816481791
 30
0.0
 10
7.1139185759
 20
3.7836512928
 30
0.0
 10
7.1189927928
 20
3.7859654851
 30
0.0
 10
7.1230697681
 20
3.7882027572
 30
0.0
 10
7.1261956974
 20
3.7902141395
 30
0.0
 10
7.1284577723
 20
3.7918449142
 30
0.0
 10
7.1306175922
 20
3.7936095457
 30
0.0
 10
7.1326504824
 20
3.7955198778
 30
0.0
 10
7.1345242861
 20
3.7975875609
 30
0.0
 10
7.1361981639
 20
3.7998214675
 30
0.0
 10
7.1376215705
 20
3.8022242602
 30
0.0
 10
7.1387353507
 20
3.8047871644
 30
0.0
 10
7.1394778075
 20
3.8074825994
 30
0.0
 10
7.1397436025
 20
3.8097997771
 30
0.0
 10
7.1397319747
 20
3.8116591353
 30
0.0
 10
7.1396119437
 20
3.8130493282
 30
0.0
 10
7.1393828286
 20
3.8144256619
 30
0.0
 10
7.1389380129
 20
3.816231109
 30
0.0
 10
7.1381346875
 20
3.818418652
 30
0.0
 10
7.1370512015
 20
3.8204793061
 30
0.0
 10
7.1360475474
 20
3.8220438273
 30
0.0
 10
7.1349614124
 20
3.8235525067
 30
0.0
 10
7.1334655224
 20
3.8253340159
 30
0.0
 10
7.1314957087
 20
3.8273096098
 30
0.0
 10
7.1293861244
 20
3.8291343894
 30
0.0
 10
7.127164771
 20
3.8308205193
 30
0.0
 10
7.1240827639
 20
3.8328987732
 30
0.0
 10
7.1200459252
 20
3.8352089954
 30
0.0
 10
7.1150053731
 20
3.8375959982
 30
0.0
 10
7.1115516502
 20
3.8389725625
 30
0.0
 10
7.1098085335
 20
3.839615123
 30
0.0
  0
SPLINE
  5
4A4
100
AcDbEntity
  8
0
100
AcDbSpline
 62
7
  6
CONTINUOUS
 70
0
 71
3
 72
53
 73
49
 74
0
 42
0.0000001
 43
0.0000001
 44
0.0000000001
 40
0.0
 40
0.0
 40
0.0
 40
0.0
 40
0.0154418463
 40
0.0314174047
 40
0.0480451097
 40
0.0654750041
 40
0.0838887237
 40
0.103500309
 40
0.1245410814
 40
0.147205516
 40
0.1715175391
 40
0.1971184943
 40
0.2231482943
 40
0.2485350472
 40
0.2725164592
 40
0.2948306878
 40
0.3155542654
 40
0.3348965367
 40
0.3530879454
 40
0.3703364183
 40
0.3868165143
 40
0.4026708938
 40
0.4180150833
 40
0.4329420777
 40
0.4475274151
 40
0.4618320904
 40
0.4759060064
 40
0.4897897197
 40
0.5171097627
 40
0.5439999052
 40
0.5705975641
 40
0.5969973278
 40
0.6232652021
 40
0.6494476802
 40
0.6755790325
 40
0.7016857974
 40
0.7277910277
 40
0.7539174496
 40
0.7800909709
 40
0.8063444598
 40
0.832722377
 40
0.8592875314
 40
0.8861297364
 40
0.9133793922
 40
0.9412274162
 40
0.9699560997
 40
0.9847808148
 40
1.0
 40
1.0
 40
1.0
 40
1.0
 10
7.2332460652
 20
3.839615123
 30
0.0
 10
7.2325736383
 20
3.8391197556
 30
0.0
 10
7.2312351229
 20
3.8380709409
 30
0.0
 10
7.2292942849
 20
3.8363402678
 30
0.0
 10
7.2274014789
 20
3.8344030338
 30
0.0
 10
7.2255726507
 20
3.8322292047
 30
0.0
 10
7.2238307363
 20
3.8297831896
 30
0.0
 10
7.222209265
 20
3.827025521
 30
0.0
 10
7.2207576453
 20
3.8239177415
 30
0.0
 10
7.2195470552
 20
3.8204364983
 30
0.0
 10
7.2186709429
 20
3.8166013517
 30
0.0
 10
7.2182277044
 20
3.8125079803
 30
0.0
 10
7.2182805442
 20
3.8083324234
 30
0.0
 10
7.2188213735
 20
3.8042807572
 30
0.0
 10
7.2197758179
 20
3.8005146076
 30
0.0
 10
7.2210438696
 20
3.7971117628
 30
0.0
 10
7.2225360887
 20
3.7940799277
 30
0.0
 10
7.2241862098
 20
3.7913907366
 30
0.0
 10
7.2259486173
 20
3.7890047515
 30
0.0
 10
7.2277924118
 20
3.7868831005
 30
0.0
 10
7.2296964826
 20
3.7849914894
 30
0.0
 10
7.2316458766
 20
3.7833005714
 30
0.0
 10
7.2336299606
 20
3.7817857317
 30
0.0
 10
7.2356412301
 20
3.7804267306
 30
0.0
 10
7.2376734759
 20
3.7792055323
 30
0.0
 10
7.2397227796
 20
3.7781081626
 30
0.0
 10
7.2417853285
 20
3.7771211261
 30
0.0
 10
7.2445349375
 20
3.7759452636
 30
0.0
 10
7.2480026195
 20
3.7746941218
 30
0.0
 10
7.252205964
 20
3.7734870183
 30
0.0
 10
7.256422481
 20
3.7725339183
 30
0.0
 10
7.260647507
 20
3.7717976518
 30
0.0
 10
7.2648781213
 20
3.7712498503
 30
0.0
 10
7.2691123634
 20
3.7708706789
 30
0.0
 10
7.2733486614
 20
3.7706442141
 30
0.0
 10
7.277586001
 20
3.7705638322
 30
0.0
 10
7.2818234018
 20
3.7706243186
 30
0.0
 10
7.2860599003
 20
3.7708302081
 30
0.0
 10
7.2902945216
 20
3.7711871143
 30
0.0
 10
7.2945257214
 20
3.7717105157
 30
0.0
 10
7.2987517156
 20
3.7724187647
 30
0.0
 10
7.3029696111
 20
3.7733396736
 30
0.0
 10
7.3071751876
 20
3.7745088211
 30
0.0
 10
7.3113622328
 20
3.7759725225
 30
0.0
 10
7.315520521
 20
3.7777914603
 30
0.0
 10
7.3189126051
 20
3.7796514145
 30
0.0
 10
7.3215744395
 20
3.7813913806
 30
0.0
 10
7.3228830624
 20
3.7823566547
 30
0.0
 10
7.3235305425
 20
3.7828649313
 30
0.0
  0
SPLINE
  5
4A5
100
AcDbEntity
  8
0
100
AcDbSpline
 62
7
  6
CONTINUOUS
 70
0
 71
3
 72
32
 73
28
 74
0
 42
0.0000001
 43
0.0000001
 44
0.0000000001
 40
0.0
 40
0.0
 40
0.0
 40
0.0
 40
0.1704014871
 40
0.2553213603
 40
0.3397200724
 40
0.4231652466
 40
0.5050002005
 40
0.5842814721
 40
0.6597990603
 40
0.7301294598
 40
0.793986658
 40
0.8506207598
 40
0.8760787677
 40
0.8995185875
 40
0.9208370981
 40
0.9399132645
 40
0.9566120119
 40
0.9707761648
 40
0.9822497516
 40
0.986933053
 40
0.9908954445
 40
0.9941298644
 40
0.9966494042
 40
0.997661213
 40
0.9985304738
 40
0.9992925786
 40
1.0
 40
1.0
 40
1.0
 40
1.0
 10
7.0207384398
 20
5.0942843183
 30
0.0
 10
7.022163456
 20
5.0942843183
 30
0.0
 10
7.0242986308
 20
5.0942757267
 30
0.0
 10
7.0271395388
 20
5.0942562795
 30
0.0
 10
7.0292532681
 20
5.0942406178
 30
0.0
 10
7.0313412131
 20
5.0942269923
 30
0.0
 10
7.0333863948
 20
5.0942189867
 30
0.0
 10
7.0353653021
 20
5.0942204669
 30
0.0
 10
7.0372479547
 20
5.0942349989
 30
0.0
 10
7.0390014265
 20
5.0942656796
 30
0.0
 10
7.0405965264
 20
5.0943140002
 30
0.0
 10
7.0418158787
 20
5.0943689728
 30
0.0
 10
7.042696895
 20
5.0944208908
 30
0.0
 10
7.0432826874
 20
5.0944616809
 30
0.0
 10
7.0438147265
 20
5.0945055919
 30
0.0
 10
7.0442898836
 20
5.0945526093
 30
0.0
 10
7.0447045627
 20
5.0946025882
 30
0.0
 10
7.0450546622
 20
5.094655595
 30
0.0
 10
7.0453036444
 20
5.0947046338
 30
0.0
 10
7.0454664312
 20
5.0947473601
 30
0.0
 10
7.0455610561
 20
5.094777948
 30
0.0
 10
7.0456361158
 20
5.0948092446
 30
0.0
 10
7.045685459
 20
5.0948377187
 30
0.0
 10
7.0457133647
 20
5.0948619019
 30
0.0
 10
7.0457274325
 20
5.0948791444
 30
0.0
 10
7.0457360603
 20
5.0948969418
 30
0.0
 10
7.0457379846
 20
5.094909312
 30
0.0
 10
7.0457379602
 20
5.0949152279
 30
0.0
  0
SPLINE
  5
4A6
100
AcDbEntity
  8
0
100
AcDbSpline
 62
7
  6
CONTINUOUS
 70
0
 71
3
 72
17
 73
13
 74
0
 42
0.0000001
 43
0.0000001
 44
0.0000000001
 40
0.0
 40
0.0
 40
0.0
 40
0.0
 40
0.0646464374
 40
0.0947909361
 40
0.1262114944
 40
0.16111182
 40
0.2012194317
 40
0.3013718802
 40
0.4322226604
 40
0.5936441723
 40
0.7836690255
 40
1.0
 40
1.0
 40
1.0
 40
1.0
 10
7.1902224853
 20
5.0405807723
 30
0.0
 10
7.1902224879
 20
5.0405578116
 30
0.0
 10
7.1902166502
 20
5.0405229658
 30
0.0
 10
7.190191181
 20
5.0404853724
 30
0.0
 10
7.1901644443
 20
5.0404632738
 30
0.0
 10
7.1901299786
 20
5.0404470128
 30
0.0
 10
7.1900693578
 20
5.0404317905
 30
0.0
 10
7.1899721066
 20
5.0404300751
 30
0.0
 10
7.1898339445
 20
5.0404497532
 30
0.0
 10
7.1896671703
 20
5.0404897533
 30
0.0
 10
7.1894743376
 20
5.0405490032
 30
0.0
 10
7.1893383455
 20
5.0405974687
 30
0.0
 10
7.1892663822
 20
5.0406243922
 30
0.0
  0
SPLINE
  5
4A7
100
AcDbEntity
  8
0
100
AcDbSpline
 62
7
  6
CONTINUOUS
 70
0
 71
3
 72
18
 73
14
 74
0
 42
0.0000001
 43
0.0000001
 44
0.0000000001
 40
0.0
 40
0.0
 40
0.0
 40
0.0
 40
0.0415069665
 40
0.0896667648
 40
0.1432096136
 40
0.2011444338
 40
0.2626761901
 40
0.3270639734
 40
0.460850618
 40
0.5968664056
 40
0.7324300759
 40
0.8667697946
 40
1.0
 40
1.0
 40
1.0
 40
1.0
 10
7.1892663822
 20
5.0406243922
 30
0.0
 10
7.1890913829
 20
5.0406898644
 30
0.0
 10
7.1887185321
 20
5.040845128
 30
0.0
 10
7.1881339049
 20
5.041116993
 30
0.0
 10
7.187491482
 20
5.0414392282
 30
0.0
 10
7.1868035584
 20
5.0418044559
 30
0.0
 10
7.1860804226
 20
5.0422071145
 30
0.0
 10
7.1850696808
 20
5.042794722
 30
0.0
 10
7.1837871493
 20
5.0435813819
 30
0.0
 10
7.1822510429
 20
5.0445664719
 30
0.0
 10
7.1807249529
 20
5.0455714829
 30
0.0
 10
7.1792155048
 20
5.0465788593
 30
0.0
 10
7.1782145886
 20
5.047248889
 30
0.0
 10
7.1777157594
 20
5.0475818468
 30
0.0
  0
SPLINE
  5
4A8
100
AcDbEntity
  8
0
100
AcDbSpline
 62
7
  6
CONTINUOUS
 70
0
 71
3
 72
32
 73
28
 74
0
 42
0.0000001
 43
0.0000001
 44
0.0000000001
 40
0.0
 40
0.0
 40
0.0
 40
0.0
 40
0.1532102515
 40
0.2304177172
 40
0.3080817159
 40
0.3861280302
 40
0.4643204928
 40
0.5421361854
 40
0.6186539834
 40
0.692496916
 40
0.7621030108
 40
0.794913002
 40
0.8261552088
 40
0.8556274726
 40
0.8830813689
 40
0.9082411372
 40
0.9307691084
 40
0.9503037889
 40
0.9664663484
 40
0.973178736
 40
0.978936461
 40
0.9837554809
 40
0.9877363996
 40
0.9910503022
 40
0.9939675813
 40
0.9968421752
 40
1.0
 40
1.0
 40
1.0
 40
1.0
 10
7.1777157594
 20
5.0481767327
 30
0.0
 10
7.1783347325
 20
5.0477645425
 30
0.0
 10
7.179264589
 20
5.0471430818
 30
0.0
 10
7.1805097573
 20
5.0463149977
 30
0.0
 10
7.1814532668
 20
5.0456921544
 30
0.0
 10
7.1824041978
 20
5.0450718979
 30
0.0
 10
7.1833607019
 20
5.0444588897
 30
0.0
 10
7.1843176216
 20
5.0438603821
 30
0.0
 10
7.1852651994
 20
5.0432869342
 30
0.0
 10
7.1861890901
 20
5.0427516373
 30
0.0
 10
7.1869391881
 20
5.0423399851
 30
0.0
 10
7.1875139964
 20
5.0420391469
 30
0.0
 10
7.1879192555
 20
5.04183456
 30
0.0
 10
7.1883044945
 20
5.0416481286
 30
0.0
 10
7.1886665942
 20
5.0414818172
 30
0.0
 10
7.1890017628
 20
5.0413378804
 30
0.0
 10
7.1893056894
 20
5.0412189148
 30
0.0
 10
7.1895733298
 20
5.0411278746
 30
0.0
 10
7.1897724568
 20
5.0410743977
 30
0.0
 10
7.1899094723
 20
5.0410505195
 30
0.0
 10
7.1899931633
 20
5.0410428
 30
0.0
 10
7.190064022
 20
5.0410444955
 30
0.0
 10
7.1901221412
 20
5.0410555149
 30
0.0
 10
7.1901679404
 20
5.041076158
 30
0.0
 10
7.1902007665
 20
5.0411072299
 30
0.0
 10
7.1902193247
 20
5.0411475298
 30
0.0
 10
7.1902224873
 20
5.0411770739
 30
0.0
 10
7.1902224854
 20
5.0411924015
 30
0.0
  0
SPLINE
  5
4A9
100
AcDbEntity
  8
0
100
AcDbSpline
 62
7
  6
CONTINUOUS
 70
0
 71
3
 72
23
 73
19
 74
0
 42
0.0000001
 43
0.0000001
 44
0.0000000001
 40
0.0
 40
0.0
 40
0.0
 40
0.0
 40
0.0673314694
 40
0.1334101669
 40
0.1980526952
 40
0.2611378631
 40
0.3226471904
 40
0.3827156267
 40
0.4416656652
 40
0.5000000101
 40
0.5583343634
 40
0.617284411
 40
0.6773528263
 40
0.7388621325
 40
0.8019472915
 40
0.8665898161
 40
0.9326685176
 40
1.0
 40
1.0
 40
1.0
 40
1.0
 10
7.2332460652
 20
3.839615123
 30
0.0
 10
7.235023359
 20
3.8409244302
 30
0.0
 10
7.2385857839
 20
3.8434640625
 30
0.0
 10
7.2440243334
 20
3.8470156188
 30
0.0
 10
7.2495204804
 20
3.8502111634
 30
0.0
 10
7.2550793712
 20
3.8529783095
 30
0.0
 10
7.2607028935
 20
3.8552415135
 30
0.0
 10
7.2663872667
 20
3.8569266652
 30
0.0
 10
7.2721206094
 20
3.8579686663
 30
0.0
 10
7.2778817569
 20
3.8583215877
 30
0.0
 10
7.2836429047
 20
3.857968666
 30
0.0
 10
7.2893762472
 20
3.8569266644
 30
0.0
 10
7.2950606193
 20
3.8552415128
 30
0.0
 10
7.30068414
 20
3.8529783097
 30
0.0
 10
7.3062430298
 20
3.850211164
 30
0.0
 10
7.3117391763
 20
3.8470156191
 30
0.0
 10
7.3171777271
 20
3.8434640639
 30
0.0
 10
7.3207401519
 20
3.8409244304
 30
0.0
 10
7.322517446
 20
3.839615123
 30
0.0
  0
SPLINE
  5
4AA
100
AcDbEntity
  8
0
100
AcDbSpline
 62
7
  6
CONTINUOUS
 70
0
 71
3
 72
23
 73
19
 74
0
 42
0.0000001
 43
0.0000001
 44
0.0000000001
 40
0.0
 40
0.0
 40
0.0
 40
0.0
 40
0.007627081
 40
0.0172731141
 40
0.029105009
 40
0.0431241662
 40
0.0592847091
 40
0.0775150078
 40
0.1198744188
 40
0.1696528202
 40
0.2264449083
 40
0.2896770104
 40
0.358332591
 40
0.4313153547
 40
0.5075918255
 40
0.666985979
 40
0.8319847275
 40
1.0
 40
1.0
 40
1.0
 40
1.0
 10
7.1690409862
 20
5.054750822
 30
0.0
 10
7.169040982
 20
5.0547265575
 30
0.0
 10
7.1690522424
 20
5.0546717848
 30
0.0
 10
7.1690896793
 20
5.0545868421
 30
0.0
 10
7.169148197
 20
5.0544899673
 30
0.0
 10
7.1692269735
 20
5.0543818783
 30
0.0
 10
7.1693251837
 20
5.0542631467
 30
0.0
 10
7.1694893735
 20
5.0540823396
 30
0.0
 10
7.1697395869
 20
5.0538356719
 30
0.0
 10
7.17009215
 20
5.053518997
 30
0.0
 10
7.170507029
 20
5.0531728646
 30
0.0
 10
7.1709788526
 20
5.0528016973
 30
0.0
 10
7.1714998333
 20
5.0524099943
 30
0.0
 10
7.1720607896
 20
5.0520025897
 30
0.0
 10
7.1728624448
 20
5.0514355013
 30
0.0
 10
7.1739134132
 20
5.050714119
 30
0.0
 10
7.1752137746
 20
5.049840566
 30
0.0
 10
7.1760959203
 20
5.0492538521
 30
0.0
 10
7.176541056
 20
5.0489579409
 30
0.0
  0
LINE
  5
4AB
100
AcDbEntity
  8
0
100
AcDbLine
 62
7
  6
CONTINUOUS
 10
7.176541056
 20
5.0489579409
 11
7.1771185792
 21
5.0485740419
  0
LINE
  5
4AC
100
AcDbEntity
  8
0
100
AcDbLine
 62
7
  6
CONTINUOUS
 10
7.1771185792
 20
5.0485740419
 11
7.1777157594
 21
5.0481767327
  0
LINE
  5
4AD
100
AcDbEntity
  8
0
100
AcDbLine
 62
7
  6
CONTINUOUS
 10
7.1966264405
 20
5.0401782236
 11
7.1969231939
 21
5.0402675195
  0
SPLINE
  5
4AE
100
AcDbEntity
  8
0
100
AcDbSpline
 62
7
  6
CONTINUOUS
 70
0
 71
3
 72
29
 73
25
 74
0
 42
0.0000001
 43
0.0000001
 44
0.0000000001
 40
0.0
 40
0.0
 40
0.0
 40
0.0
 40
0.0064162981
 40
0.0094344595
 40
0.012530264
 40
0.0195323976
 40
0.0237002801
 40
0.0284101213
 40
0.0396188017
 40
0.0533702321
 40
0.0697063392
 40
0.0885684607
 40
0.1098745032
 40
0.1335357008
 40
0.1875252126
 40
0.2497157425
 40
0.3192392544
 40
0.3951371236
 40
0.4761500777
 40
0.5606906047
 40
0.6474322401
 40
0.735375989
 40
0.8237878447
 40
1.0
 40
1.0
 40
1.0
 40
1.0
 10
7.1646424554
 20
5.057013152
 30
0.0
 10
7.164642461
 20
5.0570541384
 30
0.0
 10
7.1646526395
 20
5.057115962
 30
0.0
 10
7.164693681
 20
5.0571855163
 30
0.0
 10
7.1647527368
 20
5.0572460157
 30
0.0
 10
7.1648366842
 20
5.0572873549
 30
0.0
 10
7.1649349099
 20
5.057312663
 30
0.0
 10
7.1650623114
 20
5.0573302996
 30
0.0
 10
7.1652525677
 20
5.0573298368
 30
0.0
 10
7.1655149472
 20
5.0572998576
 30
0.0
 10
7.1658221685
 20
5.0572403926
 30
0.0
 10
7.1661723148
 20
5.0571522588
 30
0.0
 10
7.1665632473
 20
5.0570360791
 30
0.0
 10
7.1671628579
 20
5.0568356818
 30
0.0
 10
7.1679977157
 20
5.0565168761
 30
0.0
 10
7.1690889366
 20
5.0560511723
 30
0.0
 10
7.1702922923
 20
5.0554933114
 30
0.0
 10
7.1715885909
 20
5.0548513174
 30
0.0
 10
7.1729553086
 20
5.0541362862
 30
0.0
 10
7.1743694115
 20
5.0533630517
 30
0.0
 10
7.1758094777
 20
5.0525454901
 30
0.0
 10
7.1772590642
 20
5.0516949673
 30
0.0
 10
7.179186449
 20
5.0505298221
 30
0.0
 10
7.1806168723
 20
5.0496287185
 30
0.0
 10
7.1815622314
 20
5.0490177275
 30
0.0
  0
SPLINE
  5
4AF
100
AcDbEntity
  8
0
100
AcDbSpline
 62
7
  6
CONTINUOUS
 70
0
 71
3
 72
14
 73
10
 74
0
 42
0.0000001
 43
0.0000001
 44
0.0000000001
 40
0.0
 40
0.0
 40
0.0
 40
0.0
 40
0.1250033861
 40
0.2500073159
 40
0.3750124642
 40
0.5000186916
 40
0.7499847019
 40
0.8749933806
 40
1.0
 40
1.0
 40
1.0
 40
1.0
 10
7.0206060327
 20
3.8582043596
 30
0.0
 10
7.0244228918
 20
3.8582043596
 30
0.0
 10
7.0320586233
 20
3.8579716364
 30
0.0
 10
7.0434688024
 20
3.8569391936
 30
0.0
 10
7.0548023298
 20
3.8552649729
 30
0.0
 10
7.0697753954
 20
3.8522593033
 30
0.0
 10
7.0845219687
 20
3.8482368473
 30
0.0
 10
7.099035402
 20
3.8434990907
 30
0.0
 10
7.1062271571
 20
3.8409353163
 30
0.0
 10
7.1098085335
 20
3.839615123
 30
0.0
  0
LINE
  5
4B0
100
AcDbEntity
  8
0
100
AcDbLine
 62
7
  6
CONTINUOUS
 10
7.1945147981
 20
5.0380925072
 11
7.1936547559
 21
5.039243764
  0
LINE
  5
4B1
100
AcDbEntity
  8
0
100
AcDbLine
 62
7
  6
CONTINUOUS
 10
7.1936547559
 20
5.039243764
 11
7.190442387
 21
5.0421136814
  0
LINE
  5
4B2
100
AcDbEntity
  8
0
100
AcDbLine
 62
7
  6
CONTINUOUS
 10
7.190442387
 20
5.0421136814
 11
7.1832675047
 21
5.0473028298
  0
SPLINE
  5
4B3
100
AcDbEntity
  8
0
100
AcDbSpline
 62
7
  6
CONTINUOUS
 70
0
 71
3
 72
16
 73
12
 74
0
 42
0.0000001
 43
0.0000001
 44
0.0000000001
 40
0.0
 40
0.0
 40
0.0
 40
0.0
 40
0.0270586649
 40
0.0597023392
 40
0.0980307838
 40
0.1419364606
 40
0.245524591
 40
0.3681863762
 40
0.5073737877
 40
0.6605908289
 40
1.0
 40
1.0
 40
1.0
 40
1.0
 10
7.1646323623
 20
5.0544402674
 30
0.0
 10
7.1646423443
 20
5.0544041246
 30
0.0
 10
7.1646736752
 20
5.0543269885
 30
0.0
 10
7.1647415619
 20
5.0542090886
 30
0.0
 10
7.1648337746
 20
5.0540790916
 30
0.0
 10
7.1649969502
 20
5.0538797196
 30
0.0
 10
7.1652567736
 20
5.0536094976
 30
0.0
 10
7.1656301397
 20
5.0532671462
 30
0.0
 10
7.1660715238
 20
5.0528980962
 30
0.0
 10
7.1667625194
 20
5.0523602698
 30
0.0
 10
7.1673192352
 20
5.0519645427
 30
0.0
 10
7.1677079232
 20
5.0516997216
 30
0.0
  0
SPLINE
  5
4B4
100
AcDbEntity
  8
0
100
AcDbSpline
 62
7
  6
CONTINUOUS
 70
0
 71
3
 72
53
 73
49
 74
0
 42
0.0000001
 43
0.0000001
 44
0.0000000001
 40
0.0
 40
0.0
 40
0.0
 40
0.0
 40
0.0154422601
 40
0.0314197887
 40
0.0480513066
 40
0.0654871878
 40
0.0839094458
 40
0.103532532
 40
0.124588168
 40
0.1472711024
 40
0.1716051565
 40
0.1972308134
 40
0.2232861895
 40
0.2486972074
 40
0.272699956
 40
0.2950319182
 40
0.3157696299
 40
0.3351227508
 40
0.3533221337
 40
0.3705761109
 40
0.3870596092
 40
0.4029156126
 40
0.4182599248
 40
0.433185776
 40
0.4477689079
 40
0.4620704836
 40
0.4761405527
 40
0.490019791
 40
0.5173293915
 40
0.5442076238
 40
0.5707923581
 40
0.5971785049
 40
0.623432297
 40
0.6496003903
 40
0.6757171764
 40
0.7018092876
 40
0.7278998586
 40
0.7540116968
 40
0.7801708012
 40
0.8064101568
 40
0.8327743794
 40
0.8593264952
 40
0.8861566234
 40
0.9133955962
 40
0.9412349425
 40
0.9699578171
 40
0.9847810706
 40
1.0
 40
1.0
 40
1.0
 40
1.0
 10
6.7188959064
 20
3.839615123
 30
0.0
 10
6.718224487
 20
3.8391197334
 30
0.0
 10
6.7168879728
 20
3.8380708621
 30
0.0
 10
6.714950123
 20
3.8363401713
 30
0.0
 10
6.7130602334
 20
3.8344029174
 30
0.0
 10
6.7112342264
 20
3.8322290671
 30
0.0
 10
6.7094950042
 20
3.8297830314
 30
0.0
 10
6.7078760461
 20
3.8270253468
 30
0.0
 10
6.7064266857
 20
3.8239175623
 30
0.0
 10
6.7052179903
 20
3.8204363352
 30
0.0
 10
6.7043432584
 20
3.8166012369
 30
0.0
 10
6.7039007223
 20
3.8125079469
 30
0.0
 10
6.7039534776
 20
3.8083324838
 30
0.0
 10
6.7044934498
 20
3.8042808925
 30
0.0
 10
6.7054463919
 20
3.8005147833
 30
0.0
 10
6.7067124609
 20
3.7971119485
 30
0.0
 10
6.7082023595
 20
3.7940801047
 30
0.0
 10
6.7098499244
 20
3.7913908955
 30
0.0
 10
6.7116096092
 20
3.789004889
 30
0.0
 10
6.71345056
 20
3.7868832164
 30
0.0
 10
6.7153516977
 20
3.7849915854
 30
0.0
 10
6.7172980906
 20
3.7833006497
 30
0.0
 10
6.719279121
 20
3.781785795
 30
0.0
 10
6.7212872957
 20
3.7804267811
 30
0.0
 10
6.7233164138
 20
3.7792055726
 30
0.0
 10
6.7253625636
 20
3.7781081942
 30
0.0
 10
6.7274219369
 20
3.7771211511
 30
0.0
 10
6.7301672572
 20
3.7759453047
 30
0.0
 10
6.733629557
 20
3.7746941635
 30
0.0
 10
6.7378264512
 20
3.7734870424
 30
0.0
 10
6.7420364885
 20
3.7725339318
 30
0.0
 10
6.7462550143
 20
3.771797659
 30
0.0
 10
6.7504791143
 20
3.771249854
 30
0.0
 10
6.754706833
 20
3.7708706806
 30
0.0
 10
6.758936602
 20
3.7706442146
 30
0.0
 10
6.7631674099
 20
3.7705638322
 30
0.0
 10
6.767398279
 20
3.7706243185
 30
0.0
 10
6.7716282479
 20
3.7708302085
 30
0.0
 10
6.7758563449
 20
3.771187116
 30
0.0
 10
6.7800810289
 20
3.77171052
 30
0.0
 10
6.7843005206
 20
3.772418774
 30
0.0
 10
6.7885119331
 20
3.7733396918
 30
0.0
 10
6.7927110546
 20
3.7745088548
 30
0.0
 10
6.7968916847
 20
3.7759725826
 30
0.0
 10
6.8010436144
 20
3.7777915636
 30
0.0
 10
6.8044303987
 20
3.7796515078
 30
0.0
 10
6.8070880464
 20
3.7813914293
 30
0.0
 10
6.8083945964
 20
3.7823566683
 30
0.0
 10
6.8090410489
 20
3.7828649222
 30
0.0
  0
SPLINE
  5
4B5
100
AcDbEntity
  8
0
100
AcDbSpline
 62
7
  6
CONTINUOUS
 70
0
 71
3
 72
47
 73
43
 74
0
 42
0.0000001
 43
0.0000001
 44
0.0000000001
 40
0.0
 40
0.0
 40
0.0
 40
0.0
 40
0.0312497893
 40
0.062499476
 40
0.0937464331
 40
0.1093742465
 40
0.1250014343
 40
0.1406290049
 40
0.1562562006
 40
0.1718823944
 40
0.1796975566
 40
0.1875129826
 40
0.2031362619
 40
0.2187574225
 40
0.2265726352
 40
0.2343880269
 40
0.2422032266
 40
0.2500185233
 40
0.2656369352
 40
0.2812568061
 40
0.2968788653
 40
0.3125029211
 40
0.3281286052
 40
0.3437554502
 40
0.3593826976
 40
0.375009895
 40
0.3906376974
 40
0.40626499
 40
0.437512731
 40
0.4687620852
 40
0.5000122573
 40
0.5312629315
 40
0.562513556
 40
0.5937638643
 40
0.6250145229
 40
0.6875103016
 40
0.7500073609
 40
0.8125049333
 40
0.8750024983
 40
0.9062524317
 40
0.937502482
 40
1.0
 40
1.0
 40
1.0
 40
1.0
 10
6.9314035319
 20
3.839615123
 30
0.0
 10
6.9296604152
 20
3.8389725625
 30
0.0
 10
6.9262066925
 20
3.8375959983
 30
0.0
 10
6.9211661405
 20
3.8352089955
 30
0.0
 10
6.9171293019
 20
3.8328987733
 30
0.0
 10
6.9140472946
 20
3.8308205195
 30
0.0
 10
6.911825941
 20
3.8291343894
 30
0.0
 10
6.9097163565
 20
3.8273096097
 30
0.0
 10
6.9077465426
 20
3.8253340156
 30
0.0
 10
6.9062506527
 20
3.8235525063
 30
0.0
 10
6.9051645177
 20
3.8220438268
 30
0.0
 10
6.9041608636
 20
3.8204793058
 30
0.0
 10
6.903077378
 20
3.8184186518
 30
0.0
 10
6.9022740523
 20
3.8162311092
 30
0.0
 10
6.9018292371
 20
3.8144256625
 30
0.0
 10
6.9016001217
 20
3.8130493291
 30
0.0
 10
6.9014800908
 20
3.8116591366
 30
0.0
 10
6.9014684626
 20
3.8097997789
 30
0.0
 10
6.9017342576
 20
3.8074826018
 30
0.0
 10
6.9024767138
 20
3.8047871672
 30
0.0
 10
6.9035904936
 20
3.802224263
 30
0.0
 10
6.9050138996
 20
3.7998214703
 30
0.0
 10
6.906687777
 20
3.7975875636
 30
0.0
 10
6.9085615803
 20
3.79551988
 30
0.0
 10
6.9105944707
 20
3.7936095481
 30
0.0
 10
6.9127542905
 20
3.7918449164
 30
0.0
 10
6.915016365
 20
3.7902141409
 30
0.0
 10
6.918142295
 20
3.7882027594
 30
0.0
 10
6.9222192699
 20
3.7859654866
 30
0.0
 10
6.9272934868
 20
3.7836512943
 30
0.0
 10
6.9324975271
 20
3.7816481801
 30
0.0
 10
6.9377949783
 20
3.7799097308
 30
0.0
 10
6.9431611223
 20
3.7783984634
 30
0.0
 10
6.9485784032
 20
3.7770836876
 30
0.0
 10
6.9558525979
 20
3.7755605132
 30
0.0
 10
6.9650188464
 20
3.7740325637
 30
0.0
 10
6.9760844119
 20
3.7726736107
 30
0.0
 10
6.9871898576
 20
3.7716990986
 30
0.0
 10
6.9964636432
 20
3.7711535328
 30
0.0
 10
7.0038888917
 20
3.7708570177
 30
0.0
 10
7.0113170898
 20
3.7706478791
 30
0.0
 10
7.0168905989
 20
3.7705869605
 30
0.0
 10
7.0206060327
 20
3.7705869605
 30
0.0
  0
SPLINE
  5
4B6
100
AcDbEntity
  8
0
100
AcDbSpline
 62
7
  6
CONTINUOUS
 70
0
 71
3
 72
11
 73
7
 74
0
 42
0.0000001
 43
0.0000001
 44
0.0000000001
 40
0.0
 40
0.0
 40
0.0
 40
0.0
 40
0.3371836128
 40
0.59363102
 40
0.7967208219
 40
1.0
 40
1.0
 40
1.0
 40
1.0
 10
7.1671855578
 20
5.050113339
 30
0.0
 10
7.1671929346
 20
5.0501131594
 30
0.0
 10
7.1672059717
 20
5.050113723
 30
0.0
 10
7.1672230627
 20
5.0501185955
 30
0.0
 10
7.1672342982
 20
5.0501289355
 30
0.0
 10
7.1672361555
 20
5.0501381873
 30
0.0
 10
7.1672361584
 20
5.0501426358
 30
0.0
  0
LINE
  5
4B7
100
AcDbEntity
  8
0
100
AcDbLine
 62
7
  6
CONTINUOUS
 10
7.1662870609
 20
5.0502369904
 11
7.1666139921
 21
5.0501239551
  0
SPLINE
  5
4B8
100
AcDbEntity
  8
0
100
AcDbSpline
 62
7
  6
CONTINUOUS
 70
0
 71
3
 72
12
 73
8
 74
0
 42
0.0000001
 43
0.0000001
 44
0.0000000001
 40
0.0
 40
0.0
 40
0.0
 40
0.0
 40
0.2494244396
 40
0.507571654
 40
0.7628518072
 40
0.8848777687
 40
1.0
 40
1.0
 40
1.0
 40
1.0
 10
7.179368626
 20
5.0432941803
 30
0.0
 10
7.1797979523
 20
5.0429671663
 30
0.0
 10
7.1806874165
 20
5.0423222578
 30
0.0
 10
7.1820626805
 20
5.0414087955
 30
0.0
 10
7.1832399878
 20
5.0406973986
 30
0.0
 10
7.1841735598
 20
5.0401836468
 30
0.0
 10
7.1846309328
 20
5.0399507373
 30
0.0
 10
7.1848552283
 20
5.0398423933
 30
0.0
  0
SPLINE
  5
4B9
100
AcDbEntity
  8
0
100
AcDbSpline
 62
7
  6
CONTINUOUS
 70
0
 71
3
 72
14
 73
10
 74
0
 42
0.0000001
 43
0.0000001
 44
0.0000000001
 40
0.0
 40
0.0
 40
0.0
 40
0.0
 40
0.1250066193
 40
0.2500152981
 40
0.4999813083
 40
0.6249875357
 40
0.749992684
 40
0.8749966138
 40
1.0
 40
1.0
 40
1.0
 40
1.0
 10
6.9314035319
 20
3.839615123
 30
0.0
 10
6.9349849083
 20
3.8409353163
 30
0.0
 10
6.9421766634
 20
3.8434990907
 30
0.0
 10
6.9566900967
 20
3.8482368473
 30
0.0
 10
6.97143667
 20
3.8522593033
 30
0.0
 10
6.9864097355
 20
3.8552649729
 30
0.0
 10
6.997743263
 20
3.8569391936
 30
0.0
 10
7.009153442
 20
3.8579716364
 30
0.0
 10
7.0167891735
 20
3.8582043596
 30
0.0
 10
7.0206060327
 20
3.8582043596
 30
0.0
  0
SPLINE
  5
4BA
100
AcDbEntity
  8
0
100
AcDbSpline
 62
7
  6
CONTINUOUS
 70
0
 71
3
 72
23
 73
19
 74
0
 42
0.0000001
 43
0.0000001
 44
0.0000000001
 40
0.0
 40
0.0
 40
0.0
 40
0.0
 40
0.067348473
 40
0.1334399417
 40
0.1980903038
 40
0.2611778305
 40
0.3226838323
 40
0.3827436265
 40
0.4416808346
 40
0.4999999899
 40
0.5583191366
 40
0.6172563356
 40
0.677316151
 40
0.738822174
 40
0.8019097096
 40
0.8665600754
 40
0.9326515401
 40
1.0
 40
1.0
 40
1.0
 40
1.0
 10
6.7188959064
 20
3.839615123
 30
0.0
 10
6.7206704129
 20
3.8409243973
 30
0.0
 10
6.724227226
 20
3.8434639542
 30
0.0
 10
6.7296573475
 20
3.847015497
 30
0.0
 10
6.7351449776
 20
3.8502110381
 30
0.0
 10
6.7406952645
 20
3.8529781937
 30
0.0
 10
6.7463101072
 20
3.8552414234
 30
0.0
 10
6.7519857483
 20
3.8569266143
 30
0.0
 10
6.7577103331
 20
3.8579686537
 30
0.0
 10
6.7634627156
 20
3.8583215913
 30
0.0
 10
6.7692150978
 20
3.857968654
 30
0.0
 10
6.7749396828
 20
3.8569266151
 30
0.0
 10
6.780615325
 20
3.855241424
 30
0.0
 10
6.7862301692
 20
3.8529781935
 30
0.0
 10
6.7917804571
 20
3.8502110375
 30
0.0
 10
6.7972680877
 20
3.8470154967
 30
0.0
 10
6.802698208
 20
3.8434639529
 30
0.0
 10
6.8062550212
 20
3.840924397
 30
0.0
 10
6.8080295273
 20
3.839615123
 30
0.0
  0
LINE
  5
4BB
100
AcDbEntity
  8
0
100
AcDbLine
 62
7
  6
CONTINUOUS
 10
6.9912337688
 20
5.0946638264
 11
6.9865935436
 21
5.0939188815
  0
LINE
  5
4BC
100
AcDbEntity
  8
0
100
AcDbLine
 62
7
  6
CONTINUOUS
 10
6.9865935436
 20
5.0939188815
 11
6.9859589561
 21
5.0936708059
  0
LINE
  5
4BD
100
AcDbEntity
  8
0
100
AcDbLine
 62
7
  6
CONTINUOUS
 10
7.0491119569
 20
5.0952785415
 11
7.0492507866
 21
5.0952654459
  0
SPLINE
  5
4BE
100
AcDbEntity
  8
0
100
AcDbSpline
 62
7
  6
CONTINUOUS
 70
0
 71
3
 72
22
 73
18
 74
0
 42
0.0000001
 43
0.0000001
 44
0.0000000001
 40
0.0
 40
0.0
 40
0.0
 40
0.0
 40
0.2223349752
 40
0.4168204997
 40
0.5833684562
 40
0.6561337932
 40
0.7218654155
 40
0.780542977
 40
0.8321400832
 40
0.8766510808
 40
0.9140979929
 40
0.9445725616
 40
0.9683452687
 40
0.9779286631
 40
0.9861799476
 40
0.9933887635
 40
1.0
 40
1.0
 40
1.0
 40
1.0
 10
7.0492507866
 20
5.0952654459
 30
0.0
 10
7.0497475759
 20
5.0952182641
 30
0.0
 10
7.0506783562
 20
5.095123481
 30
0.0
 10
7.0519783748
 20
5.094966747
 30
0.0
 10
7.0529420921
 20
5.0948269133
 30
0.0
 10
7.0536168613
 20
5.0947107014
 30
0.0
 10
7.0540513789
 20
5.0946265456
 30
0.0
 10
7.0544372239
 20
5.0945415677
 30
0.0
 10
7.0547739993
 20
5.09445592
 30
0.0
 10
7.0550612252
 20
5.0943698035
 30
0.0
 10
7.0552986091
 20
5.0942834602
 30
0.0
 10
7.0554856344
 20
5.0941971027
 30
0.0
 10
7.0556078045
 20
5.0941205131
 30
0.0
 10
7.0556768004
 20
5.0940571563
 30
0.0
 10
7.0557117447
 20
5.0940127077
 30
0.0
 10
7.0557334063
 20
5.0939676017
 30
0.0
 10
7.0557384387
 20
5.0939364173
 30
0.0
 10
7.0557384205
 20
5.0939215786
 30
0.0
  0
LINE
  5
4BF
100
AcDbEntity
  8
0
100
AcDbLine
 62
7
  6
CONTINUOUS
 10
7.1572378035
 20
5.0403786159
 11
7.1573437929
 21
5.0404583517
  0
LINE
  5
4C0
100
AcDbEntity
  8
0
100
AcDbLine
 62
7
  6
CONTINUOUS
 10
7.1494880656
 20
5.0415501449
 11
7.1508063301
 21
5.0410002024
  0
SPLINE
  5
4C1
100
AcDbEntity
  8
0
100
AcDbSpline
 62
7
  6
CONTINUOUS
 70
0
 71
3
 72
12
 73
8
 74
0
 42
0.0000001
 43
0.0000001
 44
0.0000000001
 40
0.0
 40
0.0
 40
0.0
 40
0.0
 40
0.2866727864
 40
0.5535561209
 40
0.7932553731
 40
0.9010383857
 40
1.0
 40
1.0
 40
1.0
 40
1.0
 10
7.1508063301
 20
5.0410002024
 30
0.0
 10
7.1511347129
 20
5.0408774642
 30
0.0
 10
7.1517761243
 20
5.0406591378
 30
0.0
 10
7.1527157218
 20
5.0404143205
 30
0.0
 10
7.1534587897
 20
5.0402921924
 30
0.0
 10
7.1540039162
 20
5.0402560673
 30
0.0
 10
7.1542570791
 20
5.040258169
 30
0.0
 10
7.154377916
 20
5.0402648178
 30
0.0
  0
SPLINE
  5
4C2
100
AcDbEntity
  8
0
100
AcDbSpline
 62
7
  6
CONTINUOUS
 70
0
 71
3
 72
15
 73
11
 74
0
 42
0.0000001
 43
0.0000001
 44
0.0000000001
 40
0.0
 40
0.0
 40
0.0
 40
0.0
 40
0.1772182531
 40
0.3334739614
 40
0.4697214009
 40
0.5886437328
 40
0.6947315762
 40
0.7941727066
 40
0.8938869393
 40
1.0
 40
1.0
 40
1.0
 40
1.0
 10
7.1647151521
 20
5.0402648178
 30
0.0
 10
7.1648357678
 20
5.0402581812
 30
0.0
 10
7.1650634621
 20
5.0402549367
 30
0.0
 10
7.165382981
 20
5.0402853881
 30
0.0
 10
7.1656567936
 20
5.040351352
 30
0.0
 10
7.1658831929
 20
5.0404526319
 30
0.0
 10
7.1660604404
 20
5.0405889999
 30
0.0
 10
7.1661857178
 20
5.0407587422
 30
0.0
 10
7.1662576935
 20
5.040956668
 30
0.0
 10
7.1662712746
 20
5.0410977079
 30
0.0
 10
7.1662712685
 20
5.0411700383
 30
0.0
  0
LINE
  5
4C3
100
AcDbEntity
  8
0
100
AcDbLine
 62
7
  6
CONTINUOUS
 10
7.1611534285
 20
5.0407401327
 11
7.1618552646
 21
5.0403786159
  0
LINE
  5
4C4
100
AcDbEntity
  8
0
100
AcDbLine
 62
7
  6
CONTINUOUS
 10
7.1700961489
 20
5.0573289002
 11
7.1703808662
 21
5.0572484665
  0
LINE
  5
4C5
100
AcDbEntity
  8
0
100
AcDbLine
 62
7
  6
CONTINUOUS
 10
7.1836466302
 20
5.0487292142
 11
7.1840730951
 21
5.0489241336
  0
SPLINE
  5
4C6
100
AcDbEntity
  8
0
100
AcDbSpline
 62
7
  6
CONTINUOUS
 70
0
 71
3
 72
14
 73
10
 74
0
 42
0.0000001
 43
0.0000001
 44
0.0000000001
 40
0.0
 40
0.0
 40
0.0
 40
0.0
 40
0.3003179902
 40
0.4434963687
 40
0.5785227204
 40
0.7031842962
 40
0.8157074435
 40
0.9148508679
 40
1.0
 40
1.0
 40
1.0
 40
1.0
 10
7.0023716894
 20
5.0789256806
 30
0.0
 10
7.0016969241
 20
5.0788824213
 30
0.0
 10
7.0006968754
 20
5.0788604277
 30
0.0
 10
6.9993955099
 20
5.0789235155
 30
0.0
 10
6.9984925035
 20
5.0790137478
 30
0.0
 10
6.9976643293
 20
5.0791451385
 30
0.0
 10
6.9969255015
 20
5.0793144368
 30
0.0
 10
6.9962880198
 20
5.0795176059
 30
0.0
 10
6.9959071543
 20
5.0796856638
 30
0.0
 10
6.9957384398
 20
5.0797767007
 30
0.0
  0
SPLINE
  5
4C7
100
AcDbEntity
  8
0
100
AcDbSpline
 62
7
  6
CONTINUOUS
 70
0
 71
3
 72
14
 73
10
 74
0
 42
0.0000001
 43
0.0000001
 44
0.0000000001
 40
0.0
 40
0.0
 40
0.0
 40
0.0
 40
0.0850056188
 40
0.1840593851
 40
0.2965498306
 40
0.4212273395
 40
0.5563031319
 40
0.6995473808
 40
1.0
 40
1.0
 40
1.0
 40
1.0
 10
7.0482384398
 20
5.0795482207
 30
0.0
 10
7.0480695954
 20
5.0794585115
 30
0.0
 10
7.047688388
 20
5.0792935249
 30
0.0
 10
7.0470505343
 20
5.0790957099
 30
0.0
 10
7.0463112932
 20
5.0789327226
 30
0.0
 10
7.0454827722
 20
5.0788085074
 30
0.0
 10
7.0445796126
 20
5.0787261785
 30
0.0
 10
7.0432784662
 20
5.07867454
 30
0.0
 10
7.0422791881
 20
5.0787053252
 30
0.0
 10
7.0416051902
 20
5.0787544462
 30
0.0
  0
SPLINE
  5
4C8
100
AcDbEntity
  8
0
100
AcDbSpline
 62
7
  6
CONTINUOUS
 70
0
 71
3
 72
22
 73
18
 74
0
 42
0.0000001
 43
0.0000001
 44
0.0000000001
 40
0.0
 40
0.0
 40
0.0
 40
0.0
 40
0.0409070724
 40
0.0825893822
 40
0.1258082422
 40
0.1712601839
 40
0.2195257536
 40
0.271070745
 40
0.3262529277
 40
0.3853274281
 40
0.4484585726
 40
0.5157242812
 40
0.5871175061
 40
0.6625518765
 40
0.7418589823
 40
0.8247788106
 40
1.0
 40
1.0
 40
1.0
 40
1.0
 10
7.0482384398
 20
5.0654897803
 30
0.0
 10
7.0482384398
 20
5.0652504579
 30
0.0
 10
7.0481998014
 20
5.0647664307
 30
0.0
 10
7.0480266082
 20
5.0640482409
 30
0.0
 10
7.0477387245
 20
5.0633391823
 30
0.0
 10
7.0473373888
 20
5.0626432076
 30
0.0
 10
7.0468238374
 20
5.0619636392
 30
0.0
 10
7.0461993394
 20
5.0613039285
 30
0.0
 10
7.0454653668
 20
5.0606676135
 30
0.0
 10
7.0446237196
 20
5.0600584362
 30
0.0
 10
7.0436766948
 20
5.059480387
 30
0.0
 10
7.0426272887
 20
5.0589376629
 30
0.0
 10
7.0414793651
 20
5.0584345914
 30
0.0
 10
7.04023781
 20
5.0579756191
 30
0.0
 10
7.0389086459
 20
5.0575651804
 30
0.0
 10
7.0369944756
 20
5.0570795484
 30
0.0
 10
7.0355045426
 20
5.0568158314
 30
0.0
 10
7.0344884398
 20
5.056680218
 30
0.0
  0
SPLINE
  5
4C9
100
AcDbEntity
  8
0
100
AcDbSpline
 62
7
  6
CONTINUOUS
 70
0
 71
3
 72
22
 73
18
 74
0
 42
0.0000001
 43
0.0000001
 44
0.0000000001
 40
0.0
 40
0.0
 40
0.0
 40
0.0
 40
0.1749940902
 40
0.2578312282
 40
0.3370820693
 40
0.4124891806
 40
0.4838847491
 40
0.5511808723
 40
0.6143668463
 40
0.6735148685
 40
0.7287814188
 40
0.7804120316
 40
0.8287534879
 40
0.874259786
 40
0.9175000384
 40
0.9591613802
 40
1.0
 40
1.0
 40
1.0
 40
1.0
 10
7.0094884398
 20
5.0567984543
 30
0.0
 10
7.0084720632
 20
5.0569436552
 30
0.0
 10
7.0069821746
 20
5.057221362
 30
0.0
 10
7.0050689504
 20
5.0577244911
 30
0.0
 10
7.0037404315
 20
5.0581469274
 30
0.0
 10
7.0024995014
 20
5.0586169212
 30
0.0
 10
7.0013520943
 20
5.0591300122
 30
0.0
 10
7.0003030364
 20
5.0596817471
 30
0.0
 10
6.999356159
 20
5.0602678051
 30
0.0
 10
6.9985144524
 20
5.0608840043
 30
0.0
 10
6.9977802303
 20
5.0615263752
 30
0.0
 10
6.9971553263
 20
5.0621911968
 30
0.0
 10
6.9966412577
 20
5.0628749548
 30
0.0
 10
6.9962393512
 20
5.063574227
 30
0.0
 10
6.9959509094
 20
5.0642857256
 30
0.0
 10
6.9957772591
 20
5.0650055385
 30
0.0
 10
6.9957384398
 20
5.0654904123
 30
0.0
 10
6.9957384398
 20
5.0657300138
 30
0.0
  0
SPLINE
  5
4CA
100
AcDbEntity
  8
0
100
AcDbSpline
 62
7
  6
CONTINUOUS
 70
0
 71
3
 72
23
 73
19
 74
0
 42
0.0000001
 43
0.0000001
 44
0.0000000001
 40
0.0
 40
0.0
 40
0.0
 40
0.0
 40
0.0660051055
 40
0.1310249225
 40
0.1950518484
 40
0.2580976744
 40
0.3202051483
 40
0.3814655159
 40
0.4420097159
 40
0.5020305678
 40
0.5617728933
 40
0.6215370728
 40
0.6816669187
 40
0.742530488
 40
0.8044936604
 40
0.8678822998
 40
0.9329757438
 40
1.0
 40
1.0
 40
1.0
 40
1.0
 10
7.2151928046
 20
4.858321117
 30
0.0
 10
7.2161250892
 20
4.8583531741
 30
0.0
 10
7.2179759247
 20
4.8584120539
 30
0.0
 10
7.2207322201
 20
4.8584627537
 30
0.0
 10
7.2234473154
 20
4.858452735
 30
0.0
 10
7.2261199059
 20
4.8583600129
 30
0.0
 10
7.2287479433
 20
4.8581628267
 30
0.0
 10
7.231328284
 20
4.8578401597
 30
0.0
 10
7.2338569933
 20
4.8573738231
 30
0.0
 10
7.2363289271
 20
4.8567464077
 30
0.0
 10
7.238738276
 20
4.8559432828
 30
0.0
 10
7.2410784287
 20
4.8549516959
 30
0.0
 10
7.2433421979
 20
4.853761317
 30
0.0
 10
7.2455221907
 20
4.8523649321
 30
0.0
 10
7.2476113713
 20
4.8507593642
 30
0.0
 10
7.2496046117
 20
4.8489462852
 30
0.0
 10
7.2514976055
 20
4.8469300219
 30
0.0
 10
7.2526726913
 20
4.8454765778
 30
0.0
 10
7.2532430068
 20
4.8447202697
 30
0.0
  0
SPLINE
  5
4CB
100
AcDbEntity
  8
0
100
AcDbSpline
 62
7
  6
CONTINUOUS
 70
0
 71
3
 72
22
 73
18
 74
0
 42
0.0000001
 43
0.0000001
 44
0.0000000001
 40
0.0
 40
0.0
 40
0.0
 40
0.0
 40
0.0531164018
 40
0.1065839722
 40
0.1607376812
 40
0.2158823238
 40
0.2722809434
 40
0.330147321
 40
0.3896418466
 40
0.4508705402
 40
0.5138864052
 40
0.5786923932
 40
0.6452454375
 40
0.7134608279
 40
0.7832174581
 40
0.8543612904
 40
1.0
 40
1.0
 40
1.0
 40
1.0
 10
7.4190967641
 20
4.8841048136
 30
0.0
 10
7.4206098818
 20
4.884104805
 30
0.0
 10
7.4236490122
 20
4.8839285529
 30
0.0
 10
7.4281688097
 20
4.8831382425
 30
0.0
 10
7.4326265273
 20
4.8818276691
 30
0.0
 10
7.4369910015
 20
4.8800065096
 30
0.0
 10
7.4412331089
 20
4.8776879162
 30
0.0
 10
7.4453246101
 20
4.874888278
 30
0.0
 10
7.4492385892
 20
4.871627003
 30
0.0
 10
7.4529494256
 20
4.8679263616
 30
0.0
 10
7.456432899
 20
4.8638113435
 30
0.0
 10
7.4596662818
 20
4.8593095429
 30
0.0
 10
7.4626284631
 20
4.8544509677
 30
0.0
 10
7.4653000388
 20
4.8492680672
 30
0.0
 10
7.4676636189
 20
4.8437948314
 30
0.0
 10
7.4704040764
 20
4.8361017201
 30
0.0
 10
7.4719189195
 20
4.8300936795
 30
0.0
 10
7.4726950215
 20
4.8260181329
 30
0.0
  0
SPLINE
  5
4CC
100
AcDbEntity
  8
0
100
AcDbSpline
 62
7
  6
CONTINUOUS
 70
0
 71
3
 72
22
 73
18
 74
0
 42
0.0000001
 43
0.0000001
 44
0.0000000001
 40
0.0
 40
0.0
 40
0.0
 40
0.0
 40
0.0276774442
 40
0.0570894724
 40
0.0896808166
 40
0.1264996362
 40
0.1682447263
 40
0.215358327
 40
0.2681069648
 40
0.3266349162
 40
0.3910029542
 40
0.4612084894
 40
0.5372042237
 40
0.6189004669
 40
0.7061802649
 40
0.7989075502
 40
1.0
 40
1.0
 40
1.0
 40
1.0
 10
7.487673352
 20
4.8223693835
 30
0.0
 10
7.4876456192
 20
4.8225150399
 30
0.0
 10
7.4875474979
 20
4.8228089964
 30
0.0
 10
7.487285136
 20
4.8232162339
 30
0.0
 10
7.4869109263
 20
4.8235949794
 30
0.0
 10
7.4864276297
 20
4.8239462525
 30
0.0
 10
7.4858363574
 20
4.8242711314
 30
0.0
 10
7.4851379684
 20
4.8245697824
 30
0.0
 10
7.4843335528
 20
4.8248419312
 30
0.0
 10
7.4834245823
 20
4.8250871242
 30
0.0
 10
7.4824128795
 20
4.8253048113
 30
0.0
 10
7.4813005894
 20
4.8254945072
 30
0.0
 10
7.4800901573
 20
4.8256557152
 30
0.0
 10
7.4787843038
 20
4.8257880651
 30
0.0
 10
7.4773859514
 20
4.8258912121
 30
0.0
 10
7.4753466833
 20
4.8259921419
 30
0.0
 10
7.4737723103
 20
4.8260181329
 30
0.0
 10
7.4726950215
 20
4.8260181329
 30
0.0
  0
SPLINE
  5
4CD
100
AcDbEntity
  8
0
100
AcDbSpline
 62
7
  6
CONTINUOUS
 70
0
 71
3
 72
22
 73
18
 74
0
 42
0.0000001
 43
0.0000001
 44
0.0000000001
 40
0.0
 40
0.0
 40
0.0
 40
0.0
 40
0.027677444
 40
0.0570894719
 40
0.0896808155
 40
0.1264996344
 40
0.168244724
 40
0.2153583241
 40
0.2681069615
 40
0.3266349127
 40
0.3910029505
 40
0.4612084857
 40
0.5372042202
 40
0.6189004637
 40
0.7061802623
 40
0.7989075483
 40
1.0
 40
1.0
 40
1.0
 40
1.0
 10
7.4876733518
 20
4.6658402429
 30
0.0
 10
7.487645619
 20
4.6656945865
 30
0.0
 10
7.4875474978
 20
4.66540063
 30
0.0
 10
7.4872851358
 20
4.6649933926
 30
0.0
 10
7.4869109262
 20
4.664614647
 30
0.0
 10
7.4864276296
 20
4.6642633739
 30
0.0
 10
7.4858363572
 20
4.6639384951
 30
0.0
 10
7.4851379682
 20
4.6636398442
 30
0.0
 10
7.4843335526
 20
4.6633676954
 30
0.0
 10
7.4834245822
 20
4.6631225024
 30
0.0
 10
7.4824128794
 20
4.6629048154
 30
0.0
 10
7.4813005893
 20
4.6627151196
 30
0.0
 10
7.4800901572
 20
4.6625539117
 30
0.0
 10
7.4787843037
 20
4.6624215619
 30
0.0
 10
7.4773859513
 20
4.662318415
 30
0.0
 10
7.4753466833
 20
4.6622174853
 30
0.0
 10
7.4737723102
 20
4.6621914944
 30
0.0
 10
7.4726950215
 20
4.6621914944
 30
0.0
  0
SPLINE
  5
4CE
100
AcDbEntity
  8
0
100
AcDbSpline
 62
7
  6
CONTINUOUS
 70
0
 71
3
 72
16
 73
12
 74
0
 42
0.0000001
 43
0.0000001
 44
0.0000000001
 40
0.0
 40
0.0
 40
0.0
 40
0.0
 40
0.0513262014
 40
0.103987547
 40
0.2139123076
 40
0.3307997615
 40
0.4547001046
 40
0.5849583754
 40
0.7203703047
 40
0.8593323607
 40
1.0
 40
1.0
 40
1.0
 40
1.0
 10
7.2259239351
 20
4.8389402566
 30
0.0
 10
7.2255482762
 20
4.8390789579
 30
0.0
 10
7.224802286
 20
4.8394027379
 30
0.0
 10
7.2233473562
 20
4.8402253948
 30
0.0
 10
7.2216215062
 20
4.8415813636
 30
0.0
 10
7.2197913161
 20
4.8436314023
 30
0.0
 10
7.21821484
 20
4.8460719444
 30
0.0
 10
7.216932149
 20
4.8488372274
 30
0.0
 10
7.2159755537
 20
4.8518541857
 30
0.0
 10
7.2153697454
 20
4.8550422984
 30
0.0
 10
7.2152104453
 20
4.8572237725
 30
0.0
 10
7.2151928595
 20
4.85832112
 30
0.0
  0
SPLINE
  5
4CF
100
AcDbEntity
  8
0
100
AcDbSpline
 62
7
  6
CONTINUOUS
 70
0
 71
3
 72
11
 73
7
 74
0
 42
0.0000001
 43
0.0000001
 44
0.0000000001
 40
0.0
 40
0.0
 40
0.0
 40
0.0
 40
0.261337792
 40
0.5214659114
 40
0.7722593073
 40
1.0
 40
1.0
 40
1.0
 40
1.0
 10
7.1807347171
 20
5.0489568502
 30
0.0
 10
7.179823376
 20
5.0495383976
 30
0.0
 10
7.1779917859
 20
5.050678386
 30
0.0
 10
7.1752393339
 20
5.0523007086
 30
0.0
 10
7.1725642078
 20
5.0537782697
 30
0.0
 10
7.1707969654
 20
5.0546719619
 30
0.0
 10
7.169944857
 20
5.0550737893
 30
0.0
  0
LINE
  5
4D0
100
AcDbEntity
  8
0
100
AcDbLine
 62
7
  6
CONTINUOUS
 10
7.16931749
 20
5.0553641277
 11
7.1657575384
 21
5.0566767847
  0
LINE
  5
4D1
100
AcDbEntity
  8
0
100
AcDbLine
 62
7
  6
CONTINUOUS
 10
7.1657575384
 20
5.0566767847
 11
7.1647491942
 21
5.05666185
  0
LINE
  5
4D2
100
AcDbEntity
  8
0
100
AcDbLine
 62
7
  6
CONTINUOUS
 10
7.1777157594
 20
5.0475818468
 11
7.1771193231
 21
5.0479795852
  0
LINE
  5
4D3
100
AcDbEntity
  8
0
100
AcDbLine
 62
7
  6
CONTINUOUS
 10
7.1771193231
 20
5.0479795852
 11
7.175985669
 21
5.0487351108
  0
SPLINE
  5
4D4
100
AcDbEntity
  8
0
100
AcDbSpline
 62
7
  6
CONTINUOUS
 70
0
 71
3
 72
21
 73
17
 74
0
 42
0.0000001
 43
0.0000001
 44
0.0000000001
 40
0.0
 40
0.0
 40
0.0
 40
0.0
 40
0.1702582475
 40
0.3368788904
 40
0.4969917385
 40
0.6457987851
 40
0.7137788776
 40
0.7761499139
 40
0.8320633632
 40
0.8811174183
 40
0.9229004224
 40
0.9568855272
 40
0.9707919421
 40
0.9825792264
 40
0.992258856
 40
1.0
 40
1.0
 40
1.0
 40
1.0
 10
7.175985669
 20
5.0487351108
 30
0.0
 10
7.1755662121
 20
5.0490149345
 30
0.0
 10
7.1747368083
 20
5.049569426
 30
0.0
 10
7.1735181233
 20
5.0503948076
 30
0.0
 10
7.1723613888
 20
5.051198217
 30
0.0
 10
7.1714572573
 20
5.0518530717
 30
0.0
 10
7.1708008971
 20
5.0523558404
 30
0.0
 10
7.1703707041
 20
5.0527012449
 30
0.0
 10
7.1699936278
 20
5.0530229466
 30
0.0
 10
7.1696733548
 20
5.0533169517
 30
0.0
 10
7.1694133348
 20
5.0535798731
 30
0.0
 10
7.1692396565
 20
5.0537814362
 30
0.0
 10
7.1691375698
 20
5.053925878
 30
0.0
 10
7.1690847139
 20
5.054016588
 30
0.0
 10
7.1690509726
 20
5.0540964876
 30
0.0
 10
7.1690409823
 20
5.0541479529
 30
0.0
 10
7.1690409862
 20
5.0541708786
 30
0.0
  0
SPLINE
  5
4D5
100
AcDbEntity
  8
0
100
AcDbSpline
 62
7
  6
CONTINUOUS
 70
0
 71
3
 72
27
 73
23
 74
0
 42
0.0000001
 43
0.0000001
 44
0.0000000001
 40
0.0
 40
0.0
 40
0.0
 40
0.0
 40
0.1250053101
 40
0.2500106201
 40
0.3750159302
 40
0.4375185852
 40
0.5000212402
 40
0.5625238952
 40
0.6250265503
 40
0.6875292053
 40
0.7187805328
 40
0.7500318603
 40
0.7812831879
 40
0.812534515
 40
0.8281601796
 40
0.8437858434
 40
0.8594115118
 40
0.8750371752
 40
0.9062883319
 40
0.9375377621
 40
0.9687793703
 40
1.0
 40
1.0
 40
1.0
 40
1.0
 10
7.1405602597
 20
4.6541041238
 30
0.0
 10
7.1405602597
 20
4.6598022479
 30
0.0
 10
7.1405602598
 20
4.6711984961
 30
0.0
 10
7.1405602594
 20
4.6882928685
 30
0.0
 10
7.1405602605
 20
4.7025381788
 30
0.0
 10
7.140560258
 20
4.713934427
 30
0.0
 10
7.1405602656
 20
4.7224816132
 30
0.0
 10
7.1405602431
 20
4.7310287994
 30
0.0
 10
7.140560302
 20
4.7395759856
 30
0.0
 10
7.1405601716
 20
4.7466986407
 30
0.0
 10
7.1405603337
 20
4.7523967648
 30
0.0
 10
7.1405604408
 20
4.7566703579
 30
0.0
 10
7.1405596971
 20
4.7609439509
 30
0.0
 10
7.1405602702
 20
4.7645052786
 30
0.0
 10
7.140561325
 20
4.7673543404
 30
0.0
 10
7.1405615608
 20
4.7694911375
 30
0.0
 10
7.1405590974
 20
4.7716279333
 30
0.0
 10
7.1405575477
 20
4.7744769864
 30
0.0
 10
7.1405743267
 20
4.7780382331
 30
0.0
 10
7.1406625147
 20
4.78231074
 30
0.0
 10
7.1408727488
 20
4.7865779519
 30
0.0
 10
7.1411259327
 20
4.7894151151
 30
0.0
 10
7.1412891904
 20
4.7908288516
 30
0.0
  0
SPLINE
  5
4D6
100
AcDbEntity
  8
0
100
AcDbSpline
 62
7
  6
CONTINUOUS
 70
0
 71
3
 72
35
 73
31
 74
0
 42
0.0000001
 43
0.0000001
 44
0.0000000001
 40
0.0
 40
0.0
 40
0.0
 40
0.0
 40
0.015617945
 40
0.0312350916
 40
0.0390407303
 40
0.0468453251
 40
0.0546517398
 40
0.0624619041
 40
0.0780934197
 40
0.0937307698
 40
0.1249859497
 40
0.1406082722
 40
0.1562312322
 40
0.171855965
 40
0.1874818217
 40
0.2031080491
 40
0.2187339461
 40
0.2499845618
 40
0.2656096407
 40
0.2812347966
 40
0.312485432
 40
0.3437362173
 40
0.3749869055
 40
0.4062375292
 40
0.4374881642
 40
0.4999894915
 40
0.6249921165
 40
0.7499947451
 40
0.8749973724
 40
1.0
 40
1.0
 40
1.0
 40
1.0
 10
6.9004280626
 20
4.7908860853
 30
0.0
 10
6.9004811566
 20
4.7901758877
 30
0.0
 10
6.9006042292
 20
4.7887568589
 30
0.0
 10
6.9007577036
 20
4.7869831846
 30
0.0
 10
6.900855088
 20
4.7855624864
 30
0.0
 10
6.9009083088
 20
4.7844959335
 30
0.0
 10
6.9009386675
 20
4.7834282909
 30
0.0
 10
6.9009561482
 20
4.782003435
 30
0.0
 10
6.9009452873
 20
4.7802213697
 30
0.0
 10
6.9009060232
 20
4.7773705461
 30
0.0
 10
6.900904595
 20
4.7745197581
 30
0.0
 10
6.9009141493
 20
4.771669763
 30
0.0
 10
6.9009192407
 20
4.7695324888
 30
0.0
 10
6.9009198596
 20
4.7673950512
 30
0.0
 10
6.9009183783
 20
4.7652574651
 30
0.0
 10
6.9009160662
 20
4.7631198269
 30
0.0
 10
6.9009142731
 20
4.7602696976
 30
0.0
 10
6.900914432
 20
4.7574196202
 30
0.0
 10
6.90091493
 20
4.7545695768
 30
0.0
 10
6.9009151283
 20
4.7517195323
 30
0.0
 10
6.9009146642
 20
4.7481569546
 30
0.0
 10
6.900913801
 20
4.7438818514
 30
0.0
 10
6.9009132415
 20
4.7396067488
 30
0.0
 10
6.9009127848
 20
4.7353316529
 30
0.0
 10
6.9009120786
 20
4.7296315256
 30
0.0
 10
6.9009105925
 20
4.7196563001
 30
0.0
 10
6.9009086148
 20
4.7054059766
 30
0.0
 10
6.900906412
 20
4.6883055891
 30
0.0
 10
6.9009048422
 20
4.6712052014
 30
0.0
 10
6.9009044153
 20
4.6598049429
 30
0.0
 10
6.9009044153
 20
4.6541048137
 30
0.0
  0
SPLINE
  5
4D7
100
AcDbEntity
  8
0
100
AcDbSpline
 62
7
  6
CONTINUOUS
 70
0
 71
3
 72
28
 73
24
 74
0
 42
0.0000001
 43
0.0000001
 44
0.0000000001
 40
0.0
 40
0.0
 40
0.0
 40
0.0
 40
0.0508823463
 40
0.103173959
 40
0.1298596543
 40
0.1569217417
 40
0.1843755769
 40
0.2122437152
 40
0.240547325
 40
0.2693086418
 40
0.2985476507
 40
0.3282784841
 40
0.3585098461
 40
0.38923976
 40
0.4521224525
 40
0.5168030683
 40
0.5830588089
 40
0.6506321073
 40
0.7192620658
 40
0.7887085593
 40
0.8587619731
 40
0.9292425533
 40
1.0
 40
1.0
 40
1.0
 40
1.0
 10
6.8262840342
 20
4.8583211199
 30
0.0
 10
6.8281879073
 20
4.8583865855
 30
0.0
 10
6.832049506
 20
4.8584942551
 30
0.0
 10
6.8369137943
 20
4.8584226764
 30
0.0
 10
6.8408760366
 20
4.8581599594
 30
0.0
 10
6.843899839
 20
4.8578363599
 30
0.0
 10
6.8469498815
 20
4.857369533
 30
0.0
 10
6.8500187367
 20
4.8567424537
 30
0.0
 10
6.8530975136
 20
4.8559408627
 30
0.0
 10
6.856175586
 20
4.8549522928
 30
0.0
 10
6.8592407592
 20
4.8537665743
 30
0.0
 10
6.8622794802
 20
4.8523763219
 30
0.0
 10
6.8652775319
 20
4.8507777396
 30
0.0
 10
6.86923199
 20
4.8483523672
 30
0.0
 10
6.8739969452
 20
4.8448035429
 30
0.0
 10
6.879292949
 20
4.8398212032
 30
0.0
 10
6.8841254162
 20
4.8341558285
 30
0.0
 10
6.8884230463
 20
4.8278960626
 30
0.0
 10
6.8921345594
 20
4.821136439
 30
0.0
 10
6.8952232871
 20
4.813970244
 30
0.0
 10
6.8976651491
 20
4.8064862384
 30
0.0
 10
6.8994429363
 20
4.7987679791
 30
0.0
 10
6.9001757858
 20
4.7935231535
 30
0.0
 10
6.9004280626
 20
4.7908860853
 30
0.0
  0
SPLINE
  5
4D8
100
AcDbEntity
  8
0
100
AcDbSpline
 62
7
  6
CONTINUOUS
 70
0
 71
3
 72
22
 73
18
 74
0
 42
0.0000001
 43
0.0000001
 44
0.0000000001
 40
0.0
 40
0.0
 40
0.0
 40
0.0
 40
0.0661973044
 40
0.1306601228
 40
0.1936208893
 40
0.25536371
 40
0.3162116693
 40
0.3764966656
 40
0.4365385522
 40
0.4966247972
 40
0.5570081398
 40
0.617893176
 40
0.6794422433
 40
0.7417678834
 40
0.8049551168
 40
0.8690450217
 40
1.0
 40
1.0
 40
1.0
 40
1.0
 10
6.7892282325
 20
4.8444749093
 30
0.0
 10
6.7897967106
 20
4.8451812789
 30
0.0
 10
6.7909658155
 20
4.8465385657
 30
0.0
 10
6.7928386611
 20
4.8484195791
 30
0.0
 10
6.7948031105
 20
4.8501130952
 30
0.0
 10
6.796854457
 20
4.8516179981
 30
0.0
 10
6.7989869945
 20
4.8529369316
 30
0.0
 10
6.8011945088
 20
4.8540757925
 30
0.0
 10
6.803470852
 20
4.855043007
 30
0.0
 10
6.8058104389
 20
4.8558484651
 30
0.0
 10
6.808207739
 20
4.8565049966
 30
0.0
 10
6.8106581472
 20
4.8570264336
 30
0.0
 10
6.8131574203
 20
4.8574294519
 30
0.0
 10
6.8157024325
 20
4.8577309269
 30
0.0
 10
6.8182904455
 20
4.8579510639
 30
0.0
 10
6.8218213102
 20
4.858164024
 30
0.0
 10
6.8244914053
 20
4.8582590315
 30
0.0
 10
6.8262840342
 20
4.8583211199
 30
0.0
  0
SPLINE
  5
4D9
100
AcDbEntity
  8
0
100
AcDbSpline
 62
7
  6
CONTINUOUS
 70
0
 71
3
 72
25
 73
21
 74
0
 42
0.0000001
 43
0.0000001
 44
0.0000000001
 40
0.0
 40
0.0
 40
0.0
 40
0.0
 40
0.0237156625
 40
0.0468982438
 40
0.0697356399
 40
0.0924146216
 40
0.1151168751
 40
0.1380123807
 40
0.1849684176
 40
0.2343795653
 40
0.2870613458
 40
0.3435095911
 40
0.4038966857
 40
0.4681745272
 40
0.5361562435
 40
0.6075411435
 40
0.6819347257
 40
0.8378544657
 40
0.9184240204
 40
1.0
 40
1.0
 40
1.0
 40
1.0
 10
6.8150801397
 20
4.8380231382
 30
0.0
 10
6.8154936161
 20
4.8379200181
 30
0.0
 10
6.8163042078
 20
4.8376861707
 30
0.0
 10
6.8174789567
 20
4.8372466184
 30
0.0
 10
6.8185985068
 20
4.8367234583
 30
0.0
 10
6.8196653657
 20
4.8361172153
 30
0.0
 10
6.8206821606
 20
4.8354284489
 30
0.0
 10
6.8219849683
 20
4.8343925374
 30
0.0
 10
6.8235098427
 20
4.8328759726
 30
0.0
 10
6.8251522586
 20
4.8307527602
 30
0.0
 10
6.8266413043
 20
4.8283185024
 30
0.0
 10
6.8279875952
 20
4.8255821499
 30
0.0
 10
6.829191091
 20
4.8225553128
 30
0.0
 10
6.8302451171
 20
4.8192554835
 30
0.0
 10
6.8311417687
 20
4.815705653
 30
0.0
 10
6.8318725963
 20
4.8119328566
 30
0.0
 10
6.8326258368
 20
4.8065623279
 30
0.0
 10
6.8329888555
 20
4.8009783909
 30
0.0
 10
6.8329980867
 20
4.7952622983
 30
0.0
 10
6.8328915061
 20
4.7923498762
 30
0.0
 10
6.8328143973
 20
4.7908860853
 30
0.0
  0
SPLINE
  5
4DA
100
AcDbEntity
  8
0
100
AcDbSpline
 62
7
  6
CONTINUOUS
 70
0
 71
3
 72
17
 73
13
 74
0
 42
0.0000001
 43
0.0000001
 44
0.0000000001
 40
0.0
 40
0.0
 40
0.0
 40
0.0
 40
0.0521170483
 40
0.1051603779
 40
0.1594034036
 40
0.2150664987
 40
0.331115282
 40
0.4540577879
 40
0.5836333612
 40
0.7188734
 40
0.8582777624
 40
1.0
 40
1.0
 40
1.0
 40
1.0
 10
6.8146824979
 20
4.8386115837
 30
0.0
 10
6.8150966001
 20
4.8387133512
 30
0.0
 10
6.8159206289
 20
4.8389689888
 30
0.0
 10
6.8171158744
 20
4.8394974758
 30
0.0
 10
6.8182704941
 20
4.8401695287
 30
0.0
 10
6.8197638734
 20
4.8412642798
 30
0.0
 10
6.8214816956
 20
4.8429785169
 30
0.0
 10
6.8232143837
 20
4.8454631345
 30
0.0
 10
6.8246019939
 20
4.8483296816
 30
0.0
 10
6.8256051516
 20
4.8514923209
 30
0.0
 10
6.8261957233
 20
4.8548567796
 30
0.0
 10
6.8263027106
 20
4.8571616906
 30
0.0
 10
6.8262841299
 20
4.8583211188
 30
0.0
  0
SPLINE
  5
4DB
100
AcDbEntity
  8
0
100
AcDbSpline
 62
7
  6
CONTINUOUS
 70
0
 71
3
 72
22
 73
18
 74
0
 42
0.0000001
 43
0.0000001
 44
0.0000000001
 40
0.0
 40
0.0
 40
0.0
 40
0.0
 40
0.0531164018
 40
0.1065839722
 40
0.1607376812
 40
0.2158823238
 40
0.2722809434
 40
0.330147321
 40
0.3896418466
 40
0.4508705402
 40
0.5138864052
 40
0.5786923932
 40
0.6452454375
 40
0.7134608279
 40
0.7832174581
 40
0.8543612904
 40
1.0
 40
1.0
 40
1.0
 40
1.0
 10
6.6223801155
 20
4.8841048136
 30
0.0
 10
6.6208669978
 20
4.884104805
 30
0.0
 10
6.6178278674
 20
4.8839285529
 30
0.0
 10
6.6133080699
 20
4.8831382425
 30
0.0
 10
6.6088503523
 20
4.8818276691
 30
0.0
 10
6.6044858781
 20
4.8800065096
 30
0.0
 10
6.6002437707
 20
4.8776879162
 30
0.0
 10
6.5961522695
 20
4.874888278
 30
0.0
 10
6.5922382904
 20
4.871627003
 30
0.0
 10
6.588527454
 20
4.8679263616
 30
0.0
 10
6.5850439806
 20
4.8638113435
 30
0.0
 10
6.5818105978
 20
4.8593095429
 30
0.0
 10
6.5788484165
 20
4.8544509677
 30
0.0
 10
6.5761768408
 20
4.8492680672
 30
0.0
 10
6.5738132607
 20
4.8437948314
 30
0.0
 10
6.5710728032
 20
4.8361017201
 30
0.0
 10
6.5695579601
 20
4.8300936795
 30
0.0
 10
6.5687818581
 20
4.8260181329
 30
0.0
  0
SPLINE
  5
4DC
100
AcDbEntity
  8
0
100
AcDbSpline
 62
7
  6
CONTINUOUS
 70
0
 71
3
 72
22
 73
18
 74
0
 42
0.0000001
 43
0.0000001
 44
0.0000000001
 40
0.0
 40
0.0
 40
0.0
 40
0.0
 40
0.0276774441
 40
0.057089472
 40
0.0896808156
 40
0.1264996345
 40
0.1682447242
 40
0.2153583243
 40
0.2681069617
 40
0.3266349129
 40
0.3910029508
 40
0.461208486
 40
0.5372042205
 40
0.618900464
 40
0.7061802625
 40
0.7989075485
 40
1.0
 40
1.0
 40
1.0
 40
1.0
 10
6.5538035277
 20
4.8223693843
 30
0.0
 10
6.5538312605
 20
4.8225150407
 30
0.0
 10
6.5539293818
 20
4.8228089972
 30
0.0
 10
6.5541917438
 20
4.8232162346
 30
0.0
 10
6.5545659534
 20
4.8235949802
 30
0.0
 10
6.55504925
 20
4.8239462533
 30
0.0
 10
6.5556405224
 20
4.8242711321
 30
0.0
 10
6.5563389113
 20
4.824569783
 30
0.0
 10
6.557143327
 20
4.8248419318
 30
0.0
 10
6.5580522974
 20
4.8250871248
 30
0.0
 10
6.5590640002
 20
4.8253048118
 30
0.0
 10
6.5601762903
 20
4.8254945076
 30
0.0
 10
6.5613867224
 20
4.8256557155
 30
0.0
 10
6.5626925759
 20
4.8257880653
 30
0.0
 10
6.5640909282
 20
4.8258912123
 30
0.0
 10
6.5661301963
 20
4.825992142
 30
0.0
 10
6.5677045694
 20
4.8260181329
 30
0.0
 10
6.5687818581
 20
4.8260181329
 30
0.0
  0
SPLINE
  5
4DD
100
AcDbEntity
  8
0
100
AcDbSpline
 62
7
  6
CONTINUOUS
 70
0
 71
3
 72
22
 73
18
 74
0
 42
0.0000001
 43
0.0000001
 44
0.0000000001
 40
0.0
 40
0.0
 40
0.0
 40
0.0
 40
0.0276774442
 40
0.0570894724
 40
0.0896808166
 40
0.1264996361
 40
0.1682447263
 40
0.215358327
 40
0.2681069648
 40
0.3266349162
 40
0.3910029542
 40
0.4612084894
 40
0.5372042237
 40
0.6189004668
 40
0.7061802649
 40
0.7989075502
 40
1.0
 40
1.0
 40
1.0
 40
1.0
 10
6.5538035276
 20
4.6658402439
 30
0.0
 10
6.5538312604
 20
4.6656945874
 30
0.0
 10
6.5539293817
 20
4.6654006309
 30
0.0
 10
6.5541917437
 20
4.6649933935
 30
0.0
 10
6.5545659533
 20
4.6646146479
 30
0.0
 10
6.5550492499
 20
4.6642633748
 30
0.0
 10
6.5556405222
 20
4.6639384959
 30
0.0
 10
6.5563389112
 20
4.663639845
 30
0.0
 10
6.5571433268
 20
4.6633676961
 30
0.0
 10
6.5580522973
 20
4.6631225031
 30
0.0
 10
6.5590640001
 20
4.662904816
 30
0.0
 10
6.5601762902
 20
4.6627151201
 30
0.0
 10
6.5613867223
 20
4.6625539122
 30
0.0
 10
6.5626925758
 20
4.6624215623
 30
0.0
 10
6.5640909282
 20
4.6623184152
 30
0.0
 10
6.5661301963
 20
4.6622174854
 30
0.0
 10
6.5677045693
 20
4.6621914944
 30
0.0
 10
6.5687818581
 20
4.6621914944
 30
0.0
  0
SPLINE
  5
4DE
100
AcDbEntity
  8
0
100
AcDbSpline
 62
7
  6
CONTINUOUS
 70
0
 71
3
 72
28
 73
24
 74
0
 42
0.0000001
 43
0.0000001
 44
0.0000000001
 40
0.0
 40
0.0
 40
0.0
 40
0.0
 40
0.0707740524
 40
0.1412488197
 40
0.2112753535
 40
0.2806748095
 40
0.3492396118
 40
0.4167338631
 40
0.4829057839
 40
0.547510274
 40
0.6103386278
 40
0.6410523505
 40
0.6712787962
 40
0.7010189344
 40
0.7302810512
 40
0.7590791833
 40
0.787428147
 40
0.8153480831
 40
0.8428553164
 40
0.8699693739
 40
0.8967018018
 40
0.9490687862
 40
1.0
 40
1.0
 40
1.0
 40
1.0
 10
7.1412891904
 20
4.7908288516
 30
0.0
 10
7.1415892159
 20
4.7934306607
 30
0.0
 10
7.1424084272
 20
4.7986006649
 30
0.0
 10
7.1442912875
 20
4.8061985454
 30
0.0
 10
7.1468142899
 20
4.8135558188
 30
0.0
 10
7.1499612374
 20
4.8205918043
 30
0.0
 10
7.1537079891
 20
4.8272211056
 30
0.0
 10
7.1580179916
 20
4.833354478
 30
0.0
 10
7.1628392627
 20
4.838903326
 30
0.0
 10
7.1681009134
 20
4.8437864873
 30
0.0
 10
7.1728188114
 20
4.8472727299
 30
0.0
 10
7.1767271076
 20
4.8496649589
 30
0.0
 10
7.1796872297
 20
4.8512496922
 30
0.0
 10
7.182684276
 20
4.8526397611
 30
0.0
 10
7.1857047416
 20
4.8538414819
 30
0.0
 10
7.1887363238
 20
4.8548631607
 30
0.0
 10
7.1917682573
 20
4.8557147862
 30
0.0
 10
7.1947907678
 20
4.8564094353
 30
0.0
 10
7.1977959426
 20
4.8569611735
 30
0.0
 10
7.2007768885
 20
4.8573873227
 30
0.0
 10
7.2046854084
 20
4.8578086598
 30
0.0
 10
7.2094888899
 20
4.8581218496
 30
0.0
 10
7.2133091837
 20
4.8582558781
 30
0.0
 10
7.2151928046
 20
4.858321118
 30
0.0
  0
LINE
  5
4DF
100
AcDbEntity
  8
0
100
AcDbLine
 62
7
  6
CONTINUOUS
 10
7.1677079232
 20
5.0511129378
 11
7.1658922169
 21
5.0524656604
  0
LINE
  5
4E0
100
AcDbEntity
  8
0
100
AcDbLine
 62
7
  6
CONTINUOUS
 10
7.1658922169
 20
5.0524656604
 11
7.1654113391
 21
5.0528866987
  0
LINE
  5
4E1
100
AcDbEntity
  8
0
100
AcDbLine
 62
7
  6
CONTINUOUS
 10
7.1654113391
 20
5.0528866987
 11
7.1646323623
 21
5.0538596351
  0
SPLINE
  5
4E2
100
AcDbEntity
  8
0
100
AcDbSpline
 62
7
  6
CONTINUOUS
 70
0
 71
3
 72
23
 73
19
 74
0
 42
0.0000001
 43
0.0000001
 44
0.0000000001
 40
0.0
 40
0.0
 40
0.0
 40
0.0
 40
0.0491358013
 40
0.1007398245
 40
0.1555454892
 40
0.2144914636
 40
0.2786943639
 40
0.3491834682
 40
0.4260198021
 40
0.5067529113
 40
0.5864136898
 40
0.6608061076
 40
0.7286640297
 40
0.7906042525
 40
0.8477518949
 40
0.9011635188
 40
0.9516941098
 40
1.0
 40
1.0
 40
1.0
 40
1.0
 10
7.3235305425
 20
3.7828649313
 30
0.0
 10
7.3243811469
 20
3.783532662
 30
0.0
 10
7.3260717983
 20
3.7849713449
 30
0.0
 10
7.3284824268
 20
3.787408151
 30
0.0
 10
7.330789192
 20
3.7902306283
 30
0.0
 10
7.3329407953
 20
3.7935125392
 30
0.0
 10
7.3348535731
 20
3.7973325578
 30
0.0
 10
7.3363927259
 20
3.8017409822
 30
0.0
 10
7.3373707252
 20
3.8066822575
 30
0.0
 10
7.3376093812
 20
3.8119184335
 30
0.0
 10
7.3370563481
 20
3.8170759551
 30
0.0
 10
7.3358273139
 20
3.8218195974
 30
0.0
 10
7.3341172301
 20
3.8259888989
 30
0.0
 10
7.3320950864
 20
3.8295827565
 30
0.0
 10
7.3298730039
 20
3.8326695695
 30
0.0
 10
7.3275193961
 20
3.835328154
 30
0.0
 10
7.3250765688
 20
3.8376274196
 30
0.0
 10
7.3233733805
 20
3.8389845681
 30
0.0
 10
7.322517446
 20
3.839615123
 30
0.0
  0
SPLINE
  5
4E3
100
AcDbEntity
  8
0
100
AcDbSpline
 62
7
  6
CONTINUOUS
 70
0
 71
3
 72
23
 73
19
 74
0
 42
0.0000001
 43
0.0000001
 44
0.0000000001
 40
0.0
 40
0.0
 40
0.0
 40
0.0
 40
0.0491105658
 40
0.1006948819
 40
0.1554875688
 40
0.2144286507
 40
0.2786361236
 40
0.3491402173
 40
0.4260013022
 40
0.506764869
 40
0.5864545692
 40
0.6608680857
 40
0.7287367717
 40
0.7906776159
 40
0.8478169513
 40
0.9012127401
 40
0.9517212687
 40
1.0
 40
1.0
 40
1.0
 40
1.0
 10
6.8090410489
 20
3.7828649222
 30
0.0
 10
6.8098903929
 20
3.7835326934
 30
0.0
 10
6.8115785458
 20
3.7849714841
 30
0.0
 10
6.8139854655
 20
3.7874083303
 30
0.0
 10
6.8162886726
 20
3.7902308508
 30
0.0
 10
6.8184369424
 20
3.7935128005
 30
0.0
 10
6.8203467351
 20
3.797332837
 30
0.0
 10
6.8218834596
 20
3.8017412284
 30
0.0
 10
6.8228598959
 20
3.8066823881
 30
0.0
 10
6.8230981685
 20
3.8119183828
 30
0.0
 10
6.8225460278
 20
3.8170757433
 30
0.0
 10
6.8213189506
 20
3.8218193081
 30
0.0
 10
6.8196115536
 20
3.8259886045
 30
0.0
 10
6.8175925563
 20
3.8295824938
 30
0.0
 10
6.8153739101
 20
3.8326693509
 30
0.0
 10
6.8130239286
 20
3.8353279798
 30
0.0
 10
6.8105848576
 20
3.8376272848
 30
0.0
 10
6.8088841906
 20
3.8389845316
 30
0.0
 10
6.8080295273
 20
3.839615123
 30
0.0
  0
ENDSEC
  0
SECTION
  2
OBJECTS
  0
DICTIONARY
  5
C
100
AcDbDictionary
280
0
281
1
  3
ACAD_GROUP
350
D
  3
ACAD_MLINESTYLE
350
17
  3
ACAD_LAYOUT
350
1A
  3
ACAD_PLOTSETTINGS
350
19
  3
ACAD_PLOTSTYLENAME
350
E
  0
DICTIONARY
  5
D
102
{ACAD_REACTORS
330
C
102
}
100
AcDbDictionary
280
0
281
1
  0
ACDBDICTIONARYWDFLT
  5
E
102
{ACAD_REACTORS
330
C
102
}
100
AcDbDictionary
281
1
  3
Normal
350
F
100
AcDbDictionaryWithDefault
340
F
  0
DICTIONARY
  5
17
102
{ACAD_REACTORS
330
C
102
}
100
AcDbDictionary
280
0
281
1
  3
Standard
350
18
  0
DICTIONARY
  5
19
102
{ACAD_REACTORS
330
C
102
}
100
AcDbDictionary
281
1
  0
DICTIONARY
  5
1A
102
{ACAD_REACTORS
330
C
102
}
100
AcDbDictionary
281
1
  3
Model
350
4E4
  3
Layout1
350
4E5
  0
ACDBPLACEHOLDER
  5
F
102
{ACAD_REACTORS
330
E
102
}
  0
MLINESTYLE
  5
18
102
{ACAD_REACTORS
330
17
102
}
100
AcDbMlineStyle
  2
STANDARD
 70
0
  3

 62
256
 51
90.0
 52
90.0
 71
2
 49
0.5
 62
256
  6
BYLAYER
 49
-0.5
 62
256
  6
BYLAYER
  0
LAYOUT
  5
4E4
102
{ACAD_REACTORS
330
1A
102
}
100
AcDbPlotSettings
  1

  2
none_device
  4
ANSI_A_(11.00_x_8.50_Inches)
  6

 40
0.0
 41
0.0
 42
0.0
 43
0.0
 44
279.4
 45
215.9
 46
0.0
 47
0.0
 48
0.0
 49
0.0
140
0.0
141
0.0
142
1.0
143
1.0
 70
1024
 72
0
 73
0
 74
0
  7

 75
0
147
1.0
148
0.0
149
0.0
100
AcDbLayout
  1
Model
 70
0
 71
0
 10
0.0
 20
0.0
 11
11.0
 21
8.5
 12
0.0
 22
0.0
 32
0.0
 14
0.0
 24
0.0
 34
0.0
 15
0.0
 25
0.0
 35
0.0
146
0.0
 13
0.0
 23
0.0
 33
0.0
 16
1.0
 26
0.0
 36
0.0
 17
0.0
 27
1.0
 37
0.0
 76
0
330
202
345
0
346
0
  0
LAYOUT
  5
4E5
102
{ACAD_REACTORS
330
1A
102
}
100
AcDbPlotSettings
  1

  2
none_device
  4
ANSI_A_(11.00_x_8.50_Inches)
  6

 40
0.0
 41
0.0
 42
0.0
 43
0.0
 44
279.4
 45
215.9
 46
0.0
 47
0.0
 48
0.0
 49
0.0
140
0.0
141
0.0
142
1.0
143
1.0
 70
0
 72
0
 73
0
 74
0
  7

 75
0
147
1.0
148
0.0
149
0.0
100
AcDbLayout
  1
Layout1
 70
0
 71
1
 10
0.0
 20
0.0
 11
11.0
 21
8.5
 12
0.0
 22
0.0
 32
0.0
 14
0.0
 24
0.0
 34
0.0
 15
0.0
 25
0.0
 35
0.0
146
0.0
 13
0.0
 23
0.0
 33
0.0
 16
1.0
 26
0.0
 36
0.0
 17
0.0
 27
1.0
 37
0.0
 76
0
330
203
345
0
346
0
  0
ENDSEC
  0
EOF
