999
DXF file: 9460_front.dxf
999
Pro/ENGINEER 2018400 by Parametric Technology Corporation
  0
SECTION
  2
HEADER
  9
$ACADVER
  1
AC1027
  9
$DWGCODEPAGE
  3
ANSI_1252
  9
$EXTMAX
 10
11.0
 20
8.5
 30
0.0
  9
$EXTMIN
 10
0.0
 20
0.0
 30
0.0
  9
$LIMMIN
 10
0.0
 20
0.0
  9
$LIMMAX
 10
11.0
 20
8.5
  9
$VIEWCTR
 10
5.5
 20
4.25
  9
$VIEWSIZE
 40
8.5
  9
$CLAYER
  8
0
  9
$LTSCALE
 40
0.605
  9
$CELTYPE
  6
BYLAYER
  9
$DIMSCALE
 40
1.0
  9
$DIMASZ
 40
0.1
  9
$DIMEXO
 40
0.0625
  9
$DIMDLI
 40
0.418
  9
$DIMEXE
 40
0.125
  9
$DIMCEN
 40
0.099
  9
$DIMLFAC
 40
1.0
  9
$DIMBLK
  1
_FILLED
  9
$DIMALT
 70
1
  9
$DIMALTD
 70
1
  9
$DIMALTTD
 70
2
  9
$DIMALTF
 40
25.4
  9
$DIMTXT
 40
0.08
  9
$DIMTOL
 70
1
  9
$DIMLIM
 70
0
  9
$DIMTFAC
 40
1.0
  9
$DIMTP
 40
0.01
  9
$DIMTM
 40
0.01
  9
$DIMGAP
 40
0.09
  9
$DIMDSEP
 70
46
  9
$AUNITS
 70
0
  9
$PDMODE
 70
3
  9
$PDSIZE
 40
0.3125
  9
$HANDSEED
  5
627
  9
$TILEMODE
 70
1
  9
$MEASUREMENT
 70
0
  9
$INSUNITS
 70
1
  0
ENDSEC
  0
SECTION
  2
CLASSES
  0
CLASS
  1
ACDBDICTIONARYWDFLT
  2
AcDbDictionaryWithDefault
  3
AutoCAD 2000
 90
0
 91
1
280
0
281
0
  0
CLASS
  1
ACDBPLACEHOLDER
  2
AcDbPlaceHolder
  3
AutoCAD 2000
 90
0
 91
1
280
0
281
0
  0
CLASS
  1
LAYOUT
  2
AcDbLayout
  3
AutoCAD 2000
 90
0
 91
0
280
0
281
0
  0
ENDSEC
  0
SECTION
  2
TABLES
  0
TABLE
  2
VPORT
  5
8
100
AcDbSymbolTable
 70
2
  0
VPORT
  5
1F4
100
AcDbSymbolTableRecord
100
AcDbViewportTableRecord
  2
*ACTIVE
 70
0
 10
0.0
 20
0.0
 11
1.0
 21
1.0
 12
5.5
 22
4.25
 13
0.0
 23
0.0
 14
1.0
 24
1.0
 15
0.0
 25
0.0
 16
0.0
 26
0.0
 36
1.0
 17
0.0
 27
0.0
 37
0.0
 40
8.5
 41
1.2941176471
 42
50.0
 43
0.0
 44
0.0
 50
0.0
 51
0.0
 71
0
 72
100
 73
1
 74
1
 75
0
 76
0
 77
0
 78
0
  0
ENDTAB
  0
TABLE
  2
LTYPE
  5
5
100
AcDbSymbolTable
 70
6
  0
LTYPE
  5
14
100
AcDbSymbolTableRecord
100
AcDbLinetypeTableRecord
  2
BYBLOCK
 70
0
  3

 72
65
 73
0
 40
0.0
  0
LTYPE
  5
15
100
AcDbSymbolTableRecord
100
AcDbLinetypeTableRecord
  2
BYLAYER
 70
0
  3

 72
65
 73
0
 40
0.0
  0
LTYPE
  5
16
100
AcDbSymbolTableRecord
100
AcDbLinetypeTableRecord
  2
CONTINUOUS
 70
64
  3
Solid line
 72
65
 73
0
 40
0.0
  0
LTYPE
  5
1F5
100
AcDbSymbolTableRecord
100
AcDbLinetypeTableRecord
  2
CENTER
 70
64
  3
____ _ ____ _ ____ _ ____ _ ____ _ ____ _ ____
 72
65
 73
4
 40
0.6
 49
0.375
 74
0
 49
-0.075
 74
0
 49
0.075
 74
0
 49
-0.075
 74
0
  0
LTYPE
  5
1F6
100
AcDbSymbolTableRecord
100
AcDbLinetypeTableRecord
  2
HIDDEN
 70
64
  3
- - - - - - - - - - - - - - - - - - - -
 72
65
 73
2
 40
0.2
 49
0.1
 74
0
 49
-0.1
 74
0
  0
LTYPE
  5
1F7
100
AcDbSymbolTableRecord
100
AcDbLinetypeTableRecord
  2
PHANTOM
 70
64
  3
_____ _ _ _____ _ _ _____ _ _ _____
 72
65
 73
6
 40
0.8
 49
0.45
 74
0
 49
-0.05
 74
0
 49
0.1
 74
0
 49
-0.05
 74
0
 49
0.1
 74
0
 49
-0.05
 74
0
  0
LTYPE
  5
1F8
100
AcDbSymbolTableRecord
100
AcDbLinetypeTableRecord
  2
DOT
 70
64
  3
. . . . . . . . . . . . . . . . . . . .
 72
65
 73
2
 40
0.2
 49
0.1
 74
0
 49
-0.1
 74
0
  0
LTYPE
  5
1F9
100
AcDbSymbolTableRecord
100
AcDbLinetypeTableRecord
  2
DASHED
 70
64
  3
- - - - - - - - - - - - - - - - - - - -
 72
65
 73
2
 40
0.2
 49
0.1
 74
0
 49
-0.1
 74
0
  0
ENDTAB
  0
TABLE
  2
LAYER
  5
2
100
AcDbSymbolTable
 70
36
  0
LAYER
  5
10
100
AcDbSymbolTableRecord
100
AcDbLayerTableRecord
  2
0
 70
0
 62
7
  6
CONTINUOUS
370
-3
390
F
  0
LAYER
  5
1FA
100
AcDbSymbolTableRecord
100
AcDbLayerTableRecord
  2
DEFAULT_1
 70
0
 62
7
  6
CENTER
370
-3
390
F
  0
LAYER
  5
1FB
100
AcDbSymbolTableRecord
100
AcDbLayerTableRecord
  2
DEFAULT_2
 70
0
 62
8
  6
HIDDEN
370
-3
390
F
  0
LAYER
  5
1FC
100
AcDbSymbolTableRecord
100
AcDbLayerTableRecord
  2
DEFAULT_3
 70
0
 62
7
  6
PHANTOM
370
-3
390
F
  0
LAYER
  5
1FD
100
AcDbSymbolTableRecord
100
AcDbLayerTableRecord
  2
DEFAULT_COORDINATE_SYSTEM
 70
0
 62
7
  6
CONTINUOUS
370
-3
390
F
  0
LAYER
  5
1FE
100
AcDbSymbolTableRecord
100
AcDbLayerTableRecord
  2
DEFAULT_DATUM_AXES
 70
0
 62
7
  6
CONTINUOUS
370
-3
390
F
  0
LAYER
  5
1FF
100
AcDbSymbolTableRecord
100
AcDbLayerTableRecord
  2
DEFAULT_DATUM_PLANES
 70
0
 62
7
  6
CONTINUOUS
370
-3
390
F
  0
ENDTAB
  0
TABLE
  2
STYLE
  5
3
100
AcDbSymbolTable
 70
1
  0
STYLE
  5
11
100
AcDbSymbolTableRecord
100
AcDbTextStyleTableRecord
  2
STANDARD
 70
0
 40
0.0
 41
0.8
 50
0.0
 71
0
 42
0.2
  3
txt
  4

  0
STYLE
  5
200
100
AcDbSymbolTableRecord
100
AcDbTextStyleTableRecord
  2
TEXTSTYLE_1
 70
0
 40
0.0
 41
0.8
 50
0.0
 71
0
 42
0.2
  3
gdt
  4

  0
ENDTAB
  0
TABLE
  2
VIEW
  5
6
100
AcDbSymbolTable
 70
0
  0
ENDTAB
  0
TABLE
  2
UCS
  5
7
100
AcDbSymbolTable
 70
0
  0
ENDTAB
  0
TABLE
  2
APPID
  5
9
100
AcDbSymbolTable
 70
1
  0
APPID
  5
201
100
AcDbSymbolTableRecord
100
AcDbRegAppTableRecord
  2
ACAD
 70
0
  0
ENDTAB
  0
TABLE
  2
BLOCK_RECORD
  5
1
100
AcDbSymbolTable
 70
0
  0
BLOCK_RECORD
  5
202
100
AcDbSymbolTableRecord
100
AcDbBlockTableRecord
  2
*Model_Space
  0
BLOCK_RECORD
  5
203
100
AcDbSymbolTableRecord
100
AcDbBlockTableRecord
  2
*Paper_Space
  0
BLOCK_RECORD
  5
204
100
AcDbSymbolTableRecord
100
AcDbBlockTableRecord
  2
_FILLED
  0
ENDTAB
  0
TABLE
  2
DIMSTYLE
  5
A
100
AcDbSymbolTable
 70
1
100
AcDbDimStyleTable
 71
0
  0
DIMSTYLE
105
205
100
AcDbSymbolTableRecord
100
AcDbDimStyleTableRecord
  2
STANDARD
 70
0
  3

  4

 40
1.0
 41
0.1
 42
0.0625
 43
0.38
 44
0.125
 45
0.0
 46
0.0
 47
0.01
 48
0.01
140
0.08
141
0.09
142
0.0
143
25.4
144
1.0
145
0.0
146
1.0
147
0.09
 71
1.0
 72
0.0
 73
1
 74
1
 75
0
 76
0
 77
0
 78
4
 79
1
170
1
171
1
172
0
173
0
174
0
175
0
176
0
177
0
178
0
270
2
179
2
271
2
272
2
273
2
274
2
275
0
280
0
281
0
282
0
283
1
284
4
285
0
286
0
287
3
288
0
340
11
278
46
341
204
342
204
343
204
344
204
  0
ENDTAB
  0
ENDSEC
  0
SECTION
  2
BLOCKS
  0
BLOCK
  5
20
100
AcDbEntity
  8
0
100
AcDbBlockBegin
  2
*Model_Space
 70
0
 10
0.0
 20
0.0
 30
0.0
  3
*Model_Space
  1

  0
ENDBLK
  5
21
100
AcDbEntity
  8
0
100
AcDbBlockEnd
  0
BLOCK
  5
1C
100
AcDbEntity
  8
0
100
AcDbBlockBegin
  2
*Paper_Space
 70
0
 10
0.0
 20
0.0
 30
0.0
  3
*Paper_Space
  1

  0
ENDBLK
  5
1D
100
AcDbEntity
  8
0
100
AcDbBlockEnd
  0
BLOCK
  5
206
100
AcDbEntity
  8
0
100
AcDbBlockBegin
  2
_FILLED
 70
64
 10
0.0
 20
0.0
  3
_FILLED
  1

  0
SOLID
  5
207
100
AcDbEntity
  8
0
  6
BYBLOCK
 62
0
100
AcDbTrace
 10
0.0
 20
0.0
 11
-1.0
 21
0.2
 12
-1.0
 22
-0.2
 13
-1.0
 23
-0.2
  0
ENDBLK
  5
208
100
AcDbEntity
  8
0
  6
BYBLOCK
 62
0
100
AcDbBlockEnd
  0
ENDSEC
  0
SECTION
  2
ENTITIES
  0
MTEXT
  5
209
100
AcDbEntity
  8
0
100
AcDbMText
 62
2
  6
CONTINUOUS
  7
STANDARD
 71
3
 72
1
 10
4.6601909938
 20
0.538752795
 30
0.0
 11
1.0
 21
0.0
 31
0.0
 73
2
 44
0.9
  1
SCALE  .500
 40
0.08
 41
0.704
  0
LINE
  5
20A
100
AcDbEntity
  8
0
100
AcDbLine
 62
7
  6
CONTINUOUS
 10
0.0
 20
0.0
 11
0.0
 21
8.5
  0
LINE
  5
20B
100
AcDbEntity
  8
0
100
AcDbLine
 62
7
  6
CONTINUOUS
 10
0.0
 20
0.0
 11
11.0
 21
0.0
  0
LINE
  5
20C
100
AcDbEntity
  8
0
100
AcDbLine
 62
7
  6
CONTINUOUS
 10
0.0
 20
8.5
 11
11.0
 21
8.5
  0
LINE
  5
20D
100
AcDbEntity
  8
0
100
AcDbLine
 62
7
  6
CONTINUOUS
 10
11.0
 20
0.0
 11
11.0
 21
8.5
  0
LINE
  5
20E
100
AcDbEntity
  8
0
100
AcDbLine
 62
7
  6
CONTINUOUS
 10
1.9611475106
 20
1.3146089632
 11
2.041954885
 21
1.0105774861
  0
LINE
  5
20F
100
AcDbEntity
  8
0
100
AcDbLine
 62
7
  6
CONTINUOUS
 10
1.8130942445
 20
2.7091193889
 11
1.8130942445
 21
2.9343862011
  0
LINE
  5
210
100
AcDbEntity
  8
0
100
AcDbLine
 62
7
  6
CONTINUOUS
 10
1.8462274845
 20
0.6807452089
 11
1.8462274845
 21
0.653252795
  0
LINE
  5
211
100
AcDbEntity
  8
0
100
AcDbLine
 62
7
  6
CONTINUOUS
 10
1.854138873
 20
2.7378591472
 11
1.854138873
 21
2.9056464428
  0
LINE
  5
212
100
AcDbEntity
  8
0
100
AcDbLine
 62
7
  6
CONTINUOUS
 10
1.8667274845
 20
2.7272073502
 11
1.8667274845
 21
2.9162982399
  0
LINE
  5
213
100
AcDbEntity
  8
0
100
AcDbLine
 62
7
  6
CONTINUOUS
 10
1.8791590638
 20
2.7262941484
 11
1.8791590638
 21
2.9172114416
  0
LINE
  5
214
100
AcDbEntity
  8
0
100
AcDbLine
 62
7
  6
CONTINUOUS
 10
9.2779774845
 20
0.633752795
 11
8.1229774845
 21
0.633752795
  0
LINE
  5
215
100
AcDbEntity
  8
0
100
AcDbLine
 62
7
  6
CONTINUOUS
 10
2.7852274815
 20
0.633752795
 11
1.8657294984
 21
0.633752795
  0
LINE
  5
216
100
AcDbEntity
  8
0
100
AcDbLine
 62
7
  6
CONTINUOUS
 10
5.8657276393
 20
0.633752795
 11
6.7852273296
 21
0.633752795
  0
LINE
  5
217
100
AcDbEntity
  8
0
100
AcDbLine
 62
7
  6
CONTINUOUS
 10
9.2879774845
 20
0.643752795
 11
8.1129774845
 21
0.643752795
  0
LINE
  5
218
100
AcDbEntity
  8
0
100
AcDbLine
 62
7
  6
CONTINUOUS
 10
1.8462274845
 20
0.653252795
 11
2.8047274845
 21
0.653252795
  0
LINE
  5
219
100
AcDbEntity
  8
0
100
AcDbLine
 62
7
  6
CONTINUOUS
 10
5.8462274845
 20
0.653252795
 11
6.8047274845
 21
0.653252795
  0
LINE
  5
21A
100
AcDbEntity
  8
0
100
AcDbLine
 62
7
  6
CONTINUOUS
 10
1.8462274845
 20
0.6807452089
 11
2.8047274845
 21
0.6807452089
  0
LINE
  5
21B
100
AcDbEntity
  8
0
100
AcDbLine
 62
7
  6
CONTINUOUS
 10
5.8462274845
 20
0.6807452089
 11
6.8047274845
 21
0.6807452089
  0
LINE
  5
21C
100
AcDbEntity
  8
0
100
AcDbLine
 62
7
  6
CONTINUOUS
 10
9.2879774845
 20
0.686252795
 11
8.1129774845
 21
0.686252795
  0
LINE
  5
21D
100
AcDbEntity
  8
0
100
AcDbLine
 62
7
  6
CONTINUOUS
 10
1.8607900987
 20
0.6996097848
 11
2.7901648702
 21
0.6996097848
  0
LINE
  5
21E
100
AcDbEntity
  8
0
100
AcDbLine
 62
7
  6
CONTINUOUS
 10
5.8607900987
 20
0.6996097848
 11
6.7901648702
 21
0.6996097848
  0
LINE
  5
21F
100
AcDbEntity
  8
0
100
AcDbLine
 62
7
  6
CONTINUOUS
 10
9.2729774845
 20
0.701252795
 11
8.1279774845
 21
0.701252795
  0
LINE
  5
220
100
AcDbEntity
  8
0
100
AcDbLine
 62
7
  6
CONTINUOUS
 10
9.1354774845
 20
0.821252795
 11
8.2654774845
 21
0.821252795
  0
LINE
  5
221
100
AcDbEntity
  8
0
100
AcDbLine
 62
6
  6
CONTINUOUS
 10
2.0284774845
 20
1.8212349418
 11
2.0284774845
 21
1.908852341
  0
LINE
  5
222
100
AcDbEntity
  8
0
100
AcDbLine
 62
7
  6
CONTINUOUS
 10
2.0498874845
 20
1.814752795
 11
2.0498874845
 21
1.6973265222
  0
LINE
  5
223
100
AcDbEntity
  8
0
100
AcDbLine
 62
7
  6
CONTINUOUS
 10
2.0598944796
 20
2.8993069566
 11
2.0598944796
 21
2.7441986332
  0
LINE
  5
224
100
AcDbEntity
  8
0
100
AcDbLine
 62
7
  6
CONTINUOUS
 10
2.0617274845
 20
3.0153948436
 11
2.0617274845
 21
2.979752795
  0
LINE
  5
225
100
AcDbEntity
  8
0
100
AcDbLine
 62
7
  6
CONTINUOUS
 10
2.0709744964
 20
2.8704243079
 11
2.0709744964
 21
2.7730812821
  0
LINE
  5
226
100
AcDbEntity
  8
0
100
AcDbLine
 62
7
  6
CONTINUOUS
 10
2.1537274845
 20
2.654252795
 11
2.1537274845
 21
2.474752795
  0
LINE
  5
227
100
AcDbEntity
  8
0
100
AcDbLine
 62
7
  6
CONTINUOUS
 10
2.1929774845
 20
3.0596640864
 11
2.1929774845
 21
3.0602381098
  0
LINE
  5
228
100
AcDbEntity
  8
0
100
AcDbLine
 62
7
  6
CONTINUOUS
 10
2.2012274845
 20
3.0614872175
 11
2.2012274845
 21
3.0622293535
  0
LINE
  5
229
100
AcDbEntity
  8
0
100
AcDbLine
 62
7
  6
CONTINUOUS
 10
2.2212274845
 20
3.0644700029
 11
2.2212274845
 21
3.0651959502
  0
LINE
  5
22A
100
AcDbEntity
  8
0
100
AcDbLine
 62
7
  6
CONTINUOUS
 10
2.2294774845
 20
3.0656818255
 11
2.2294774845
 21
3.0651118698
  0
LINE
  5
22B
100
AcDbEntity
  8
0
100
AcDbLine
 62
7
  6
CONTINUOUS
 10
2.2379774845
 20
3.0661264033
 11
2.2379774845
 21
3.0666956078
  0
LINE
  5
22C
100
AcDbEntity
  8
0
100
AcDbLine
 62
7
  6
CONTINUOUS
 10
2.2462274845
 20
3.0674525974
 11
2.2462274845
 21
3.0681757373
  0
LINE
  5
22D
100
AcDbEntity
  8
0
100
AcDbLine
 62
7
  6
CONTINUOUS
 10
8.9659774845
 20
0.988752795
 11
8.4349774845
 21
0.988752795
  0
LINE
  5
22E
100
AcDbEntity
  8
0
100
AcDbLine
 62
7
  6
CONTINUOUS
 10
8.4398876715
 20
0.999252795
 11
8.9610672975
 21
0.999252795
  0
LINE
  5
22F
100
AcDbEntity
  8
0
100
AcDbLine
 62
7
  6
CONTINUOUS
 10
2.041954885
 20
1.0105774861
 11
2.609000084
 21
1.0105774861
  0
LINE
  5
230
100
AcDbEntity
  8
0
100
AcDbLine
 62
7
  6
CONTINUOUS
 10
6.041954885
 20
1.0105774861
 11
6.609000084
 21
1.0105774861
  0
LINE
  5
231
100
AcDbEntity
  8
0
100
AcDbLine
 62
7
  6
CONTINUOUS
 10
8.9554774845
 20
1.061752795
 11
8.4454774845
 21
1.061752795
  0
LINE
  5
232
100
AcDbEntity
  8
0
100
AcDbLine
 62
7
  6
CONTINUOUS
 10
8.9554774845
 20
1.124252795
 11
8.4454774845
 21
1.124252795
  0
LINE
  5
233
100
AcDbEntity
  8
0
100
AcDbLine
 62
7
  6
CONTINUOUS
 10
8.4398876715
 20
1.186752795
 11
8.9610672975
 21
1.186752795
  0
LINE
  5
234
100
AcDbEntity
  8
0
100
AcDbLine
 62
7
  6
CONTINUOUS
 10
5.9925942536
 20
1.1962930325
 11
5.7669331757
 21
1.1962930325
  0
LINE
  5
235
100
AcDbEntity
  8
0
100
AcDbLine
 62
7
  6
CONTINUOUS
 10
2.6583607154
 20
1.1962930325
 11
2.8840217933
 21
1.1962930325
  0
LINE
  5
236
100
AcDbEntity
  8
0
100
AcDbLine
 62
7
  6
CONTINUOUS
 10
1.854138873
 20
2.9056464428
 11
1.8130942445
 21
2.9343862011
  0
LWPOLYLINE
  5
237
100
AcDbEntity
  8
0
100
AcDbPolyline
 62
7
  6
CONTINUOUS
 90
27
 70
0
 10
2.9653306543
 20
1.8294668046
 10
2.9662244163
 20
1.8280837556
 10
2.9670990899
 20
1.8266475742
 10
2.967935534
 20
1.8251868771
 10
2.9687330355
 20
1.8237026451
 10
2.9694906633
 20
1.8221963767
 10
2.9702077732
 20
1.8206691541
 10
2.9708837652
 20
1.8191220459
 10
2.9715178897
 20
1.8175565916
 10
2.972109624
 20
1.8159739471
 10
2.9726584943
 20
1.8143752361
 10
2.9731639354
 20
1.8127619964
 10
2.9736255325
 20
1.8111355004
 10
2.9740429569
 20
1.809496851
 10
2.9744158597
 20
1.8078473592
 10
2.9747439525
 20
1.8061882602
 10
2.9750269898
 20
1.8045207501
 10
2.9752647485
 20
1.8028460947
 10
2.9754570471
 20
1.8011655277
 10
2.9756037383
 20
1.7994802829
 10
2.975704706
 20
1.7977916338
 10
2.9757598726
 20
1.7961008233
 10
2.975769194
 20
1.7944090951
 10
2.975732661
 20
1.792717726
 10
2.9756503003
 20
1.7910279714
 10
2.9755221715
 20
1.7893410643
 10
2.9754525769
 20
1.7886124408
  0
LINE
  5
238
100
AcDbEntity
  8
0
100
AcDbLine
 62
7
  6
CONTINUOUS
 10
2.8927274845
 20
1.891752795
 11
2.8807274845
 21
1.9125374047
  0
LINE
  5
239
100
AcDbEntity
  8
0
100
AcDbLine
 62
7
  6
CONTINUOUS
 10
2.2662274845
 20
3.0692479547
 11
2.2662274845
 21
3.0699855847
  0
LINE
  5
23A
100
AcDbEntity
  8
0
100
AcDbLine
 62
7
  6
CONTINUOUS
 10
2.2744774845
 20
3.0699722045
 11
2.2744774845
 21
3.0694054143
  0
LINE
  5
23B
100
AcDbEntity
  8
0
100
AcDbLine
 62
7
  6
CONTINUOUS
 10
2.3036274845
 20
3.0714446543
 11
2.3036274845
 21
3.0719448531
  0
LINE
  5
23C
100
AcDbEntity
  8
0
100
AcDbLine
 62
7
  6
CONTINUOUS
 10
2.3461274845
 20
3.0714775769
 11
2.3461274845
 21
3.0719777544
  0
LINE
  5
23D
100
AcDbEntity
  8
0
100
AcDbLine
 62
7
  6
CONTINUOUS
 10
2.3944774845
 20
3.0680060692
 11
2.3944774845
 21
3.0685738873
  0
LINE
  5
23E
100
AcDbEntity
  8
0
100
AcDbLine
 62
7
  6
CONTINUOUS
 10
2.4037274845
 20
3.0676499665
 11
2.4037274845
 21
3.0682922697
  0
LINE
  5
23F
100
AcDbEntity
  8
0
100
AcDbLine
 62
7
  6
CONTINUOUS
 10
2.4217274845
 20
3.0656095974
 11
2.4217274845
 21
3.0662553803
  0
LINE
  5
240
100
AcDbEntity
  8
0
100
AcDbLine
 62
7
  6
CONTINUOUS
 10
2.4309774845
 20
3.0644358005
 11
2.4309774845
 21
3.0638649188
  0
LINE
  5
241
100
AcDbEntity
  8
0
100
AcDbLine
 62
7
  6
CONTINUOUS
 10
2.4972274845
 20
2.654252795
 11
2.4972274845
 21
2.474752795
  0
LINE
  5
242
100
AcDbEntity
  8
0
100
AcDbLine
 62
7
  6
CONTINUOUS
 10
2.5799804725
 20
2.7730812821
 11
2.5799804725
 21
2.8704243079
  0
LINE
  5
243
100
AcDbEntity
  8
0
100
AcDbLine
 62
7
  6
CONTINUOUS
 10
2.5892274845
 20
3.0153948436
 11
2.5892274845
 21
2.979752795
  0
LINE
  5
244
100
AcDbEntity
  8
0
100
AcDbLine
 62
7
  6
CONTINUOUS
 10
2.5910604894
 20
2.7441986331
 11
2.5910604894
 21
2.8993069566
  0
LINE
  5
245
100
AcDbEntity
  8
0
100
AcDbLine
 62
7
  6
CONTINUOUS
 10
2.6010674845
 20
1.814752795
 11
2.6010674845
 21
1.6973265222
  0
LINE
  5
246
100
AcDbEntity
  8
0
100
AcDbLine
 62
6
  6
CONTINUOUS
 10
2.0632860861
 20
2.006252795
 11
2.1169098584
 21
2.4477670009
  0
LINE
  5
247
100
AcDbEntity
  8
0
100
AcDbLine
 62
7
  6
CONTINUOUS
 10
8.4675259375
 20
1.296752795
 11
8.9334290315
 21
1.296752795
  0
LINE
  5
248
100
AcDbEntity
  8
0
100
AcDbLine
 62
7
  6
CONTINUOUS
 10
1.9611475106
 20
1.3146089632
 11
2.6898074583
 21
1.3146089632
  0
LINE
  5
249
100
AcDbEntity
  8
0
100
AcDbLine
 62
7
  6
CONTINUOUS
 10
5.9611475106
 20
1.3146089632
 11
6.6898074583
 21
1.3146089632
  0
LINE
  5
24A
100
AcDbEntity
  8
0
100
AcDbLine
 62
7
  6
CONTINUOUS
 10
6.6379406299
 20
1.5856672159
 11
6.0130143391
 21
1.5856672159
  0
LINE
  5
24B
100
AcDbEntity
  8
0
100
AcDbLine
 62
7
  6
CONTINUOUS
 10
2.6379406299
 20
1.5856672159
 11
2.0130143391
 21
1.5856672159
  0
LINE
  5
24C
100
AcDbEntity
  8
0
100
AcDbLine
 62
7
  6
CONTINUOUS
 10
2.0617274845
 20
2.979752795
 11
2.0751508782
 21
2.972002795
  0
LINE
  5
24D
100
AcDbEntity
  8
0
100
AcDbLine
 62
7
  6
CONTINUOUS
 10
2.796816096
 20
2.7378591472
 11
2.8378607245
 21
2.7091193889
  0
LINE
  5
24E
100
AcDbEntity
  8
0
100
AcDbLine
 62
7
  6
CONTINUOUS
 10
2.5820945606
 20
3.025212471
 11
2.5892274845
 21
3.0153948436
  0
LINE
  5
24F
100
AcDbEntity
  8
0
100
AcDbLine
 62
7
  6
CONTINUOUS
 10
3.4747274845
 20
2.1609681853
 11
3.4627274845
 21
2.181752795
  0
LINE
  5
250
100
AcDbEntity
  8
0
100
AcDbLine
 62
6
  6
CONTINUOUS
 10
2.5876688829
 20
2.006252795
 11
2.5340451105
 21
2.4477670009
  0
LINE
  5
251
100
AcDbEntity
  8
0
100
AcDbLine
 62
6
  6
CONTINUOUS
 10
2.6224774845
 20
1.8212349418
 11
2.6224774845
 21
1.908852341
  0
LINE
  5
252
100
AcDbEntity
  8
0
100
AcDbLine
 62
7
  6
CONTINUOUS
 10
2.7717959052
 20
2.7262941484
 11
2.7717959052
 21
2.9172114416
  0
LINE
  5
253
100
AcDbEntity
  8
0
100
AcDbLine
 62
7
  6
CONTINUOUS
 10
2.7842274845
 20
2.7272073502
 11
2.7842274845
 21
2.9162982399
  0
LINE
  5
254
100
AcDbEntity
  8
0
100
AcDbLine
 62
7
  6
CONTINUOUS
 10
2.796816096
 20
2.7378591472
 11
2.796816096
 21
2.9056464428
  0
LINE
  5
255
100
AcDbEntity
  8
0
100
AcDbLine
 62
7
  6
CONTINUOUS
 10
2.8047274845
 20
0.6807452089
 11
2.8047274845
 21
0.653252795
  0
LINE
  5
256
100
AcDbEntity
  8
0
100
AcDbLine
 62
7
  6
CONTINUOUS
 10
2.8378607245
 20
2.7091193889
 11
2.8378607245
 21
2.9343862011
  0
LINE
  5
257
100
AcDbEntity
  8
0
100
AcDbLine
 62
7
  6
CONTINUOUS
 10
2.8807274845
 20
1.9125374047
 11
2.8807274845
 21
2.1609681853
  0
LINE
  5
258
100
AcDbEntity
  8
0
100
AcDbLine
 62
7
  6
CONTINUOUS
 10
2.9290056212
 20
2.1232960803
 11
2.9290056212
 21
1.9502095098
  0
LINE
  5
259
100
AcDbEntity
  8
0
100
AcDbLine
 62
7
  6
CONTINUOUS
 10
2.9592239845
 20
2.201752795
 11
2.9592239845
 21
2.395252795
  0
LINE
  5
25A
100
AcDbEntity
  8
0
100
AcDbLine
 62
7
  6
CONTINUOUS
 10
8.5227982963
 20
2.5028315079
 11
8.5322327474
 21
2.5051837807
  0
LINE
  5
25B
100
AcDbEntity
  8
0
100
AcDbLine
 62
7
  6
CONTINUOUS
 10
8.9555055049
 20
2.6068095283
 11
8.9649925736
 21
2.6089997907
  0
LINE
  5
25C
100
AcDbEntity
  8
0
100
AcDbLine
 62
7
  6
CONTINUOUS
 10
6.0203292937
 20
1.5962930325
 11
5.7669331757
 21
1.5962930325
  0
LINE
  5
25D
100
AcDbEntity
  8
0
100
AcDbLine
 62
7
  6
CONTINUOUS
 10
2.6306256779
 20
1.5962930325
 11
2.8840217933
 21
1.5962930325
  0
LINE
  5
25E
100
AcDbEntity
  8
0
100
AcDbLine
 62
7
  6
CONTINUOUS
 10
6.6010674845
 20
1.6973265222
 11
6.0498874845
 21
1.6973265222
  0
LINE
  5
25F
100
AcDbEntity
  8
0
100
AcDbLine
 62
7
  6
CONTINUOUS
 10
2.6010674845
 20
1.6973265222
 11
2.0498874845
 21
1.6973265222
  0
LINE
  5
260
100
AcDbEntity
  8
0
100
AcDbLine
 62
7
  6
CONTINUOUS
 10
2.0498874402
 20
1.814752795
 11
2.6010675288
 21
1.814752795
  0
LINE
  5
261
100
AcDbEntity
  8
0
100
AcDbLine
 62
7
  6
CONTINUOUS
 10
6.0498874744
 20
1.814752795
 11
6.6010674945
 21
1.814752795
  0
LINE
  5
262
100
AcDbEntity
  8
0
100
AcDbLine
 62
6
  6
CONTINUOUS
 10
6.2362749748
 20
1.8902631044
 11
6.1128691944
 21
1.8902631044
  0
LINE
  5
263
100
AcDbEntity
  8
0
100
AcDbLine
 62
6
  6
CONTINUOUS
 10
6.0236666847
 20
1.8902631044
 11
6.0153709097
 21
1.8902631044
  0
LINE
  5
264
100
AcDbEntity
  8
0
100
AcDbLine
 62
6
  6
CONTINUOUS
 10
2.6224774845
 20
1.8902631044
 11
2.5512291239
 21
1.8902631044
  0
LINE
  5
265
100
AcDbEntity
  8
0
100
AcDbLine
 62
6
  6
CONTINUOUS
 10
2.396725845
 20
1.8902631044
 11
2.2542291239
 21
1.8902631044
  0
LINE
  5
266
100
AcDbEntity
  8
0
100
AcDbLine
 62
6
  6
CONTINUOUS
 10
2.099725845
 20
1.8902631044
 11
2.0284774845
 21
1.8902631044
  0
LINE
  5
267
100
AcDbEntity
  8
0
100
AcDbLine
 62
6
  6
CONTINUOUS
 10
6.4146799942
 20
1.8902631044
 11
6.5380857746
 21
1.8902631044
  0
LINE
  5
268
100
AcDbEntity
  8
0
100
AcDbLine
 62
6
  6
CONTINUOUS
 10
6.6272882842
 20
1.8902631044
 11
6.6355840593
 21
1.8902631044
  0
LINE
  5
269
100
AcDbEntity
  8
0
100
AcDbLine
 62
7
  6
CONTINUOUS
 10
5.7582274845
 20
1.891752795
 11
5.1882274845
 21
1.891752795
  0
LINE
  5
26A
100
AcDbEntity
  8
0
100
AcDbLine
 62
7
  6
CONTINUOUS
 10
3.4627274845
 20
1.891752795
 11
2.8927274845
 21
1.891752795
  0
LINE
  5
26B
100
AcDbEntity
  8
0
100
AcDbLine
 62
7
  6
CONTINUOUS
 10
2.0617274845
 20
2.679752795
 11
2.1402274845
 21
2.654252795
  0
LINE
  5
26C
100
AcDbEntity
  8
0
100
AcDbLine
 62
7
  6
CONTINUOUS
 10
2.5758040907
 20
2.972002795
 11
2.5892274845
 21
2.964252795
  0
LINE
  5
26D
100
AcDbEntity
  8
0
100
AcDbLine
 62
7
  6
CONTINUOUS
 10
2.9759774845
 20
2.181752795
 11
2.9759774845
 21
2.201752795
  0
LINE
  5
26E
100
AcDbEntity
  8
0
100
AcDbLine
 62
7
  6
CONTINUOUS
 10
3.1294493477
 20
2.1232960803
 11
3.1294493477
 21
1.9502095098
  0
LINE
  5
26F
100
AcDbEntity
  8
0
100
AcDbLine
 62
7
  6
CONTINUOUS
 10
3.2260056212
 20
2.1232960803
 11
3.2260056212
 21
1.9502095098
  0
LINE
  5
270
100
AcDbEntity
  8
0
100
AcDbLine
 62
7
  6
CONTINUOUS
 10
8.8781566727
 20
2.9706740822
 11
8.8687222215
 21
2.9683218093
  0
LINE
  5
271
100
AcDbEntity
  8
0
100
AcDbLine
 62
7
  6
CONTINUOUS
 10
8.4454494641
 20
2.8666960618
 11
8.4359623953
 21
2.8645057994
  0
LINE
  5
272
100
AcDbEntity
  8
0
100
AcDbLine
 62
7
  6
CONTINUOUS
 10
8.5107927544
 20
2.5124566388
 11
8.520350483
 21
2.514314473
  0
LINE
  5
273
100
AcDbEntity
  8
0
100
AcDbLine
 62
7
  6
CONTINUOUS
 10
8.9483552927
 20
2.5936404757
 11
8.9579439892
 21
2.5953312216
  0
LINE
  5
274
100
AcDbEntity
  8
0
100
AcDbLine
 62
7
  6
CONTINUOUS
 10
8.4993139569
 20
2.5226913606
 11
8.5089558185
 21
2.5240464359
  0
LINE
  5
275
100
AcDbEntity
  8
0
100
AcDbLine
 62
7
  6
CONTINUOUS
 10
8.9405256647
 20
2.580863684
 11
8.9501897071
 21
2.5820502792
  0
LINE
  5
276
100
AcDbEntity
  8
0
100
AcDbLine
 62
7
  6
CONTINUOUS
 10
8.4883865347
 20
2.53351281
 11
8.4980861016
 21
2.5343614121
  0
LINE
  5
277
100
AcDbEntity
  8
0
100
AcDbLine
 62
7
  6
CONTINUOUS
 10
5.7702274845
 20
1.9502095098
 11
5.7219493477
 21
1.9502095098
  0
LINE
  5
278
100
AcDbEntity
  8
0
100
AcDbLine
 62
7
  6
CONTINUOUS
 10
5.5215056212
 20
1.9502095098
 11
5.4249493477
 21
1.9502095098
  0
LINE
  5
279
100
AcDbEntity
  8
0
100
AcDbLine
 62
7
  6
CONTINUOUS
 10
5.2245056212
 20
1.9502095098
 11
5.1762274845
 21
1.9502095098
  0
LINE
  5
27A
100
AcDbEntity
  8
0
100
AcDbLine
 62
7
  6
CONTINUOUS
 10
3.4747274845
 20
1.9502095098
 11
3.4264493477
 21
1.9502095098
  0
LINE
  5
27B
100
AcDbEntity
  8
0
100
AcDbLine
 62
7
  6
CONTINUOUS
 10
3.2260056212
 20
1.9502095098
 11
3.1294493477
 21
1.9502095098
  0
LINE
  5
27C
100
AcDbEntity
  8
0
100
AcDbLine
 62
7
  6
CONTINUOUS
 10
2.9290056212
 20
1.9502095098
 11
2.8807274845
 21
1.9502095098
  0
LINE
  5
27D
100
AcDbEntity
  8
0
100
AcDbLine
 62
7
  6
CONTINUOUS
 10
8.4674084248
 20
1.995252795
 11
8.9335465441
 21
1.995252795
  0
LINE
  5
27E
100
AcDbEntity
  8
0
100
AcDbLine
 62
6
  6
CONTINUOUS
 10
2.5876688829
 20
2.006252795
 11
2.0632860861
 21
2.006252795
  0
LINE
  5
27F
100
AcDbEntity
  8
0
100
AcDbLine
 62
6
  6
CONTINUOUS
 10
6.0632860861
 20
2.006252795
 11
6.5876688829
 21
2.006252795
  0
LINE
  5
280
100
AcDbEntity
  8
0
100
AcDbLine
 62
7
  6
CONTINUOUS
 10
5.7702274845
 20
2.1232960803
 11
5.7219493477
 21
2.1232960803
  0
LINE
  5
281
100
AcDbEntity
  8
0
100
AcDbLine
 62
7
  6
CONTINUOUS
 10
5.5215056212
 20
2.1232960803
 11
5.4249493477
 21
2.1232960803
  0
LINE
  5
282
100
AcDbEntity
  8
0
100
AcDbLine
 62
7
  6
CONTINUOUS
 10
5.2245056212
 20
2.1232960803
 11
5.1762274845
 21
2.1232960803
  0
LINE
  5
283
100
AcDbEntity
  8
0
100
AcDbLine
 62
7
  6
CONTINUOUS
 10
3.4747274845
 20
2.1232960803
 11
3.4264493477
 21
2.1232960803
  0
LINE
  5
284
100
AcDbEntity
  8
0
100
AcDbLine
 62
7
  6
CONTINUOUS
 10
3.2260056212
 20
2.1232960803
 11
3.1294493477
 21
2.1232960803
  0
LINE
  5
285
100
AcDbEntity
  8
0
100
AcDbLine
 62
7
  6
CONTINUOUS
 10
2.9290056212
 20
2.1232960803
 11
2.8807274845
 21
2.1232960803
  0
LINE
  5
286
100
AcDbEntity
  8
0
100
AcDbLine
 62
7
  6
CONTINUOUS
 10
5.7582274845
 20
2.181752795
 11
5.1882274845
 21
2.181752795
  0
LINE
  5
287
100
AcDbEntity
  8
0
100
AcDbLine
 62
7
  6
CONTINUOUS
 10
3.4627274845
 20
2.181752795
 11
2.8927274845
 21
2.181752795
  0
LINE
  5
288
100
AcDbEntity
  8
0
100
AcDbLine
 62
7
  6
CONTINUOUS
 10
5.6917309845
 20
2.201752795
 11
5.2547239845
 21
2.201752795
  0
LINE
  5
289
100
AcDbEntity
  8
0
100
AcDbLine
 62
7
  6
CONTINUOUS
 10
2.9592239845
 20
2.201752795
 11
3.3962309845
 21
2.201752795
  0
LINE
  5
28A
100
AcDbEntity
  8
0
100
AcDbLine
 62
7
  6
CONTINUOUS
 10
8.9557274845
 20
2.249252795
 11
8.4452276048
 21
2.249252795
  0
LINE
  5
28B
100
AcDbEntity
  8
0
100
AcDbLine
 62
7
  6
CONTINUOUS
 10
2.5527324625
 20
3.034752795
 11
2.5820945606
 21
3.025212471
  0
LINE
  5
28C
100
AcDbEntity
  8
0
100
AcDbLine
 62
7
  6
CONTINUOUS
 10
3.3794774845
 20
2.181752795
 11
3.3794774845
 21
2.201752795
  0
LINE
  5
28D
100
AcDbEntity
  8
0
100
AcDbLine
 62
7
  6
CONTINUOUS
 10
3.3962309845
 20
2.201752795
 11
3.3962309845
 21
2.395252795
  0
LINE
  5
28E
100
AcDbEntity
  8
0
100
AcDbLine
 62
7
  6
CONTINUOUS
 10
3.4264493477
 20
2.1232960803
 11
3.4264493477
 21
1.9502095098
  0
LINE
  5
28F
100
AcDbEntity
  8
0
100
AcDbLine
 62
7
  6
CONTINUOUS
 10
3.4747274845
 20
1.9125374047
 11
3.4747274845
 21
2.1609681853
  0
LWPOLYLINE
  5
290
100
AcDbEntity
  8
0
100
AcDbPolyline
 62
7
  6
CONTINUOUS
 90
23
 70
0
 10
3.376771721
 20
1.7934795632
 10
3.3768104004
 20
1.7942056869
 10
3.3769325244
 20
1.7958867094
 10
3.3770999355
 20
1.7975638117
 10
3.3773125104
 20
1.7992357737
 10
3.3775700935
 20
1.8009013794
 10
3.3778724962
 20
1.802559418
 10
3.3782194974
 20
1.8042086837
 10
3.3786108435
 20
1.805847977
 10
3.3790462485
 20
1.8074761054
 10
3.3795253948
 20
1.8090918853
 10
3.3800479324
 20
1.8106941413
 10
3.3806134796
 20
1.8122817069
 10
3.381221626
 20
1.8138534332
 10
3.3818719259
 20
1.8154081718
 10
3.382563897
 20
1.8169447747
 10
3.3832970438
 20
1.8184621467
 10
3.3840708208
 20
1.8199591634
 10
3.3848846179
 20
1.8214346587
 10
3.3857378375
 20
1.8228875695
 10
3.386629847
 20
1.8243168389
 10
3.3875599273
 20
1.8257213423
 10
3.3880315186
 20
1.826403285
  0
LINE
  5
291
100
AcDbEntity
  8
0
100
AcDbLine
 62
7
  6
CONTINUOUS
 10
2.6898074583
 20
1.3146089632
 11
2.609000084
 21
1.0105774861
  0
LINE
  5
292
100
AcDbEntity
  8
0
100
AcDbLine
 62
7
  6
CONTINUOUS
 10
2.0688604083
 20
3.025212471
 11
2.0617274845
 21
3.0153948436
  0
LINE
  5
293
100
AcDbEntity
  8
0
100
AcDbLine
 62
7
  6
CONTINUOUS
 10
8.8901622145
 20
2.9610489512
 11
8.880604486
 21
2.959191117
  0
LINE
  5
294
100
AcDbEntity
  8
0
100
AcDbLine
 62
7
  6
CONTINUOUS
 10
8.4525996762
 20
2.8798651143
 11
8.4430109797
 21
2.8781743684
  0
LINE
  5
295
100
AcDbEntity
  8
0
100
AcDbLine
 62
7
  6
CONTINUOUS
 10
8.901641012
 20
2.9508142294
 11
8.8919991505
 21
2.9494591542
  0
LINE
  5
296
100
AcDbEntity
  8
0
100
AcDbLine
 62
7
  6
CONTINUOUS
 10
8.4604293042
 20
2.892641906
 11
8.4507652619
 21
2.8914553108
  0
LINE
  5
297
100
AcDbEntity
  8
0
100
AcDbLine
 62
7
  6
CONTINUOUS
 10
8.9125684342
 20
2.9399927801
 11
8.9028688674
 21
2.939144178
  0
LINE
  5
298
100
AcDbEntity
  8
0
100
AcDbLine
 62
7
  6
CONTINUOUS
 10
8.9320464988
 20
2.568508058
 11
8.9417460873
 21
2.5691863193
  0
LINE
  5
299
100
AcDbEntity
  8
0
100
AcDbLine
 62
7
  6
CONTINUOUS
 10
8.478040439
 20
2.544891326
 11
8.4877711253
 21
2.545231129
  0
LINE
  5
29A
100
AcDbEntity
  8
0
100
AcDbLine
 62
7
  6
CONTINUOUS
 10
8.9229158065
 20
2.5566257935
 11
8.9326509411
 21
2.5567957209
  0
LINE
  5
29B
100
AcDbEntity
  8
0
100
AcDbLine
 62
7
  6
CONTINUOUS
 10
8.9557274845
 20
2.311752795
 11
8.4452276048
 21
2.311752795
  0
LINE
  5
29C
100
AcDbEntity
  8
0
100
AcDbLine
 62
7
  6
CONTINUOUS
 10
5.6917309845
 20
2.395252795
 11
5.2547239845
 21
2.395252795
  0
LINE
  5
29D
100
AcDbEntity
  8
0
100
AcDbLine
 62
7
  6
CONTINUOUS
 10
2.9592239845
 20
2.395252795
 11
3.3962309845
 21
2.395252795
  0
LINE
  5
29E
100
AcDbEntity
  8
0
100
AcDbLine
 62
6
  6
CONTINUOUS
 10
2.5340451105
 20
2.4477670009
 11
2.1169098584
 21
2.4477670009
  0
LINE
  5
29F
100
AcDbEntity
  8
0
100
AcDbLine
 62
6
  6
CONTINUOUS
 10
6.1169098584
 20
2.4477670009
 11
6.5340451105
 21
2.4477670009
  0
LINE
  5
2A0
100
AcDbEntity
  8
0
100
AcDbLine
 62
6
  6
CONTINUOUS
 10
6.5092274845
 20
2.469752795
 11
6.1417274845
 21
2.469752795
  0
LINE
  5
2A1
100
AcDbEntity
  8
0
100
AcDbLine
 62
6
  6
CONTINUOUS
 10
2.5092274845
 20
2.469752795
 11
2.1417274845
 21
2.469752795
  0
LINE
  5
2A2
100
AcDbEntity
  8
0
100
AcDbLine
 62
7
  6
CONTINUOUS
 10
2.1537274845
 20
2.474752795
 11
2.4972274845
 21
2.474752795
  0
LINE
  5
2A3
100
AcDbEntity
  8
0
100
AcDbLine
 62
7
  6
CONTINUOUS
 10
6.1537274845
 20
2.479752795
 11
6.4972274845
 21
2.479752795
  0
LINE
  5
2A4
100
AcDbEntity
  8
0
100
AcDbLine
 62
7
  6
CONTINUOUS
 10
2.1402274388
 20
2.654252795
 11
2.5107275301
 21
2.654252795
  0
LINE
  5
2A5
100
AcDbEntity
  8
0
100
AcDbLine
 62
7
  6
CONTINUOUS
 10
6.1402274388
 20
2.659252795
 11
6.5107275301
 21
2.659252795
  0
LINE
  5
2A6
100
AcDbEntity
  8
0
100
AcDbLine
 62
7
  6
CONTINUOUS
 10
8.4683040278
 20
2.5567957209
 11
8.4780391625
 21
2.5566257935
  0
LINE
  5
2A7
100
AcDbEntity
  8
0
100
AcDbLine
 62
7
  6
CONTINUOUS
 10
3.7402274845
 20
3.176256295
 11
3.7402274845
 21
2.739249295
  0
LINE
  5
2A8
100
AcDbEntity
  8
0
100
AcDbLine
 62
7
  6
CONTINUOUS
 10
3.9536809745
 20
2.739249295
 11
3.9536809745
 21
3.176256295
  0
LINE
  5
2A9
100
AcDbEntity
  8
0
100
AcDbLine
 62
7
  6
CONTINUOUS
 10
4.0035420122
 20
2.7824683073
 11
4.0035417411
 21
2.7870654893
  0
LINE
  5
2AA
100
AcDbEntity
  8
0
100
AcDbLine
 62
7
  6
CONTINUOUS
 10
4.0035418389
 20
2.7144340958
 11
4.0035418389
 21
3.2010714943
  0
LINE
  5
2AB
100
AcDbEntity
  8
0
100
AcDbLine
 62
7
  6
CONTINUOUS
 10
4.0204774845
 20
3.498752795
 11
4.0204774845
 21
3.2443524493
  0
LINE
  5
2AC
100
AcDbEntity
  8
0
100
AcDbLine
 62
7
  6
CONTINUOUS
 10
4.0442274845
 20
4.1977840325
 11
4.0442274845
 21
4.133752795
  0
LINE
  5
2AD
100
AcDbEntity
  8
0
100
AcDbLine
 62
7
  6
CONTINUOUS
 10
4.0035417766
 20
2.9153236157
 11
4.0035414362
 21
2.9293835333
  0
LINE
  5
2AE
100
AcDbEntity
  8
0
100
AcDbLine
 62
7
  6
CONTINUOUS
 10
4.0035416872
 20
2.7918226205
 11
4.0035412296
 21
2.8124920982
  0
LINE
  5
2AF
100
AcDbEntity
  8
0
100
AcDbLine
 62
7
  6
CONTINUOUS
 10
4.0035417177
 20
3.1284400322
 11
4.0035418122
 21
3.1537127566
  0
LINE
  5
2B0
100
AcDbEntity
  8
0
100
AcDbLine
 62
7
  6
CONTINUOUS
 10
4.0035415408
 20
3.0071610497
 11
4.0035408562
 21
3.0278409339
  0
LINE
  5
2B1
100
AcDbEntity
  8
0
100
AcDbLine
 62
7
  6
CONTINUOUS
 10
4.0035418227
 20
2.7617926563
 11
4.0035420122
 21
2.7824683073
  0
LINE
  5
2B2
100
AcDbEntity
  8
0
100
AcDbLine
 62
7
  6
CONTINUOUS
 10
4.0035414577
 20
2.9861235517
 11
4.003542142
 21
2.9931698019
  0
LINE
  5
2B3
100
AcDbEntity
  8
0
100
AcDbLine
 62
7
  6
CONTINUOUS
 10
4.0035410013
 20
3.0917167311
 11
4.0035416763
 21
3.1236829387
  0
LINE
  5
2B4
100
AcDbEntity
  8
0
100
AcDbLine
 62
7
  6
CONTINUOUS
 10
4.003542068
 20
3.0346352481
 11
4.0035407868
 21
3.0858366099
  0
LINE
  5
2B5
100
AcDbEntity
  8
0
100
AcDbLine
 62
7
  6
CONTINUOUS
 10
4.0035413861
 20
2.8418158154
 11
4.003541529
 21
2.9083452789
  0
LINE
  5
2B6
100
AcDbEntity
  8
0
100
AcDbLine
 62
7
  6
CONTINUOUS
 10
4.0035407718
 20
2.8296685726
 11
4.0035415861
 21
2.8356776474
  0
LINE
  5
2B7
100
AcDbEntity
  8
0
100
AcDbLine
 62
7
  6
CONTINUOUS
 10
4.0035408562
 20
3.0278409339
 11
4.003542068
 21
3.0346352481
  0
LINE
  5
2B8
100
AcDbEntity
  8
0
100
AcDbLine
 62
7
  6
CONTINUOUS
 10
4.0035417786
 20
2.7215353784
 11
4.0035418068
 21
2.758104813
  0
LINE
  5
2B9
100
AcDbEntity
  8
0
100
AcDbLine
 62
7
  6
CONTINUOUS
 10
4.0035417933
 20
3.157400616
 11
4.0035414692
 21
3.2009828725
  0
LINE
  5
2BA
100
AcDbEntity
  8
0
100
AcDbLine
 62
7
  6
CONTINUOUS
 10
4.0035406904
 20
2.716634925
 11
4.0035417786
 21
2.7215353784
  0
LINE
  5
2BB
100
AcDbEntity
  8
0
100
AcDbLine
 62
7
  6
CONTINUOUS
 10
4.0035414692
 20
3.2009828725
 11
4.0035418389
 21
3.2010714943
  0
LINE
  5
2BC
100
AcDbEntity
  8
0
100
AcDbLine
 62
7
  6
CONTINUOUS
 10
6.1622888217
 20
3.0593272964
 11
6.1504774845
 21
3.0572451165
  0
LINE
  5
2BD
100
AcDbEntity
  8
0
100
AcDbLine
 62
7
  6
CONTINUOUS
 10
6.2076546135
 20
3.0671829618
 11
6.1911213671
 21
3.064432207
  0
LINE
  5
2BE
100
AcDbEntity
  8
0
100
AcDbLine
 62
7
  6
CONTINUOUS
 10
6.2058809925
 20
3.0668884402
 11
6.2048397865
 21
3.0667153401
  0
LINE
  5
2BF
100
AcDbEntity
  8
0
100
AcDbLine
 62
7
  6
CONTINUOUS
 10
6.2016794806
 20
3.0661900602
 11
6.2006184569
 21
3.0660136793
  0
LINE
  5
2C0
100
AcDbEntity
  8
0
100
AcDbLine
 62
7
  6
CONTINUOUS
 10
6.1911213671
 20
3.0649402806
 11
6.2267024287
 21
3.0708416213
  0
LINE
  5
2C1
100
AcDbEntity
  8
0
100
AcDbLine
 62
7
  6
CONTINUOUS
 10
6.21164469
 20
3.068350935
 11
6.2125371462
 21
3.0684988571
  0
LINE
  5
2C2
100
AcDbEntity
  8
0
100
AcDbLine
 62
7
  6
CONTINUOUS
 10
6.2134032134
 20
3.0686423298
 11
6.2142427614
 21
3.0687814337
  0
LINE
  5
2C3
100
AcDbEntity
  8
0
100
AcDbLine
 62
7
  6
CONTINUOUS
 10
6.223340869
 20
3.0702866447
 11
6.2251782788
 21
3.0705901381
  0
LINE
  5
2C4
100
AcDbEntity
  8
0
100
AcDbLine
 62
7
  6
CONTINUOUS
 10
6.2251782788
 20
3.0705901381
 11
6.2263519161
 21
3.0707836586
  0
LINE
  5
2C5
100
AcDbEntity
  8
0
100
AcDbLine
 62
7
  6
CONTINUOUS
 10
6.1714786174
 20
3.0618050968
 11
6.1744619932
 21
3.062248987
  0
LINE
  5
2C6
100
AcDbEntity
  8
0
100
AcDbLine
 62
7
  6
CONTINUOUS
 10
6.1714786174
 20
3.0612949259
 11
6.1744619932
 21
3.0617391139
  0
LINE
  5
2C7
100
AcDbEntity
  8
0
100
AcDbLine
 62
7
  6
CONTINUOUS
 10
6.3061216812
 20
3.0770104815
 11
6.3061274845
 21
3.0770112989
  0
LINE
  5
2C8
100
AcDbEntity
  8
0
100
AcDbLine
 62
7
  6
CONTINUOUS
 10
6.3239009765
 20
3.0772456026
 11
6.3238900319
 21
3.0772445103
  0
LINE
  5
2C9
100
AcDbEntity
  8
0
100
AcDbLine
 62
7
  6
CONTINUOUS
 10
6.3238545018
 20
3.0772421384
 11
6.3238389892
 21
3.0772408663
  0
LINE
  5
2CA
100
AcDbEntity
  8
0
100
AcDbLine
 62
7
  6
CONTINUOUS
 10
6.3239774845
 20
3.077251344
 11
6.3228593133
 21
3.0771698988
  0
LINE
  5
2CB
100
AcDbEntity
  8
0
100
AcDbLine
 62
7
  6
CONTINUOUS
 10
6.323716439
 20
3.077231883
 11
6.3236921285
 21
3.0772301145
  0
LINE
  5
2CC
100
AcDbEntity
  8
0
100
AcDbLine
 62
7
  6
CONTINUOUS
 10
6.3234313702
 20
3.077211036
 11
6.3233865935
 21
3.0772077809
  0
LINE
  5
2CD
100
AcDbEntity
  8
0
100
AcDbLine
 62
7
  6
CONTINUOUS
 10
6.3061128481
 20
3.077010261
 11
6.3061274845
 21
3.0770112989
  0
LINE
  5
2CE
100
AcDbEntity
  8
0
100
AcDbLine
 62
7
  6
CONTINUOUS
 10
8.4689084702
 20
2.9049975321
 11
8.4592088817
 21
2.9043192708
  0
LINE
  5
2CF
100
AcDbEntity
  8
0
100
AcDbLine
 62
7
  6
CONTINUOUS
 10
8.9229145299
 20
2.9286142641
 11
8.9131838436
 21
2.928274461
  0
LINE
  5
2D0
100
AcDbEntity
  8
0
100
AcDbLine
 62
7
  6
CONTINUOUS
 10
8.4780391625
 20
2.9168797965
 11
8.4683040278
 21
2.9167098691
  0
LINE
  5
2D1
100
AcDbEntity
  8
0
100
AcDbLine
 62
7
  6
CONTINUOUS
 10
2.0617274845
 20
2.679752795
 11
2.5892274845
 21
2.679752795
  0
LINE
  5
2D2
100
AcDbEntity
  8
0
100
AcDbLine
 62
7
  6
CONTINUOUS
 10
6.0617274845
 20
2.684752795
 11
6.5892274845
 21
2.684752795
  0
LINE
  5
2D3
100
AcDbEntity
  8
0
100
AcDbLine
 62
7
  6
CONTINUOUS
 10
2.6042274845
 20
2.719252795
 11
2.4171157359
 21
2.719252795
  0
LINE
  5
2D4
100
AcDbEntity
  8
0
100
AcDbLine
 62
7
  6
CONTINUOUS
 10
2.0467274845
 20
2.719252795
 11
2.233839233
 21
2.719252795
  0
LINE
  5
2D5
100
AcDbEntity
  8
0
100
AcDbLine
 62
7
  6
CONTINUOUS
 10
6.6042274845
 20
2.724252795
 11
6.4171157359
 21
2.724252795
  0
LINE
  5
2D6
100
AcDbEntity
  8
0
100
AcDbLine
 62
7
  6
CONTINUOUS
 10
6.0467274845
 20
2.724252795
 11
6.233839233
 21
2.724252795
  0
LINE
  5
2D7
100
AcDbEntity
  8
0
100
AcDbLine
 62
7
  6
CONTINUOUS
 10
3.7402274845
 20
2.739249295
 11
3.9536809745
 21
2.739249295
  0
LINE
  5
2D8
100
AcDbEntity
  8
0
100
AcDbLine
 62
7
  6
CONTINUOUS
 10
4.6972739944
 20
2.739249295
 11
4.9107274845
 21
2.739249295
  0
LINE
  5
2D9
100
AcDbEntity
  8
0
100
AcDbLine
 62
7
  6
CONTINUOUS
 10
2.6042274845
 20
2.924252795
 11
2.4171157359
 21
2.924252795
  0
LINE
  5
2DA
100
AcDbEntity
  8
0
100
AcDbLine
 62
7
  6
CONTINUOUS
 10
2.0467274845
 20
2.924252795
 11
2.233839233
 21
2.924252795
  0
LINE
  5
2DB
100
AcDbEntity
  8
0
100
AcDbLine
 62
7
  6
CONTINUOUS
 10
6.6042274845
 20
2.929252795
 11
6.4171157359
 21
2.929252795
  0
LINE
  5
2DC
100
AcDbEntity
  8
0
100
AcDbLine
 62
7
  6
CONTINUOUS
 10
6.0467274845
 20
2.929252795
 11
6.233839233
 21
2.929252795
  0
LINE
  5
2DD
100
AcDbEntity
  8
0
100
AcDbLine
 62
7
  6
CONTINUOUS
 10
2.0617274845
 20
2.964252795
 11
2.5892274845
 21
2.964252795
  0
LINE
  5
2DE
100
AcDbEntity
  8
0
100
AcDbLine
 62
7
  6
CONTINUOUS
 10
6.0617274845
 20
2.969252795
 11
6.5892274845
 21
2.969252795
  0
LINE
  5
2DF
100
AcDbEntity
  8
0
100
AcDbLine
 62
7
  6
CONTINUOUS
 10
2.0751508782
 20
2.972002795
 11
2.5758040907
 21
2.972002795
  0
LINE
  5
2E0
100
AcDbEntity
  8
0
100
AcDbLine
 62
7
  6
CONTINUOUS
 10
6.0751508782
 20
2.977002795
 11
6.5758040907
 21
2.977002795
  0
LINE
  5
2E1
100
AcDbEntity
  8
0
100
AcDbLine
 62
7
  6
CONTINUOUS
 10
2.0617274845
 20
2.979752795
 11
2.5892274845
 21
2.979752795
  0
LINE
  5
2E2
100
AcDbEntity
  8
0
100
AcDbLine
 62
7
  6
CONTINUOUS
 10
6.0617274845
 20
2.984752795
 11
6.5892274845
 21
2.984752795
  0
LINE
  5
2E3
100
AcDbEntity
  8
0
100
AcDbLine
 62
7
  6
CONTINUOUS
 10
2.0617274845
 20
3.0153948436
 11
2.5892274845
 21
3.0153948436
  0
LINE
  5
2E4
100
AcDbEntity
  8
0
100
AcDbLine
 62
7
  6
CONTINUOUS
 10
6.0617274845
 20
3.0203948436
 11
6.5892274845
 21
3.0203948436
  0
LINE
  5
2E5
100
AcDbEntity
  8
0
100
AcDbLine
 62
7
  6
CONTINUOUS
 10
2.0688604083
 20
3.025212471
 11
2.5820945606
 21
3.025212471
  0
LINE
  5
2E6
100
AcDbEntity
  8
0
100
AcDbLine
 62
7
  6
CONTINUOUS
 10
8.9326509411
 20
2.9167098691
 11
8.9229158065
 21
2.9168797965
  0
LINE
  5
2E7
100
AcDbEntity
  8
0
100
AcDbLine
 62
7
  6
CONTINUOUS
 10
2.2865987978
 20
3.0711962227
 11
2.2854774844
 21
3.0712202978
  0
LINE
  5
2E8
100
AcDbEntity
  8
0
100
AcDbLine
 62
7
  6
CONTINUOUS
 10
2.2865996237
 20
3.0711962674
 11
2.2854774845
 21
3.0712202978
  0
LINE
  5
2E9
100
AcDbEntity
  8
0
100
AcDbLine
 62
7
  6
CONTINUOUS
 10
8.9131838436
 20
2.545231129
 11
8.9229145299
 21
2.544891326
  0
LINE
  5
2EA
100
AcDbEntity
  8
0
100
AcDbLine
 62
7
  6
CONTINUOUS
 10
8.4592088817
 20
2.5691863193
 11
8.4689084702
 21
2.568508058
  0
LINE
  5
2EB
100
AcDbEntity
  8
0
100
AcDbLine
 62
7
  6
CONTINUOUS
 10
8.9028688674
 20
2.5343614121
 11
8.9125684342
 21
2.53351281
  0
LINE
  5
2EC
100
AcDbEntity
  8
0
100
AcDbLine
 62
7
  6
CONTINUOUS
 10
8.4507652619
 20
2.5820502792
 11
8.4604293042
 21
2.580863684
  0
LINE
  5
2ED
100
AcDbEntity
  8
0
100
AcDbLine
 62
7
  6
CONTINUOUS
 10
8.8919991505
 20
2.5240464359
 11
8.901641012
 21
2.5226913606
  0
LINE
  5
2EE
100
AcDbEntity
  8
0
100
AcDbLine
 62
7
  6
CONTINUOUS
 10
6.0617274845
 20
2.684752795
 11
6.1402274845
 21
2.659252795
  0
LWPOLYLINE
  5
2EF
100
AcDbEntity
  8
0
100
AcDbPolyline
 62
7
  6
CONTINUOUS
 90
23
 70
0
 10
5.2629234854
 20
1.8264032683
 10
5.2633950768
 20
1.8257213255
 10
5.2643251529
 20
1.8243168288
 10
5.2652171583
 20
1.8228875668
 10
5.266070374
 20
1.8214346638
 10
5.2668841675
 20
1.8199591769
 10
5.2676579412
 20
1.818462169
 10
5.2683910851
 20
1.8169448061
 10
5.2690830537
 20
1.8154082125
 10
5.2697333517
 20
1.8138534835
 10
5.2703414965
 20
1.8122817671
 10
5.2709070426
 20
1.8106942114
 10
5.2714295797
 20
1.8090919656
 10
5.2719087258
 20
1.807476196
 10
5.2723441312
 20
1.805848078
 10
5.2727354782
 20
1.8042087953
 10
5.2730824808
 20
1.8025595402
 10
5.2733848855
 20
1.8009015123
 10
5.273642471
 20
1.7992359174
 10
5.273855049
 20
1.7975639662
 10
5.2740224636
 20
1.7958868747
 10
5.2741445918
 20
1.7942058629
 10
5.2741832815
 20
1.7934795653
  0
LINE
  5
2F0
100
AcDbEntity
  8
0
100
AcDbLine
 62
7
  6
CONTINUOUS
 10
5.1882274845
 20
1.891752795
 11
5.1762274845
 21
1.9125374047
  0
LINE
  5
2F1
100
AcDbEntity
  8
0
100
AcDbLine
 62
7
  6
CONTINUOUS
 10
4.0754774845
 20
5.484352795
 11
4.1042552301
 21
5.1666464833
  0
LINE
  5
2F2
100
AcDbEntity
  8
0
100
AcDbLine
 62
7
  6
CONTINUOUS
 10
4.0944432586
 20
4.158752795
 11
4.0944432586
 21
4.133752795
  0
LINE
  5
2F3
100
AcDbEntity
  8
0
100
AcDbLine
 62
7
  6
CONTINUOUS
 10
4.1067274845
 20
5.1571584706
 11
4.1067274845
 21
4.208752795
  0
LINE
  5
2F4
100
AcDbEntity
  8
0
100
AcDbLine
 62
7
  6
CONTINUOUS
 10
4.1067274845
 20
5.544352795
 11
4.1067274845
 21
7.981852795
  0
LINE
  5
2F5
100
AcDbEntity
  8
0
100
AcDbLine
 62
7
  6
CONTINUOUS
 10
4.2752617104
 20
4.158752795
 11
4.2752617104
 21
4.133752795
  0
LINE
  5
2F6
100
AcDbEntity
  8
0
100
AcDbLine
 62
7
  6
CONTINUOUS
 10
4.3756932586
 20
4.158752795
 11
4.3756932586
 21
4.133752795
  0
LINE
  5
2F7
100
AcDbEntity
  8
0
100
AcDbLine
 62
7
  6
CONTINUOUS
 10
2.8807274845
 20
2.1609681853
 11
2.8927274845
 21
2.181752795
  0
LINE
  5
2F8
100
AcDbEntity
  8
0
100
AcDbLine
 62
7
  6
CONTINUOUS
 10
2.3461196666
 20
3.0719769878
 11
2.3461274845
 21
3.0719777544
  0
LINE
  5
2F9
100
AcDbEntity
  8
0
100
AcDbLine
 62
7
  6
CONTINUOUS
 10
2.3461190184
 20
3.071977005
 11
2.3461274845
 21
3.0719777544
  0
LINE
  5
2FA
100
AcDbEntity
  8
0
100
AcDbLine
 62
7
  6
CONTINUOUS
 10
6.3050041774
 20
3.0761064796
 11
6.2641280568
 21
3.0739460699
  0
LINE
  5
2FB
100
AcDbEntity
  8
0
100
AcDbLine
 62
7
  6
CONTINUOUS
 10
6.2831998013
 20
3.0749469218
 11
6.2818584509
 21
3.0748762058
  0
LINE
  5
2FC
100
AcDbEntity
  8
0
100
AcDbLine
 62
7
  6
CONTINUOUS
 10
6.2687846145
 20
3.0741891393
 11
6.2641280376
 21
3.0739460671
  0
LINE
  5
2FD
100
AcDbEntity
  8
0
100
AcDbLine
 62
7
  6
CONTINUOUS
 10
6.2466622902
 20
3.0731505633
 11
6.2454774845
 21
3.0731145029
  0
LINE
  5
2FE
100
AcDbEntity
  8
0
100
AcDbLine
 62
7
  6
CONTINUOUS
 10
2.3639774845
 20
3.07129633
 11
2.3628646072
 21
3.0712726494
  0
LWPOLYLINE
  5
2FF
100
AcDbEntity
  8
0
100
AcDbPolyline
 62
7
  6
CONTINUOUS
 90
10
 70
0
 10
6.3239774845
 20
3.077251344
 10
6.3239417181
 20
3.0772511787
 10
6.3239452526
 20
3.077250919
 10
6.3239669287
 20
3.0772505463
 10
6.3239700346
 20
3.077250004
 10
6.3239491329
 20
3.0772492859
 10
6.3239393588
 20
3.0772484746
 10
6.323937245
 20
3.0772476028
 10
6.3239176173
 20
3.0772466376
 10
6.323871718
 20
3.077243355
  0
LINE
  5
300
100
AcDbEntity
  8
0
100
AcDbLine
 62
7
  6
CONTINUOUS
 10
6.0688604083
 20
3.030212471
 11
6.5820945606
 21
3.030212471
  0
LINE
  5
301
100
AcDbEntity
  8
0
100
AcDbLine
 62
7
  6
CONTINUOUS
 10
2.0982225064
 20
3.034752795
 11
2.5527324625
 21
3.034752795
  0
LINE
  5
302
100
AcDbEntity
  8
0
100
AcDbLine
 62
7
  6
CONTINUOUS
 10
6.0982225064
 20
3.039752795
 11
6.5527324625
 21
3.039752795
  0
LINE
  5
303
100
AcDbEntity
  8
0
100
AcDbLine
 62
7
  6
CONTINUOUS
 10
2.5230498043
 20
3.0466575015
 11
2.1279051647
 21
3.0466575015
  0
LINE
  5
304
100
AcDbEntity
  8
0
100
AcDbLine
 62
7
  6
CONTINUOUS
 10
6.5230498127
 20
3.0516574417
 11
6.1279051562
 21
3.0516574417
  0
LINE
  5
305
100
AcDbEntity
  8
0
100
AcDbLine
 62
7
  6
CONTINUOUS
 10
3.7402274845
 20
3.176256295
 11
3.9536809745
 21
3.176256295
  0
LINE
  5
306
100
AcDbEntity
  8
0
100
AcDbLine
 62
7
  6
CONTINUOUS
 10
4.6972739944
 20
3.176256295
 11
4.9107274845
 21
3.176256295
  0
LINE
  5
307
100
AcDbEntity
  8
0
100
AcDbLine
 62
7
  6
CONTINUOUS
 10
4.6436928162
 20
3.2059171598
 11
4.0072621527
 21
3.2059171598
  0
LINE
  5
308
100
AcDbEntity
  8
0
100
AcDbLine
 62
7
  6
CONTINUOUS
 10
4.6304774845
 20
3.2443524493
 11
4.0204774845
 21
3.2443524493
  0
LINE
  5
309
100
AcDbEntity
  8
0
100
AcDbLine
 62
7
  6
CONTINUOUS
 10
8.4877711253
 20
2.928274461
 11
8.478040439
 21
2.9286142641
  0
LINE
  5
30A
100
AcDbEntity
  8
0
100
AcDbLine
 62
7
  6
CONTINUOUS
 10
8.9417460873
 20
2.9043192708
 11
8.9320464988
 21
2.9049975321
  0
LINE
  5
30B
100
AcDbEntity
  8
0
100
AcDbLine
 62
7
  6
CONTINUOUS
 10
6.4042276351
 20
3.0725878049
 11
6.4056999528
 21
3.0724805361
  0
LINE
  5
30C
100
AcDbEntity
  8
0
100
AcDbLine
 62
7
  6
CONTINUOUS
 10
8.4980861016
 20
2.939144178
 11
8.4883865347
 21
2.9399927801
  0
LINE
  5
30D
100
AcDbEntity
  8
0
100
AcDbLine
 62
7
  6
CONTINUOUS
 10
6.4056999528
 20
3.0724805361
 11
6.4061582839
 21
3.0724280016
  0
LINE
  5
30E
100
AcDbEntity
  8
0
100
AcDbLine
 62
7
  6
CONTINUOUS
 10
8.9501897071
 20
2.8914553108
 11
8.9405256647
 21
2.892641906
  0
LINE
  5
30F
100
AcDbEntity
  8
0
100
AcDbLine
 62
7
  6
CONTINUOUS
 10
8.4430109797
 20
2.5953312216
 11
8.4525996762
 21
2.5936404757
  0
LINE
  5
310
100
AcDbEntity
  8
0
100
AcDbLine
 62
7
  6
CONTINUOUS
 10
6.5049774845
 20
3.0561883419
 11
6.4627274845
 21
3.0638236619
  0
LINE
  5
311
100
AcDbEntity
  8
0
100
AcDbLine
 62
7
  6
CONTINUOUS
 10
8.880604486
 20
2.514314473
 11
8.8901622145
 21
2.5124566388
  0
LINE
  5
312
100
AcDbEntity
  8
0
100
AcDbLine
 62
7
  6
CONTINUOUS
 10
8.4359623953
 20
2.6089997907
 11
8.4454494641
 21
2.6068095283
  0
LINE
  5
313
100
AcDbEntity
  8
0
100
AcDbLine
 62
7
  6
CONTINUOUS
 10
4.6474131301
 20
3.2010714943
 11
4.6474135574
 21
3.2009826214
  0
LINE
  5
314
100
AcDbEntity
  8
0
100
AcDbLine
 62
7
  6
CONTINUOUS
 10
4.5442274845
 20
5.1571584706
 11
4.5442274845
 21
4.208752795
  0
LINE
  5
315
100
AcDbEntity
  8
0
100
AcDbLine
 62
7
  6
CONTINUOUS
 10
4.5442274845
 20
5.544352795
 11
4.5442274845
 21
7.981852795
  0
LINE
  5
316
100
AcDbEntity
  8
0
100
AcDbLine
 62
7
  6
CONTINUOUS
 10
4.5565117104
 20
4.158752795
 11
4.5565117104
 21
4.133752795
  0
LINE
  5
317
100
AcDbEntity
  8
0
100
AcDbLine
 62
7
  6
CONTINUOUS
 10
4.6067274845
 20
4.133752795
 11
4.6067274845
 21
4.1977840325
  0
LINE
  5
318
100
AcDbEntity
  8
0
100
AcDbLine
 62
7
  6
CONTINUOUS
 10
4.6304774845
 20
3.498752795
 11
4.6304774845
 21
3.2443524493
  0
LINE
  5
319
100
AcDbEntity
  8
0
100
AcDbLine
 62
7
  6
CONTINUOUS
 10
4.6474130765
 20
2.9224018564
 11
4.6474137296
 21
2.9154054681
  0
LINE
  5
31A
100
AcDbEntity
  8
0
100
AcDbLine
 62
7
  6
CONTINUOUS
 10
4.6474132045
 20
3.1329088337
 11
4.6474135732
 21
3.1283021689
  0
LINE
  5
31B
100
AcDbEntity
  8
0
100
AcDbLine
 62
7
  6
CONTINUOUS
 10
4.6474131301
 20
3.2010714943
 11
4.64741313
 21
2.7144340957
  0
LINE
  5
31C
100
AcDbEntity
  8
0
100
AcDbLine
 62
7
  6
CONTINUOUS
 10
4.6474134303
 20
2.8420159693
 11
4.6474131994
 21
2.8358780937
  0
LWPOLYLINE
  5
31D
100
AcDbEntity
  8
0
100
AcDbPolyline
 62
7
  6
CONTINUOUS
 90
3
 70
0
 10
4.6474131371
 20
2.8019884772
 10
4.6474129258
 20
2.7968979165
 10
4.6474134847
 20
2.7919703334
  0
LWPOLYLINE
  5
31E
100
AcDbEntity
  8
0
100
AcDbPolyline
 62
7
  6
CONTINUOUS
 90
3
 70
0
 10
4.6474132899
 20
2.7738538919
 10
4.6474129181
 20
2.7657214871
 10
4.6474133396
 20
2.7618799791
  0
LINE
  5
31F
100
AcDbEntity
  8
0
100
AcDbLine
 62
7
  6
CONTINUOUS
 10
4.6972739944
 20
3.176256295
 11
4.6972739944
 21
2.739249295
  0
LINE
  5
320
100
AcDbEntity
  8
0
100
AcDbLine
 62
7
  6
CONTINUOUS
 10
4.6474135609
 20
2.7145229744
 11
4.6474131301
 21
2.7144340958
  0
LINE
  5
321
100
AcDbEntity
  8
0
100
AcDbLine
 62
7
  6
CONTINUOUS
 10
4.5754774845
 20
5.484352795
 11
4.5466997388
 21
5.1666464833
  0
LINE
  5
322
100
AcDbEntity
  8
0
100
AcDbLine
 62
7
  6
CONTINUOUS
 10
1.854138873
 20
2.7378591472
 11
1.8130942445
 21
2.7091193889
  0
LINE
  5
323
100
AcDbEntity
  8
0
100
AcDbLine
 62
7
  6
CONTINUOUS
 10
4.6304774845
 20
3.498752795
 11
4.0204774845
 21
3.498752795
  0
LINE
  5
324
100
AcDbEntity
  8
0
100
AcDbLine
 62
7
  6
CONTINUOUS
 10
4.6254774845
 20
3.508752795
 11
4.0254774845
 21
3.508752795
  0
LINE
  5
325
100
AcDbEntity
  8
0
100
AcDbLine
 62
7
  6
CONTINUOUS
 10
4.6369565387
 20
3.566469781
 11
4.0139984302
 21
3.566469781
  0
LINE
  5
326
100
AcDbEntity
  8
0
100
AcDbLine
 62
7
  6
CONTINUOUS
 10
4.6319854714
 20
3.5804632925
 11
4.0189694975
 21
3.5804632925
  0
LINE
  5
327
100
AcDbEntity
  8
0
100
AcDbLine
 62
7
  6
CONTINUOUS
 10
8.5089558185
 20
2.9494591542
 11
8.4993139569
 21
2.9508142294
  0
LINE
  5
328
100
AcDbEntity
  8
0
100
AcDbLine
 62
7
  6
CONTINUOUS
 10
8.9579439892
 20
2.8781743684
 11
8.9483552927
 21
2.8798651143
  0
LINE
  5
329
100
AcDbEntity
  8
0
100
AcDbLine
 62
7
  6
CONTINUOUS
 10
8.520350483
 20
2.959191117
 11
8.5107927544
 21
2.9610489512
  0
LINE
  5
32A
100
AcDbEntity
  8
0
100
AcDbLine
 62
7
  6
CONTINUOUS
 10
8.9649925736
 20
2.8645057994
 11
8.9555055049
 21
2.8666960618
  0
LINE
  5
32B
100
AcDbEntity
  8
0
100
AcDbLine
 62
7
  6
CONTINUOUS
 10
8.8687222215
 20
2.5051837807
 11
8.8781566727
 21
2.5028315079
  0
LINE
  5
32C
100
AcDbEntity
  8
0
100
AcDbLine
 62
7
  6
CONTINUOUS
 10
8.4296388284
 20
2.6230185219
 11
8.438998266
 21
2.6203347463
  0
LINE
  5
32D
100
AcDbEntity
  8
0
100
AcDbLine
 62
7
  6
CONTINUOUS
 10
8.8563665955
 20
2.4967046148
 11
8.8656777692
 21
2.4938579033
  0
LINE
  5
32E
100
AcDbEntity
  8
0
100
AcDbLine
 62
7
  6
CONTINUOUS
 10
6.5527324625
 20
3.039752795
 11
6.5820945606
 21
3.030212471
  0
LINE
  5
32F
100
AcDbEntity
  8
0
100
AcDbLine
 62
7
  6
CONTINUOUS
 10
8.4240576114
 20
2.6373489908
 11
8.4332637643
 21
2.6341790582
  0
LINE
  5
330
100
AcDbEntity
  8
0
100
AcDbLine
 62
7
  6
CONTINUOUS
 10
6.0617274845
 20
2.984752795
 11
6.0751508782
 21
2.977002795
  0
LINE
  5
331
100
AcDbEntity
  8
0
100
AcDbLine
 62
7
  6
CONTINUOUS
 10
6.5758040907
 20
2.977002795
 11
6.5892274845
 21
2.969252795
  0
LINE
  5
332
100
AcDbEntity
  8
0
100
AcDbLine
 62
7
  6
CONTINUOUS
 10
5.854138873
 20
2.9106464428
 11
5.8130942445
 21
2.9393862011
  0
LINE
  5
333
100
AcDbEntity
  8
0
100
AcDbLine
 62
7
  6
CONTINUOUS
 10
8.1129774845
 20
0.643752795
 11
8.1229774845
 21
0.633752795
  0
LINE
  5
334
100
AcDbEntity
  8
0
100
AcDbLine
 62
7
  6
CONTINUOUS
 10
5.7702274845
 20
2.1609681853
 11
5.7582274845
 21
2.181752795
  0
LINE
  5
335
100
AcDbEntity
  8
0
100
AcDbLine
 62
7
  6
CONTINUOUS
 10
4.9107274845
 20
3.176256295
 11
4.9107274845
 21
2.739249295
  0
LINE
  5
336
100
AcDbEntity
  8
0
100
AcDbLine
 62
7
  6
CONTINUOUS
 10
3.4627274845
 20
1.891752795
 11
3.4747274845
 21
1.9125374047
  0
LINE
  5
337
100
AcDbEntity
  8
0
100
AcDbLine
 62
7
  6
CONTINUOUS
 10
2.0751508782
 20
2.972002795
 11
2.0617274845
 21
2.964252795
  0
LINE
  5
338
100
AcDbEntity
  8
0
100
AcDbLine
 62
7
  6
CONTINUOUS
 10
8.5322327474
 20
2.9683218093
 11
8.5227982963
 21
2.9706740822
  0
LINE
  5
339
100
AcDbEntity
  8
0
100
AcDbLine
 62
7
  6
CONTINUOUS
 10
8.9713161405
 20
2.8504870682
 11
8.961956703
 21
2.8531708437
  0
LINE
  5
33A
100
AcDbEntity
  8
0
100
AcDbLine
 62
7
  6
CONTINUOUS
 10
8.5445883735
 20
2.9768009753
 11
8.5352771998
 21
2.9796476868
  0
LINE
  5
33B
100
AcDbEntity
  8
0
100
AcDbLine
 62
7
  6
CONTINUOUS
 10
8.9768973575
 20
2.8361565993
 11
8.9676912047
 21
2.8393265319
  0
LINE
  5
33C
100
AcDbEntity
  8
0
100
AcDbLine
 62
7
  6
CONTINUOUS
 10
8.8435898038
 20
2.4888749868
 11
8.8527392315
 21
2.4855448674
  0
LINE
  5
33D
100
AcDbEntity
  8
0
100
AcDbLine
 62
7
  6
CONTINUOUS
 10
8.4192365189
 20
2.6519437048
 11
8.4282517815
 21
2.6483013023
  0
LINE
  5
33E
100
AcDbEntity
  8
0
100
AcDbLine
 62
7
  6
CONTINUOUS
 10
8.8304207512
 20
2.4817247746
 11
8.839383355
 21
2.477920375
  0
LINE
  5
33F
100
AcDbEntity
  8
0
100
AcDbLine
 62
7
  6
CONTINUOUS
 10
8.4151813415
 20
2.6667872798
 11
8.4240057139
 21
2.6626724074
  0
LINE
  5
340
100
AcDbEntity
  8
0
100
AcDbLine
 62
7
  6
CONTINUOUS
 10
6.796816096
 20
2.7428591472
 11
6.8378607245
 21
2.7141193889
  0
LWPOLYLINE
  5
341
100
AcDbEntity
  8
0
100
AcDbPolyline
 62
7
  6
CONTINUOUS
 90
27
 70
0
 10
5.6755023483
 20
1.7886124277
 10
5.6754327743
 20
1.7893408134
 10
5.6753046369
 20
1.7910277313
 10
5.6752222681
 20
1.7927174967
 10
5.6751857277
 20
1.7944088766
 10
5.6751950423
 20
1.7961006156
 10
5.6752502027
 20
1.7977914369
 10
5.6753511648
 20
1.7994800968
 10
5.675497851
 20
1.8011653523
 10
5.6756901452
 20
1.80284593
 10
5.6759279001
 20
1.8045205959
 10
5.6762109341
 20
1.8061881165
 10
5.6765390241
 20
1.8078472257
 10
5.6769119246
 20
1.8094967276
 10
5.6773293473
 20
1.8111353869
 10
5.6777909433
 20
1.8127618926
 10
5.6782963836
 20
1.8143751416
 10
5.6788452536
 20
1.8159738617
 10
5.6794369879
 20
1.8175565148
 10
5.6800711127
 20
1.8191219773
 10
5.6807471054
 20
1.8206690932
 10
5.6814642162
 20
1.8221963228
 10
5.682221845
 20
1.8237025976
 10
5.6830193476
 20
1.8251868354
 10
5.6838557927
 20
1.8266475374
 10
5.6847304672
 20
1.8280837229
 10
5.6856242749
 20
1.8294668429
  0
LINE
  5
342
100
AcDbEntity
  8
0
100
AcDbLine
 62
7
  6
CONTINUOUS
 10
5.1762274845
 20
1.9125374047
 11
5.1762274845
 21
2.1609681853
  0
LINE
  5
343
100
AcDbEntity
  8
0
100
AcDbLine
 62
7
  6
CONTINUOUS
 10
5.2245056212
 20
2.1232960803
 11
5.2245056212
 21
1.9502095098
  0
LINE
  5
344
100
AcDbEntity
  8
0
100
AcDbLine
 62
7
  6
CONTINUOUS
 10
5.2547239845
 20
2.395252795
 11
5.2547239845
 21
2.201752795
  0
LINE
  5
345
100
AcDbEntity
  8
0
100
AcDbLine
 62
7
  6
CONTINUOUS
 10
5.2714774845
 20
2.181752795
 11
5.2714774845
 21
2.201752795
  0
LINE
  5
346
100
AcDbEntity
  8
0
100
AcDbLine
 62
7
  6
CONTINUOUS
 10
5.4249493477
 20
2.1232960803
 11
5.4249493477
 21
1.9502095098
  0
LINE
  5
347
100
AcDbEntity
  8
0
100
AcDbLine
 62
7
  6
CONTINUOUS
 10
2.796816096
 20
2.9056464428
 11
2.8378607245
 21
2.9343862011
  0
LINE
  5
348
100
AcDbEntity
  8
0
100
AcDbLine
 62
7
  6
CONTINUOUS
 10
2.5892274845
 20
2.979752795
 11
2.5758040907
 21
2.972002795
  0
LINE
  5
349
100
AcDbEntity
  8
0
100
AcDbLine
 62
7
  6
CONTINUOUS
 10
4.6254774845
 20
4.133752795
 11
4.0254774845
 21
4.133752795
  0
LINE
  5
34A
100
AcDbEntity
  8
0
100
AcDbLine
 62
7
  6
CONTINUOUS
 10
4.6067274845
 20
4.158752795
 11
4.5565117104
 21
4.158752795
  0
LINE
  5
34B
100
AcDbEntity
  8
0
100
AcDbLine
 62
7
  6
CONTINUOUS
 10
4.3756932586
 20
4.158752795
 11
4.2752617104
 21
4.158752795
  0
LINE
  5
34C
100
AcDbEntity
  8
0
100
AcDbLine
 62
7
  6
CONTINUOUS
 10
4.0944432586
 20
4.158752795
 11
4.0442274845
 21
4.158752795
  0
LINE
  5
34D
100
AcDbEntity
  8
0
100
AcDbLine
 62
7
  6
CONTINUOUS
 10
4.5754774845
 20
4.208752795
 11
4.0754774845
 21
4.208752795
  0
LINE
  5
34E
100
AcDbEntity
  8
0
100
AcDbLine
 62
7
  6
CONTINUOUS
 10
8.5573651652
 20
2.9846306033
 11
8.5482157374
 21
2.9879607226
  0
LINE
  5
34F
100
AcDbEntity
  8
0
100
AcDbLine
 62
7
  6
CONTINUOUS
 10
8.98171845
 20
2.8215618852
 11
8.9727031875
 21
2.8252042878
  0
LINE
  5
350
100
AcDbEntity
  8
0
100
AcDbLine
 62
7
  6
CONTINUOUS
 10
8.5705342177
 20
2.9917808154
 11
8.561571614
 21
2.995585215
  0
LINE
  5
351
100
AcDbEntity
  8
0
100
AcDbLine
 62
7
  6
CONTINUOUS
 10
8.9857736274
 20
2.8067183103
 11
8.976949255
 21
2.8108331827
  0
LINE
  5
352
100
AcDbEntity
  8
0
100
AcDbLine
 62
7
  6
CONTINUOUS
 10
8.8168955332
 20
2.4752735765
 11
8.8256467471
 21
2.4710053243
  0
LINE
  5
353
100
AcDbEntity
  8
0
100
AcDbLine
 62
7
  6
CONTINUOUS
 10
8.4119106178
 20
2.6818144115
 11
8.4205075409
 21
2.6772433465
  0
LINE
  5
354
100
AcDbEntity
  8
0
100
AcDbLine
 62
7
  6
CONTINUOUS
 10
8.8030512213
 20
2.4695390748
 11
8.811567059
 21
2.4648186689
  0
LINE
  5
355
100
AcDbEntity
  8
0
100
AcDbLine
 62
7
  6
CONTINUOUS
 10
5.9611475106
 20
1.3146089632
 11
6.041954885
 21
1.0105774861
  0
LINE
  5
356
100
AcDbEntity
  8
0
100
AcDbLine
 62
7
  6
CONTINUOUS
 10
5.5215056212
 20
2.1232960803
 11
5.5215056212
 21
1.9502095098
  0
LINE
  5
357
100
AcDbEntity
  8
0
100
AcDbLine
 62
7
  6
CONTINUOUS
 10
5.6749774845
 20
2.181752795
 11
5.6749774845
 21
2.201752795
  0
LINE
  5
358
100
AcDbEntity
  8
0
100
AcDbLine
 62
7
  6
CONTINUOUS
 10
5.6917309845
 20
2.395252795
 11
5.6917309845
 21
2.201752795
  0
LINE
  5
359
100
AcDbEntity
  8
0
100
AcDbLine
 62
7
  6
CONTINUOUS
 10
5.7219493477
 20
2.1232960803
 11
5.7219493477
 21
1.9502095098
  0
LINE
  5
35A
100
AcDbEntity
  8
0
100
AcDbLine
 62
7
  6
CONTINUOUS
 10
5.7702274845
 20
1.9125374047
 11
5.7702274845
 21
2.1609681853
  0
LINE
  5
35B
100
AcDbEntity
  8
0
100
AcDbLine
 62
7
  6
CONTINUOUS
 10
5.8130942445
 20
2.7141193889
 11
5.8130942445
 21
2.9393862011
  0
LINE
  5
35C
100
AcDbEntity
  8
0
100
AcDbLine
 62
7
  6
CONTINUOUS
 10
5.8462274845
 20
0.6807452089
 11
5.8462274845
 21
0.653252795
  0
LINE
  5
35D
100
AcDbEntity
  8
0
100
AcDbLine
 62
7
  6
CONTINUOUS
 10
2.0982225064
 20
3.034752795
 11
2.0688604083
 21
3.025212471
  0
LINE
  5
35E
100
AcDbEntity
  8
0
100
AcDbLine
 62
7
  6
CONTINUOUS
 10
8.5840594358
 20
2.9982320135
 11
8.5753082218
 21
3.0025002658
  0
LINE
  5
35F
100
AcDbEntity
  8
0
100
AcDbLine
 62
7
  6
CONTINUOUS
 10
8.9890443511
 20
2.7916911785
 11
8.980447428
 21
2.7962622436
  0
LINE
  5
360
100
AcDbEntity
  8
0
100
AcDbLine
 62
7
  6
CONTINUOUS
 10
8.5979037476
 20
3.0039665152
 11
8.58938791
 21
3.0086869211
  0
LINE
  5
361
100
AcDbEntity
  8
0
100
AcDbLine
 62
7
  6
CONTINUOUS
 10
8.4094308359
 20
2.6969921256
 11
8.4177767461
 21
2.6919773968
  0
LINE
  5
362
100
AcDbEntity
  8
0
100
AcDbLine
 62
7
  6
CONTINUOUS
 10
8.7889289772
 20
2.464527092
 11
8.7971747811
 21
2.4593745419
  0
LINE
  5
363
100
AcDbEntity
  8
0
100
AcDbLine
 62
7
  6
CONTINUOUS
 10
8.4077487925
 20
2.7122788209
 11
8.4158208144
 21
2.7068341734
  0
LINE
  5
364
100
AcDbEntity
  8
0
100
AcDbLine
 62
7
  6
CONTINUOUS
 10
8.7745578721
 20
2.4602810245
 11
8.7825336424
 21
2.45469633
  0
LINE
  5
365
100
AcDbEntity
  8
0
100
AcDbLine
 62
7
  6
CONTINUOUS
 10
6.5820945606
 20
3.030212471
 11
6.5892274845
 21
3.0203948436
  0
LINE
  5
366
100
AcDbEntity
  8
0
100
AcDbLine
 62
7
  6
CONTINUOUS
 10
5.854138873
 20
2.7428591472
 11
5.854138873
 21
2.9106464428
  0
LINE
  5
367
100
AcDbEntity
  8
0
100
AcDbLine
 62
7
  6
CONTINUOUS
 10
5.8667274845
 20
2.7322073502
 11
5.8667274845
 21
2.9212982399
  0
LINE
  5
368
100
AcDbEntity
  8
0
100
AcDbLine
 62
7
  6
CONTINUOUS
 10
5.8791590638
 20
2.7312941484
 11
5.8791590638
 21
2.9222114416
  0
LINE
  5
369
100
AcDbEntity
  8
0
100
AcDbLine
 62
7
  6
CONTINUOUS
 10
6.0498874845
 20
1.814752795
 11
6.0498874845
 21
1.6973265222
  0
LINE
  5
36A
100
AcDbEntity
  8
0
100
AcDbLine
 62
7
  6
CONTINUOUS
 10
6.0598944796
 20
2.9043069566
 11
6.0598944796
 21
2.7491986332
  0
LINE
  5
36B
100
AcDbEntity
  8
0
100
AcDbLine
 62
7
  6
CONTINUOUS
 10
6.0617274845
 20
3.0203948436
 11
6.0617274845
 21
2.984752795
  0
LINE
  5
36C
100
AcDbEntity
  8
0
100
AcDbLine
 62
7
  6
CONTINUOUS
 10
6.0709744964
 20
2.8754243079
 11
6.0709744964
 21
2.7780812821
  0
LINE
  5
36D
100
AcDbEntity
  8
0
100
AcDbLine
 62
7
  6
CONTINUOUS
 10
6.1537274845
 20
2.659252795
 11
6.1537274845
 21
2.479752795
  0
LINE
  5
36E
100
AcDbEntity
  8
0
100
AcDbLine
 62
7
  6
CONTINUOUS
 10
6.1714774845
 20
3.0612946324
 11
6.1714774845
 21
3.0618048038
  0
LINE
  5
36F
100
AcDbEntity
  8
0
100
AcDbLine
 62
7
  6
CONTINUOUS
 10
6.1744619932
 20
3.0617391139
 11
6.1744619932
 21
3.062248987
  0
LINE
  5
370
100
AcDbEntity
  8
0
100
AcDbLine
 62
7
  6
CONTINUOUS
 10
6.1911213671
 20
3.064432207
 11
6.1911213671
 21
3.0649402806
  0
LINE
  5
371
100
AcDbEntity
  8
0
100
AcDbLine
 62
7
  6
CONTINUOUS
 10
4.5168220569
 20
5.139352795
 11
4.134132912
 21
5.139352795
  0
LINE
  5
372
100
AcDbEntity
  8
0
100
AcDbLine
 62
7
  6
CONTINUOUS
 10
4.5466997388
 20
5.1666464833
 11
4.1042552301
 21
5.1666464833
  0
LINE
  5
373
100
AcDbEntity
  8
0
100
AcDbLine
 62
7
  6
CONTINUOUS
 10
8.9915241331
 20
2.7765134645
 11
8.9831782228
 21
2.7815281933
  0
LINE
  5
374
100
AcDbEntity
  8
0
100
AcDbLine
 62
7
  6
CONTINUOUS
 10
8.6120259918
 20
3.008978498
 11
8.6037801878
 21
3.0141310482
  0
LINE
  5
375
100
AcDbEntity
  8
0
100
AcDbLine
 62
7
  6
CONTINUOUS
 10
8.9932061764
 20
2.7612267692
 11
8.9851341546
 21
2.7666714167
  0
LINE
  5
376
100
AcDbEntity
  8
0
100
AcDbLine
 62
7
  6
CONTINUOUS
 10
8.6263970968
 20
3.0132245656
 11
8.6184213266
 21
3.01880926
  0
LINE
  5
377
100
AcDbEntity
  8
0
100
AcDbLine
 62
7
  6
CONTINUOUS
 10
8.4068690982
 20
2.7276325976
 11
8.4146451068
 21
2.7217729549
  0
LINE
  5
378
100
AcDbEntity
  8
0
100
AcDbLine
 62
7
  6
CONTINUOUS
 10
8.759986933
 20
2.4567828515
 11
8.7676594924
 21
2.4507883911
  0
LINE
  5
379
100
AcDbEntity
  8
0
100
AcDbLine
 62
7
  6
CONTINUOUS
 10
8.4067939814
 20
2.743002795
 11
8.4142424413
 21
2.736752795
  0
LINE
  5
37A
100
AcDbEntity
  8
0
100
AcDbLine
 62
7
  6
CONTINUOUS
 10
8.7452528827
 20
2.4540520567
 11
8.7526012013
 21
2.4476642608
  0
LINE
  5
37B
100
AcDbEntity
  8
0
100
AcDbLine
 62
7
  6
CONTINUOUS
 10
6.2267024287
 20
3.0704150142
 11
6.2267024287
 21
3.0708416213
  0
LINE
  5
37C
100
AcDbEntity
  8
0
100
AcDbLine
 62
7
  6
CONTINUOUS
 10
6.2636274845
 20
3.0742803102
 11
6.2636274845
 21
3.0747819097
  0
LINE
  5
37D
100
AcDbEntity
  8
0
100
AcDbLine
 62
7
  6
CONTINUOUS
 10
6.3061274845
 20
3.076511143
 11
6.3061274845
 21
3.0770112989
  0
LINE
  5
37E
100
AcDbEntity
  8
0
100
AcDbLine
 62
7
  6
CONTINUOUS
 10
6.3304774845
 20
3.0760709532
 11
6.3304774845
 21
3.0766365261
  0
LINE
  5
37F
100
AcDbEntity
  8
0
100
AcDbLine
 62
7
  6
CONTINUOUS
 10
6.3412274845
 20
3.0764250783
 11
6.3412274845
 21
3.0770925061
  0
LINE
  5
380
100
AcDbEntity
  8
0
100
AcDbLine
 62
7
  6
CONTINUOUS
 10
6.3592274845
 20
3.0758496602
 11
6.3592274845
 21
3.0765178852
  0
LINE
  5
381
100
AcDbEntity
  8
0
100
AcDbLine
 62
7
  6
CONTINUOUS
 10
6.3742274845
 20
3.0745914594
 11
6.3742274845
 21
3.0750928571
  0
LINE
  5
382
100
AcDbEntity
  8
0
100
AcDbLine
 62
7
  6
CONTINUOUS
 10
6.3862274845
 20
3.0737406967
 11
6.3862274845
 21
3.0742426468
  0
LINE
  5
383
100
AcDbEntity
  8
0
100
AcDbLine
 62
7
  6
CONTINUOUS
 10
6.3990600794
 20
3.0728811858
 11
6.3990600794
 21
3.0733836951
  0
LINE
  5
384
100
AcDbEntity
  8
0
100
AcDbLine
 62
7
  6
CONTINUOUS
 10
6.4056999528
 20
3.0724805361
 11
6.4056999528
 21
3.0729833065
  0
LINE
  5
385
100
AcDbEntity
  8
0
100
AcDbLine
 62
7
  6
CONTINUOUS
 10
6.4204774845
 20
3.0702361616
 11
6.4204774845
 21
3.0708060264
  0
LINE
  5
386
100
AcDbEntity
  8
0
100
AcDbLine
 62
7
  6
CONTINUOUS
 10
6.4254774845
 20
3.0699450244
 11
6.4254774845
 21
3.0707728056
  0
LINE
  5
387
100
AcDbEntity
  8
0
100
AcDbLine
 62
7
  6
CONTINUOUS
 10
6.4436184246
 20
3.0671992763
 11
6.4436184246
 21
3.0681991169
  0
LINE
  5
388
100
AcDbEntity
  8
0
100
AcDbLine
 62
7
  6
CONTINUOUS
 10
6.4466184246
 20
3.0666163631
 11
6.4466184246
 21
3.0671229865
  0
LINE
  5
389
100
AcDbEntity
  8
0
100
AcDbLine
 62
7
  6
CONTINUOUS
 10
6.4605498785
 20
3.064278914
 11
6.4605498785
 21
3.0647870897
  0
LINE
  5
38A
100
AcDbEntity
  8
0
100
AcDbLine
 62
7
  6
CONTINUOUS
 10
6.4833174874
 20
3.0603749336
 11
6.4833174874
 21
3.0608857233
  0
LINE
  5
38B
100
AcDbEntity
  8
0
100
AcDbLine
 62
7
  6
CONTINUOUS
 10
6.4858079445
 20
3.0599823428
 11
6.4858079445
 21
3.0604933968
  0
LINE
  5
38C
100
AcDbEntity
  8
0
100
AcDbLine
 62
7
  6
CONTINUOUS
 10
6.4972274845
 20
2.659252795
 11
6.4972274845
 21
2.479752795
  0
LINE
  5
38D
100
AcDbEntity
  8
0
100
AcDbLine
 62
6
  6
CONTINUOUS
 10
6.1169098584
 20
2.4477670009
 11
6.0632860861
 21
2.006252795
  0
LINE
  5
38E
100
AcDbEntity
  8
0
100
AcDbLine
 62
7
  6
CONTINUOUS
 10
5.1762274845
 20
2.1609681853
 11
5.1882274845
 21
2.181752795
  0
LINE
  5
38F
100
AcDbEntity
  8
0
100
AcDbLine
 62
7
  6
CONTINUOUS
 10
2.5892274845
 20
2.679752795
 11
2.5107274845
 21
2.654252795
  0
LINE
  5
390
100
AcDbEntity
  8
0
100
AcDbLine
 62
7
  6
CONTINUOUS
 10
4.5754774845
 20
5.484352795
 11
4.0754774845
 21
5.484352795
  0
LINE
  5
391
100
AcDbEntity
  8
0
100
AcDbLine
 62
7
  6
CONTINUOUS
 10
4.5754774845
 20
5.544352795
 11
4.0754774845
 21
5.544352795
  0
LINE
  5
392
100
AcDbEntity
  8
0
100
AcDbLine
 62
7
  6
CONTINUOUS
 10
8.9940858708
 20
2.7458729924
 11
8.9863098622
 21
2.7517326352
  0
LINE
  5
393
100
AcDbEntity
  8
0
100
AcDbLine
 62
7
  6
CONTINUOUS
 10
8.6409680359
 20
3.0167227386
 11
8.6332954765
 21
3.0227171989
  0
LINE
  5
394
100
AcDbEntity
  8
0
100
AcDbLine
 62
7
  6
CONTINUOUS
 10
8.9941609876
 20
2.730502795
 11
8.9867125276
 21
2.736752795
  0
LINE
  5
395
100
AcDbEntity
  8
0
100
AcDbLine
 62
7
  6
CONTINUOUS
 10
8.6557020862
 20
3.0194535334
 11
8.6483537677
 21
3.0258413293
  0
LINE
  5
396
100
AcDbEntity
  8
0
100
AcDbLine
 62
7
  6
CONTINUOUS
 10
8.4075241954
 20
2.7583729924
 11
8.4146451068
 21
2.7517326352
  0
LINE
  5
397
100
AcDbEntity
  8
0
100
AcDbLine
 62
7
  6
CONTINUOUS
 10
8.7303961061
 20
2.4520961249
 11
8.7374000427
 21
2.445332502
  0
LINE
  5
398
100
AcDbEntity
  8
0
100
AcDbLine
 62
7
  6
CONTINUOUS
 10
8.4090571914
 20
2.7736753532
 11
8.4158208144
 21
2.7666714167
  0
LINE
  5
399
100
AcDbEntity
  8
0
100
AcDbLine
 62
7
  6
CONTINUOUS
 10
8.7154573246
 20
2.4509204173
 11
8.7220976819
 21
2.443799506
  0
LINE
  5
39A
100
AcDbEntity
  8
0
100
AcDbLine
 62
6
  6
CONTINUOUS
 10
6.5340451105
 20
2.4477670009
 11
6.5876688829
 21
2.006252795
  0
LINE
  5
39B
100
AcDbEntity
  8
0
100
AcDbLine
 62
7
  6
CONTINUOUS
 10
6.5799804725
 20
2.7780812821
 11
6.5799804725
 21
2.8754243079
  0
LINE
  5
39C
100
AcDbEntity
  8
0
100
AcDbLine
 62
7
  6
CONTINUOUS
 10
6.5892274845
 20
3.0203948436
 11
6.5892274845
 21
2.984752795
  0
LINE
  5
39D
100
AcDbEntity
  8
0
100
AcDbLine
 62
7
  6
CONTINUOUS
 10
6.5910604894
 20
2.7491986331
 11
6.5910604894
 21
2.9043069566
  0
LINE
  5
39E
100
AcDbEntity
  8
0
100
AcDbLine
 62
7
  6
CONTINUOUS
 10
6.6010674845
 20
1.814752795
 11
6.6010674845
 21
1.6973265222
  0
LINE
  5
39F
100
AcDbEntity
  8
0
100
AcDbLine
 62
7
  6
CONTINUOUS
 10
6.7717959052
 20
2.7312941484
 11
6.7717959052
 21
2.9222114416
  0
LINE
  5
3A0
100
AcDbEntity
  8
0
100
AcDbLine
 62
7
  6
CONTINUOUS
 10
6.7842274845
 20
2.7322073502
 11
6.7842274845
 21
2.9212982399
  0
LINE
  5
3A1
100
AcDbEntity
  8
0
100
AcDbLine
 62
7
  6
CONTINUOUS
 10
6.796816096
 20
2.7428591472
 11
6.796816096
 21
2.9106464428
  0
LINE
  5
3A2
100
AcDbEntity
  8
0
100
AcDbLine
 62
7
  6
CONTINUOUS
 10
6.8047274845
 20
0.6807452089
 11
6.8047274845
 21
0.653252795
  0
LINE
  5
3A3
100
AcDbEntity
  8
0
100
AcDbLine
 62
7
  6
CONTINUOUS
 10
6.8378607245
 20
2.7141193889
 11
6.8378607245
 21
2.9393862011
  0
LINE
  5
3A4
100
AcDbEntity
  8
0
100
AcDbLine
 62
7
  6
CONTINUOUS
 10
6.0688604083
 20
3.030212471
 11
6.0617274845
 21
3.0203948436
  0
LINE
  5
3A5
100
AcDbEntity
  8
0
100
AcDbLine
 62
7
  6
CONTINUOUS
 10
4.1067274845
 20
5.731852795
 11
4.5442274845
 21
5.731852795
  0
LINE
  5
3A6
100
AcDbEntity
  8
0
100
AcDbLine
 62
7
  6
CONTINUOUS
 10
8.9934307735
 20
2.7151325976
 11
8.9863098622
 21
2.7217729549
  0
LINE
  5
3A7
100
AcDbEntity
  8
0
100
AcDbLine
 62
7
  6
CONTINUOUS
 10
8.6705588628
 20
3.0214094651
 11
8.6635549263
 21
3.0281730881
  0
LINE
  5
3A8
100
AcDbEntity
  8
0
100
AcDbLine
 62
7
  6
CONTINUOUS
 10
8.9918977775
 20
2.6998302368
 11
8.9851341546
 21
2.7068341734
  0
LINE
  5
3A9
100
AcDbEntity
  8
0
100
AcDbLine
 62
7
  6
CONTINUOUS
 10
8.6854976443
 20
3.0225851727
 11
8.6788572871
 21
3.0297060841
  0
LINE
  5
3AA
100
AcDbEntity
  8
0
100
AcDbLine
 62
7
  6
CONTINUOUS
 10
8.4113889502
 20
2.7888765118
 11
8.4177767461
 21
2.7815281933
  0
LINE
  5
3AB
100
AcDbEntity
  8
0
100
AcDbLine
 62
7
  6
CONTINUOUS
 10
8.7004774845
 20
2.4505177519
 11
8.7067274845
 21
2.4430692919
  0
LINE
  5
3AC
100
AcDbEntity
  8
0
100
AcDbLine
 62
7
  6
CONTINUOUS
 10
8.5191356926
 20
2.5133685639
 11
8.5186544219
 21
2.5139806751
  0
LINE
  5
3AD
100
AcDbEntity
  8
0
100
AcDbLine
 62
7
  6
CONTINUOUS
 10
8.4145130806
 20
2.803934803
 11
8.4205075409
 21
2.7962622436
  0
LINE
  5
3AE
100
AcDbEntity
  8
0
100
AcDbLine
 62
7
  6
CONTINUOUS
 10
8.6854976443
 20
2.4509204173
 11
8.6913572871
 21
2.4431444087
  0
LINE
  5
3AF
100
AcDbEntity
  8
0
100
AcDbLine
 62
7
  6
CONTINUOUS
 10
5.7582274845
 20
1.891752795
 11
5.7702274845
 21
1.9125374047
  0
LINE
  5
3B0
100
AcDbEntity
  8
0
100
AcDbLine
 62
7
  6
CONTINUOUS
 10
5.854138873
 20
2.7428591472
 11
5.8130942445
 21
2.7141193889
  0
LINE
  5
3B1
100
AcDbEntity
  8
0
100
AcDbLine
 62
7
  6
CONTINUOUS
 10
6.0751508782
 20
2.977002795
 11
6.0617274845
 21
2.969252795
  0
LINE
  5
3B2
100
AcDbEntity
  8
0
100
AcDbLine
 62
7
  6
CONTINUOUS
 10
6.5892274845
 20
2.984752795
 11
6.5758040907
 21
2.977002795
  0
LINE
  5
3B3
100
AcDbEntity
  8
0
100
AcDbLine
 62
7
  6
CONTINUOUS
 10
6.0982225064
 20
3.039752795
 11
6.0688604083
 21
3.030212471
  0
LINE
  5
3B4
100
AcDbEntity
  8
0
100
AcDbLine
 62
7
  6
CONTINUOUS
 10
8.9895660187
 20
2.6846290782
 11
8.9831782228
 21
2.6919773968
  0
LINE
  5
3B5
100
AcDbEntity
  8
0
100
AcDbLine
 62
7
  6
CONTINUOUS
 10
8.7004774845
 20
3.0229878382
 11
8.6942274845
 21
3.0304362981
  0
LINE
  5
3B6
100
AcDbEntity
  8
0
100
AcDbLine
 62
7
  6
CONTINUOUS
 10
8.9864418884
 20
2.6695707871
 11
8.980447428
 21
2.6772433465
  0
LINE
  5
3B7
100
AcDbEntity
  8
0
100
AcDbLine
 62
7
  6
CONTINUOUS
 10
8.7154573246
 20
3.0225851727
 11
8.7095976819
 21
3.0303611813
  0
LINE
  5
3B8
100
AcDbEntity
  8
0
100
AcDbLine
 62
7
  6
CONTINUOUS
 10
8.4184210195
 20
2.8188089529
 11
8.4240057139
 21
2.8108331827
  0
LINE
  5
3B9
100
AcDbEntity
  8
0
100
AcDbLine
 62
7
  6
CONTINUOUS
 10
8.6705588628
 20
2.4520961249
 11
8.6760035103
 21
2.4440241031
  0
LINE
  5
3BA
100
AcDbEntity
  8
0
100
AcDbLine
 62
7
  6
CONTINUOUS
 10
8.4230992313
 20
2.8334500917
 11
8.4282517815
 21
2.8252042878
  0
LINE
  5
3BB
100
AcDbEntity
  8
0
100
AcDbLine
 62
7
  6
CONTINUOUS
 10
8.6557020862
 20
2.4540520567
 11
8.660716815
 21
2.4457061464
  0
LINE
  5
3BC
100
AcDbEntity
  8
0
100
AcDbLine
 62
7
  6
CONTINUOUS
 10
6.6898074583
 20
1.3146089632
 11
6.609000084
 21
1.0105774861
  0
LINE
  5
3BD
100
AcDbEntity
  8
0
100
AcDbLine
 62
7
  6
CONTINUOUS
 10
6.796816096
 20
2.9106464428
 11
6.8378607245
 21
2.9393862011
  0
LINE
  5
3BE
100
AcDbEntity
  8
0
100
AcDbLine
 62
7
  6
CONTINUOUS
 10
6.5892274845
 20
2.684752795
 11
6.5107274845
 21
2.659252795
  0
LINE
  5
3BF
100
AcDbEntity
  8
0
100
AcDbLine
 62
7
  6
CONTINUOUS
 10
8.9825339495
 20
2.6546966372
 11
8.976949255
 21
2.6626724074
  0
LINE
  5
3C0
100
AcDbEntity
  8
0
100
AcDbLine
 62
7
  6
CONTINUOUS
 10
8.7303961061
 20
3.0214094651
 11
8.7249514586
 21
3.029481487
  0
LINE
  5
3C1
100
AcDbEntity
  8
0
100
AcDbLine
 62
7
  6
CONTINUOUS
 10
8.9778557376
 20
2.6400554984
 11
8.9727031875
 21
2.6483013023
  0
LINE
  5
3C2
100
AcDbEntity
  8
0
100
AcDbLine
 62
7
  6
CONTINUOUS
 10
8.7452528827
 20
3.0194535334
 11
8.7402381539
 21
3.0277994436
  0
LINE
  5
3C3
100
AcDbEntity
  8
0
100
AcDbLine
 62
7
  6
CONTINUOUS
 10
8.4285433584
 20
2.8478423695
 11
8.4332637643
 21
2.8393265319
  0
LINE
  5
3C4
100
AcDbEntity
  8
0
100
AcDbLine
 62
7
  6
CONTINUOUS
 10
8.6409680359
 20
2.4567828515
 11
8.645539101
 21
2.4481859284
  0
LINE
  5
3C5
100
AcDbEntity
  8
0
100
AcDbLine
 62
7
  6
CONTINUOUS
 10
8.4347300138
 20
2.8619220577
 11
8.438998266
 21
2.8531708437
  0
LINE
  5
3C6
100
AcDbEntity
  8
0
100
AcDbLine
 62
7
  6
CONTINUOUS
 10
8.6263970968
 20
2.4602810245
 11
8.6305119692
 21
2.4514566521
  0
LINE
  5
3C7
100
AcDbEntity
  8
0
100
AcDbLine
 62
7
  6
CONTINUOUS
 10
8.4416450645
 20
2.8756586655
 11
8.4454494641
 21
2.8666960618
  0
LINE
  5
3C8
100
AcDbEntity
  8
0
100
AcDbLine
 62
7
  6
CONTINUOUS
 10
8.8527392315
 20
2.9879607226
 11
8.8435898038
 21
2.9846306033
  0
LINE
  5
3C9
100
AcDbEntity
  8
0
100
AcDbLine
 62
7
  6
CONTINUOUS
 10
8.4332637643
 20
2.8393265319
 11
8.4240576114
 21
2.8361565993
  0
LINE
  5
3CA
100
AcDbEntity
  8
0
100
AcDbLine
 62
7
  6
CONTINUOUS
 10
8.8656777692
 20
2.9796476868
 11
8.8563665955
 21
2.9768009753
  0
LINE
  5
3CB
100
AcDbEntity
  8
0
100
AcDbLine
 62
7
  6
CONTINUOUS
 10
8.438998266
 20
2.8531708437
 11
8.4296388284
 21
2.8504870682
  0
LINE
  5
3CC
100
AcDbEntity
  8
0
100
AcDbLine
 62
7
  6
CONTINUOUS
 10
8.9724116106
 20
2.6256632205
 11
8.9676912047
 21
2.6341790582
  0
LINE
  5
3CD
100
AcDbEntity
  8
0
100
AcDbLine
 62
7
  6
CONTINUOUS
 10
8.759986933
 20
3.0167227386
 11
8.755415868
 21
3.0253196617
  0
LINE
  5
3CE
100
AcDbEntity
  8
0
100
AcDbLine
 62
7
  6
CONTINUOUS
 10
8.9662249552
 20
2.6115835324
 11
8.961956703
 21
2.6203347463
  0
LINE
  5
3CF
100
AcDbEntity
  8
0
100
AcDbLine
 62
7
  6
CONTINUOUS
 10
8.7745578721
 20
3.0132245656
 11
8.7704429997
 21
3.022048938
  0
LINE
  5
3D0
100
AcDbEntity
  8
0
100
AcDbLine
 62
7
  6
CONTINUOUS
 10
8.9593099045
 20
2.5978469245
 11
8.9555055049
 21
2.6068095283
  0
LINE
  5
3D1
100
AcDbEntity
  8
0
100
AcDbLine
 62
7
  6
CONTINUOUS
 10
8.6120259918
 20
2.464527092
 11
8.6156683943
 21
2.4555118295
  0
LINE
  5
3D2
100
AcDbEntity
  8
0
100
AcDbLine
 62
7
  6
CONTINUOUS
 10
8.4492695569
 20
2.8890145421
 11
8.4525996762
 21
2.8798651143
  0
LINE
  5
3D3
100
AcDbEntity
  8
0
100
AcDbLine
 62
7
  6
CONTINUOUS
 10
8.5979037476
 20
2.4695390748
 11
8.6010736802
 21
2.460332922
  0
LINE
  5
3D4
100
AcDbEntity
  8
0
100
AcDbLine
 62
7
  6
CONTINUOUS
 10
8.4575825927
 20
2.9019530797
 11
8.4604293042
 21
2.892641906
  0
LINE
  5
3D5
100
AcDbEntity
  8
0
100
AcDbLine
 62
7
  6
CONTINUOUS
 10
8.5840594358
 20
2.4752735765
 11
8.5867432113
 21
2.465914139
  0
LINE
  5
3D6
100
AcDbEntity
  8
0
100
AcDbLine
 62
7
  6
CONTINUOUS
 10
8.4972374994
 20
2.9488437448
 11
8.4980861016
 21
2.939144178
  0
LINE
  5
3D7
100
AcDbEntity
  8
0
100
AcDbLine
 62
7
  6
CONTINUOUS
 10
8.1129774845
 20
0.643752795
 11
8.1129774845
 21
0.686252795
  0
LINE
  5
3D8
100
AcDbEntity
  8
0
100
AcDbLine
 62
7
  6
CONTINUOUS
 10
8.811567059
 20
3.0086869211
 11
8.8030512213
 21
3.0039665152
  0
LINE
  5
3D9
100
AcDbEntity
  8
0
100
AcDbLine
 62
7
  6
CONTINUOUS
 10
8.4205075409
 20
2.7962622436
 11
8.4119106178
 21
2.7916911785
  0
LINE
  5
3DA
100
AcDbEntity
  8
0
100
AcDbLine
 62
7
  6
CONTINUOUS
 10
8.8256467471
 20
3.0025002658
 11
8.8168955332
 21
2.9982320135
  0
LINE
  5
3DB
100
AcDbEntity
  8
0
100
AcDbLine
 62
7
  6
CONTINUOUS
 10
8.4240057139
 20
2.8108331827
 11
8.4151813415
 21
2.8067183103
  0
LINE
  5
3DC
100
AcDbEntity
  8
0
100
AcDbLine
 62
7
  6
CONTINUOUS
 10
8.839383355
 20
2.995585215
 11
8.8304207512
 21
2.9917808154
  0
LINE
  5
3DD
100
AcDbEntity
  8
0
100
AcDbLine
 62
7
  6
CONTINUOUS
 10
8.4282517815
 20
2.8252042878
 11
8.4192365189
 21
2.8215618852
  0
LINE
  5
3DE
100
AcDbEntity
  8
0
100
AcDbLine
 62
7
  6
CONTINUOUS
 10
8.5482157374
 20
2.4855448674
 11
8.5573651652
 21
2.4888749868
  0
LINE
  5
3DF
100
AcDbEntity
  8
0
100
AcDbLine
 62
7
  6
CONTINUOUS
 10
8.9676912047
 20
2.6341790582
 11
8.9768973575
 21
2.6373489908
  0
LINE
  5
3E0
100
AcDbEntity
  8
0
100
AcDbLine
 62
7
  6
CONTINUOUS
 10
8.5352771998
 20
2.4938579033
 11
8.5445883735
 21
2.4967046148
  0
LINE
  5
3E1
100
AcDbEntity
  8
0
100
AcDbLine
 62
7
  6
CONTINUOUS
 10
8.961956703
 20
2.6203347463
 11
8.9713161405
 21
2.6230185219
  0
LINE
  5
3E2
100
AcDbEntity
  8
0
100
AcDbLine
 62
7
  6
CONTINUOUS
 10
8.7889289772
 20
3.008978498
 11
8.7852865747
 21
3.0179937606
  0
LINE
  5
3E3
100
AcDbEntity
  8
0
100
AcDbLine
 62
7
  6
CONTINUOUS
 10
8.9516854121
 20
2.584491048
 11
8.9483552927
 21
2.5936404757
  0
LINE
  5
3E4
100
AcDbEntity
  8
0
100
AcDbLine
 62
7
  6
CONTINUOUS
 10
8.8030512213
 20
3.0039665152
 11
8.7998812887
 21
3.0131726681
  0
LINE
  5
3E5
100
AcDbEntity
  8
0
100
AcDbLine
 62
7
  6
CONTINUOUS
 10
8.9433723762
 20
2.5715525103
 11
8.9405256647
 21
2.580863684
  0
LINE
  5
3E6
100
AcDbEntity
  8
0
100
AcDbLine
 62
7
  6
CONTINUOUS
 10
8.8168955332
 20
2.9982320135
 11
8.8142117576
 21
3.0075914511
  0
LINE
  5
3E7
100
AcDbEntity
  8
0
100
AcDbLine
 62
7
  6
CONTINUOUS
 10
8.4665561973
 20
2.9144319832
 11
8.4689084702
 21
2.9049975321
  0
LINE
  5
3E8
100
AcDbEntity
  8
0
100
AcDbLine
 62
7
  6
CONTINUOUS
 10
8.5705342177
 20
2.4817247746
 11
8.5727244801
 21
2.4722377059
  0
LINE
  5
3E9
100
AcDbEntity
  8
0
100
AcDbLine
 62
7
  6
CONTINUOUS
 10
8.4761813283
 20
2.9264375251
 11
8.4780391625
 21
2.9168797965
  0
LINE
  5
3EA
100
AcDbEntity
  8
0
100
AcDbLine
 62
7
  6
CONTINUOUS
 10
8.5573651652
 20
2.4888749868
 11
8.5590559111
 21
2.4792862903
  0
LINE
  5
3EB
100
AcDbEntity
  8
0
100
AcDbLine
 62
7
  6
CONTINUOUS
 10
8.4864160501
 20
2.9379163226
 11
8.4877711253
 21
2.928274461
  0
LINE
  5
3EC
100
AcDbEntity
  8
0
100
AcDbLine
 62
7
  6
CONTINUOUS
 10
8.5445883735
 20
2.4967046148
 11
8.5457749687
 21
2.4870405724
  0
LINE
  5
3ED
100
AcDbEntity
  8
0
100
AcDbLine
 62
7
  6
CONTINUOUS
 10
8.9037174695
 20
2.5246618453
 11
8.9028688674
 21
2.5343614121
  0
LINE
  5
3EE
100
AcDbEntity
  8
0
100
AcDbLine
 62
7
  6
CONTINUOUS
 10
8.5322327474
 20
2.5051837807
 11
8.5329110087
 21
2.4954841922
  0
LINE
  5
3EF
100
AcDbEntity
  8
0
100
AcDbLine
 62
7
  6
CONTINUOUS
 10
8.5086160154
 20
2.9591898405
 11
8.5089558185
 21
2.9494591542
  0
LINE
  5
3F0
100
AcDbEntity
  8
0
100
AcDbLine
 62
7
  6
CONTINUOUS
 10
8.520350483
 20
2.514314473
 11
8.5205204104
 21
2.5045793384
  0
LINE
  5
3F1
100
AcDbEntity
  8
0
100
AcDbLine
 62
7
  6
CONTINUOUS
 10
8.4454774845
 20
1.124252795
 11
8.4454774845
 21
1.061752795
  0
LINE
  5
3F2
100
AcDbEntity
  8
0
100
AcDbLine
 62
7
  6
CONTINUOUS
 10
8.4504774845
 20
2.311752795
 11
8.4504774845
 21
2.5825158276
  0
LINE
  5
3F3
100
AcDbEntity
  8
0
100
AcDbLine
 62
7
  6
CONTINUOUS
 10
8.4504774845
 20
2.5878098018
 11
8.4504774845
 21
2.5940146754
  0
LINE
  5
3F4
100
AcDbEntity
  8
0
100
AcDbLine
 62
7
  6
CONTINUOUS
 10
8.5164774845
 20
0.999252795
 11
8.5164774845
 21
0.988752795
  0
LINE
  5
3F5
100
AcDbEntity
  8
0
100
AcDbLine
 62
7
  6
CONTINUOUS
 10
8.5205204104
 20
2.9689262517
 11
8.520350483
 21
2.959191117
  0
LINE
  5
3F6
100
AcDbEntity
  8
0
100
AcDbLine
 62
7
  6
CONTINUOUS
 10
8.5089558185
 20
2.5240464359
 11
8.5086160154
 21
2.5143157496
  0
LINE
  5
3F7
100
AcDbEntity
  8
0
100
AcDbLine
 62
7
  6
CONTINUOUS
 10
8.5329110087
 20
2.9780213978
 11
8.5322327474
 21
2.9683218093
  0
LINE
  5
3F8
100
AcDbEntity
  8
0
100
AcDbLine
 62
7
  6
CONTINUOUS
 10
8.4980861016
 20
2.5343614121
 11
8.4972374994
 21
2.5246618453
  0
LINE
  5
3F9
100
AcDbEntity
  8
0
100
AcDbLine
 62
7
  6
CONTINUOUS
 10
8.5457749687
 20
2.9864650176
 11
8.5445883735
 21
2.9768009753
  0
LINE
  5
3FA
100
AcDbEntity
  8
0
100
AcDbLine
 62
7
  6
CONTINUOUS
 10
8.4877711253
 20
2.545231129
 11
8.4864160501
 21
2.5355892675
  0
LINE
  5
3FB
100
AcDbEntity
  8
0
100
AcDbLine
 62
7
  6
CONTINUOUS
 10
8.4146451068
 20
2.7217729549
 11
8.4075241954
 21
2.7151325976
  0
LINE
  5
3FC
100
AcDbEntity
  8
0
100
AcDbLine
 62
7
  6
CONTINUOUS
 10
8.7526012013
 20
3.0258413293
 11
8.7452528827
 21
3.0194535334
  0
LINE
  5
3FD
100
AcDbEntity
  8
0
100
AcDbLine
 62
7
  6
CONTINUOUS
 10
8.4142424413
 20
2.736752795
 11
8.4067939814
 21
2.730502795
  0
LINE
  5
3FE
100
AcDbEntity
  8
0
100
AcDbLine
 62
7
  6
CONTINUOUS
 10
8.7676594924
 20
3.0227171989
 11
8.759986933
 21
3.0167227386
  0
LINE
  5
3FF
100
AcDbEntity
  8
0
100
AcDbLine
 62
7
  6
CONTINUOUS
 10
8.4146451068
 20
2.7517326352
 11
8.4068690982
 21
2.7458729924
  0
LINE
  5
400
100
AcDbEntity
  8
0
100
AcDbLine
 62
7
  6
CONTINUOUS
 10
8.7825336424
 20
3.01880926
 11
8.7745578721
 21
3.0132245656
  0
LINE
  5
401
100
AcDbEntity
  8
0
100
AcDbLine
 62
7
  6
CONTINUOUS
 10
8.4158208144
 20
2.7666714167
 11
8.4077487925
 21
2.7612267692
  0
LINE
  5
402
100
AcDbEntity
  8
0
100
AcDbLine
 62
7
  6
CONTINUOUS
 10
8.7971747811
 20
3.0141310482
 11
8.7889289772
 21
3.008978498
  0
LINE
  5
403
100
AcDbEntity
  8
0
100
AcDbLine
 62
7
  6
CONTINUOUS
 10
8.4177767461
 20
2.7815281933
 11
8.4094308359
 21
2.7765134645
  0
LINE
  5
404
100
AcDbEntity
  8
0
100
AcDbLine
 62
7
  6
CONTINUOUS
 10
8.58938791
 20
2.4648186689
 11
8.5979037476
 21
2.4695390748
  0
LINE
  5
405
100
AcDbEntity
  8
0
100
AcDbLine
 62
7
  6
CONTINUOUS
 10
8.980447428
 20
2.6772433465
 11
8.9890443511
 21
2.6818144115
  0
LINE
  5
406
100
AcDbEntity
  8
0
100
AcDbLine
 62
7
  6
CONTINUOUS
 10
8.5753082218
 20
2.4710053243
 11
8.5840594358
 21
2.4752735765
  0
LINE
  5
407
100
AcDbEntity
  8
0
100
AcDbLine
 62
7
  6
CONTINUOUS
 10
8.976949255
 20
2.6626724074
 11
8.9857736274
 21
2.6667872798
  0
LINE
  5
408
100
AcDbEntity
  8
0
100
AcDbLine
 62
7
  6
CONTINUOUS
 10
8.561571614
 20
2.477920375
 11
8.5705342177
 21
2.4817247746
  0
LINE
  5
409
100
AcDbEntity
  8
0
100
AcDbLine
 62
7
  6
CONTINUOUS
 10
8.9727031875
 20
2.6483013023
 11
8.98171845
 21
2.6519437048
  0
LINE
  5
40A
100
AcDbEntity
  8
0
100
AcDbLine
 62
7
  6
CONTINUOUS
 10
8.9343987716
 20
2.5590736068
 11
8.9320464988
 21
2.568508058
  0
LINE
  5
40B
100
AcDbEntity
  8
0
100
AcDbLine
 62
7
  6
CONTINUOUS
 10
8.8304207512
 20
2.9917808154
 11
8.8282304888
 21
3.0012678842
  0
LINE
  5
40C
100
AcDbEntity
  8
0
100
AcDbLine
 62
7
  6
CONTINUOUS
 10
8.9247736407
 20
2.547068065
 11
8.9229158065
 21
2.5566257935
  0
LINE
  5
40D
100
AcDbEntity
  8
0
100
AcDbLine
 62
7
  6
CONTINUOUS
 10
8.8435898038
 20
2.9846306033
 11
8.8418990579
 21
2.9942192998
  0
LINE
  5
40E
100
AcDbEntity
  8
0
100
AcDbLine
 62
7
  6
CONTINUOUS
 10
8.9145389189
 20
2.5355892675
 11
8.9131838436
 21
2.545231129
  0
LINE
  5
40F
100
AcDbEntity
  8
0
100
AcDbLine
 62
7
  6
CONTINUOUS
 10
8.8563665955
 20
2.9768009753
 11
8.8551800003
 21
2.9864650176
  0
LINE
  5
410
100
AcDbEntity
  8
0
100
AcDbLine
 62
7
  6
CONTINUOUS
 10
8.8687222215
 20
2.9683218093
 11
8.8680439602
 21
2.9780213978
  0
LINE
  5
411
100
AcDbEntity
  8
0
100
AcDbLine
 62
7
  6
CONTINUOUS
 10
8.8923389535
 20
2.5143157496
 11
8.8919991505
 21
2.5240464359
  0
LINE
  5
412
100
AcDbEntity
  8
0
100
AcDbLine
 62
7
  6
CONTINUOUS
 10
8.880604486
 20
2.959191117
 11
8.8804345586
 21
2.9689262517
  0
LINE
  5
413
100
AcDbEntity
  8
0
100
AcDbLine
 62
7
  6
CONTINUOUS
 10
8.8844774845
 20
0.999252795
 11
8.8844774845
 21
0.988752795
  0
LINE
  5
414
100
AcDbEntity
  8
0
100
AcDbLine
 62
7
  6
CONTINUOUS
 10
8.9504774845
 20
2.311752795
 11
8.9504774845
 21
2.5825158276
  0
LINE
  5
415
100
AcDbEntity
  8
0
100
AcDbLine
 62
7
  6
CONTINUOUS
 10
8.9504774845
 20
2.5878098018
 11
8.9504774845
 21
2.5940146754
  0
LINE
  5
416
100
AcDbEntity
  8
0
100
AcDbLine
 62
7
  6
CONTINUOUS
 10
8.9554774845
 20
1.124252795
 11
8.9554774845
 21
1.061752795
  0
LINE
  5
417
100
AcDbEntity
  8
0
100
AcDbLine
 62
7
  6
CONTINUOUS
 10
8.8804345586
 20
2.5045793384
 11
8.880604486
 21
2.514314473
  0
LINE
  5
418
100
AcDbEntity
  8
0
100
AcDbLine
 62
7
  6
CONTINUOUS
 10
8.8919991505
 20
2.9494591542
 11
8.8923389535
 21
2.9591898405
  0
LINE
  5
419
100
AcDbEntity
  8
0
100
AcDbLine
 62
7
  6
CONTINUOUS
 10
8.8680439602
 20
2.4954841922
 11
8.8687222215
 21
2.5051837807
  0
LINE
  5
41A
100
AcDbEntity
  8
0
100
AcDbLine
 62
7
  6
CONTINUOUS
 10
8.9028688674
 20
2.939144178
 11
8.9037174695
 21
2.9488437448
  0
LINE
  5
41B
100
AcDbEntity
  8
0
100
AcDbLine
 62
7
  6
CONTINUOUS
 10
8.8551800003
 20
2.4870405724
 11
8.8563665955
 21
2.4967046148
  0
LINE
  5
41C
100
AcDbEntity
  8
0
100
AcDbLine
 62
7
  6
CONTINUOUS
 10
8.9131838436
 20
2.928274461
 11
8.9145389189
 21
2.9379163226
  0
LINE
  5
41D
100
AcDbEntity
  8
0
100
AcDbLine
 62
7
  6
CONTINUOUS
 10
8.5590559111
 20
2.9942192998
 11
8.5573651652
 21
2.9846306033
  0
LINE
  5
41E
100
AcDbEntity
  8
0
100
AcDbLine
 62
7
  6
CONTINUOUS
 10
8.4780391625
 20
2.5566257935
 11
8.4761813283
 21
2.547068065
  0
LINE
  5
41F
100
AcDbEntity
  8
0
100
AcDbLine
 62
7
  6
CONTINUOUS
 10
8.5727244801
 20
3.0012678842
 11
8.5705342177
 21
2.9917808154
  0
LINE
  5
420
100
AcDbEntity
  8
0
100
AcDbLine
 62
7
  6
CONTINUOUS
 10
8.4689084702
 20
2.568508058
 11
8.4665561973
 21
2.5590736068
  0
LINE
  5
421
100
AcDbEntity
  8
0
100
AcDbLine
 62
7
  6
CONTINUOUS
 10
8.5867432113
 20
3.0075914511
 11
8.5840594358
 21
2.9982320135
  0
LINE
  5
422
100
AcDbEntity
  8
0
100
AcDbLine
 62
7
  6
CONTINUOUS
 10
8.4604293042
 20
2.580863684
 11
8.4575825927
 21
2.5715525103
  0
LINE
  5
423
100
AcDbEntity
  8
0
100
AcDbLine
 62
7
  6
CONTINUOUS
 10
8.6010736802
 20
3.0131726681
 11
8.5979037476
 21
3.0039665152
  0
LINE
  5
424
100
AcDbEntity
  8
0
100
AcDbLine
 62
7
  6
CONTINUOUS
 10
8.4525996762
 20
2.5936404757
 11
8.4492695569
 21
2.584491048
  0
LINE
  5
425
100
AcDbEntity
  8
0
100
AcDbLine
 62
7
  6
CONTINUOUS
 10
8.6156683943
 20
3.0179937606
 11
8.6120259918
 21
3.008978498
  0
LINE
  5
426
100
AcDbEntity
  8
0
100
AcDbLine
 62
7
  6
CONTINUOUS
 10
8.4454494641
 20
2.6068095283
 11
8.4416450645
 21
2.5978469245
  0
LINE
  5
427
100
AcDbEntity
  8
0
100
AcDbLine
 62
7
  6
CONTINUOUS
 10
8.6305119692
 20
3.022048938
 11
8.6263970968
 21
3.0132245656
  0
LINE
  5
428
100
AcDbEntity
  8
0
100
AcDbLine
 62
7
  6
CONTINUOUS
 10
8.438998266
 20
2.6203347463
 11
8.4347300138
 21
2.6115835324
  0
LINE
  5
429
100
AcDbEntity
  8
0
100
AcDbLine
 62
7
  6
CONTINUOUS
 10
8.645539101
 20
3.0253196617
 11
8.6409680359
 21
3.0167227386
  0
LINE
  5
42A
100
AcDbEntity
  8
0
100
AcDbLine
 62
7
  6
CONTINUOUS
 10
8.4332637643
 20
2.6341790582
 11
8.4285433584
 21
2.6256632205
  0
LINE
  5
42B
100
AcDbEntity
  8
0
100
AcDbLine
 62
7
  6
CONTINUOUS
 10
8.660716815
 20
3.0277994436
 11
8.6557020862
 21
3.0194535334
  0
LINE
  5
42C
100
AcDbEntity
  8
0
100
AcDbLine
 62
7
  6
CONTINUOUS
 10
8.4282517815
 20
2.6483013023
 11
8.4230992313
 21
2.6400554984
  0
LINE
  5
42D
100
AcDbEntity
  8
0
100
AcDbLine
 62
7
  6
CONTINUOUS
 10
8.6760035103
 20
3.029481487
 11
8.6705588628
 21
3.0214094651
  0
LINE
  5
42E
100
AcDbEntity
  8
0
100
AcDbLine
 62
7
  6
CONTINUOUS
 10
8.4240057139
 20
2.6626724074
 11
8.4184210195
 21
2.6546966372
  0
LINE
  5
42F
100
AcDbEntity
  8
0
100
AcDbLine
 62
7
  6
CONTINUOUS
 10
8.6913572871
 20
3.0303611813
 11
8.6854976443
 21
3.0225851727
  0
LINE
  5
430
100
AcDbEntity
  8
0
100
AcDbLine
 62
7
  6
CONTINUOUS
 10
8.4205075409
 20
2.6772433465
 11
8.4145130806
 21
2.6695707871
  0
LINE
  5
431
100
AcDbEntity
  8
0
100
AcDbLine
 62
7
  6
CONTINUOUS
 10
8.7067274845
 20
3.0304362981
 11
8.7004774845
 21
3.0229878382
  0
LINE
  5
432
100
AcDbEntity
  8
0
100
AcDbLine
 62
7
  6
CONTINUOUS
 10
8.4177767461
 20
2.6919773968
 11
8.4113889502
 21
2.6846290782
  0
LINE
  5
433
100
AcDbEntity
  8
0
100
AcDbLine
 62
7
  6
CONTINUOUS
 10
8.7220976819
 20
3.0297060841
 11
8.7154573246
 21
3.0225851727
  0
LINE
  5
434
100
AcDbEntity
  8
0
100
AcDbLine
 62
7
  6
CONTINUOUS
 10
8.4158208144
 20
2.7068341734
 11
8.4090571914
 21
2.6998302368
  0
LINE
  5
435
100
AcDbEntity
  8
0
100
AcDbLine
 62
7
  6
CONTINUOUS
 10
8.7374000427
 20
3.0281730881
 11
8.7303961061
 21
3.0214094651
  0
LINE
  5
436
100
AcDbEntity
  8
0
100
AcDbLine
 62
7
  6
CONTINUOUS
 10
8.9863098622
 20
2.7517326352
 11
8.9934307735
 21
2.7583729924
  0
LINE
  5
437
100
AcDbEntity
  8
0
100
AcDbLine
 62
7
  6
CONTINUOUS
 10
8.6483537677
 20
2.4476642608
 11
8.6557020862
 21
2.4540520567
  0
LINE
  5
438
100
AcDbEntity
  8
0
100
AcDbLine
 62
7
  6
CONTINUOUS
 10
8.9867125276
 20
2.736752795
 11
8.9941609876
 21
2.743002795
  0
LINE
  5
439
100
AcDbEntity
  8
0
100
AcDbLine
 62
7
  6
CONTINUOUS
 10
8.6332954765
 20
2.4507883911
 11
8.6409680359
 21
2.4567828515
  0
LINE
  5
43A
100
AcDbEntity
  8
0
100
AcDbLine
 62
7
  6
CONTINUOUS
 10
8.9863098622
 20
2.7217729549
 11
8.9940858708
 21
2.7276325976
  0
LINE
  5
43B
100
AcDbEntity
  8
0
100
AcDbLine
 62
7
  6
CONTINUOUS
 10
8.6184213266
 20
2.45469633
 11
8.6263970968
 21
2.4602810245
  0
LINE
  5
43C
100
AcDbEntity
  8
0
100
AcDbLine
 62
7
  6
CONTINUOUS
 10
8.9851341546
 20
2.7068341734
 11
8.9932061764
 21
2.7122788209
  0
LINE
  5
43D
100
AcDbEntity
  8
0
100
AcDbLine
 62
7
  6
CONTINUOUS
 10
8.6037801878
 20
2.4593745419
 11
8.6120259918
 21
2.464527092
  0
LINE
  5
43E
100
AcDbEntity
  8
0
100
AcDbLine
 62
7
  6
CONTINUOUS
 10
8.9831782228
 20
2.6919773968
 11
8.9915241331
 21
2.6969921256
  0
LINE
  5
43F
100
AcDbEntity
  8
0
100
AcDbLine
 62
7
  6
CONTINUOUS
 10
9.2879774845
 20
0.643752795
 11
9.2879774845
 21
0.686252795
  0
LINE
  5
440
100
AcDbEntity
  8
0
100
AcDbLine
 62
7
  6
CONTINUOUS
 10
8.8418990579
 20
2.4792862903
 11
8.8435898038
 21
2.4888749868
  0
LINE
  5
441
100
AcDbEntity
  8
0
100
AcDbLine
 62
7
  6
CONTINUOUS
 10
8.9229158065
 20
2.9168797965
 11
8.9247736407
 21
2.9264375251
  0
LINE
  5
442
100
AcDbEntity
  8
0
100
AcDbLine
 62
7
  6
CONTINUOUS
 10
8.8282304888
 20
2.4722377059
 11
8.8304207512
 21
2.4817247746
  0
LINE
  5
443
100
AcDbEntity
  8
0
100
AcDbLine
 62
7
  6
CONTINUOUS
 10
8.9320464988
 20
2.9049975321
 11
8.9343987716
 21
2.9144319832
  0
LINE
  5
444
100
AcDbEntity
  8
0
100
AcDbLine
 62
7
  6
CONTINUOUS
 10
8.8142117576
 20
2.465914139
 11
8.8168955332
 21
2.4752735765
  0
LINE
  5
445
100
AcDbEntity
  8
0
100
AcDbLine
 62
7
  6
CONTINUOUS
 10
8.9405256647
 20
2.892641906
 11
8.9433723762
 21
2.9019530797
  0
LINE
  5
446
100
AcDbEntity
  8
0
100
AcDbLine
 62
7
  6
CONTINUOUS
 10
8.7998812887
 20
2.460332922
 11
8.8030512213
 21
2.4695390748
  0
LINE
  5
447
100
AcDbEntity
  8
0
100
AcDbLine
 62
7
  6
CONTINUOUS
 10
8.9483552927
 20
2.8798651143
 11
8.9516854121
 21
2.8890145421
  0
LINE
  5
448
100
AcDbEntity
  8
0
100
AcDbLine
 62
7
  6
CONTINUOUS
 10
8.7852865747
 20
2.4555118295
 11
8.7889289772
 21
2.464527092
  0
LINE
  5
449
100
AcDbEntity
  8
0
100
AcDbLine
 62
7
  6
CONTINUOUS
 10
8.9555055049
 20
2.8666960618
 11
8.9593099045
 21
2.8756586655
  0
LINE
  5
44A
100
AcDbEntity
  8
0
100
AcDbLine
 62
7
  6
CONTINUOUS
 10
8.7704429997
 20
2.4514566521
 11
8.7745578721
 21
2.4602810245
  0
LINE
  5
44B
100
AcDbEntity
  8
0
100
AcDbLine
 62
7
  6
CONTINUOUS
 10
8.961956703
 20
2.8531708437
 11
8.9662249552
 21
2.8619220577
  0
LINE
  5
44C
100
AcDbEntity
  8
0
100
AcDbLine
 62
7
  6
CONTINUOUS
 10
8.755415868
 20
2.4481859284
 11
8.759986933
 21
2.4567828515
  0
LINE
  5
44D
100
AcDbEntity
  8
0
100
AcDbLine
 62
7
  6
CONTINUOUS
 10
8.9676912047
 20
2.8393265319
 11
8.9724116106
 21
2.8478423695
  0
LINE
  5
44E
100
AcDbEntity
  8
0
100
AcDbLine
 62
7
  6
CONTINUOUS
 10
8.7402381539
 20
2.4457061464
 11
8.7452528827
 21
2.4540520567
  0
LINE
  5
44F
100
AcDbEntity
  8
0
100
AcDbLine
 62
7
  6
CONTINUOUS
 10
8.9727031875
 20
2.8252042878
 11
8.9778557376
 21
2.8334500917
  0
LINE
  5
450
100
AcDbEntity
  8
0
100
AcDbLine
 62
7
  6
CONTINUOUS
 10
8.7249514586
 20
2.4440241031
 11
8.7303961061
 21
2.4520961249
  0
LINE
  5
451
100
AcDbEntity
  8
0
100
AcDbLine
 62
7
  6
CONTINUOUS
 10
8.976949255
 20
2.8108331827
 11
8.9825339495
 21
2.8188089529
  0
LINE
  5
452
100
AcDbEntity
  8
0
100
AcDbLine
 62
7
  6
CONTINUOUS
 10
8.7095976819
 20
2.4431444087
 11
8.7154573246
 21
2.4509204173
  0
LINE
  5
453
100
AcDbEntity
  8
0
100
AcDbLine
 62
7
  6
CONTINUOUS
 10
8.980447428
 20
2.7962622436
 11
8.9864418884
 21
2.803934803
  0
LINE
  5
454
100
AcDbEntity
  8
0
100
AcDbLine
 62
7
  6
CONTINUOUS
 10
8.8822840047
 20
2.5139880077
 11
8.8818039055
 21
2.5133750411
  0
LINE
  5
455
100
AcDbEntity
  8
0
100
AcDbLine
 62
7
  6
CONTINUOUS
 10
8.6942274845
 20
2.4430692919
 11
8.7004774845
 21
2.4505177519
  0
LINE
  5
456
100
AcDbEntity
  8
0
100
AcDbLine
 62
7
  6
CONTINUOUS
 10
8.9831782228
 20
2.7815281933
 11
8.9895660187
 21
2.7888765118
  0
LINE
  5
457
100
AcDbEntity
  8
0
100
AcDbLine
 62
7
  6
CONTINUOUS
 10
8.6788572871
 20
2.443799506
 11
8.6854976443
 21
2.4509204173
  0
LINE
  5
458
100
AcDbEntity
  8
0
100
AcDbLine
 62
7
  6
CONTINUOUS
 10
8.9851341546
 20
2.7666714167
 11
8.9918977775
 21
2.7736753532
  0
LINE
  5
459
100
AcDbEntity
  8
0
100
AcDbLine
 62
7
  6
CONTINUOUS
 10
8.6635549263
 20
2.445332502
 11
8.6705588628
 21
2.4520961249
  0
LINE
  5
45A
100
AcDbEntity
  8
0
100
AcDbLine
 62
7
  6
CONTINUOUS
 10
9.2879774845
 20
0.643752795
 11
9.2779774845
 21
0.633752795
  0
ARC
  5
45B
100
AcDbEntity
  8
0
100
AcDbCircle
 62
7
  6
CONTINUOUS
 10
2.3824774845
 20
1.3962930325
 40
0.318
100
AcDbArc
 50
345.1156903923
 51
36.549446714
  0
ARC
  5
45C
100
AcDbEntity
  8
0
100
AcDbCircle
 62
7
  6
CONTINUOUS
 10
2.2684774845
 20
1.3962930325
 40
0.318
100
AcDbArc
 50
143.450553286
 51
194.8843096077
  0
ARC
  5
45D
100
AcDbEntity
  8
0
100
AcDbCircle
 62
7
  6
CONTINUOUS
 10
1.7964774845
 20
0.9453329779
 40
0.254
100
AcDbArc
 50
284.6669095294
 51
14.8843096077
  0
ARC
  5
45E
100
AcDbEntity
  8
0
100
AcDbCircle
 62
7
  6
CONTINUOUS
 10
1.8657274845
 20
0.653252795
 40
0.0195
100
AcDbArc
 50
180.0
 51
270.0
  0
ARC
  5
45F
100
AcDbEntity
  8
0
100
AcDbCircle
 62
7
  6
CONTINUOUS
 10
1.8657274845
 20
0.6807452089
 40
0.0195
100
AcDbArc
 50
104.6669095294
 51
180.0
  0
ARC
  5
460
100
AcDbEntity
  8
0
100
AcDbCircle
 62
7
  6
CONTINUOUS
 10
2.3254774845
 20
2.296916099
 40
0.775336696
100
AcDbArc
 50
75.2370022574
 51
82.8689275621
  0
ARC
  5
461
100
AcDbEntity
  8
0
100
AcDbCircle
 62
7
  6
CONTINUOUS
 10
2.3254774845
 20
2.296916099
 40
0.775336696
100
AcDbArc
 50
99.221579184
 51
104.7629977426
  0
ARC
  5
462
100
AcDbEntity
  8
0
100
AcDbCircle
 62
7
  6
CONTINUOUS
 10
2.3254774845
 20
2.296916099
 40
0.775336696
100
AcDbArc
 50
92.9572301428
 51
94.3827253199
  0
ARC
  5
463
100
AcDbEntity
  8
0
100
AcDbCircle
 62
7
  6
CONTINUOUS
 10
2.3254774845
 20
2.296916099
 40
0.775336696
100
AcDbArc
 50
84.2076250178
 51
87.1537590823
  0
ARC
  5
464
100
AcDbEntity
  8
0
100
AcDbCircle
 62
7
  6
CONTINUOUS
 10
2.3254774845
 20
2.296916099
 40
0.775336696
100
AcDbArc
 50
88.473827208
 51
91.6148836456
  0
ARC
  5
465
100
AcDbEntity
  8
0
100
AcDbCircle
 62
7
  6
CONTINUOUS
 10
2.3254774845
 20
2.296916099
 40
0.7753341165
100
AcDbArc
 50
96.0895835634
 51
97.5036217175
  0
ARC
  5
466
100
AcDbEntity
  8
0
100
AcDbCircle
 62
7
  6
CONTINUOUS
 10
2.3254774845
 20
2.296916099
 40
0.774836696
100
AcDbArc
 50
82.8687745639
 51
84.2038744154
  0
ARC
  5
467
100
AcDbEntity
  8
0
100
AcDbCircle
 62
7
  6
CONTINUOUS
 10
2.3254774845
 20
2.296916099
 40
0.774836696
100
AcDbArc
 50
94.3855590149
 51
95.8683848097
  0
ARC
  5
468
100
AcDbEntity
  8
0
100
AcDbCircle
 62
7
  6
CONTINUOUS
 10
2.3254774845
 20
2.296916099
 40
0.774836696
100
AcDbArc
 50
97.732447971
 51
99.2216419429
  0
ARC
  5
469
100
AcDbEntity
  8
0
100
AcDbCircle
 62
7
  6
CONTINUOUS
 10
2.3254774845
 20
2.296916099
 40
0.774836696
100
AcDbArc
 50
91.6159260019
 51
92.3356910414
  0
ARC
  5
46A
100
AcDbEntity
  8
0
100
AcDbCircle
 62
7
  6
CONTINUOUS
 10
2.3254774845
 20
2.296916099
 40
0.774836696
100
AcDbArc
 50
87.7881546163
 51
88.4728421397
  0
ARC
  5
46B
100
AcDbEntity
  8
0
100
AcDbCircle
 62
7
  6
CONTINUOUS
 10
2.3254774845
 20
2.296916099
 40
0.7741710032
100
AcDbArc
 50
93.7772047905
 51
96.4896726718
  0
ARC
  5
46C
100
AcDbEntity
  8
0
100
AcDbCircle
 62
7
  6
CONTINUOUS
 10
2.3254774845
 20
2.296916099
 40
0.7741710032
100
AcDbArc
 50
97.1232192299
 51
99.8547367444
  0
ARC
  5
46D
100
AcDbEntity
  8
0
100
AcDbCircle
 62
7
  6
CONTINUOUS
 10
2.3254774845
 20
2.296916099
 40
0.7741710032
100
AcDbArc
 50
82.1676580455
 51
84.8865797045
  0
ARC
  5
46E
100
AcDbEntity
  8
0
100
AcDbCircle
 62
6
  6
CONTINUOUS
 10
1.8304967537
 20
2.0345260465
 40
0.2345
100
AcDbArc
 50
327.5935402047
 51
353.0751017558
  0
ARC
  5
46F
100
AcDbEntity
  8
0
100
AcDbCircle
 62
7
  6
CONTINUOUS
 10
1.8623874845
 20
1.6973265222
 40
0.1875
100
AcDbArc
 50
323.450553286
 51
360.0
  0
ARC
  5
470
100
AcDbEntity
  8
0
100
AcDbCircle
 62
6
  6
CONTINUOUS
 10
2.5987274845
 20
1.861502795
 40
0.04675
100
AcDbArc
 50
272.8670693075
 51
300.5321251948
  0
ARC
  5
471
100
AcDbEntity
  8
0
100
AcDbCircle
 62
6
  6
CONTINUOUS
 10
2.0522274845
 20
1.861502795
 40
0.04675
100
AcDbArc
 50
239.4678748052
 51
267.1329306925
  0
ARC
  5
472
100
AcDbEntity
  8
0
100
AcDbCircle
 62
7
  6
CONTINUOUS
 10
2.8544774845
 20
0.9453329779
 40
0.254
100
AcDbArc
 50
165.1156903923
 51
255.3330904706
  0
ARC
  5
473
100
AcDbEntity
  8
0
100
AcDbCircle
 62
7
  6
CONTINUOUS
 10
2.7852274845
 20
0.653252795
 40
0.0195
100
AcDbArc
 50
270.0
 51
360.0
  0
ARC
  5
474
100
AcDbEntity
  8
0
100
AcDbCircle
 62
7
  6
CONTINUOUS
 10
2.7852274845
 20
0.6807452089
 40
0.0195
100
AcDbArc
 50
0.0
 51
75.3330904706
  0
ARC
  5
475
100
AcDbEntity
  8
0
100
AcDbCircle
 62
7
  6
CONTINUOUS
 10
3.7402274845
 20
2.395252795
 40
0.7810035
100
AcDbArc
 50
90.0
 51
180.0
  0
ARC
  5
476
100
AcDbEntity
  8
0
100
AcDbCircle
 62
7
  6
CONTINUOUS
 10
3.7402274845
 20
2.395252795
 40
0.3439965
100
AcDbArc
 50
90.0
 51
180.0
  0
ARC
  5
477
100
AcDbEntity
  8
0
100
AcDbCircle
 62
6
  6
CONTINUOUS
 10
2.8204582152
 20
2.0345260465
 40
0.2345
100
AcDbArc
 50
186.9248982442
 51
212.4064597953
  0
ARC
  5
478
100
AcDbEntity
  8
0
100
AcDbCircle
 62
7
  6
CONTINUOUS
 10
2.7885674845
 20
1.6973265222
 40
0.1875
100
AcDbArc
 50
180.0
 51
216.549446714
  0
ARC
  5
479
100
AcDbEntity
  8
0
100
AcDbCircle
 62
7
  6
CONTINUOUS
 10
3.0902274845
 20
1.9125371209
 40
0.15
100
AcDbArc
 50
187.9648629677
 51
213.6282289586
  0
ARC
  5
47A
100
AcDbEntity
  8
0
100
AcDbCircle
 62
7
  6
CONTINUOUS
 10
3.2652274845
 20
1.9125371209
 40
0.15
100
AcDbArc
 50
324.9544544405
 51
352.0351370246
  0
ARC
  5
47B
100
AcDbEntity
  8
0
100
AcDbCircle
 62
7
  6
CONTINUOUS
 10
2.6906171299
 20
2.705606678
 40
0.68
100
AcDbArc
 50
157.6438963444
 51
161.2440132164
  0
ARC
  5
47C
100
AcDbEntity
  8
0
100
AcDbCircle
 62
7
  6
CONTINUOUS
 10
2.6896268749
 20
2.9407937028
 40
0.68
100
AcDbArc
 50
199.0137742001
 51
202.5744557109
  0
ARC
  5
47D
100
AcDbEntity
  8
0
100
AcDbCircle
 62
7
  6
CONTINUOUS
 10
1.960337839
 20
2.705606678
 40
0.68
100
AcDbArc
 50
18.7559867836
 51
22.3561036556
  0
ARC
  5
47E
100
AcDbEntity
  8
0
100
AcDbCircle
 62
7
  6
CONTINUOUS
 10
1.9613280941
 20
2.9407937028
 40
0.68
100
AcDbArc
 50
337.4255442891
 51
340.9862257999
  0
ARC
  5
47F
100
AcDbEntity
  8
0
100
AcDbCircle
 62
7
  6
CONTINUOUS
 10
2.1151296269
 20
3.4771631049
 40
0.4241305701
100
AcDbArc
 50
280.5764261392
 51
280.7128726236
  0
ARC
  5
480
100
AcDbEntity
  8
0
100
AcDbCircle
 62
7
  6
CONTINUOUS
 10
2.1166609282
 20
3.4682423116
 40
0.4155795128
100
AcDbArc
 50
280.5947987424
 51
280.7210448829
  0
ARC
  5
481
100
AcDbEntity
  8
0
100
AcDbCircle
 62
7
  6
CONTINUOUS
 10
2.1860469704
 20
3.4765793131
 40
0.413160296
100
AcDbArc
 50
277.2206595635
 51
277.3494901279
  0
ARC
  5
482
100
AcDbEntity
  8
0
100
AcDbCircle
 62
7
  6
CONTINUOUS
 10
2.186940718
 20
3.4688265523
 40
0.4058563
100
AcDbArc
 50
277.233174237
 51
277.35526563
  0
ARC
  5
483
100
AcDbEntity
  8
0
100
AcDbCircle
 62
7
  6
CONTINUOUS
 10
2.1847211453
 20
3.4658265345
 40
0.402639936
100
AcDbArc
 50
276.2471779586
 51
276.3820289832
  0
ARC
  5
484
100
AcDbEntity
  8
0
100
AcDbCircle
 62
7
  6
CONTINUOUS
 10
2.2534414647
 20
3.4667381394
 40
0.397323195
100
AcDbArc
 50
272.8993035537
 51
273.0349070028
  0
CIRCLE
  5
485
100
AcDbEntity
  8
0
100
AcDbCircle
 62
7
  6
CONTINUOUS
 10
2.3254774845
 20
2.821752795
 40
0.1375
  0
ARC
  5
486
100
AcDbEntity
  8
0
100
AcDbCircle
 62
7
  6
CONTINUOUS
 10
1.7342274845
 20
2.821752795
 40
0.1375
100
AcDbArc
 50
55.0
 51
305.0
  0
ARC
  5
487
100
AcDbEntity
  8
0
100
AcDbCircle
 62
7
  6
CONTINUOUS
 10
2.9167274845
 20
2.821752795
 40
0.1375
100
AcDbArc
 50
235.0
 51
125.0
  0
ARC
  5
488
100
AcDbEntity
  8
0
100
AcDbCircle
 62
7
  6
CONTINUOUS
 10
1.970539505
 20
2.641002795
 40
0.125
100
AcDbArc
 50
47.7217900501
 51
136.9739483152
  0
ARC
  5
489
100
AcDbEntity
  8
0
100
AcDbCircle
 62
7
  6
CONTINUOUS
 10
1.970539505
 20
3.002502795
 40
0.125
100
AcDbArc
 50
223.0260516848
 51
312.2782100327
  0
ARC
  5
48A
100
AcDbEntity
  8
0
100
AcDbCircle
 62
7
  6
CONTINUOUS
 10
2.680415464
 20
2.641002795
 40
0.125
100
AcDbArc
 50
43.0260516848
 51
132.2782099672
  0
ARC
  5
48B
100
AcDbEntity
  8
0
100
AcDbCircle
 62
7
  6
CONTINUOUS
 10
2.680415464
 20
3.002502795
 40
0.125
100
AcDbArc
 50
227.7217899506
 51
316.9739483152
  0
ARC
  5
48C
100
AcDbEntity
  8
0
100
AcDbCircle
 62
6
  6
CONTINUOUS
 10
2.1417274845
 20
2.444752795
 40
0.025
100
AcDbArc
 50
90.0
 51
173.0751017558
  0
ARC
  5
48D
100
AcDbEntity
  8
0
100
AcDbCircle
 62
6
  6
CONTINUOUS
 10
2.5092274845
 20
2.444752795
 40
0.025
100
AcDbArc
 50
6.9248982442
 51
90.0
  0
ARC
  5
48E
100
AcDbEntity
  8
0
100
AcDbCircle
 62
7
  6
CONTINUOUS
 10
2.1317274845
 20
3.0321526792
 40
0.015
100
AcDbArc
 50
104.7629977426
 51
170.0159621261
  0
ARC
  5
48F
100
AcDbEntity
  8
0
100
AcDbCircle
 62
7
  6
CONTINUOUS
 10
2.5192274845
 20
3.0321526792
 40
0.015
100
AcDbArc
 50
9.9840378739
 51
75.2370022574
  0
ARC
  5
490
100
AcDbEntity
  8
0
100
AcDbCircle
 62
7
  6
CONTINUOUS
 10
1.8587274845
 20
2.7313059309
 40
0.008
100
AcDbArc
 50
0.0
 51
125.0
  0
ARC
  5
491
100
AcDbEntity
  8
0
100
AcDbCircle
 62
7
  6
CONTINUOUS
 10
1.8587274845
 20
2.9121996592
 40
0.008
100
AcDbArc
 50
235.0
 51
360.0
  0
ARC
  5
492
100
AcDbEntity
  8
0
100
AcDbCircle
 62
7
  6
CONTINUOUS
 10
1.8733107155
 20
2.731752795
 40
0.008
100
AcDbArc
 50
214.6234510997
 51
316.9739483152
  0
ARC
  5
493
100
AcDbEntity
  8
0
100
AcDbCircle
 62
7
  6
CONTINUOUS
 10
1.8733107155
 20
2.911752795
 40
0.008
100
AcDbArc
 50
43.0260516848
 51
145.3765489003
  0
ARC
  5
494
100
AcDbEntity
  8
0
100
AcDbCircle
 62
7
  6
CONTINUOUS
 10
2.7922274845
 20
2.7313059309
 40
0.008
100
AcDbArc
 50
55.0
 51
180.0
  0
ARC
  5
495
100
AcDbEntity
  8
0
100
AcDbCircle
 62
7
  6
CONTINUOUS
 10
2.7922274845
 20
2.9121996592
 40
0.008
100
AcDbArc
 50
180.0
 51
305.0
  0
ARC
  5
496
100
AcDbEntity
  8
0
100
AcDbCircle
 62
7
  6
CONTINUOUS
 10
2.7776442534
 20
2.731752795
 40
0.008
100
AcDbArc
 50
223.0260516848
 51
325.3765489003
  0
ARC
  5
497
100
AcDbEntity
  8
0
100
AcDbCircle
 62
7
  6
CONTINUOUS
 10
2.7776442534
 20
2.911752795
 40
0.008
100
AcDbArc
 50
34.6234510997
 51
136.9739483152
  0
ARC
  5
498
100
AcDbEntity
  8
0
100
AcDbCircle
 62
7
  6
CONTINUOUS
 10
4.9107274845
 20
2.395252795
 40
0.7810035
100
AcDbArc
 50
0.0
 51
90.0
  0
ARC
  5
499
100
AcDbEntity
  8
0
100
AcDbCircle
 62
7
  6
CONTINUOUS
 10
4.9107274845
 20
2.395252795
 40
0.3439965
100
AcDbArc
 50
0.0
 51
90.0
  0
ARC
  5
49A
100
AcDbEntity
  8
0
100
AcDbCircle
 62
7
  6
CONTINUOUS
 10
5.7964774845
 20
0.9453329779
 40
0.254
100
AcDbArc
 50
284.6669095294
 51
14.8843096077
  0
ARC
  5
49B
100
AcDbEntity
  8
0
100
AcDbCircle
 62
6
  6
CONTINUOUS
 10
5.8304967537
 20
2.0345260465
 40
0.2345
100
AcDbArc
 50
322.0339977482
 51
353.0751017558
  0
ARC
  5
49C
100
AcDbEntity
  8
0
100
AcDbCircle
 62
7
  6
CONTINUOUS
 10
5.3857274845
 20
1.9125371209
 40
0.15
100
AcDbArc
 50
187.9648629672
 51
215.045553016
  0
ARC
  5
49D
100
AcDbEntity
  8
0
100
AcDbCircle
 62
7
  6
CONTINUOUS
 10
5.5607274845
 20
1.9125371209
 40
0.15
100
AcDbArc
 50
326.3717521126
 51
352.035137025
  0
ARC
  5
49E
100
AcDbEntity
  8
0
100
AcDbCircle
 62
7
  6
CONTINUOUS
 10
4.5200191511
 20
3.851252795
 40
0.5695416667
100
AcDbArc
 50
150.263437283
 51
208.3887584016
  0
ARC
  5
49F
100
AcDbEntity
  8
0
100
AcDbCircle
 62
7
  6
CONTINUOUS
 10
4.1309358178
 20
3.851252795
 40
0.5695416667
100
AcDbArc
 50
331.6112415984
 51
29.736562717
  0
ARC
  5
4A0
100
AcDbEntity
  8
0
100
AcDbCircle
 62
7
  6
CONTINUOUS
 10
4.3254774845
 20
2.957752795
 40
0.4035425
100
AcDbArc
 50
142.0506496105
 51
142.9180414918
  0
ARC
  5
4A1
100
AcDbEntity
  8
0
100
AcDbCircle
 62
7
  6
CONTINUOUS
 10
4.3254774845
 20
2.957752795
 40
0.4035425
100
AcDbArc
 50
37.0819585082
 51
37.9493503895
  0
ARC
  5
4A2
100
AcDbEntity
  8
0
100
AcDbCircle
 62
7
  6
CONTINUOUS
 10
4.3254774845
 20
2.957752795
 40
0.4035425
100
AcDbArc
 50
217.0819585082
 51
322.9180414918
  0
ARC
  5
4A3
100
AcDbEntity
  8
0
100
AcDbCircle
 62
7
  6
CONTINUOUS
 10
5.7342274845
 20
2.826752795
 40
0.1375
100
AcDbArc
 50
55.0
 51
305.0
  0
ARC
  5
4A4
100
AcDbEntity
  8
0
100
AcDbCircle
 62
7
  6
CONTINUOUS
 10
4.6972739944
 20
3.238756295
 40
0.0625
100
AcDbArc
 50
217.0819585082
 51
270.0
  0
ARC
  5
4A5
100
AcDbEntity
  8
0
100
AcDbCircle
 62
7
  6
CONTINUOUS
 10
4.6972739944
 20
2.676749295
 40
0.0625
100
AcDbArc
 50
90.0
 51
142.9180414918
  0
ARC
  5
4A6
100
AcDbEntity
  8
0
100
AcDbCircle
 62
7
  6
CONTINUOUS
 10
3.9536809745
 20
2.676749295
 40
0.0625
100
AcDbArc
 50
37.0819585082
 51
90.0
  0
ARC
  5
4A7
100
AcDbEntity
  8
0
100
AcDbCircle
 62
7
  6
CONTINUOUS
 10
3.9536809745
 20
3.238756295
 40
0.0625
100
AcDbArc
 50
270.0
 51
322.9180414918
  0
ARC
  5
4A8
100
AcDbEntity
  8
0
100
AcDbCircle
 62
7
  6
CONTINUOUS
 10
3.9579774845
 20
3.2443524493
 40
0.0625
100
AcDbArc
 50
322.0506496105
 51
360.0
  0
ARC
  5
4A9
100
AcDbEntity
  8
0
100
AcDbCircle
 62
7
  6
CONTINUOUS
 10
4.6929774845
 20
3.2443524493
 40
0.0625
100
AcDbArc
 50
180.0
 51
217.9493503895
  0
ARC
  5
4AA
100
AcDbEntity
  8
0
100
AcDbCircle
 62
7
  6
CONTINUOUS
 10
4.5754774845
 20
4.158752795
 40
0.05
100
AcDbArc
 50
51.3178125465
 51
90.0
  0
ARC
  5
4AB
100
AcDbEntity
  8
0
100
AcDbCircle
 62
7
  6
CONTINUOUS
 10
4.0754774845
 20
4.158752795
 40
0.05
100
AcDbArc
 50
90.0
 51
128.6821874535
  0
ARC
  5
4AC
100
AcDbEntity
  8
0
100
AcDbCircle
 62
7
  6
CONTINUOUS
 10
4.0254774845
 20
3.538752795
 40
0.03
100
AcDbArc
 50
112.4970052381
 51
270.0
  0
ARC
  5
4AD
100
AcDbEntity
  8
0
100
AcDbCircle
 62
7
  6
CONTINUOUS
 10
4.6254774845
 20
3.538752795
 40
0.03
100
AcDbArc
 50
270.0
 51
67.5029947619
  0
ARC
  5
4AE
100
AcDbEntity
  8
0
100
AcDbCircle
 62
7
  6
CONTINUOUS
 10
4.6204774845
 20
3.498752795
 40
0.01
100
AcDbArc
 50
0.0
 51
90.0
  0
ARC
  5
4AF
100
AcDbEntity
  8
0
100
AcDbCircle
 62
7
  6
CONTINUOUS
 10
4.0304774845
 20
3.498752795
 40
0.01
100
AcDbArc
 50
90.0
 51
180.0
  0
ARC
  5
4B0
100
AcDbEntity
  8
0
100
AcDbCircle
 62
7
  6
CONTINUOUS
 10
4.6407828902
 20
3.5757087764
 40
0.01
100
AcDbArc
 50
151.611241598
 51
247.5029947623
  0
ARC
  5
4B1
100
AcDbEntity
  8
0
100
AcDbCircle
 62
7
  6
CONTINUOUS
 10
4.0101720788
 20
3.5757087764
 40
0.01
100
AcDbArc
 50
292.4970052377
 51
28.388758402
  0
ARC
  5
4B2
100
AcDbEntity
  8
0
100
AcDbCircle
 62
7
  6
CONTINUOUS
 10
4.3254774845
 20
7.981852795
 40
0.21875
100
AcDbArc
 50
0.0
 51
180.0
  0
ARC
  5
4B3
100
AcDbEntity
  8
0
100
AcDbCircle
 62
7
  6
CONTINUOUS
 10
4.5754774845
 20
5.514352795
 40
0.03
100
AcDbArc
 50
270.0
 51
90.0
  0
ARC
  5
4B4
100
AcDbEntity
  8
0
100
AcDbCircle
 62
7
  6
CONTINUOUS
 10
4.0754774845
 20
5.514352795
 40
0.03
100
AcDbArc
 50
90.0
 51
270.0
  0
ARC
  5
4B5
100
AcDbEntity
  8
0
100
AcDbCircle
 62
7
  6
CONTINUOUS
 10
4.5168220569
 20
5.169352795
 40
0.03
100
AcDbArc
 50
270.0
 51
354.8242890856
  0
ARC
  5
4B6
100
AcDbEntity
  8
0
100
AcDbCircle
 62
7
  6
CONTINUOUS
 10
4.134132912
 20
5.169352795
 40
0.03
100
AcDbArc
 50
185.1757109144
 51
270.0
  0
ARC
  5
4B7
100
AcDbEntity
  8
0
100
AcDbCircle
 62
7
  6
CONTINUOUS
 10
7.4474774845
 20
1.646252795
 40
1.5265
100
AcDbArc
 50
346.7644365334
 51
13.2162850744
  0
ARC
  5
4B8
100
AcDbEntity
  8
0
100
AcDbCircle
 62
7
  6
CONTINUOUS
 10
6.3824774845
 20
1.3962930325
 40
0.318
100
AcDbArc
 50
345.1156903923
 51
36.549446714
  0
ARC
  5
4B9
100
AcDbEntity
  8
0
100
AcDbCircle
 62
7
  6
CONTINUOUS
 10
6.2684774845
 20
1.3962930325
 40
0.318
100
AcDbArc
 50
143.450553286
 51
194.8843096077
  0
ARC
  5
4BA
100
AcDbEntity
  8
0
100
AcDbCircle
 62
7
  6
CONTINUOUS
 10
6.8544774845
 20
0.9453329779
 40
0.254
100
AcDbArc
 50
165.1156903923
 51
255.3330904706
  0
ARC
  5
4BB
100
AcDbEntity
  8
0
100
AcDbCircle
 62
7
  6
CONTINUOUS
 10
5.8623874845
 20
1.6973265222
 40
0.1875
100
AcDbArc
 50
323.450553286
 51
360.0
  0
ARC
  5
4BC
100
AcDbEntity
  8
0
100
AcDbCircle
 62
7
  6
CONTINUOUS
 10
6.7885674845
 20
1.6973265222
 40
0.1875
100
AcDbArc
 50
180.0
 51
216.549446714
  0
ARC
  5
4BD
100
AcDbEntity
  8
0
100
AcDbCircle
 62
6
  6
CONTINUOUS
 10
6.5987274845
 20
1.861502795
 40
0.04675
100
AcDbArc
 50
271.7773055868
 51
37.9660022518
  0
ARC
  5
4BE
100
AcDbEntity
  8
0
100
AcDbCircle
 62
6
  6
CONTINUOUS
 10
6.0522274845
 20
1.861502795
 40
0.04675
100
AcDbArc
 50
142.0339977482
 51
268.2226944132
  0
ARC
  5
4BF
100
AcDbEntity
  8
0
100
AcDbCircle
 62
7
  6
CONTINUOUS
 10
5.8657274845
 20
0.653252795
 40
0.0195
100
AcDbArc
 50
180.0
 51
270.0
  0
ARC
  5
4C0
100
AcDbEntity
  8
0
100
AcDbCircle
 62
7
  6
CONTINUOUS
 10
6.7852274845
 20
0.653252795
 40
0.0195
100
AcDbArc
 50
270.0
 51
360.0
  0
ARC
  5
4C1
100
AcDbEntity
  8
0
100
AcDbCircle
 62
7
  6
CONTINUOUS
 10
5.8657274845
 20
0.6807452089
 40
0.0195
100
AcDbArc
 50
104.6669095294
 51
180.0
  0
ARC
  5
4C2
100
AcDbEntity
  8
0
100
AcDbCircle
 62
7
  6
CONTINUOUS
 10
6.7852274845
 20
0.6807452089
 40
0.0195
100
AcDbArc
 50
0.0
 51
75.3330904706
  0
ARC
  5
4C3
100
AcDbEntity
  8
0
100
AcDbCircle
 62
7
  6
CONTINUOUS
 10
6.3254774845
 20
2.3019177873
 40
0.7753350077
100
AcDbArc
 50
78.0669933483
 51
81.2354682492
  0
ARC
  5
4C4
100
AcDbEntity
  8
0
100
AcDbCircle
 62
7
  6
CONTINUOUS
 10
6.3254774845
 20
2.3019177873
 40
0.7753350077
100
AcDbArc
 50
91.4300766046
 51
94.5754586167
  0
ARC
  5
4C5
100
AcDbEntity
  8
0
100
AcDbCircle
 62
7
  6
CONTINUOUS
 10
6.3254774845
 20
2.3019177873
 40
0.7753350077
100
AcDbArc
 50
95.9223880643
 51
101.456409806
  0
ARC
  5
4C6
100
AcDbEntity
  8
0
100
AcDbCircle
 62
7
  6
CONTINUOUS
 10
6.3254774845
 20
2.3019177873
 40
0.7753350077
100
AcDbArc
 50
88.836024953
 51
90.1108472106
  0
ARC
  5
4C7
100
AcDbEntity
  8
0
100
AcDbCircle
 62
7
  6
CONTINUOUS
 10
6.3254774845
 20
2.3019177873
 40
0.7753350077
100
AcDbArc
 50
82.589547494
 51
87.505151011
  0
ARC
  5
4C8
100
AcDbEntity
  8
0
100
AcDbCircle
 62
7
  6
CONTINUOUS
 10
6.3254774845
 20
2.3019177873
 40
0.7753350077
100
AcDbArc
 50
75.2369687319
 51
76.6139015814
  0
ARC
  5
4C9
100
AcDbEntity
  8
0
100
AcDbCircle
 62
7
  6
CONTINUOUS
 10
6.3254774845
 20
2.3019177873
 40
0.7753350077
100
AcDbArc
 50
103.0445666344
 51
104.7630312681
  0
ARC
  5
4CA
100
AcDbEntity
  8
0
100
AcDbCircle
 62
7
  6
CONTINUOUS
 10
6.3254774845
 20
2.3019177873
 40
0.7748350077
100
AcDbArc
 50
101.4639028364
 51
102.1588597356
  0
ARC
  5
4CB
100
AcDbEntity
  8
0
100
AcDbCircle
 62
7
  6
CONTINUOUS
 10
6.3254774845
 20
2.3019177873
 40
0.7748350077
100
AcDbArc
 50
94.5784174525
 51
95.2987830785
  0
ARC
  5
4CC
100
AcDbEntity
  8
0
100
AcDbCircle
 62
7
  6
CONTINUOUS
 10
6.3254774845
 20
2.3019177873
 40
0.7748350077
100
AcDbArc
 50
90.7469033841
 51
91.430999623
  0
ARC
  5
4CD
100
AcDbEntity
  8
0
100
AcDbCircle
 62
7
  6
CONTINUOUS
 10
6.3254774845
 20
2.3019177873
 40
0.7748350077
100
AcDbArc
 50
77.3978226589
 51
78.0591795779
  0
ARC
  5
4CE
100
AcDbEntity
  8
0
100
AcDbCircle
 62
7
  6
CONTINUOUS
 10
6.3254774845
 20
2.3019177873
 40
0.7748350077
100
AcDbArc
 50
81.2352442857
 51
82.5847386688
  0
ARC
  5
4CF
100
AcDbEntity
  8
0
100
AcDbCircle
 62
7
  6
CONTINUOUS
 10
6.3254774845
 20
2.3019177873
 40
0.7748350077
100
AcDbArc
 50
87.503540069
 51
88.835273738
  0
ARC
  5
4D0
100
AcDbEntity
  8
0
100
AcDbCircle
 62
7
  6
CONTINUOUS
 10
6.3254774845
 20
2.3019177873
 40
0.7747348735
100
AcDbArc
 50
79.9593632588
 51
81.0040654587
  0
ARC
  5
4D1
100
AcDbEntity
  8
0
100
AcDbCircle
 62
7
  6
CONTINUOUS
 10
6.3254774845
 20
2.3019177873
 40
0.7747104305
100
AcDbArc
 50
85.5024540677
 51
86.3921798126
  0
ARC
  5
4D2
100
AcDbEntity
  8
0
100
AcDbCircle
 62
7
  6
CONTINUOUS
 10
6.3254774845
 20
2.3019177873
 40
0.7742344859
100
AcDbArc
 50
79.9528066769
 51
80.9982030894
  0
ARC
  5
4D3
100
AcDbEntity
  8
0
100
AcDbCircle
 62
7
  6
CONTINUOUS
 10
6.3254774845
 20
2.3019177873
 40
0.7742100271
100
AcDbArc
 50
85.49954113
 51
86.3898448421
  0
ARC
  5
4D4
100
AcDbEntity
  8
0
100
AcDbCircle
 62
7
  6
CONTINUOUS
 10
6.3254774845
 20
2.3019177873
 40
0.7741693124
100
AcDbArc
 50
84.0880697177
 51
89.6299506004
  0
ARC
  5
4D5
100
AcDbEntity
  8
0
100
AcDbCircle
 62
7
  6
CONTINUOUS
 10
6.3254774845
 20
2.3019177873
 40
0.7741693124
100
AcDbArc
 50
79.7882367111
 51
82.9513441199
  0
ARC
  5
4D6
100
AcDbEntity
  8
0
100
AcDbCircle
 62
7
  6
CONTINUOUS
 10
6.3060241817
 20
2.4195163106
 40
0.6561376387
100
AcDbArc
 50
96.2161845715
 51
96.9435818355
  0
ARC
  5
4D7
100
AcDbEntity
  8
0
100
AcDbCircle
 62
7
  6
CONTINUOUS
 10
6.3410203105
 20
2.5064926944
 40
0.5701710881
100
AcDbArc
 50
83.0535751546
 51
83.4864024216
  0
ARC
  5
4D8
100
AcDbEntity
  8
0
100
AcDbCircle
 62
7
  6
CONTINUOUS
 10
5.970539505
 20
2.646002795
 40
0.125
100
AcDbArc
 50
47.7217900501
 51
136.9739483152
  0
ARC
  5
4D9
100
AcDbEntity
  8
0
100
AcDbCircle
 62
6
  6
CONTINUOUS
 10
6.1417274845
 20
2.444752795
 40
0.025
100
AcDbArc
 50
90.0
 51
173.0751017558
  0
ARC
  5
4DA
100
AcDbEntity
  8
0
100
AcDbCircle
 62
7
  6
CONTINUOUS
 10
5.960337839
 20
2.710606678
 40
0.68
100
AcDbArc
 50
18.7559867836
 51
22.3561036556
  0
ARC
  5
4DB
100
AcDbEntity
  8
0
100
AcDbCircle
 62
7
  6
CONTINUOUS
 10
5.9613280941
 20
2.9457937028
 40
0.68
100
AcDbArc
 50
337.4255442891
 51
340.9862257999
  0
CIRCLE
  5
4DC
100
AcDbEntity
  8
0
100
AcDbCircle
 62
7
  6
CONTINUOUS
 10
6.3254774845
 20
2.826752795
 40
0.1375
  0
ARC
  5
4DD
100
AcDbEntity
  8
0
100
AcDbCircle
 62
7
  6
CONTINUOUS
 10
5.970539505
 20
3.007502795
 40
0.125
100
AcDbArc
 50
223.0260516848
 51
312.2782100327
  0
ARC
  5
4DE
100
AcDbEntity
  8
0
100
AcDbCircle
 62
7
  6
CONTINUOUS
 10
6.1317274845
 20
3.0371526215
 40
0.015
100
AcDbArc
 50
104.7630312681
 51
170.0157385964
  0
ARC
  5
4DF
100
AcDbEntity
  8
0
100
AcDbCircle
 62
7
  6
CONTINUOUS
 10
5.8587274845
 20
2.7363059309
 40
0.008
100
AcDbArc
 50
0.0
 51
125.0
  0
ARC
  5
4E0
100
AcDbEntity
  8
0
100
AcDbCircle
 62
7
  6
CONTINUOUS
 10
5.8587274845
 20
2.9171996592
 40
0.008
100
AcDbArc
 50
235.0
 51
360.0
  0
ARC
  5
4E1
100
AcDbEntity
  8
0
100
AcDbCircle
 62
7
  6
CONTINUOUS
 10
5.8733107155
 20
2.736752795
 40
0.008
100
AcDbArc
 50
214.6234510997
 51
316.9739483152
  0
ARC
  5
4E2
100
AcDbEntity
  8
0
100
AcDbCircle
 62
7
  6
CONTINUOUS
 10
5.8733107155
 20
2.916752795
 40
0.008
100
AcDbArc
 50
43.0260516848
 51
145.3765489003
  0
ARC
  5
4E3
100
AcDbEntity
  8
0
100
AcDbCircle
 62
7
  6
CONTINUOUS
 10
6.398242495
 20
2.5015831831
 40
0.565230904
100
AcDbArc
 50
81.1862287022
 51
81.3433028419
  0
ARC
  5
4E4
100
AcDbEntity
  8
0
100
AcDbCircle
 62
6
  6
CONTINUOUS
 10
6.8204582152
 20
2.0345260465
 40
0.2345
100
AcDbArc
 50
186.9248982442
 51
217.9660022518
  0
ARC
  5
4E5
100
AcDbEntity
  8
0
100
AcDbCircle
 62
7
  6
CONTINUOUS
 10
6.680415464
 20
2.646002795
 40
0.125
100
AcDbArc
 50
43.0260516848
 51
132.2782099672
  0
ARC
  5
4E6
100
AcDbEntity
  8
0
100
AcDbCircle
 62
6
  6
CONTINUOUS
 10
6.5092274845
 20
2.444752795
 40
0.025
100
AcDbArc
 50
6.9248982442
 51
90.0
  0
ARC
  5
4E7
100
AcDbEntity
  8
0
100
AcDbCircle
 62
7
  6
CONTINUOUS
 10
6.6906171299
 20
2.710606678
 40
0.68
100
AcDbArc
 50
157.6438963444
 51
161.2440132164
  0
ARC
  5
4E8
100
AcDbEntity
  8
0
100
AcDbCircle
 62
7
  6
CONTINUOUS
 10
6.6896268749
 20
2.9457937028
 40
0.68
100
AcDbArc
 50
199.0137742001
 51
202.5744557109
  0
ARC
  5
4E9
100
AcDbEntity
  8
0
100
AcDbCircle
 62
7
  6
CONTINUOUS
 10
6.3898825558
 20
2.8659309656
 40
0.207655633
100
AcDbArc
 50
85.631475316
 51
87.4669374743
  0
ARC
  5
4EA
100
AcDbEntity
  8
0
100
AcDbCircle
 62
7
  6
CONTINUOUS
 10
6.3898864935
 20
2.8656425461
 40
0.2074415785
100
AcDbArc
 50
86.0357858793
 51
87.465410597
  0
ARC
  5
4EB
100
AcDbEntity
  8
0
100
AcDbCircle
 62
7
  6
CONTINUOUS
 10
6.4417219973
 20
3.275229351
 40
0.2055242686
100
AcDbArc
 50
264.0668853803
 51
264.369552818
  0
ARC
  5
4EC
100
AcDbEntity
  8
0
100
AcDbCircle
 62
7
  6
CONTINUOUS
 10
6.4408886789
 20
3.2663665218
 40
0.1971242747
100
AcDbArc
 50
264.0566670356
 51
264.3722454566
  0
ARC
  5
4ED
100
AcDbEntity
  8
0
100
AcDbCircle
 62
7
  6
CONTINUOUS
 10
6.9167274845
 20
2.826752795
 40
0.1375
100
AcDbArc
 50
235.0
 51
125.0
  0
ARC
  5
4EE
100
AcDbEntity
  8
0
100
AcDbCircle
 62
7
  6
CONTINUOUS
 10
6.680415464
 20
3.007502795
 40
0.125
100
AcDbArc
 50
227.7217899506
 51
316.9739483152
  0
ARC
  5
4EF
100
AcDbEntity
  8
0
100
AcDbCircle
 62
7
  6
CONTINUOUS
 10
6.4101013474
 20
3.0487982403
 40
0.023680624
100
AcDbArc
 50
90.2996903337
 51
101.9040740022
  0
ARC
  5
4F0
100
AcDbEntity
  8
0
100
AcDbCircle
 62
7
  6
CONTINUOUS
 10
6.5192274845
 20
3.0371526215
 40
0.015
100
AcDbArc
 50
9.9842614036
 51
75.2369687319
  0
ARC
  5
4F1
100
AcDbEntity
  8
0
100
AcDbCircle
 62
7
  6
CONTINUOUS
 10
6.7922274845
 20
2.7363059309
 40
0.008
100
AcDbArc
 50
55.0
 51
180.0
  0
ARC
  5
4F2
100
AcDbEntity
  8
0
100
AcDbCircle
 62
7
  6
CONTINUOUS
 10
6.7922274845
 20
2.9171996592
 40
0.008
100
AcDbArc
 50
180.0
 51
305.0
  0
ARC
  5
4F3
100
AcDbEntity
  8
0
100
AcDbCircle
 62
7
  6
CONTINUOUS
 10
6.7776442534
 20
2.736752795
 40
0.008
100
AcDbArc
 50
223.0260516848
 51
325.3765489003
  0
ARC
  5
4F4
100
AcDbEntity
  8
0
100
AcDbCircle
 62
7
  6
CONTINUOUS
 10
6.7776442534
 20
2.916752795
 40
0.008
100
AcDbArc
 50
34.6234510997
 51
136.9739483152
  0
ARC
  5
4F5
100
AcDbEntity
  8
0
100
AcDbCircle
 62
7
  6
CONTINUOUS
 10
9.9534774845
 20
1.646252795
 40
1.5265
100
AcDbArc
 50
166.7837149256
 51
193.2355634666
  0
ARC
  5
4F6
100
AcDbEntity
  8
0
100
AcDbCircle
 62
7
  6
CONTINUOUS
 10
9.1363906414
 20
1.2490156512
 40
0.2085
100
AcDbArc
 50
166.7644365334
 51
197.3749047622
  0
ARC
  5
4F7
100
AcDbEntity
  8
0
100
AcDbCircle
 62
7
  6
CONTINUOUS
 10
8.2645643276
 20
1.2490156512
 40
0.2085
100
AcDbArc
 50
342.6250952378
 51
13.2355634666
  0
ARC
  5
4F8
100
AcDbEntity
  8
0
100
AcDbCircle
 62
7
  6
CONTINUOUS
 10
8.925943035
 20
0.8081365088
 40
0.185
100
AcDbArc
 50
4.0656154981
 51
77.5021822312
  0
ARC
  5
4F9
100
AcDbEntity
  8
0
100
AcDbCircle
 62
7
  6
CONTINUOUS
 10
8.4750119339
 20
0.8081365088
 40
0.185
100
AcDbArc
 50
102.4978177688
 51
175.9343845019
  0
ARC
  5
4FA
100
AcDbEntity
  8
0
100
AcDbCircle
 62
7
  6
CONTINUOUS
 10
9.2603774444
 20
0.826252795
 40
0.125
100
AcDbArc
 50
182.292442776
 51
270.0
  0
ARC
  5
4FB
100
AcDbEntity
  8
0
100
AcDbCircle
 62
7
  6
CONTINUOUS
 10
8.1405775245
 20
0.826252795
 40
0.125
100
AcDbArc
 50
270.0
 51
357.707557224
  0
ARC
  5
4FC
100
AcDbEntity
  8
0
100
AcDbCircle
 62
7
  6
CONTINUOUS
 10
8.9554774845
 20
1.155752795
 40
0.0315
100
AcDbArc
 50
270.0
 51
79.7778206094
  0
ARC
  5
4FD
100
AcDbEntity
  8
0
100
AcDbCircle
 62
7
  6
CONTINUOUS
 10
8.9554774845
 20
1.030252795
 40
0.0315
100
AcDbArc
 50
280.2221793906
 51
90.0
  0
ARC
  5
4FE
100
AcDbEntity
  8
0
100
AcDbCircle
 62
7
  6
CONTINUOUS
 10
8.4454774845
 20
1.155752795
 40
0.0315
100
AcDbArc
 50
100.2221793906
 51
270.0
  0
ARC
  5
4FF
100
AcDbEntity
  8
0
100
AcDbCircle
 62
7
  6
CONTINUOUS
 10
8.4454774845
 20
1.030252795
 40
0.0315
100
AcDbArc
 50
90.0
 51
259.7778206094
  0
ARC
  5
500
100
AcDbEntity
  8
0
100
AcDbCircle
 62
7
  6
CONTINUOUS
 10
9.2729774845
 20
0.686252795
 40
0.015
100
AcDbArc
 50
0.0
 51
90.0
  0
ARC
  5
501
100
AcDbEntity
  8
0
100
AcDbCircle
 62
7
  6
CONTINUOUS
 10
8.1279774845
 20
0.686252795
 40
0.015
100
AcDbArc
 50
90.0
 51
180.0
  0
ARC
  5
502
100
AcDbEntity
  8
0
100
AcDbCircle
 62
7
  6
CONTINUOUS
 10
8.0395490395
 20
2.0957346162
 40
0.4395
100
AcDbArc
 50
346.7837149256
 51
20.4446212878
  0
ARC
  5
503
100
AcDbEntity
  8
0
100
AcDbCircle
 62
7
  6
CONTINUOUS
 10
8.4452274845
 20
2.280502795
 40
0.03125
100
AcDbArc
 50
90.0
 51
270.0
  0
ARC
  5
504
100
AcDbEntity
  8
0
100
AcDbCircle
 62
7
  6
CONTINUOUS
 10
8.6492082308
 20
2.6967511138
 40
0.2962044293
100
AcDbArc
 50
321.3581280604
 51
321.7489055589
  0
ARC
  5
505
100
AcDbEntity
  8
0
100
AcDbCircle
 62
7
  6
CONTINUOUS
 10
8.656900757
 20
2.6903360499
 40
0.2861870822
100
AcDbArc
 50
317.5803950468
 51
319.3397673711
  0
ARC
  5
506
100
AcDbEntity
  8
0
100
AcDbCircle
 62
7
  6
CONTINUOUS
 10
8.7004756797
 20
2.8951544324
 40
0.0103675539
100
AcDbArc
 50
259.4577240915
 51
78.0602759674
  0
CIRCLE
  5
507
100
AcDbEntity
  8
0
100
AcDbCircle
 62
7
  6
CONTINUOUS
 10
8.6398582413
 20
2.5904096109
 40
0.0103675255
  0
ARC
  5
508
100
AcDbEntity
  8
0
100
AcDbCircle
 62
7
  6
CONTINUOUS
 10
8.7004757185
 20
2.5783513424
 40
0.0103675255
100
AcDbArc
 50
258.0797949399
 51
79.4381367092
  0
CIRCLE
  5
509
100
AcDbEntity
  8
0
100
AcDbCircle
 62
7
  6
CONTINUOUS
 10
8.5884719921
 20
2.8487607848
 40
0.0103675254
  0
CIRCLE
  5
50A
100
AcDbEntity
  8
0
100
AcDbCircle
 62
7
  6
CONTINUOUS
 10
8.6398615045
 20
2.8830973306
 40
0.0103675254
  0
CIRCLE
  5
50B
100
AcDbEntity
  8
0
100
AcDbCircle
 62
7
  6
CONTINUOUS
 10
8.5541342992
 20
2.7973720386
 40
0.0103675253
  0
CIRCLE
  5
50C
100
AcDbEntity
  8
0
100
AcDbCircle
 62
7
  6
CONTINUOUS
 10
8.5541329476
 20
2.6761368145
 40
0.0103675253
  0
CIRCLE
  5
50D
100
AcDbEntity
  8
0
100
AcDbCircle
 62
7
  6
CONTINUOUS
 10
8.5884694936
 20
2.6247473016
 40
0.0103675253
  0
CIRCLE
  5
50E
100
AcDbEntity
  8
0
100
AcDbCircle
 62
7
  6
CONTINUOUS
 10
8.5420721716
 20
2.7367528023
 40
0.0103635969
  0
ARC
  5
50F
100
AcDbEntity
  8
0
100
AcDbCircle
 62
7
  6
CONTINUOUS
 10
8.7004774705
 20
2.6391635065
 40
0.0097939909
100
AcDbArc
 50
210.6274681385
 51
31.7144805
  0
ARC
  5
510
100
AcDbEntity
  8
0
100
AcDbCircle
 62
7
  6
CONTINUOUS
 10
8.7004774677
 20
2.8343414464
 40
0.0097939888
100
AcDbArc
 50
211.7114041614
 51
30.6305838876
  0
CIRCLE
  5
511
100
AcDbEntity
  8
0
100
AcDbCircle
 62
7
  6
CONTINUOUS
 10
8.6314718992
 20
2.667747187
 40
0.009793988
  0
CIRCLE
  5
512
100
AcDbEntity
  8
0
100
AcDbCircle
 62
7
  6
CONTINUOUS
 10
8.6314718773
 20
2.8057583799
 40
0.0097939866
  0
CIRCLE
  5
513
100
AcDbEntity
  8
0
100
AcDbCircle
 62
7
  6
CONTINUOUS
 10
8.6028891405
 20
2.7367529358
 40
0.0097938172
  0
ARC
  5
514
100
AcDbEntity
  8
0
100
AcDbCircle
 62
7
  6
CONTINUOUS
 10
9.3614059294
 20
2.0957346162
 40
0.4395
100
AcDbArc
 50
159.5553787122
 51
193.2162850744
  0
ARC
  5
515
100
AcDbEntity
  8
0
100
AcDbCircle
 62
7
  6
CONTINUOUS
 10
8.9557274845
 20
2.280502795
 40
0.03125
100
AcDbArc
 50
270.0
 51
90.0
  0
ARC
  5
516
100
AcDbEntity
  8
0
100
AcDbCircle
 62
7
  6
CONTINUOUS
 10
8.7515522817
 20
2.6965973861
 40
0.2959565377
100
AcDbArc
 50
218.2509664855
 51
218.6423953928
  0
ARC
  5
517
100
AcDbEntity
  8
0
100
AcDbCircle
 62
7
  6
CONTINUOUS
 10
8.7432698725
 20
2.6896418325
 40
0.2851397272
100
AcDbArc
 50
220.6571052795
 51
222.4226753019
  0
ARC
  5
518
100
AcDbEntity
  8
0
100
AcDbCircle
 62
7
  6
CONTINUOUS
 10
8.7004792892
 20
2.5783511574
 40
0.0103675539
100
AcDbArc
 50
79.4577240769
 51
258.0602759509
  0
CIRCLE
  5
519
100
AcDbEntity
  8
0
100
AcDbCircle
 62
7
  6
CONTINUOUS
 10
8.7610934645
 20
2.5904082593
 40
0.0103675255
  0
CIRCLE
  5
51A
100
AcDbEntity
  8
0
100
AcDbCircle
 62
7
  6
CONTINUOUS
 10
8.7694830935
 20
2.6677472094
 40
0.0097939889
  0
ARC
  5
51B
100
AcDbEntity
  8
0
100
AcDbCircle
 62
7
  6
CONTINUOUS
 10
8.7004775005
 20
2.6391641443
 40
0.009793988
100
AcDbArc
 50
31.7113987804
 51
210.6305892321
  0
ARC
  5
51C
100
AcDbEntity
  8
0
100
AcDbCircle
 62
7
  6
CONTINUOUS
 10
8.7004774845
 20
2.736752795
 40
0.29375
100
AcDbArc
 50
103.2208244843
 51
103.7791755157
  0
ARC
  5
51D
100
AcDbEntity
  8
0
100
AcDbCircle
 62
7
  6
CONTINUOUS
 10
8.7004774845
 20
2.736752795
 40
0.29375
100
AcDbArc
 50
100.2208244843
 51
100.7791755157
  0
ARC
  5
51E
100
AcDbEntity
  8
0
100
AcDbCircle
 62
7
  6
CONTINUOUS
 10
8.7004774845
 20
2.736752795
 40
0.29375
100
AcDbArc
 50
97.2208244843
 51
97.7791755157
  0
ARC
  5
51F
100
AcDbEntity
  8
0
100
AcDbCircle
 62
7
  6
CONTINUOUS
 10
8.7004774845
 20
2.736752795
 40
0.29375
100
AcDbArc
 50
94.2208244843
 51
94.7791755157
  0
ARC
  5
520
100
AcDbEntity
  8
0
100
AcDbCircle
 62
7
  6
CONTINUOUS
 10
8.7004774845
 20
2.736752795
 40
0.29375
100
AcDbArc
 50
91.219151134
 51
91.7791755157
  0
ARC
  5
521
100
AcDbEntity
  8
0
100
AcDbCircle
 62
7
  6
CONTINUOUS
 10
8.7004774845
 20
2.736752795
 40
0.29375
100
AcDbArc
 50
106.2208244843
 51
106.780848866
  0
ARC
  5
522
100
AcDbEntity
  8
0
100
AcDbCircle
 62
7
  6
CONTINUOUS
 10
8.7004774845
 20
2.736752795
 40
0.29375
100
AcDbArc
 50
109.219151134
 51
109.7791755157
  0
ARC
  5
523
100
AcDbEntity
  8
0
100
AcDbCircle
 62
7
  6
CONTINUOUS
 10
8.7004774845
 20
2.736752795
 40
0.29375
100
AcDbArc
 50
112.2208244843
 51
112.7791755157
  0
ARC
  5
524
100
AcDbEntity
  8
0
100
AcDbCircle
 62
7
  6
CONTINUOUS
 10
8.7004774845
 20
2.736752795
 40
0.29375
100
AcDbArc
 50
115.2208244843
 51
115.7791755157
  0
ARC
  5
525
100
AcDbEntity
  8
0
100
AcDbCircle
 62
7
  6
CONTINUOUS
 10
8.7004774845
 20
2.736752795
 40
0.29375
100
AcDbArc
 50
118.2208244843
 51
118.7791755157
  0
ARC
  5
526
100
AcDbEntity
  8
0
100
AcDbCircle
 62
7
  6
CONTINUOUS
 10
8.7004774845
 20
2.736752795
 40
0.29375
100
AcDbArc
 50
121.2208244843
 51
121.7791755157
  0
ARC
  5
527
100
AcDbEntity
  8
0
100
AcDbCircle
 62
7
  6
CONTINUOUS
 10
8.7004774845
 20
2.736752795
 40
0.29375
100
AcDbArc
 50
124.2208244843
 51
124.780848866
  0
ARC
  5
528
100
AcDbEntity
  8
0
100
AcDbCircle
 62
7
  6
CONTINUOUS
 10
8.7004774845
 20
2.736752795
 40
0.29375
100
AcDbArc
 50
127.219151134
 51
127.7791755157
  0
ARC
  5
529
100
AcDbEntity
  8
0
100
AcDbCircle
 62
7
  6
CONTINUOUS
 10
8.7004774845
 20
2.736752795
 40
0.29375
100
AcDbArc
 50
130.2208244843
 51
130.7791755157
  0
ARC
  5
52A
100
AcDbEntity
  8
0
100
AcDbCircle
 62
7
  6
CONTINUOUS
 10
8.7004774845
 20
2.736752795
 40
0.29375
100
AcDbArc
 50
133.2208244843
 51
133.7791755157
  0
ARC
  5
52B
100
AcDbEntity
  8
0
100
AcDbCircle
 62
7
  6
CONTINUOUS
 10
8.7004774845
 20
2.736752795
 40
0.29375
100
AcDbArc
 50
136.2208244843
 51
136.7791755157
  0
ARC
  5
52C
100
AcDbEntity
  8
0
100
AcDbCircle
 62
7
  6
CONTINUOUS
 10
8.7004774845
 20
2.736752795
 40
0.29375
100
AcDbArc
 50
139.2208244843
 51
139.7791755157
  0
ARC
  5
52D
100
AcDbEntity
  8
0
100
AcDbCircle
 62
7
  6
CONTINUOUS
 10
8.7004774845
 20
2.736752795
 40
0.29375
100
AcDbArc
 50
142.2208244843
 51
142.780848866
  0
ARC
  5
52E
100
AcDbEntity
  8
0
100
AcDbCircle
 62
7
  6
CONTINUOUS
 10
8.7004774845
 20
2.736752795
 40
0.29375
100
AcDbArc
 50
145.219151134
 51
145.7791755157
  0
ARC
  5
52F
100
AcDbEntity
  8
0
100
AcDbCircle
 62
7
  6
CONTINUOUS
 10
8.7004774845
 20
2.736752795
 40
0.29375
100
AcDbArc
 50
148.2208244843
 51
148.7791755157
  0
ARC
  5
530
100
AcDbEntity
  8
0
100
AcDbCircle
 62
7
  6
CONTINUOUS
 10
8.7004774845
 20
2.736752795
 40
0.29375
100
AcDbArc
 50
151.2208244843
 51
151.7791755157
  0
ARC
  5
531
100
AcDbEntity
  8
0
100
AcDbCircle
 62
7
  6
CONTINUOUS
 10
8.7004774845
 20
2.736752795
 40
0.29375
100
AcDbArc
 50
154.2208244843
 51
154.7791755157
  0
ARC
  5
532
100
AcDbEntity
  8
0
100
AcDbCircle
 62
7
  6
CONTINUOUS
 10
8.7004774845
 20
2.736752795
 40
0.29375
100
AcDbArc
 50
157.2208244843
 51
157.7791755157
  0
ARC
  5
533
100
AcDbEntity
  8
0
100
AcDbCircle
 62
7
  6
CONTINUOUS
 10
8.7004774845
 20
2.736752795
 40
0.29375
100
AcDbArc
 50
160.2208244843
 51
160.780848866
  0
ARC
  5
534
100
AcDbEntity
  8
0
100
AcDbCircle
 62
7
  6
CONTINUOUS
 10
8.7004774845
 20
2.736752795
 40
0.29375
100
AcDbArc
 50
163.219151134
 51
163.7791755157
  0
ARC
  5
535
100
AcDbEntity
  8
0
100
AcDbCircle
 62
7
  6
CONTINUOUS
 10
8.7004774845
 20
2.736752795
 40
0.29375
100
AcDbArc
 50
166.2208244843
 51
166.7791755157
  0
ARC
  5
536
100
AcDbEntity
  8
0
100
AcDbCircle
 62
7
  6
CONTINUOUS
 10
8.7004774845
 20
2.736752795
 40
0.29375
100
AcDbArc
 50
169.2208244843
 51
169.7791755157
  0
ARC
  5
537
100
AcDbEntity
  8
0
100
AcDbCircle
 62
7
  6
CONTINUOUS
 10
8.7004774845
 20
2.736752795
 40
0.29375
100
AcDbArc
 50
172.2208244843
 51
172.7791755157
  0
ARC
  5
538
100
AcDbEntity
  8
0
100
AcDbCircle
 62
7
  6
CONTINUOUS
 10
8.7004774845
 20
2.736752795
 40
0.29375
100
AcDbArc
 50
175.2208244843
 51
175.7791755157
  0
ARC
  5
539
100
AcDbEntity
  8
0
100
AcDbCircle
 62
7
  6
CONTINUOUS
 10
8.7004774845
 20
2.736752795
 40
0.29375
100
AcDbArc
 50
178.2208244843
 51
178.780848866
  0
ARC
  5
53A
100
AcDbEntity
  8
0
100
AcDbCircle
 62
7
  6
CONTINUOUS
 10
8.7004774845
 20
2.736752795
 40
0.29375
100
AcDbArc
 50
181.219151134
 51
181.7791755157
  0
ARC
  5
53B
100
AcDbEntity
  8
0
100
AcDbCircle
 62
7
  6
CONTINUOUS
 10
8.7004774845
 20
2.736752795
 40
0.29375
100
AcDbArc
 50
184.2208244843
 51
184.7791755157
  0
ARC
  5
53C
100
AcDbEntity
  8
0
100
AcDbCircle
 62
7
  6
CONTINUOUS
 10
8.7004774845
 20
2.736752795
 40
0.29375
100
AcDbArc
 50
187.2208244843
 51
187.7791755157
  0
ARC
  5
53D
100
AcDbEntity
  8
0
100
AcDbCircle
 62
7
  6
CONTINUOUS
 10
8.7004774845
 20
2.736752795
 40
0.29375
100
AcDbArc
 50
190.2208244843
 51
190.7791755157
  0
ARC
  5
53E
100
AcDbEntity
  8
0
100
AcDbCircle
 62
7
  6
CONTINUOUS
 10
8.7004774845
 20
2.736752795
 40
0.29375
100
AcDbArc
 50
193.2208244843
 51
193.7791755157
  0
ARC
  5
53F
100
AcDbEntity
  8
0
100
AcDbCircle
 62
7
  6
CONTINUOUS
 10
8.7004774845
 20
2.736752795
 40
0.29375
100
AcDbArc
 50
196.2208244843
 51
196.780848866
  0
ARC
  5
540
100
AcDbEntity
  8
0
100
AcDbCircle
 62
7
  6
CONTINUOUS
 10
8.7004774845
 20
2.736752795
 40
0.29375
100
AcDbArc
 50
199.219151134
 51
199.7791755157
  0
ARC
  5
541
100
AcDbEntity
  8
0
100
AcDbCircle
 62
7
  6
CONTINUOUS
 10
8.7004774845
 20
2.736752795
 40
0.29375
100
AcDbArc
 50
202.2208244843
 51
202.7791755157
  0
ARC
  5
542
100
AcDbEntity
  8
0
100
AcDbCircle
 62
7
  6
CONTINUOUS
 10
8.7004774845
 20
2.736752795
 40
0.29375
100
AcDbArc
 50
205.2208244843
 51
205.7791755157
  0
ARC
  5
543
100
AcDbEntity
  8
0
100
AcDbCircle
 62
7
  6
CONTINUOUS
 10
8.7004774845
 20
2.736752795
 40
0.29375
100
AcDbArc
 50
208.2208244843
 51
208.7791755157
  0
ARC
  5
544
100
AcDbEntity
  8
0
100
AcDbCircle
 62
7
  6
CONTINUOUS
 10
8.7004774845
 20
2.736752795
 40
0.29375
100
AcDbArc
 50
211.2208244843
 51
211.7791755157
  0
ARC
  5
545
100
AcDbEntity
  8
0
100
AcDbCircle
 62
7
  6
CONTINUOUS
 10
8.7004774845
 20
2.736752795
 40
0.29375
100
AcDbArc
 50
214.2208244843
 51
214.780848866
  0
ARC
  5
546
100
AcDbEntity
  8
0
100
AcDbCircle
 62
7
  6
CONTINUOUS
 10
8.7004774845
 20
2.736752795
 40
0.29375
100
AcDbArc
 50
217.219151134
 51
217.7791755157
  0
ARC
  5
547
100
AcDbEntity
  8
0
100
AcDbCircle
 62
7
  6
CONTINUOUS
 10
8.7004774845
 20
2.736752795
 40
0.29375
100
AcDbArc
 50
220.2208244843
 51
220.7791755157
  0
ARC
  5
548
100
AcDbEntity
  8
0
100
AcDbCircle
 62
7
  6
CONTINUOUS
 10
8.7004774845
 20
2.736752795
 40
0.29375
100
AcDbArc
 50
223.2208244843
 51
223.7791755157
  0
ARC
  5
549
100
AcDbEntity
  8
0
100
AcDbCircle
 62
7
  6
CONTINUOUS
 10
8.7004774845
 20
2.736752795
 40
0.29375
100
AcDbArc
 50
226.2208244843
 51
226.7791755157
  0
ARC
  5
54A
100
AcDbEntity
  8
0
100
AcDbCircle
 62
7
  6
CONTINUOUS
 10
8.7004774845
 20
2.736752795
 40
0.29375
100
AcDbArc
 50
229.2208244843
 51
229.7791755157
  0
ARC
  5
54B
100
AcDbEntity
  8
0
100
AcDbCircle
 62
7
  6
CONTINUOUS
 10
8.7004774845
 20
2.736752795
 40
0.29375
100
AcDbArc
 50
232.2208244843
 51
232.780848866
  0
ARC
  5
54C
100
AcDbEntity
  8
0
100
AcDbCircle
 62
7
  6
CONTINUOUS
 10
8.7004774845
 20
2.736752795
 40
0.29375
100
AcDbArc
 50
235.219151134
 51
235.7791755157
  0
ARC
  5
54D
100
AcDbEntity
  8
0
100
AcDbCircle
 62
7
  6
CONTINUOUS
 10
8.7004774845
 20
2.736752795
 40
0.29375
100
AcDbArc
 50
238.2208244843
 51
238.7791755157
  0
ARC
  5
54E
100
AcDbEntity
  8
0
100
AcDbCircle
 62
7
  6
CONTINUOUS
 10
8.7004774845
 20
2.736752795
 40
0.29375
100
AcDbArc
 50
241.2208244843
 51
241.7791755157
  0
ARC
  5
54F
100
AcDbEntity
  8
0
100
AcDbCircle
 62
7
  6
CONTINUOUS
 10
8.7004774845
 20
2.736752795
 40
0.29375
100
AcDbArc
 50
244.2208244843
 51
244.7791755157
  0
ARC
  5
550
100
AcDbEntity
  8
0
100
AcDbCircle
 62
7
  6
CONTINUOUS
 10
8.7004774845
 20
2.736752795
 40
0.29375
100
AcDbArc
 50
247.2208244843
 51
247.7791755157
  0
ARC
  5
551
100
AcDbEntity
  8
0
100
AcDbCircle
 62
7
  6
CONTINUOUS
 10
8.7004774845
 20
2.736752795
 40
0.29375
100
AcDbArc
 50
250.2208244843
 51
250.780848866
  0
ARC
  5
552
100
AcDbEntity
  8
0
100
AcDbCircle
 62
7
  6
CONTINUOUS
 10
8.7004774845
 20
2.736752795
 40
0.29375
100
AcDbArc
 50
253.219151134
 51
253.7791755157
  0
ARC
  5
553
100
AcDbEntity
  8
0
100
AcDbCircle
 62
7
  6
CONTINUOUS
 10
8.7004774845
 20
2.736752795
 40
0.29375
100
AcDbArc
 50
256.2208244843
 51
256.7791755157
  0
ARC
  5
554
100
AcDbEntity
  8
0
100
AcDbCircle
 62
7
  6
CONTINUOUS
 10
8.7004774845
 20
2.736752795
 40
0.29375
100
AcDbArc
 50
259.2208244843
 51
259.7791755157
  0
ARC
  5
555
100
AcDbEntity
  8
0
100
AcDbCircle
 62
7
  6
CONTINUOUS
 10
8.7004774845
 20
2.736752795
 40
0.29375
100
AcDbArc
 50
262.2208244843
 51
262.7791755157
  0
ARC
  5
556
100
AcDbEntity
  8
0
100
AcDbCircle
 62
7
  6
CONTINUOUS
 10
8.7004774845
 20
2.736752795
 40
0.29375
100
AcDbArc
 50
265.2208244843
 51
265.7791755157
  0
ARC
  5
557
100
AcDbEntity
  8
0
100
AcDbCircle
 62
7
  6
CONTINUOUS
 10
8.7004774845
 20
2.736752795
 40
0.29375
100
AcDbArc
 50
268.2208244843
 51
268.780848866
  0
ARC
  5
558
100
AcDbEntity
  8
0
100
AcDbCircle
 62
7
  6
CONTINUOUS
 10
8.7004774845
 20
2.736752795
 40
0.29375
100
AcDbArc
 50
271.219151134
 51
271.7791755157
  0
ARC
  5
559
100
AcDbEntity
  8
0
100
AcDbCircle
 62
7
  6
CONTINUOUS
 10
8.7004774845
 20
2.736752795
 40
0.29375
100
AcDbArc
 50
274.2208244843
 51
274.7791755157
  0
ARC
  5
55A
100
AcDbEntity
  8
0
100
AcDbCircle
 62
7
  6
CONTINUOUS
 10
8.7004774845
 20
2.736752795
 40
0.29375
100
AcDbArc
 50
277.2208244843
 51
277.7791755157
  0
ARC
  5
55B
100
AcDbEntity
  8
0
100
AcDbCircle
 62
7
  6
CONTINUOUS
 10
8.7004774845
 20
2.736752795
 40
0.29375
100
AcDbArc
 50
280.2208244843
 51
280.7791755157
  0
ARC
  5
55C
100
AcDbEntity
  8
0
100
AcDbCircle
 62
7
  6
CONTINUOUS
 10
8.7004774845
 20
2.736752795
 40
0.29375
100
AcDbArc
 50
283.2208244843
 51
283.7791755157
  0
ARC
  5
55D
100
AcDbEntity
  8
0
100
AcDbCircle
 62
7
  6
CONTINUOUS
 10
8.7004774845
 20
2.736752795
 40
0.29375
100
AcDbArc
 50
286.2208244843
 51
286.780848866
  0
ARC
  5
55E
100
AcDbEntity
  8
0
100
AcDbCircle
 62
7
  6
CONTINUOUS
 10
8.7004774845
 20
2.736752795
 40
0.29375
100
AcDbArc
 50
289.219151134
 51
289.7791755157
  0
ARC
  5
55F
100
AcDbEntity
  8
0
100
AcDbCircle
 62
7
  6
CONTINUOUS
 10
8.7004774845
 20
2.736752795
 40
0.29375
100
AcDbArc
 50
292.2208244843
 51
292.7791755157
  0
ARC
  5
560
100
AcDbEntity
  8
0
100
AcDbCircle
 62
7
  6
CONTINUOUS
 10
8.7004774845
 20
2.736752795
 40
0.29375
100
AcDbArc
 50
295.2208244843
 51
295.7791755157
  0
ARC
  5
561
100
AcDbEntity
  8
0
100
AcDbCircle
 62
7
  6
CONTINUOUS
 10
8.7004774845
 20
2.736752795
 40
0.29375
100
AcDbArc
 50
298.2208244843
 51
298.7791755157
  0
ARC
  5
562
100
AcDbEntity
  8
0
100
AcDbCircle
 62
7
  6
CONTINUOUS
 10
8.7004774845
 20
2.736752795
 40
0.29375
100
AcDbArc
 50
301.2208244843
 51
301.7791755157
  0
ARC
  5
563
100
AcDbEntity
  8
0
100
AcDbCircle
 62
7
  6
CONTINUOUS
 10
8.7004774845
 20
2.736752795
 40
0.29375
100
AcDbArc
 50
304.2208244843
 51
304.780848866
  0
ARC
  5
564
100
AcDbEntity
  8
0
100
AcDbCircle
 62
7
  6
CONTINUOUS
 10
8.7004774845
 20
2.736752795
 40
0.29375
100
AcDbArc
 50
307.219151134
 51
307.7791755157
  0
ARC
  5
565
100
AcDbEntity
  8
0
100
AcDbCircle
 62
7
  6
CONTINUOUS
 10
8.7004774845
 20
2.736752795
 40
0.29375
100
AcDbArc
 50
310.2208244843
 51
310.7791755157
  0
ARC
  5
566
100
AcDbEntity
  8
0
100
AcDbCircle
 62
7
  6
CONTINUOUS
 10
8.7004774845
 20
2.736752795
 40
0.29375
100
AcDbArc
 50
313.2208244843
 51
313.7791755157
  0
ARC
  5
567
100
AcDbEntity
  8
0
100
AcDbCircle
 62
7
  6
CONTINUOUS
 10
8.7004774845
 20
2.736752795
 40
0.29375
100
AcDbArc
 50
316.2208244843
 51
316.7791755157
  0
ARC
  5
568
100
AcDbEntity
  8
0
100
AcDbCircle
 62
7
  6
CONTINUOUS
 10
8.7004774845
 20
2.736752795
 40
0.29375
100
AcDbArc
 50
319.2208244843
 51
319.7791755157
  0
ARC
  5
569
100
AcDbEntity
  8
0
100
AcDbCircle
 62
7
  6
CONTINUOUS
 10
8.7004774845
 20
2.736752795
 40
0.29375
100
AcDbArc
 50
322.2208244843
 51
322.780848866
  0
ARC
  5
56A
100
AcDbEntity
  8
0
100
AcDbCircle
 62
7
  6
CONTINUOUS
 10
8.7004774845
 20
2.736752795
 40
0.29375
100
AcDbArc
 50
325.219151134
 51
325.7791755157
  0
ARC
  5
56B
100
AcDbEntity
  8
0
100
AcDbCircle
 62
7
  6
CONTINUOUS
 10
8.7004774845
 20
2.736752795
 40
0.29375
100
AcDbArc
 50
328.2208244843
 51
328.7791755157
  0
ARC
  5
56C
100
AcDbEntity
  8
0
100
AcDbCircle
 62
7
  6
CONTINUOUS
 10
8.7004774845
 20
2.736752795
 40
0.29375
100
AcDbArc
 50
331.2208244843
 51
331.7791755157
  0
ARC
  5
56D
100
AcDbEntity
  8
0
100
AcDbCircle
 62
7
  6
CONTINUOUS
 10
8.7004774845
 20
2.736752795
 40
0.29375
100
AcDbArc
 50
334.2208244843
 51
334.7791755157
  0
ARC
  5
56E
100
AcDbEntity
  8
0
100
AcDbCircle
 62
7
  6
CONTINUOUS
 10
8.7004774845
 20
2.736752795
 40
0.29375
100
AcDbArc
 50
337.2208244843
 51
337.7791755157
  0
ARC
  5
56F
100
AcDbEntity
  8
0
100
AcDbCircle
 62
7
  6
CONTINUOUS
 10
8.7004774845
 20
2.736752795
 40
0.29375
100
AcDbArc
 50
340.2208244843
 51
340.780848866
  0
ARC
  5
570
100
AcDbEntity
  8
0
100
AcDbCircle
 62
7
  6
CONTINUOUS
 10
8.7004774845
 20
2.736752795
 40
0.29375
100
AcDbArc
 50
343.219151134
 51
343.7791755157
  0
ARC
  5
571
100
AcDbEntity
  8
0
100
AcDbCircle
 62
7
  6
CONTINUOUS
 10
8.7004774845
 20
2.736752795
 40
0.29375
100
AcDbArc
 50
346.2208244843
 51
346.7791755157
  0
ARC
  5
572
100
AcDbEntity
  8
0
100
AcDbCircle
 62
7
  6
CONTINUOUS
 10
8.7004774845
 20
2.736752795
 40
0.29375
100
AcDbArc
 50
349.2208244843
 51
349.7791755157
  0
ARC
  5
573
100
AcDbEntity
  8
0
100
AcDbCircle
 62
7
  6
CONTINUOUS
 10
8.7004774845
 20
2.736752795
 40
0.29375
100
AcDbArc
 50
352.2208244843
 51
352.7791755157
  0
ARC
  5
574
100
AcDbEntity
  8
0
100
AcDbCircle
 62
7
  6
CONTINUOUS
 10
8.7004774845
 20
2.736752795
 40
0.29375
100
AcDbArc
 50
355.2208244843
 51
355.7791755157
  0
ARC
  5
575
100
AcDbEntity
  8
0
100
AcDbCircle
 62
7
  6
CONTINUOUS
 10
8.7004774845
 20
2.736752795
 40
0.29375
100
AcDbArc
 50
358.2208244843
 51
358.780848866
  0
ARC
  5
576
100
AcDbEntity
  8
0
100
AcDbCircle
 62
7
  6
CONTINUOUS
 10
8.7004774845
 20
2.736752795
 40
0.29375
100
AcDbArc
 50
1.219151134
 51
1.7791755157
  0
ARC
  5
577
100
AcDbEntity
  8
0
100
AcDbCircle
 62
7
  6
CONTINUOUS
 10
8.7004774845
 20
2.736752795
 40
0.29375
100
AcDbArc
 50
4.2208244843
 51
4.7791755157
  0
ARC
  5
578
100
AcDbEntity
  8
0
100
AcDbCircle
 62
7
  6
CONTINUOUS
 10
8.7004774845
 20
2.736752795
 40
0.29375
100
AcDbArc
 50
7.2208244843
 51
7.7791755157
  0
ARC
  5
579
100
AcDbEntity
  8
0
100
AcDbCircle
 62
7
  6
CONTINUOUS
 10
8.7004774845
 20
2.736752795
 40
0.29375
100
AcDbArc
 50
10.2208244843
 51
10.7791755157
  0
ARC
  5
57A
100
AcDbEntity
  8
0
100
AcDbCircle
 62
7
  6
CONTINUOUS
 10
8.7004774845
 20
2.736752795
 40
0.29375
100
AcDbArc
 50
13.2208244843
 51
13.7791755157
  0
ARC
  5
57B
100
AcDbEntity
  8
0
100
AcDbCircle
 62
7
  6
CONTINUOUS
 10
8.7004774845
 20
2.736752795
 40
0.29375
100
AcDbArc
 50
16.2208244843
 51
16.780848866
  0
ARC
  5
57C
100
AcDbEntity
  8
0
100
AcDbCircle
 62
7
  6
CONTINUOUS
 10
8.7004774845
 20
2.736752795
 40
0.29375
100
AcDbArc
 50
19.219151134
 51
19.7791755157
  0
ARC
  5
57D
100
AcDbEntity
  8
0
100
AcDbCircle
 62
7
  6
CONTINUOUS
 10
8.7004774845
 20
2.736752795
 40
0.29375
100
AcDbArc
 50
22.2208244843
 51
22.7791755157
  0
ARC
  5
57E
100
AcDbEntity
  8
0
100
AcDbCircle
 62
7
  6
CONTINUOUS
 10
8.7004774845
 20
2.736752795
 40
0.29375
100
AcDbArc
 50
25.2208244843
 51
25.7791755157
  0
ARC
  5
57F
100
AcDbEntity
  8
0
100
AcDbCircle
 62
7
  6
CONTINUOUS
 10
8.7004774845
 20
2.736752795
 40
0.29375
100
AcDbArc
 50
28.2208244843
 51
28.7791755157
  0
ARC
  5
580
100
AcDbEntity
  8
0
100
AcDbCircle
 62
7
  6
CONTINUOUS
 10
8.7004774845
 20
2.736752795
 40
0.29375
100
AcDbArc
 50
31.2208244843
 51
31.7791755157
  0
ARC
  5
581
100
AcDbEntity
  8
0
100
AcDbCircle
 62
7
  6
CONTINUOUS
 10
8.7004774845
 20
2.736752795
 40
0.29375
100
AcDbArc
 50
34.2208244843
 51
34.780848866
  0
ARC
  5
582
100
AcDbEntity
  8
0
100
AcDbCircle
 62
7
  6
CONTINUOUS
 10
8.7004774845
 20
2.736752795
 40
0.29375
100
AcDbArc
 50
37.219151134
 51
37.7791755157
  0
ARC
  5
583
100
AcDbEntity
  8
0
100
AcDbCircle
 62
7
  6
CONTINUOUS
 10
8.7004774845
 20
2.736752795
 40
0.29375
100
AcDbArc
 50
40.2208244843
 51
40.7791755157
  0
ARC
  5
584
100
AcDbEntity
  8
0
100
AcDbCircle
 62
7
  6
CONTINUOUS
 10
8.7004774845
 20
2.736752795
 40
0.29375
100
AcDbArc
 50
43.2208244843
 51
43.7791755157
  0
ARC
  5
585
100
AcDbEntity
  8
0
100
AcDbCircle
 62
7
  6
CONTINUOUS
 10
8.7004774845
 20
2.736752795
 40
0.29375
100
AcDbArc
 50
46.2208244843
 51
46.7791755157
  0
ARC
  5
586
100
AcDbEntity
  8
0
100
AcDbCircle
 62
7
  6
CONTINUOUS
 10
8.7004774845
 20
2.736752795
 40
0.29375
100
AcDbArc
 50
49.2208244843
 51
49.7791755157
  0
ARC
  5
587
100
AcDbEntity
  8
0
100
AcDbCircle
 62
7
  6
CONTINUOUS
 10
8.7004774845
 20
2.736752795
 40
0.29375
100
AcDbArc
 50
52.2208244843
 51
52.780848866
  0
ARC
  5
588
100
AcDbEntity
  8
0
100
AcDbCircle
 62
7
  6
CONTINUOUS
 10
8.7004774845
 20
2.736752795
 40
0.29375
100
AcDbArc
 50
55.219151134
 51
55.7791755157
  0
ARC
  5
589
100
AcDbEntity
  8
0
100
AcDbCircle
 62
7
  6
CONTINUOUS
 10
8.7004774845
 20
2.736752795
 40
0.29375
100
AcDbArc
 50
58.2208244843
 51
58.7791755157
  0
ARC
  5
58A
100
AcDbEntity
  8
0
100
AcDbCircle
 62
7
  6
CONTINUOUS
 10
8.7004774845
 20
2.736752795
 40
0.29375
100
AcDbArc
 50
61.2208244843
 51
61.7791755157
  0
ARC
  5
58B
100
AcDbEntity
  8
0
100
AcDbCircle
 62
7
  6
CONTINUOUS
 10
8.7004774845
 20
2.736752795
 40
0.29375
100
AcDbArc
 50
64.2208244843
 51
64.7791755157
  0
ARC
  5
58C
100
AcDbEntity
  8
0
100
AcDbCircle
 62
7
  6
CONTINUOUS
 10
8.7004774845
 20
2.736752795
 40
0.29375
100
AcDbArc
 50
67.2208244843
 51
67.7791755157
  0
ARC
  5
58D
100
AcDbEntity
  8
0
100
AcDbCircle
 62
7
  6
CONTINUOUS
 10
8.7004774845
 20
2.736752795
 40
0.29375
100
AcDbArc
 50
70.2208244843
 51
70.780848866
  0
ARC
  5
58E
100
AcDbEntity
  8
0
100
AcDbCircle
 62
7
  6
CONTINUOUS
 10
8.7004774845
 20
2.736752795
 40
0.29375
100
AcDbArc
 50
73.219151134
 51
73.7791755157
  0
ARC
  5
58F
100
AcDbEntity
  8
0
100
AcDbCircle
 62
7
  6
CONTINUOUS
 10
8.7004774845
 20
2.736752795
 40
0.29375
100
AcDbArc
 50
76.2208244843
 51
76.7791755157
  0
ARC
  5
590
100
AcDbEntity
  8
0
100
AcDbCircle
 62
7
  6
CONTINUOUS
 10
8.7004774845
 20
2.736752795
 40
0.29375
100
AcDbArc
 50
79.2208244843
 51
79.7791755157
  0
ARC
  5
591
100
AcDbEntity
  8
0
100
AcDbCircle
 62
7
  6
CONTINUOUS
 10
8.7004774845
 20
2.736752795
 40
0.29375
100
AcDbArc
 50
82.2208244843
 51
82.7791755157
  0
ARC
  5
592
100
AcDbEntity
  8
0
100
AcDbCircle
 62
7
  6
CONTINUOUS
 10
8.7004774845
 20
2.736752795
 40
0.29375
100
AcDbArc
 50
85.2208244843
 51
85.7791755157
  0
ARC
  5
593
100
AcDbEntity
  8
0
100
AcDbCircle
 62
7
  6
CONTINUOUS
 10
8.7004774845
 20
2.736752795
 40
0.29375
100
AcDbArc
 50
88.2208244843
 51
88.780848866
  0
CIRCLE
  5
594
100
AcDbEntity
  8
0
100
AcDbCircle
 62
7
  6
CONTINUOUS
 10
8.7004774845
 20
2.736752795
 40
0.2775
  0
CIRCLE
  5
595
100
AcDbEntity
  8
0
100
AcDbCircle
 62
7
  6
CONTINUOUS
 10
8.7004774845
 20
2.736752795
 40
0.2766395935
  0
CIRCLE
  5
596
100
AcDbEntity
  8
0
100
AcDbCircle
 62
7
  6
CONTINUOUS
 10
8.7004774845
 20
2.736752795
 40
0.2264874498
  0
CIRCLE
  5
597
100
AcDbEntity
  8
0
100
AcDbCircle
 62
7
  6
CONTINUOUS
 10
8.7004774845
 20
2.736752795
 40
0.2223478564
  0
CIRCLE
  5
598
100
AcDbEntity
  8
0
100
AcDbCircle
 62
7
  6
CONTINUOUS
 10
8.7004774845
 20
2.736752795
 40
0.2067928977
  0
CIRCLE
  5
599
100
AcDbEntity
  8
0
100
AcDbCircle
 62
7
  6
CONTINUOUS
 10
8.7004774845
 20
2.736752795
 40
0.2037155146
  0
ARC
  5
59A
100
AcDbEntity
  8
0
100
AcDbCircle
 62
7
  6
CONTINUOUS
 10
8.7004792504
 20
2.8951542474
 40
0.0103675254
100
AcDbArc
 50
78.0797949679
 51
259.4381367148
  0
ARC
  5
59B
100
AcDbEntity
  8
0
100
AcDbCircle
 62
7
  6
CONTINUOUS
 10
8.7004774977
 20
2.834342084
 40
0.0097939899
100
AcDbArc
 50
30.6274636834
 51
211.7144849899
  0
CIRCLE
  5
59C
100
AcDbEntity
  8
0
100
AcDbCircle
 62
7
  6
CONTINUOUS
 10
8.7694830697
 20
2.805758404
 40
0.0097939888
  0
CIRCLE
  5
59D
100
AcDbEntity
  8
0
100
AcDbCircle
 62
7
  6
CONTINUOUS
 10
8.7610967274
 20
2.883095979
 40
0.0103675254
  0
ARC
  5
59E
100
AcDbEntity
  8
0
100
AcDbCircle
 62
7
  6
CONTINUOUS
 10
8.8588789809
 20
2.7367507365
 40
0.0103677428
100
AcDbArc
 50
0.0113767217
 51
169.4365916298
  0
CIRCLE
  5
59F
100
AcDbEntity
  8
0
100
AcDbCircle
 62
7
  6
CONTINUOUS
 10
8.812482977
 20
2.624744805
 40
0.0103675255
  0
CIRCLE
  5
5A0
100
AcDbEntity
  8
0
100
AcDbCircle
 62
7
  6
CONTINUOUS
 10
8.8468206698
 20
2.6761335511
 40
0.0103675255
  0
ARC
  5
5A1
100
AcDbEntity
  8
0
100
AcDbCircle
 62
7
  6
CONTINUOUS
 10
8.7980658292
 20
2.7367526555
 40
0.0097938172
100
AcDbArc
 50
0.0031804992
 51
179.9991834798
  0
CIRCLE
  5
5A2
100
AcDbEntity
  8
0
100
AcDbCircle
 62
7
  6
CONTINUOUS
 10
8.8124854757
 20
2.8487582884
 40
0.0103675255
  0
CIRCLE
  5
5A3
100
AcDbEntity
  8
0
100
AcDbCircle
 62
7
  6
CONTINUOUS
 10
8.8468220217
 20
2.7973687753
 40
0.0103675255
  0
ARC
  5
5A4
100
AcDbEntity
  8
0
100
AcDbCircle
 62
7
  6
CONTINUOUS
 10
8.8588827974
 20
2.7367527878
 40
0.0103635969
100
AcDbArc
 50
169.44424105
 51
0.0000401051
  0
ARC
  5
5A5
100
AcDbEntity
  8
0
100
AcDbCircle
 62
7
  6
CONTINUOUS
 10
8.7980670718
 20
2.7367529435
 40
0.0097938324
100
AcDbArc
 50
180.0030634113
 51
359.9991313404
  0
SPLINE
  5
5A6
100
AcDbEntity
  8
0
100
AcDbSpline
 62
7
  6
CONTINUOUS
 70
0
 71
3
 72
33
 73
29
 74
0
 42
0.0000001
 43
0.0000001
 44
0.0000000001
 40
0.0
 40
0.0
 40
0.0
 40
0.0
 40
0.0295978987
 40
0.0592009131
 40
0.0888138478
 40
0.1184431135
 40
0.1480959445
 40
0.1777811614
 40
0.2075092254
 40
0.2372923229
 40
0.2671443338
 40
0.297080636
 40
0.3271176864
 40
0.3572728052
 40
0.3875637585
 40
0.4180080882
 40
0.4486224593
 40
0.4794223059
 40
0.5104214018
 40
0.5416313519
 40
0.6047019208
 40
0.6686847167
 40
0.7335633206
 40
0.7992694235
 40
0.8656863373
 40
0.8991184745
 40
0.9326663044
 40
1.0
 40
1.0
 40
1.0
 40
1.0
 10
5.7669331757
 20
1.1962930325
 30
0.0
 10
5.7585121659
 20
1.1962930325
 30
0.0
 10
5.7416637825
 20
1.1968292411
 30
0.0
 10
5.7164937732
 20
1.1992366451
 30
0.0
 10
5.6915165523
 20
1.2032313361
 30
0.0
 10
5.6668257113
 20
1.2087873568
 30
0.0
 10
5.6425076306
 20
1.2158699792
 30
0.0
 10
5.6186424992
 20
1.2244366864
 30
0.0
 10
5.5953027281
 20
1.2344388216
 30
0.0
 10
5.572552537
 20
1.2458230044
 30
0.0
 10
5.5504477906
 20
1.2585327694
 30
0.0
 10
5.5290361959
 20
1.2725098731
 30
0.0
 10
5.5083578311
 20
1.2876955961
 30
0.0
 10
5.4884458278
 20
1.3040316961
 30
0.0
 10
5.469327271
 20
1.3214611926
 30
0.0
 10
5.4510241952
 20
1.339928741
 30
0.0
 10
5.4335545585
 20
1.3593809032
 30
0.0
 10
5.4169332174
 20
1.3797659414
 30
0.0
 10
5.401172285
 20
1.4010344765
 30
0.0
 10
5.3812525581
 20
1.4306045509
 30
0.0
 10
5.3585695115
 20
1.469570886
 30
0.0
 10
5.3350525551
 20
1.5189176724
 30
0.0
 10
5.3151981791
 20
1.5706503678
 30
0.0
 10
5.299068159
 20
1.6243802032
 30
0.0
 10
5.2887970253
 20
1.6703930987
 30
0.0
 10
5.2824769919
 20
1.7078232419
 30
0.0
 10
5.2774211191
 20
1.7457069631
 30
0.0
 10
5.2750903559
 20
1.7743437204
 30
0.0
 10
5.2741826064
 20
1.7934795657
 30
0.0
  0
LINE
  5
5A7
100
AcDbEntity
  8
0
100
AcDbLine
 62
7
  6
CONTINUOUS
 10
5.7671171125
 20
1.5962905344
 11
5.7664441042
 21
1.5964613622
  0
SPLINE
  5
5A8
100
AcDbEntity
  8
0
100
AcDbSpline
 62
7
  6
CONTINUOUS
 70
0
 71
3
 72
34
 73
30
 74
0
 42
0.0000001
 43
0.0000001
 44
0.0000000001
 40
0.0
 40
0.0
 40
0.0
 40
0.0
 40
0.0032298917
 40
0.0078264908
 40
0.0139652202
 40
0.0218148244
 40
0.0315187887
 40
0.043202738
 40
0.0569675467
 40
0.0728897972
 40
0.0910218787
 40
0.1113908062
 40
0.1339995594
 40
0.1588294778
 40
0.1858425827
 40
0.2149841344
 40
0.246185372
 40
0.2793664816
 40
0.3144392337
 40
0.3513092574
 40
0.3898779782
 40
0.4300441944
 40
0.4717054897
 40
0.5147592245
 40
0.6046264826
 40
0.6988520791
 40
0.7966558427
 40
0.8972826216
 40
1.0
 40
1.0
 40
1.0
 40
1.0
 10
5.7664441042
 20
1.5964613622
 30
0.0
 10
5.7662171185
 20
1.5965286783
 30
0.0
 10
5.76567223
 20
1.5967091365
 30
0.0
 10
5.7647171754
 20
1.5970787194
 30
0.0
 10
5.7634724259
 20
1.5976337548
 30
0.0
 10
5.7619220309
 20
1.5984177966
 30
0.0
 10
5.7600578897
 20
1.5994768994
 30
0.0
 10
5.7578795265
 20
1.6008550609
 30
0.0
 10
5.7553942073
 20
1.6025946683
 30
0.0
 10
5.7526160429
 20
1.6047340093
 30
0.0
 10
5.7495656153
 20
1.6073069265
 30
0.0
 10
5.7462689054
 20
1.6103416521
 30
0.0
 10
5.7427562529
 20
1.6138602758
 30
0.0
 10
5.7390612188
 20
1.6178785902
 30
0.0
 10
5.7352194792
 20
1.6224061905
 30
0.0
 10
5.7312677779
 20
1.6274467207
 30
0.0
 10
5.727242972
 20
1.6329983052
 30
0.0
 10
5.723181274
 20
1.6390541532
 30
0.0
 10
5.7191176574
 20
1.6456032212
 30
0.0
 10
5.7150854026
 20
1.6526308497
 30
0.0
 10
5.7111157854
 20
1.6601193814
 30
0.0
 10
5.707237897
 20
1.6680486979
 30
0.0
 10
5.7034784428
 20
1.6763968272
 30
0.0
 10
5.6985865093
 20
1.6882239797
 30
0.0
 10
5.6929310936
 20
1.7038957522
 30
0.0
 10
5.6870454076
 20
1.7237144601
 30
0.0
 10
5.6820865684
 20
1.7445969335
 30
0.0
 10
5.6781479379
 20
1.7663274991
 30
0.0
 10
5.6762627877
 20
1.7811213688
 30
0.0
 10
5.6755029262
 20
1.7886123092
 30
0.0
  0
LINE
  5
5A9
100
AcDbEntity
  8
0
100
AcDbLine
 62
7
  6
CONTINUOUS
 10
2.8838378565
 20
1.5962905344
 11
2.8845108647
 21
1.5964613622
  0
SPLINE
  5
5AA
100
AcDbEntity
  8
0
100
AcDbSpline
 62
7
  6
CONTINUOUS
 70
0
 71
3
 72
34
 73
30
 74
0
 42
0.0000001
 43
0.0000001
 44
0.0000000001
 40
0.0
 40
0.0
 40
0.0
 40
0.0
 40
0.0032298922
 40
0.0078264916
 40
0.013965221
 40
0.0218148248
 40
0.0315187883
 40
0.0432027364
 40
0.0569675435
 40
0.072889792
 40
0.0910218713
 40
0.111390796
 40
0.1339995464
 40
0.1588294618
 40
0.1858425636
 40
0.2149841122
 40
0.2461853469
 40
0.2793664537
 40
0.3144392034
 40
0.351309225
 40
0.389877944
 40
0.430044159
 40
0.4717054535
 40
0.5147591881
 40
0.6046264477
 40
0.6988520483
 40
0.7966558189
 40
0.897282608
 40
1.0
 40
1.0
 40
1.0
 40
1.0
 10
2.8845108647
 20
1.5964613622
 30
0.0
 10
2.8847378504
 20
1.5965286783
 30
0.0
 10
2.8852827387
 20
1.5967091364
 30
0.0
 10
2.8862377928
 20
1.5970787191
 30
0.0
 10
2.8874825416
 20
1.5976337541
 30
0.0
 10
2.8890329357
 20
1.5984177953
 30
0.0
 10
2.8908970758
 20
1.5994768973
 30
0.0
 10
2.8930754377
 20
1.6008550578
 30
0.0
 10
2.8955607554
 20
1.6025946637
 30
0.0
 10
2.8983389181
 20
1.604734003
 30
0.0
 10
2.901389344
 20
1.6073069181
 30
0.0
 10
2.9046860521
 20
1.6103416411
 30
0.0
 10
2.9081987027
 20
1.613860262
 30
0.0
 10
2.9118937349
 20
1.6178785731
 30
0.0
 10
2.9157354728
 20
1.6224061697
 30
0.0
 10
2.9196871723
 20
1.6274466959
 30
0.0
 10
2.9237119767
 20
1.6329982761
 30
0.0
 10
2.9277736732
 20
1.6390541196
 30
0.0
 10
2.9318372885
 20
1.6456031827
 30
0.0
 10
2.9358695422
 20
1.6526308061
 30
0.0
 10
2.9398391586
 20
1.6601193325
 30
0.0
 10
2.9437170464
 20
1.6680486435
 30
0.0
 10
2.9474765003
 20
1.6763967673
 30
0.0
 10
2.9523684337
 20
1.6882239123
 30
0.0
 10
2.9580238499
 20
1.7038956752
 30
0.0
 10
2.9639095376
 20
1.7237143717
 30
0.0
 10
2.9688683796
 20
1.7445968339
 30
0.0
 10
2.9728070139
 20
1.7663273887
 30
0.0
 10
2.9746921673
 20
1.7811212514
 30
0.0
 10
2.9754520305
 20
1.7886121884
 30
0.0
  0
SPLINE
  5
5AB
100
AcDbEntity
  8
0
100
AcDbSpline
 62
7
  6
CONTINUOUS
 70
0
 71
3
 72
33
 73
29
 74
0
 42
0.0000001
 43
0.0000001
 44
0.0000000001
 40
0.0
 40
0.0
 40
0.0
 40
0.0
 40
0.0295978986
 40
0.059200913
 40
0.0888138477
 40
0.1184431133
 40
0.1480959443
 40
0.1777811612
 40
0.2075092251
 40
0.2372923226
 40
0.2671443334
 40
0.2970806355
 40
0.327117686
 40
0.3572728047
 40
0.3875637581
 40
0.4180080877
 40
0.4486224588
 40
0.4794223054
 40
0.5104214013
 40
0.5416313515
 40
0.6047019204
 40
0.6686847164
 40
0.7335633204
 40
0.7992694234
 40
0.8656863373
 40
0.8991184746
 40
0.9326663044
 40
1.0
 40
1.0
 40
1.0
 40
1.0
 10
2.8840217933
 20
1.1962930325
 30
0.0
 10
2.8924428032
 20
1.1962930325
 30
0.0
 10
2.9092911869
 20
1.1968292411
 30
0.0
 10
2.9344611968
 20
1.1992366452
 30
0.0
 10
2.9594384182
 20
1.2032313364
 30
0.0
 10
2.9841292597
 20
1.2087873574
 30
0.0
 10
3.0084473409
 20
1.21586998
 30
0.0
 10
3.0323124727
 20
1.2244366876
 30
0.0
 10
3.0556522442
 20
1.2344388232
 30
0.0
 10
3.0784024357
 20
1.2458230064
 30
0.0
 10
3.1005071824
 20
1.258532772
 30
0.0
 10
3.1219187775
 20
1.2725098761
 30
0.0
 10
3.1425971425
 20
1.2876955997
 30
0.0
 10
3.1625091461
 20
1.3040317004
 30
0.0
 10
3.1816277031
 20
1.3214611975
 30
0.0
 10
3.199930779
 20
1.3399287465
 30
0.0
 10
3.2174004158
 20
1.3593809094
 30
0.0
 10
3.234021757
 20
1.3797659484
 30
0.0
 10
3.2497826894
 20
1.4010344843
 30
0.0
 10
3.2697024163
 20
1.4306045596
 30
0.0
 10
3.2923854628
 20
1.4695708961
 30
0.0
 10
3.3159024189
 20
1.518917684
 30
0.0
 10
3.3357567944
 20
1.5706503811
 30
0.0
 10
3.3518868138
 20
1.6243802181
 30
0.0
 10
3.3621579469
 20
1.6703931149
 30
0.0
 10
3.3684779796
 20
1.7078232591
 30
0.0
 10
3.3735338518
 20
1.7457069812
 30
0.0
 10
3.3758646144
 20
1.7743437392
 30
0.0
 10
3.3767723635
 20
1.793479585
 30
0.0
  0
LINE
  5
5AC
100
AcDbEntity
  8
0
100
AcDbLine
 62
7
  6
CONTINUOUS
 10
2.3628646072
 20
3.0712726494
 11
2.3471254793
 21
3.0711358185
  0
LINE
  5
5AD
100
AcDbEntity
  8
0
100
AcDbLine
 62
7
  6
CONTINUOUS
 10
2.3471254793
 20
3.0711358185
 11
2.3461070505
 21
3.0711333513
  0
LINE
  5
5AE
100
AcDbEntity
  8
0
100
AcDbLine
 62
7
  6
CONTINUOUS
 10
2.3461070505
 20
3.0711333513
 11
2.3031840799
 21
3.0710855052
  0
LINE
  5
5AF
100
AcDbEntity
  8
0
100
AcDbLine
 62
7
  6
CONTINUOUS
 10
2.3031840799
 20
3.0710855052
 11
2.2865987978
 21
3.0711962227
  0
LINE
  5
5B0
100
AcDbEntity
  8
0
100
AcDbLine
 62
7
  6
CONTINUOUS
 10
2.2462274845
 20
3.0681757373
 11
2.2456412488
 21
3.0681247665
  0
LINE
  5
5B1
100
AcDbEntity
  8
0
100
AcDbLine
 62
7
  6
CONTINUOUS
 10
2.2456412488
 20
3.0681247665
 11
2.2432274845
 21
3.0678751963
  0
LINE
  5
5B2
100
AcDbEntity
  8
0
100
AcDbLine
 62
7
  6
CONTINUOUS
 10
2.2242274845
 20
3.0656107261
 11
2.2212274845
 21
3.0651959502
  0
SPLINE
  5
5B3
100
AcDbEntity
  8
0
100
AcDbSpline
 62
7
  6
CONTINUOUS
 70
0
 71
3
 72
97
 73
93
 74
0
 42
0.0000001
 43
0.0000001
 44
0.0000000001
 40
0.0
 40
0.0
 40
0.0
 40
0.0
 40
0.0000027055
 40
0.0000108183
 40
0.0000243367
 40
0.0000432588
 40
0.000067583
 40
0.0000973074
 40
0.00017295
 40
0.0002701724
 40
0.0003889606
 40
0.0005293005
 40
0.0006911779
 40
0.0008745788
 40
0.001079489
 40
0.0015537765
 40
0.0021138169
 40
0.0027592822
 40
0.0034898399
 40
0.004305158
 40
0.0052049041
 40
0.006188717
 40
0.0084065501
 40
0.0109544986
 40
0.0138283056
 40
0.0170229917
 40
0.0205331435
 40
0.0243532625
 40
0.0284772925
 40
0.0328989677
 40
0.0426096146
 40
0.0534319911
 40
0.0653117633
 40
0.0781943842
 40
0.0920261745
 40
0.1067549542
 40
0.1223304834
 40
0.1387049646
 40
0.1558328628
 40
0.1921775423
 40
0.2310453495
 40
0.2721398027
 40
0.3151712009
 40
0.3598360771
 40
0.4057961174
 40
0.4526632768
 40
0.5000000002
 40
0.5473367235
 40
0.5942038829
 40
0.6401639234
 40
0.6848287996
 40
0.7278601978
 40
0.7689546509
 40
0.8078224581
 40
0.8441671375
 40
0.8612950357
 40
0.8776695169
 40
0.8932450461
 40
0.9079738258
 40
0.921805616
 40
0.9346882369
 40
0.9465680091
 40
0.9573903856
 40
0.9671010325
 40
0.9715227077
 40
0.9756467377
 40
0.9794668566
 40
0.9829770084
 40
0.9861716945
 40
0.9890455015
 40
0.9915934499
 40
0.9938112831
 40
0.994795096
 40
0.9956948421
 40
0.9965101602
 40
0.997240718
 40
0.9978861833
 40
0.9984462236
 40
0.9989205109
 40
0.9991254211
 40
0.9993088219
 40
0.9994706993
 40
0.9996110391
 40
0.9997298272
 40
0.9998270497
 40
0.9999026922
 40
0.9999324167
 40
0.9999567409
 40
0.9999756631
 40
0.9999891815
 40
0.9999972944
 40
1.0
 40
1.0
 40
1.0
 40
1.0
 10
6.6042274845
 20
2.724252795
 30
0.0
 10
6.6042272886
 20
2.724252795
 30
0.0
 10
6.604227124
 20
2.7242538794
 30
0.0
 10
6.6042260024
 20
2.7242550002
 30
0.0
 10
6.6042246386
 20
2.724257754
 30
0.0
 10
6.6042224929
 20
2.7242611928
 30
0.0
 10
6.6042198302
 20
2.7242657806
 30
0.0
 10
6.6042150487
 20
2.7242738477
 30
0.0
 10
6.6042076041
 20
2.724286491
 30
0.0
 10
6.6041968761
 20
2.7243046712
 30
0.0
 10
6.6041837758
 20
2.7243268943
 30
0.0
 10
6.6041683
 20
2.7243531484
 30
0.0
 10
6.6041504533
 20
2.7243834349
 30
0.0
 10
6.6041302374
 20
2.7244177505
 30
0.0
 10
6.604098549
 20
2.7244715552
 30
0.0
 10
6.6040530375
 20
2.7245488605
 30
0.0
 10
6.6039913785
 20
2.7246536672
 30
0.0
 10
6.603920364
 20
2.7247744933
 30
0.0
 10
6.6038400524
 20
2.7249112899
 30
0.0
 10
6.6037505032
 20
2.7250640081
 30
0.0
 10
6.6036517769
 20
2.7252325973
 30
0.0
 10
6.6035018986
 20
2.725488886
 30
0.0
 10
6.6032921774
 20
2.7258483946
 30
0.0
 10
6.6030143059
 20
2.7263265394
 30
0.0
 10
6.60270188
 20
2.7268663895
 30
0.0
 10
6.6023558124
 20
2.7274672451
 30
0.0
 10
6.6019770955
 20
2.7281283465
 30
0.0
 10
6.6015667471
 20
2.7288488558
 30
0.0
 10
6.6011259103
 20
2.729627933
 30
0.0
 10
6.600478556
 20
2.7307800884
 30
0.0
 10
6.5996015702
 20
2.7323593956
 30
0.0
 10
6.5984777991
 20
2.7344191377
 30
0.0
 10
6.5972631161
 20
2.7366907547
 30
0.0
 10
6.5959689025
 20
2.7391667561
 30
0.0
 10
6.59460691
 20
2.7418398734
 30
0.0
 10
6.5931890882
 20
2.7447031116
 30
0.0
 10
6.5917275684
 20
2.7477498293
 30
0.0
 10
6.5902346743
 20
2.7509737871
 30
0.0
 10
6.5881778733
 20
2.755592872
 30
0.0
 10
6.5856076678
 20
2.7617649445
 30
0.0
 10
6.5826577163
 20
2.7696528636
 30
0.0
 10
6.5798901474
 20
2.7781183153
 30
0.0
 10
6.5774140874
 20
2.7871105744
 30
0.0
 10
6.5753384993
 20
2.7965656165
 30
0.0
 10
6.573766049
 20
2.8063995573
 30
0.0
 10
6.5727831315
 20
2.8165049909
 30
0.0
 10
6.5724486142
 20
2.8267527951
 30
0.0
 10
6.5727831315
 20
2.8370005993
 30
0.0
 10
6.573766049
 20
2.8471060328
 30
0.0
 10
6.5753384994
 20
2.8569399737
 30
0.0
 10
6.5774140875
 20
2.8663950158
 30
0.0
 10
6.5798901475
 20
2.8753872749
 30
0.0
 10
6.5826577163
 20
2.8838527266
 30
0.0
 10
6.5856076678
 20
2.8917406457
 30
0.0
 10
6.5881778733
 20
2.8979127181
 30
0.0
 10
6.5902346744
 20
2.902531803
 30
0.0
 10
6.5917275684
 20
2.9057557608
 30
0.0
 10
6.5931890882
 20
2.9088024785
 30
0.0
 10
6.59460691
 20
2.9116657167
 30
0.0
 10
6.5959689025
 20
2.914338834
 30
0.0
 10
6.5972631161
 20
2.9168148354
 30
0.0
 10
6.5984777991
 20
2.9190864525
 30
0.0
 10
6.5996015703
 20
2.9211461945
 30
0.0
 10
6.600478556
 20
2.9227255017
 30
0.0
 10
6.6011259103
 20
2.9238776571
 30
0.0
 10
6.6015667471
 20
2.9246567343
 30
0.0
 10
6.6019770955
 20
2.9253772436
 30
0.0
 10
6.6023558124
 20
2.9260383449
 30
0.0
 10
6.60270188
 20
2.9266392006
 30
0.0
 10
6.6030143059
 20
2.9271790507
 30
0.0
 10
6.6032921774
 20
2.9276571955
 30
0.0
 10
6.6035018986
 20
2.9280167041
 30
0.0
 10
6.6036517769
 20
2.9282729928
 30
0.0
 10
6.6037505032
 20
2.928441582
 30
0.0
 10
6.6038400524
 20
2.9285943002
 30
0.0
 10
6.603920364
 20
2.9287310968
 30
0.0
 10
6.6039913786
 20
2.9288519229
 30
0.0
 10
6.6040530375
 20
2.9289567295
 30
0.0
 10
6.6040985489
 20
2.9290340349
 30
0.0
 10
6.6041302373
 20
2.9290878396
 30
0.0
 10
6.6041504532
 20
2.9291221552
 30
0.0
 10
6.6041682999
 20
2.9291524417
 30
0.0
 10
6.6041837756
 20
2.9291786958
 30
0.0
 10
6.604196876
 20
2.9292009189
 30
0.0
 10
6.604207604
 20
2.9292190991
 30
0.0
 10
6.6042150485
 20
2.9292317423
 30
0.0
 10
6.6042198301
 20
2.9292398095
 30
0.0
 10
6.6042224928
 20
2.9292443973
 30
0.0
 10
6.6042246385
 20
2.9292478361
 30
0.0
 10
6.6042260023
 20
2.9292505899
 30
0.0
 10
6.6042271239
 20
2.9292517107
 30
0.0
 10
6.6042272886
 20
2.929252795
 30
0.0
 10
6.6042274845
 20
2.929252795
 30
0.0
  0
SPLINE
  5
5B4
100
AcDbEntity
  8
0
100
AcDbSpline
 62
7
  6
CONTINUOUS
 70
0
 71
3
 72
63
 73
59
 74
0
 42
0.0000001
 43
0.0000001
 44
0.0000000001
 40
0.0
 40
0.0
 40
0.0
 40
0.0
 40
0.0109547314
 40
0.0426099657
 40
0.0920249521
 40
0.1558257297
 40
0.2310272832
 40
0.2721227017
 40
0.3151551109
 40
0.3598210365
 40
0.4057821568
 40
0.4526504172
 40
0.4999882526
 40
0.5473260881
 40
0.5941943487
 40
0.6401554688
 40
0.6848213943
 40
0.7278538035
 40
0.7689492222
 40
0.8078179425
 40
0.844163476
 40
0.8612917766
 40
0.8776666425
 40
0.8932425376
 40
0.9079716634
 40
0.9218037786
 40
0.9346867021
 40
0.9465667535
 40
0.9573893843
 40
0.9671002593
 40
0.9715220384
 40
0.9756461654
 40
0.979466374
 40
0.9829766082
 40
0.9861713694
 40
0.9890452441
 40
0.9915932527
 40
0.9938111379
 40
0.9947949736
 40
0.9956947403
 40
0.9965100769
 40
0.9972406515
 40
0.997886132
 40
0.9984461863
 40
0.9989204866
 40
0.9991254028
 40
0.9993088091
 40
0.9994706914
 40
0.9996110354
 40
0.9997298269
 40
0.9998270518
 40
0.9999026957
 40
0.9999324204
 40
0.9999567446
 40
0.9999756664
 40
0.9999891841
 40
0.9999972959
 40
1.0
 40
1.0
 40
1.0
 40
1.0
 10
6.0467274845
 20
2.929252795
 30
0.0
 10
6.0471303865
 20
2.9285697938
 30
0.0
 10
6.0486878767
 20
2.925907446
 30
0.0
 10
6.0519682194
 20
2.9201090657
 30
0.0
 10
6.0568628421
 20
2.9108317321
 30
0.0
 10
6.062676778
 20
2.8984870975
 30
0.0
 10
6.0674798621
 20
2.8863530588
 30
0.0
 10
6.0710647919
 20
2.8753873455
 30
0.0
 10
6.0735408899
 20
2.8663949957
 30
0.0
 10
6.0756164672
 20
2.8569399793
 30
0.0
 10
6.0771889206
 20
2.8471060313
 30
0.0
 10
6.0781718373
 20
2.8370005997
 30
0.0
 10
6.0785063548
 20
2.826752795
 30
0.0
 10
6.0781718375
 20
2.8165049909
 30
0.0
 10
6.0771889199
 20
2.8063995573
 30
0.0
 10
6.0756164696
 20
2.7965656165
 30
0.0
 10
6.0735408815
 20
2.7871105744
 30
0.0
 10
6.0710648215
 20
2.7781183153
 30
0.0
 10
6.0682972526
 20
2.7696528636
 30
0.0
 10
6.0653473012
 20
2.7617649445
 30
0.0
 10
6.0627770957
 20
2.7555928721
 30
0.0
 10
6.0607202946
 20
2.7509737871
 30
0.0
 10
6.0592274005
 20
2.7477498293
 30
0.0
 10
6.0577658808
 20
2.7447031116
 30
0.0
 10
6.056348059
 20
2.7418398734
 30
0.0
 10
6.0549860665
 20
2.7391667562
 30
0.0
 10
6.0536918529
 20
2.7366907547
 30
0.0
 10
6.0524771699
 20
2.7344191377
 30
0.0
 10
6.0513533987
 20
2.7323593956
 30
0.0
 10
6.0504764129
 20
2.7307800884
 30
0.0
 10
6.0498290586
 20
2.729627933
 30
0.0
 10
6.0493882219
 20
2.7288488558
 30
0.0
 10
6.0489778734
 20
2.7281283465
 30
0.0
 10
6.0485991566
 20
2.7274672452
 30
0.0
 10
6.048253089
 20
2.7268663895
 30
0.0
 10
6.047940663
 20
2.7263265394
 30
0.0
 10
6.0476627914
 20
2.7258483946
 30
0.0
 10
6.0474530702
 20
2.725488886
 30
0.0
 10
6.0473031921
 20
2.7252325973
 30
0.0
 10
6.047204466
 20
2.7250640081
 30
0.0
 10
6.0471149171
 20
2.7249112899
 30
0.0
 10
6.0470346056
 20
2.7247744932
 30
0.0
 10
6.0469635911
 20
2.7246536671
 30
0.0
 10
6.0469019318
 20
2.7245488604
 30
0.0
 10
6.0468564198
 20
2.7244715551
 30
0.0
 10
6.0468247307
 20
2.7244177504
 30
0.0
 10
6.0468045145
 20
2.7243834349
 30
0.0
 10
6.0467866668
 20
2.7243531484
 30
0.0
 10
6.0467711922
 20
2.7243268943
 30
0.0
 10
6.0467580871
 20
2.7243046712
 30
0.0
 10
6.0467473713
 20
2.724286491
 30
0.0
 10
6.0467398988
 20
2.7242738478
 30
0.0
 10
6.0467351603
 20
2.7242657806
 30
0.0
 10
6.046732408
 20
2.7242611928
 30
0.0
 10
6.0467304946
 20
2.724257754
 30
0.0
 10
6.0467286066
 20
2.7242550003
 30
0.0
 10
6.0467284056
 20
2.7242538795
 30
0.0
 10
6.0467272887
 20
2.7242527952
 30
0.0
 10
6.0467274845
 20
2.724252795
 30
0.0
  0
LINE
  5
5B5
100
AcDbEntity
  8
0
100
AcDbLine
 62
7
  6
CONTINUOUS
 10
6.2349774845
 20
3.0717961338
 11
6.1622888217
 21
3.0593272964
  0
LINE
  5
5B6
100
AcDbEntity
  8
0
100
AcDbLine
 62
7
  6
CONTINUOUS
 10
6.3228593133
 20
3.0771698988
 11
6.3071439941
 21
3.0762219571
  0
LINE
  5
5B7
100
AcDbEntity
  8
0
100
AcDbLine
 62
7
  6
CONTINUOUS
 10
6.3071439941
 20
3.0762219571
 11
6.3060940362
 21
3.0761651723
  0
LINE
  5
5B8
100
AcDbEntity
  8
0
100
AcDbLine
 62
7
  6
CONTINUOUS
 10
6.3060940362
 20
3.0761651723
 11
6.3050041844
 21
3.0761064788
  0
LINE
  5
5B9
100
AcDbEntity
  8
0
100
AcDbLine
 62
7
  6
CONTINUOUS
 10
6.2641280568
 20
3.0739460699
 11
6.2630581058
 21
3.0738906675
  0
LINE
  5
5BA
100
AcDbEntity
  8
0
100
AcDbLine
 62
7
  6
CONTINUOUS
 10
6.2630581058
 20
3.0738906675
 11
6.2466621438
 21
3.0731505471
  0
SPLINE
  5
5BB
100
AcDbEntity
  8
0
100
AcDbSpline
 62
7
  6
CONTINUOUS
 70
0
 71
3
 72
63
 73
59
 74
0
 42
0.0000001
 43
0.0000001
 44
0.0000000001
 40
0.0
 40
0.0
 40
0.0
 40
0.0
 40
0.0109547314
 40
0.0426099657
 40
0.0920249521
 40
0.1558257297
 40
0.2310272832
 40
0.2721227017
 40
0.3151551109
 40
0.3598210365
 40
0.4057821568
 40
0.4526504172
 40
0.4999882526
 40
0.5473260881
 40
0.5941943487
 40
0.6401554688
 40
0.6848213943
 40
0.7278538035
 40
0.7689492222
 40
0.8078179425
 40
0.844163476
 40
0.8612917766
 40
0.8776666425
 40
0.8932425376
 40
0.9079716634
 40
0.9218037786
 40
0.9346867021
 40
0.9465667535
 40
0.9573893843
 40
0.9671002593
 40
0.9715220384
 40
0.9756461654
 40
0.979466374
 40
0.9829766082
 40
0.9861713694
 40
0.9890452441
 40
0.9915932527
 40
0.9938111379
 40
0.9947949736
 40
0.9956947403
 40
0.9965100769
 40
0.9972406515
 40
0.997886132
 40
0.9984461863
 40
0.9989204866
 40
0.9991254028
 40
0.9993088091
 40
0.9994706914
 40
0.9996110354
 40
0.9997298269
 40
0.9998270518
 40
0.9999026957
 40
0.9999324204
 40
0.9999567446
 40
0.9999756664
 40
0.9999891841
 40
0.9999972959
 40
1.0
 40
1.0
 40
1.0
 40
1.0
 10
2.0467274845
 20
2.924252795
 30
0.0
 10
2.0471303865
 20
2.9235697938
 30
0.0
 10
2.0486878767
 20
2.920907446
 30
0.0
 10
2.0519682194
 20
2.9151090657
 30
0.0
 10
2.0568628421
 20
2.9058317321
 30
0.0
 10
2.062676778
 20
2.8934870975
 30
0.0
 10
2.0674798621
 20
2.8813530588
 30
0.0
 10
2.0710647919
 20
2.8703873455
 30
0.0
 10
2.0735408899
 20
2.8613949957
 30
0.0
 10
2.0756164672
 20
2.8519399793
 30
0.0
 10
2.0771889206
 20
2.8421060313
 30
0.0
 10
2.0781718373
 20
2.8320005997
 30
0.0
 10
2.0785063548
 20
2.821752795
 30
0.0
 10
2.0781718375
 20
2.8115049909
 30
0.0
 10
2.0771889199
 20
2.8013995573
 30
0.0
 10
2.0756164696
 20
2.7915656165
 30
0.0
 10
2.0735408815
 20
2.7821105744
 30
0.0
 10
2.0710648215
 20
2.7731183153
 30
0.0
 10
2.0682972526
 20
2.7646528636
 30
0.0
 10
2.0653473012
 20
2.7567649445
 30
0.0
 10
2.0627770957
 20
2.7505928721
 30
0.0
 10
2.0607202946
 20
2.7459737871
 30
0.0
 10
2.0592274005
 20
2.7427498293
 30
0.0
 10
2.0577658808
 20
2.7397031116
 30
0.0
 10
2.056348059
 20
2.7368398734
 30
0.0
 10
2.0549860665
 20
2.7341667562
 30
0.0
 10
2.0536918529
 20
2.7316907547
 30
0.0
 10
2.0524771699
 20
2.7294191377
 30
0.0
 10
2.0513533987
 20
2.7273593956
 30
0.0
 10
2.0504764129
 20
2.7257800884
 30
0.0
 10
2.0498290586
 20
2.724627933
 30
0.0
 10
2.0493882219
 20
2.7238488558
 30
0.0
 10
2.0489778734
 20
2.7231283465
 30
0.0
 10
2.0485991566
 20
2.7224672452
 30
0.0
 10
2.048253089
 20
2.7218663895
 30
0.0
 10
2.047940663
 20
2.7213265394
 30
0.0
 10
2.0476627914
 20
2.7208483946
 30
0.0
 10
2.0474530702
 20
2.720488886
 30
0.0
 10
2.0473031921
 20
2.7202325973
 30
0.0
 10
2.047204466
 20
2.7200640081
 30
0.0
 10
2.0471149171
 20
2.7199112899
 30
0.0
 10
2.0470346056
 20
2.7197744932
 30
0.0
 10
2.0469635911
 20
2.7196536671
 30
0.0
 10
2.0469019318
 20
2.7195488604
 30
0.0
 10
2.0468564198
 20
2.7194715551
 30
0.0
 10
2.0468247307
 20
2.7194177504
 30
0.0
 10
2.0468045145
 20
2.7193834349
 30
0.0
 10
2.0467866668
 20
2.7193531484
 30
0.0
 10
2.0467711922
 20
2.7193268943
 30
0.0
 10
2.0467580871
 20
2.7193046712
 30
0.0
 10
2.0467473713
 20
2.719286491
 30
0.0
 10
2.0467398988
 20
2.7192738478
 30
0.0
 10
2.0467351603
 20
2.7192657806
 30
0.0
 10
2.046732408
 20
2.7192611928
 30
0.0
 10
2.0467304946
 20
2.719257754
 30
0.0
 10
2.0467286066
 20
2.7192550003
 30
0.0
 10
2.0467284056
 20
2.7192538795
 30
0.0
 10
2.0467272887
 20
2.7192527952
 30
0.0
 10
2.0467274845
 20
2.719252795
 30
0.0
  0
SPLINE
  5
5BC
100
AcDbEntity
  8
0
100
AcDbSpline
 62
7
  6
CONTINUOUS
 70
0
 71
3
 72
97
 73
93
 74
0
 42
0.0000001
 43
0.0000001
 44
0.0000000001
 40
0.0
 40
0.0
 40
0.0
 40
0.0
 40
0.0000027055
 40
0.0000108183
 40
0.0000243367
 40
0.0000432588
 40
0.000067583
 40
0.0000973074
 40
0.00017295
 40
0.0002701724
 40
0.0003889606
 40
0.0005293005
 40
0.0006911779
 40
0.0008745788
 40
0.001079489
 40
0.0015537765
 40
0.0021138169
 40
0.0027592822
 40
0.0034898399
 40
0.004305158
 40
0.0052049041
 40
0.006188717
 40
0.0084065501
 40
0.0109544986
 40
0.0138283056
 40
0.0170229917
 40
0.0205331435
 40
0.0243532625
 40
0.0284772925
 40
0.0328989677
 40
0.0426096146
 40
0.0534319911
 40
0.0653117633
 40
0.0781943842
 40
0.0920261745
 40
0.1067549542
 40
0.1223304834
 40
0.1387049646
 40
0.1558328628
 40
0.1921775423
 40
0.2310453495
 40
0.2721398027
 40
0.3151712009
 40
0.3598360771
 40
0.4057961174
 40
0.4526632768
 40
0.5000000002
 40
0.5473367235
 40
0.5942038829
 40
0.6401639234
 40
0.6848287996
 40
0.7278601978
 40
0.7689546509
 40
0.8078224581
 40
0.8441671375
 40
0.8612950357
 40
0.8776695169
 40
0.8932450461
 40
0.9079738258
 40
0.921805616
 40
0.9346882369
 40
0.9465680091
 40
0.9573903856
 40
0.9671010325
 40
0.9715227077
 40
0.9756467377
 40
0.9794668566
 40
0.9829770084
 40
0.9861716945
 40
0.9890455015
 40
0.9915934499
 40
0.9938112831
 40
0.994795096
 40
0.9956948421
 40
0.9965101602
 40
0.997240718
 40
0.9978861833
 40
0.9984462236
 40
0.9989205109
 40
0.9991254211
 40
0.9993088219
 40
0.9994706993
 40
0.9996110391
 40
0.9997298272
 40
0.9998270497
 40
0.9999026922
 40
0.9999324167
 40
0.9999567409
 40
0.9999756631
 40
0.9999891815
 40
0.9999972944
 40
1.0
 40
1.0
 40
1.0
 40
1.0
 10
2.6042274845
 20
2.719252795
 30
0.0
 10
2.6042272886
 20
2.719252795
 30
0.0
 10
2.604227124
 20
2.7192538794
 30
0.0
 10
2.6042260024
 20
2.7192550002
 30
0.0
 10
2.6042246386
 20
2.719257754
 30
0.0
 10
2.6042224929
 20
2.7192611928
 30
0.0
 10
2.6042198302
 20
2.7192657806
 30
0.0
 10
2.6042150487
 20
2.7192738477
 30
0.0
 10
2.6042076041
 20
2.719286491
 30
0.0
 10
2.6041968761
 20
2.7193046712
 30
0.0
 10
2.6041837758
 20
2.7193268943
 30
0.0
 10
2.6041683
 20
2.7193531484
 30
0.0
 10
2.6041504533
 20
2.7193834349
 30
0.0
 10
2.6041302374
 20
2.7194177505
 30
0.0
 10
2.604098549
 20
2.7194715552
 30
0.0
 10
2.6040530375
 20
2.7195488605
 30
0.0
 10
2.6039913785
 20
2.7196536672
 30
0.0
 10
2.603920364
 20
2.7197744933
 30
0.0
 10
2.6038400524
 20
2.7199112899
 30
0.0
 10
2.6037505032
 20
2.7200640081
 30
0.0
 10
2.6036517769
 20
2.7202325973
 30
0.0
 10
2.6035018986
 20
2.720488886
 30
0.0
 10
2.6032921774
 20
2.7208483946
 30
0.0
 10
2.6030143059
 20
2.7213265394
 30
0.0
 10
2.60270188
 20
2.7218663895
 30
0.0
 10
2.6023558124
 20
2.7224672451
 30
0.0
 10
2.6019770955
 20
2.7231283465
 30
0.0
 10
2.6015667471
 20
2.7238488558
 30
0.0
 10
2.6011259103
 20
2.724627933
 30
0.0
 10
2.600478556
 20
2.7257800884
 30
0.0
 10
2.5996015702
 20
2.7273593956
 30
0.0
 10
2.5984777991
 20
2.7294191377
 30
0.0
 10
2.5972631161
 20
2.7316907547
 30
0.0
 10
2.5959689025
 20
2.7341667561
 30
0.0
 10
2.59460691
 20
2.7368398734
 30
0.0
 10
2.5931890882
 20
2.7397031116
 30
0.0
 10
2.5917275684
 20
2.7427498293
 30
0.0
 10
2.5902346743
 20
2.7459737871
 30
0.0
 10
2.5881778733
 20
2.750592872
 30
0.0
 10
2.5856076678
 20
2.7567649445
 30
0.0
 10
2.5826577163
 20
2.7646528636
 30
0.0
 10
2.5798901474
 20
2.7731183153
 30
0.0
 10
2.5774140874
 20
2.7821105744
 30
0.0
 10
2.5753384993
 20
2.7915656165
 30
0.0
 10
2.573766049
 20
2.8013995573
 30
0.0
 10
2.5727831315
 20
2.8115049909
 30
0.0
 10
2.5724486142
 20
2.8217527951
 30
0.0
 10
2.5727831315
 20
2.8320005993
 30
0.0
 10
2.573766049
 20
2.8421060328
 30
0.0
 10
2.5753384994
 20
2.8519399737
 30
0.0
 10
2.5774140875
 20
2.8613950158
 30
0.0
 10
2.5798901475
 20
2.8703872749
 30
0.0
 10
2.5826577163
 20
2.8788527266
 30
0.0
 10
2.5856076678
 20
2.8867406457
 30
0.0
 10
2.5881778733
 20
2.8929127181
 30
0.0
 10
2.5902346744
 20
2.897531803
 30
0.0
 10
2.5917275684
 20
2.9007557608
 30
0.0
 10
2.5931890882
 20
2.9038024785
 30
0.0
 10
2.59460691
 20
2.9066657167
 30
0.0
 10
2.5959689025
 20
2.909338834
 30
0.0
 10
2.5972631161
 20
2.9118148354
 30
0.0
 10
2.5984777991
 20
2.9140864525
 30
0.0
 10
2.5996015703
 20
2.9161461945
 30
0.0
 10
2.600478556
 20
2.9177255017
 30
0.0
 10
2.6011259103
 20
2.9188776571
 30
0.0
 10
2.6015667471
 20
2.9196567343
 30
0.0
 10
2.6019770955
 20
2.9203772436
 30
0.0
 10
2.6023558124
 20
2.9210383449
 30
0.0
 10
2.60270188
 20
2.9216392006
 30
0.0
 10
2.6030143059
 20
2.9221790507
 30
0.0
 10
2.6032921774
 20
2.9226571955
 30
0.0
 10
2.6035018986
 20
2.9230167041
 30
0.0
 10
2.6036517769
 20
2.9232729928
 30
0.0
 10
2.6037505032
 20
2.923441582
 30
0.0
 10
2.6038400524
 20
2.9235943002
 30
0.0
 10
2.603920364
 20
2.9237310968
 30
0.0
 10
2.6039913786
 20
2.9238519229
 30
0.0
 10
2.6040530375
 20
2.9239567295
 30
0.0
 10
2.6040985489
 20
2.9240340349
 30
0.0
 10
2.6041302373
 20
2.9240878396
 30
0.0
 10
2.6041504532
 20
2.9241221552
 30
0.0
 10
2.6041682999
 20
2.9241524417
 30
0.0
 10
2.6041837756
 20
2.9241786958
 30
0.0
 10
2.604196876
 20
2.9242009189
 30
0.0
 10
2.604207604
 20
2.9242190991
 30
0.0
 10
2.6042150485
 20
2.9242317423
 30
0.0
 10
2.6042198301
 20
2.9242398095
 30
0.0
 10
2.6042224928
 20
2.9242443973
 30
0.0
 10
2.6042246385
 20
2.9242478361
 30
0.0
 10
2.6042260023
 20
2.9242505899
 30
0.0
 10
2.6042271239
 20
2.9242517107
 30
0.0
 10
2.6042272886
 20
2.924252795
 30
0.0
 10
2.6042274845
 20
2.924252795
 30
0.0
  0
SPLINE
  5
5BD
100
AcDbEntity
  8
0
100
AcDbSpline
 62
7
  6
CONTINUOUS
 70
0
 71
3
 72
39
 73
35
 74
0
 42
0.0000001
 43
0.0000001
 44
0.0000000001
 40
0.0
 40
0.0
 40
0.0
 40
0.0
 40
0.0003483829
 40
0.0006659435
 40
0.0014004499
 40
0.0018971107
 40
0.0025007552
 40
0.004057303
 40
0.0061050466
 40
0.0086576507
 40
0.0117219029
 40
0.0153012899
 40
0.0193977257
 40
0.0240122928
 40
0.0291455773
 40
0.0347978505
 40
0.0476583085
 40
0.0625885246
 40
0.0795812582
 40
0.0986279015
 40
0.1197178818
 40
0.1428401469
 40
0.1679816083
 40
0.1951254292
 40
0.2242542379
 40
0.255349649
 40
0.3233606433
 40
0.3989876853
 40
0.4820335434
 40
0.5722744236
 40
0.6694667225
 40
0.7733497825
 40
0.8836382511
 40
1.0
 40
1.0
 40
1.0
 40
1.0
 10
2.965330226
 20
1.8294668206
 30
0.0
 10
2.9653257812
 20
1.8294735029
 30
0.0
 10
2.965318821
 20
1.8294875861
 30
0.0
 10
2.9653173813
 20
1.8295208905
 30
0.0
 10
2.965339805
 20
1.8295523906
 30
0.0
 10
2.9653725405
 20
1.8295786201
 30
0.0
 10
2.9654250959
 20
1.8296105771
 30
0.0
 10
2.9655145998
 20
1.8296484662
 30
0.0
 10
2.9656498134
 20
1.8296916226
 30
0.0
 10
2.9658210532
 20
1.8297349884
 30
0.0
 10
2.9660283981
 20
1.829778623
 30
0.0
 10
2.9662719438
 20
1.8298223658
 30
0.0
 10
2.9665516809
 20
1.8298661709
 30
0.0
 10
2.9668675965
 20
1.8299099753
 30
0.0
 10
2.9672196623
 20
1.8299537414
 30
0.0
 10
2.967760981
 20
1.8300146375
 30
0.0
 10
2.9685278086
 20
1.8300892793
 30
0.0
 10
2.9695559167
 20
1.8301750276
 30
0.0
 10
2.9707270118
 20
1.8302601332
 30
0.0
 10
2.9720403885
 20
1.8303444029
 30
0.0
 10
2.9734952995
 20
1.8304274392
 30
0.0
 10
2.9750909031
 20
1.8305088749
 30
0.0
 10
2.9768262202
 20
1.8305884025
 30
0.0
 10
2.9787001256
 20
1.8306659059
 30
0.0
 10
2.9807113801
 20
1.8307412512
 30
0.0
 10
2.9836637812
 20
1.8308415852
 30
0.0
 10
2.9876873679
 20
1.8309585752
 30
0.0
 10
2.9929079525
 20
1.8310819627
 30
0.0
 10
2.9986410767
 20
1.8311899573
 30
0.0
 10
3.0048713319
 20
1.8312814453
 30
0.0
 10
3.0115818751
 20
1.8313548902
 30
0.0
 10
3.0187544581
 20
1.8314068741
 30
0.0
 10
3.0263687568
 20
1.8314387168
 30
0.0
 10
3.0315900048
 20
1.8314461749
 30
0.0
 10
3.0342705813
 20
1.8314463208
 30
0.0
  0
SPLINE
  5
5BE
100
AcDbEntity
  8
0
100
AcDbSpline
 62
7
  6
CONTINUOUS
 70
0
 71
3
 72
20
 73
16
 74
0
 42
0.0000001
 43
0.0000001
 44
0.0000000001
 40
0.0
 40
0.0
 40
0.0
 40
0.0
 40
0.0368220976
 40
0.076864728
 40
0.1202534112
 40
0.1670762213
 40
0.2173892773
 40
0.2712243236
 40
0.3285955656
 40
0.3894992811
 40
0.4539208603
 40
0.521832756
 40
0.6679621122
 40
0.8275229637
 40
1.0
 40
1.0
 40
1.0
 40
1.0
 10
2.6919164038
 20
1.3230736342
 30
0.0
 10
2.6923633465
 20
1.3233270848
 30
0.0
 10
2.6933194066
 20
1.3238159707
 30
0.0
 10
2.6948640033
 20
1.324474256
 30
0.0
 10
2.6965761097
 20
1.3250870212
 30
0.0
 10
2.6984540479
 20
1.3256536019
 30
0.0
 10
2.7004960827
 20
1.3261735249
 30
0.0
 10
2.7027002173
 20
1.3266462857
 30
0.0
 10
2.7050642738
 20
1.3270713345
 30
0.0
 10
2.7075858742
 20
1.3274482797
 30
0.0
 10
2.7102624589
 20
1.3277766847
 30
0.0
 10
2.7141295244
 20
1.3281586578
 30
0.0
 10
2.7193328232
 20
1.3285020352
 30
0.0
 10
2.7260028868
 20
1.3287077661
 30
0.0
 10
2.7306367482
 20
1.3287124973
 30
0.0
 10
2.7330432839
 20
1.3286850307
 30
0.0
  0
SPLINE
  5
5BF
100
AcDbEntity
  8
0
100
AcDbSpline
 62
7
  6
CONTINUOUS
 70
0
 71
3
 72
32
 73
28
 74
0
 42
0.0000001
 43
0.0000001
 44
0.0000000001
 40
0.0
 40
0.0
 40
0.0
 40
0.0
 40
0.0012168618
 40
0.0025922904
 40
0.0042714658
 40
0.006336502
 40
0.00883168
 40
0.0117817348
 40
0.0152013582
 40
0.0190997995
 40
0.028354618
 40
0.0395766699
 40
0.0527781593
 40
0.067963791
 40
0.0851342683
 40
0.1042862069
 40
0.1254142547
 40
0.1485119863
 40
0.2005781959
 40
0.2603985896
 40
0.327864693
 40
0.4028466309
 40
0.4851900218
 40
0.5747153216
 40
0.6712133915
 40
0.7744439199
 40
1.0
 40
1.0
 40
1.0
 40
1.0
 10
2.9754520756
 20
1.7886125024
 30
0.0
 10
2.9754494174
 20
1.7885862779
 30
0.0
 10
2.9754564234
 20
1.7885286012
 30
0.0
 10
2.9755028951
 20
1.788446758
 30
0.0
 10
2.9755811915
 20
1.7883671489
 30
0.0
 10
2.9756912265
 20
1.7882879479
 30
0.0
 10
2.9758334642
 20
1.7882085013
 30
0.0
 10
2.9760082612
 20
1.7881286454
 30
0.0
 10
2.9762157949
 20
1.7880483664
 30
0.0
 10
2.9765562545
 20
1.7879342191
 30
0.0
 10
2.9770656995
 20
1.78779415
 30
0.0
 10
2.9777772747
 20
1.7876327302
 30
0.0
 10
2.9786199186
 20
1.787470511
 30
0.0
 10
2.9795933431
 20
1.7873079018
 30
0.0
 10
2.9806972379
 20
1.7871453868
 30
0.0
 10
2.9819311719
 20
1.7869835686
 30
0.0
 10
2.9832946402
 20
1.7868230525
 30
0.0
 10
2.985368824
 20
1.7866027029
 30
0.0
 10
2.9882809048
 20
1.7863377023
 30
0.0
 10
2.9921548852
 20
1.7860434597
 30
0.0
 10
2.9965277198
 20
1.785767633
 30
0.0
 10
3.0013905717
 20
1.7855155089
 30
0.0
 10
3.0067330811
 20
1.7852913772
 30
0.0
 10
3.012543221
 20
1.7851005714
 30
0.0
 10
3.0188070666
 20
1.7849475729
 30
0.0
 10
3.0280181126
 20
1.7847938823
 30
0.0
 10
3.0351402553
 20
1.7847533277
 30
0.0
 10
3.0400261148
 20
1.7847532927
 30
0.0
  0
SPLINE
  5
5C0
100
AcDbEntity
  8
0
100
AcDbSpline
 62
7
  6
CONTINUOUS
 70
0
 71
3
 72
31
 73
27
 74
0
 42
0.0000001
 43
0.0000001
 44
0.0000000001
 40
0.0
 40
0.0
 40
0.0
 40
0.0
 40
0.0639436864
 40
0.1274672952
 40
0.1905407254
 40
0.253156656
 40
0.284302781
 40
0.3153439356
 40
0.3462873888
 40
0.3771439624
 40
0.407926568
 40
0.4386512518
 40
0.4693358201
 40
0.5000000001
 40
0.5306641802
 40
0.5613487484
 40
0.5920734323
 40
0.6228560378
 40
0.6537126114
 40
0.6846560645
 40
0.7156972191
 40
0.746843344
 40
0.8094592746
 40
0.8725327049
 40
0.9360563136
 40
1.0
 40
1.0
 40
1.0
 40
1.0
 10
5.4249493477
 20
1.9502095098
 30
0.0
 10
5.4211936279
 20
1.9474823862
 30
0.0
 10
5.4135794054
 20
1.9422182979
 30
0.0
 10
5.4017925252
 20
1.9349685631
 30
0.0
 10
5.389665877
 20
1.9285006425
 30
0.0
 10
5.379258816
 20
1.9238573982
 30
0.0
 10
5.3707779892
 20
1.9206667286
 30
0.0
 10
5.3643541792
 20
1.9185545749
 30
0.0
 10
5.3578631896
 20
1.9167347951
 30
0.0
 10
5.3513126868
 20
1.9152229438
 30
0.0
 10
5.3447123605
 20
1.9140314791
 30
0.0
 10
5.3380730424
 20
1.9131724312
 30
0.0
 10
5.3314070717
 20
1.9126530549
 30
0.0
 10
5.3247274844
 20
1.9124797708
 30
0.0
 10
5.3180478972
 20
1.9126530549
 30
0.0
 10
5.3113819265
 20
1.9131724312
 30
0.0
 10
5.3047426084
 20
1.9140314791
 30
0.0
 10
5.2981422821
 20
1.9152229438
 30
0.0
 10
5.2915917793
 20
1.9167347951
 30
0.0
 10
5.2851007897
 20
1.9185545749
 30
0.0
 10
5.2786769797
 20
1.9206667286
 30
0.0
 10
5.270196153
 20
1.9238573982
 30
0.0
 10
5.259789092
 20
1.9285006425
 30
0.0
 10
5.2476624437
 20
1.9349685631
 30
0.0
 10
5.2358755635
 20
1.9422182979
 30
0.0
 10
5.228261341
 20
1.9474823862
 30
0.0
 10
5.2245056212
 20
1.9502095098
 30
0.0
  0
SPLINE
  5
5C1
100
AcDbEntity
  8
0
100
AcDbSpline
 62
7
  6
CONTINUOUS
 70
0
 71
3
 72
31
 73
27
 74
0
 42
0.0000001
 43
0.0000001
 44
0.0000000001
 40
0.0
 40
0.0
 40
0.0
 40
0.0
 40
0.0639436864
 40
0.1274672952
 40
0.1905407254
 40
0.253156656
 40
0.284302781
 40
0.3153439356
 40
0.3462873888
 40
0.3771439624
 40
0.407926568
 40
0.4386512518
 40
0.4693358201
 40
0.5000000001
 40
0.5306641802
 40
0.5613487484
 40
0.5920734323
 40
0.6228560378
 40
0.6537126114
 40
0.6846560645
 40
0.7156972191
 40
0.746843344
 40
0.8094592746
 40
0.8725327049
 40
0.9360563136
 40
1.0
 40
1.0
 40
1.0
 40
1.0
 10
5.4249493477
 20
2.1232960803
 30
0.0
 10
5.4211936279
 20
2.1260232039
 30
0.0
 10
5.4135794054
 20
2.1312872922
 30
0.0
 10
5.4017925252
 20
2.1385370269
 30
0.0
 10
5.389665877
 20
2.1450049475
 30
0.0
 10
5.379258816
 20
2.1496481918
 30
0.0
 10
5.3707779892
 20
2.1528388614
 30
0.0
 10
5.3643541792
 20
2.1549510152
 30
0.0
 10
5.3578631896
 20
2.156770795
 30
0.0
 10
5.3513126868
 20
2.1582826463
 30
0.0
 10
5.3447123605
 20
2.159474111
 30
0.0
 10
5.3380730424
 20
2.1603331588
 30
0.0
 10
5.3314070717
 20
2.1608525351
 30
0.0
 10
5.3247274844
 20
2.1610258193
 30
0.0
 10
5.3180478972
 20
2.1608525351
 30
0.0
 10
5.3113819265
 20
2.1603331588
 30
0.0
 10
5.3047426084
 20
2.159474111
 30
0.0
 10
5.2981422821
 20
2.1582826463
 30
0.0
 10
5.2915917793
 20
2.156770795
 30
0.0
 10
5.2851007897
 20
2.1549510152
 30
0.0
 10
5.2786769797
 20
2.1528388614
 30
0.0
 10
5.270196153
 20
2.1496481918
 30
0.0
 10
5.259789092
 20
2.1450049475
 30
0.0
 10
5.2476624437
 20
2.1385370269
 30
0.0
 10
5.2358755635
 20
2.1312872922
 30
0.0
 10
5.228261341
 20
2.1260232039
 30
0.0
 10
5.2245056212
 20
2.1232960803
 30
0.0
  0
SPLINE
  5
5C2
100
AcDbEntity
  8
0
100
AcDbSpline
 62
7
  6
CONTINUOUS
 70
0
 71
3
 72
31
 73
27
 74
0
 42
0.0000001
 43
0.0000001
 44
0.0000000001
 40
0.0
 40
0.0
 40
0.0
 40
0.0
 40
0.0639436864
 40
0.1274672952
 40
0.1905407254
 40
0.253156656
 40
0.284302781
 40
0.3153439356
 40
0.3462873888
 40
0.3771439624
 40
0.407926568
 40
0.4386512518
 40
0.4693358201
 40
0.5000000001
 40
0.5306641802
 40
0.5613487484
 40
0.5920734323
 40
0.6228560378
 40
0.6537126114
 40
0.6846560645
 40
0.7156972191
 40
0.746843344
 40
0.8094592746
 40
0.8725327049
 40
0.9360563136
 40
1.0
 40
1.0
 40
1.0
 40
1.0
 10
5.7219493477
 20
1.9502095098
 30
0.0
 10
5.7181936279
 20
1.9474823862
 30
0.0
 10
5.7105794054
 20
1.9422182979
 30
0.0
 10
5.6987925252
 20
1.9349685631
 30
0.0
 10
5.686665877
 20
1.9285006425
 30
0.0
 10
5.676258816
 20
1.9238573982
 30
0.0
 10
5.6677779892
 20
1.9206667286
 30
0.0
 10
5.6613541792
 20
1.9185545749
 30
0.0
 10
5.6548631896
 20
1.9167347951
 30
0.0
 10
5.6483126868
 20
1.9152229438
 30
0.0
 10
5.6417123605
 20
1.9140314791
 30
0.0
 10
5.6350730424
 20
1.9131724312
 30
0.0
 10
5.6284070717
 20
1.9126530549
 30
0.0
 10
5.6217274844
 20
1.9124797708
 30
0.0
 10
5.6150478972
 20
1.9126530549
 30
0.0
 10
5.6083819265
 20
1.9131724312
 30
0.0
 10
5.6017426084
 20
1.9140314791
 30
0.0
 10
5.5951422821
 20
1.9152229438
 30
0.0
 10
5.5885917793
 20
1.9167347951
 30
0.0
 10
5.5821007897
 20
1.9185545749
 30
0.0
 10
5.5756769797
 20
1.9206667286
 30
0.0
 10
5.567196153
 20
1.9238573982
 30
0.0
 10
5.556789092
 20
1.9285006425
 30
0.0
 10
5.5446624437
 20
1.9349685631
 30
0.0
 10
5.5328755635
 20
1.9422182979
 30
0.0
 10
5.525261341
 20
1.9474823862
 30
0.0
 10
5.5215056212
 20
1.9502095098
 30
0.0
  0
SPLINE
  5
5C3
100
AcDbEntity
  8
0
100
AcDbSpline
 62
7
  6
CONTINUOUS
 70
0
 71
3
 72
17
 73
13
 74
0
 42
0.0000001
 43
0.0000001
 44
0.0000000001
 40
0.0
 40
0.0
 40
0.0
 40
0.0
 40
0.0666792474
 40
0.1331954303
 40
0.1993964821
 40
0.2651465787
 40
0.3948217465
 40
0.5216946342
 40
0.6455462853
 40
0.7664156287
 40
0.8844857277
 40
1.0
 40
1.0
 40
1.0
 40
1.0
 10
8.7004774845
 20
2.418502795
 30
0.0
 10
8.6963318229
 20
2.4185028539
 30
0.0
 10
8.6880484533
 20
2.418757325
 30
0.0
 10
8.6756958975
 20
2.4198884485
 30
0.0
 10
8.6634906595
 20
2.4217552233
 30
0.0
 10
8.6475780182
 20
2.4251653696
 30
0.0
 10
8.6283774242
 20
2.4310618323
 30
0.0
 10
8.6066289984
 20
2.4404650296
 30
0.0
 10
8.5864431617
 20
2.4517809887
 30
0.0
 10
8.5678832992
 20
2.4646550319
 30
0.0
 10
8.5509361966
 20
2.4787821359
 30
0.0
 10
8.5405676529
 20
2.4889759962
 30
0.0
 10
8.5356438518
 20
2.4942043553
 30
0.0
  0
SPLINE
  5
5C4
100
AcDbEntity
  8
0
100
AcDbSpline
 62
7
  6
CONTINUOUS
 70
0
 71
3
 72
31
 73
27
 74
0
 42
0.0000001
 43
0.0000001
 44
0.0000000001
 40
0.0
 40
0.0
 40
0.0
 40
0.0
 40
0.0639436864
 40
0.1274672952
 40
0.1905407254
 40
0.253156656
 40
0.284302781
 40
0.3153439356
 40
0.3462873888
 40
0.3771439624
 40
0.407926568
 40
0.4386512518
 40
0.4693358201
 40
0.5000000001
 40
0.5306641802
 40
0.5613487484
 40
0.5920734323
 40
0.6228560378
 40
0.6537126114
 40
0.6846560645
 40
0.7156972191
 40
0.746843344
 40
0.8094592746
 40
0.8725327049
 40
0.9360563136
 40
1.0
 40
1.0
 40
1.0
 40
1.0
 10
5.7219493477
 20
2.1232960803
 30
0.0
 10
5.7181936279
 20
2.1260232039
 30
0.0
 10
5.7105794054
 20
2.1312872922
 30
0.0
 10
5.6987925252
 20
2.1385370269
 30
0.0
 10
5.686665877
 20
2.1450049475
 30
0.0
 10
5.676258816
 20
2.1496481918
 30
0.0
 10
5.6677779892
 20
2.1528388614
 30
0.0
 10
5.6613541792
 20
2.1549510152
 30
0.0
 10
5.6548631896
 20
2.156770795
 30
0.0
 10
5.6483126868
 20
2.1582826463
 30
0.0
 10
5.6417123605
 20
2.159474111
 30
0.0
 10
5.6350730424
 20
2.1603331588
 30
0.0
 10
5.6284070717
 20
2.1608525351
 30
0.0
 10
5.6217274844
 20
2.1610258193
 30
0.0
 10
5.6150478972
 20
2.1608525351
 30
0.0
 10
5.6083819265
 20
2.1603331588
 30
0.0
 10
5.6017426084
 20
2.159474111
 30
0.0
 10
5.5951422821
 20
2.1582826463
 30
0.0
 10
5.5885917793
 20
2.156770795
 30
0.0
 10
5.5821007897
 20
2.1549510152
 30
0.0
 10
5.5756769797
 20
2.1528388614
 30
0.0
 10
5.567196153
 20
2.1496481918
 30
0.0
 10
5.556789092
 20
2.1450049475
 30
0.0
 10
5.5446624437
 20
2.1385370269
 30
0.0
 10
5.5328755635
 20
2.1312872922
 30
0.0
 10
5.525261341
 20
2.1260232039
 30
0.0
 10
5.5215056212
 20
2.1232960803
 30
0.0
  0
LINE
  5
5C5
100
AcDbEntity
  8
0
100
AcDbLine
 62
7
  6
CONTINUOUS
 10
6.485791831
 20
3.060497832
 11
6.4853475948
 21
3.0605722434
  0
LINE
  5
5C6
100
AcDbEntity
  8
0
100
AcDbLine
 62
7
  6
CONTINUOUS
 10
6.4853475948
 20
3.0605722434
 11
6.4833174874
 21
3.0608857233
  0
SPLINE
  5
5C7
100
AcDbEntity
  8
0
100
AcDbSpline
 62
7
  6
CONTINUOUS
 70
0
 71
3
 72
49
 73
45
 74
0
 42
0.0000001
 43
0.0000001
 44
0.0000000001
 40
0.0
 40
0.0
 40
0.0
 40
0.0
 40
0.0132338181
 40
0.0264953063
 40
0.0398074643
 40
0.0531962903
 40
0.0666856359
 40
0.080297504
 40
0.0940524304
 40
0.1079689396
 40
0.122063367
 40
0.1363497368
 40
0.1655318576
 40
0.1955916402
 40
0.2265559402
 40
0.2584160616
 40
0.2911309615
 40
0.3246310967
 40
0.3588225158
 40
0.3935910178
 40
0.4288062911
 40
0.4643260355
 40
0.5
 40
0.5356739645
 40
0.5711937089
 40
0.6064089822
 40
0.6411774842
 40
0.6753689033
 40
0.7088690385
 40
0.7415839384
 40
0.7734440598
 40
0.8044083598
 40
0.8344681424
 40
0.8636502632
 40
0.877936633
 40
0.8920310604
 40
0.9059475696
 40
0.919702496
 40
0.9333143641
 40
0.9468037097
 40
0.9601925357
 40
0.9735046937
 40
0.9867661819
 40
1.0
 40
1.0
 40
1.0
 40
1.0
 10
2.8840217933
 20
1.5962930325
 30
0.0
 10
2.8864474661
 20
1.5962930325
 30
0.0
 10
2.8913054112
 20
1.5961319186
 30
0.0
 10
2.8985709395
 20
1.5954081879
 30
0.0
 10
2.9058014789
 20
1.5942037493
 30
0.0
 10
2.9129787746
 20
1.5925217515
 30
0.0
 10
2.9200857528
 20
1.5903664844
 30
0.0
 10
2.9271050995
 20
1.5877430995
 30
0.0
 10
2.934019861
 20
1.5846581548
 30
0.0
 10
2.9408133494
 20
1.5811193267
 30
0.0
 10
2.9474693305
 20
1.5771349956
 30
0.0
 10
2.9561993781
 20
1.5712011421
 30
0.0
 10
2.9666882191
 20
1.5626914768
 30
0.0
 10
2.9783774638
 20
1.5509582082
 30
0.0
 10
2.9891531877
 20
1.5377427979
 30
0.0
 10
2.9989130892
 20
1.5231738754
 30
0.0
 10
3.0075660435
 20
1.5073913221
 30
0.0
 10
3.0150306687
 20
1.4905464669
 30
0.0
 10
3.0212367019
 20
1.4728004613
 30
0.0
 10
3.0261255469
 20
1.4543229841
 30
0.0
 10
3.0296510262
 20
1.435290689
 30
0.0
 10
3.0317797779
 20
1.4158855289
 30
0.0
 10
3.0324916219
 20
1.3962930325
 30
0.0
 10
3.0317797779
 20
1.3767005361
 30
0.0
 10
3.0296510262
 20
1.357295376
 30
0.0
 10
3.0261255469
 20
1.3382630809
 30
0.0
 10
3.0212367019
 20
1.3197856038
 30
0.0
 10
3.0150306687
 20
1.3020395981
 30
0.0
 10
3.0075660435
 20
1.285194743
 30
0.0
 10
2.9989130892
 20
1.2694121896
 30
0.0
 10
2.9891531877
 20
1.2548432672
 30
0.0
 10
2.9783774638
 20
1.2416278568
 30
0.0
 10
2.9666882191
 20
1.2298945882
 30
0.0
 10
2.9561993781
 20
1.2213849229
 30
0.0
 10
2.9474693305
 20
1.2154510694
 30
0.0
 10
2.9408133494
 20
1.2114667383
 30
0.0
 10
2.934019861
 20
1.2079279102
 30
0.0
 10
2.9271050995
 20
1.2048429656
 30
0.0
 10
2.9200857528
 20
1.2022195807
 30
0.0
 10
2.9129787746
 20
1.2000643135
 30
0.0
 10
2.9058014789
 20
1.1983823158
 30
0.0
 10
2.8985709395
 20
1.1971778771
 30
0.0
 10
2.8913054112
 20
1.1964541464
 30
0.0
 10
2.8864474661
 20
1.1962930325
 30
0.0
 10
2.8840217933
 20
1.1962930325
 30
0.0
  0
SPLINE
  5
5C8
100
AcDbEntity
  8
0
100
AcDbSpline
 62
7
  6
CONTINUOUS
 70
0
 71
3
 72
27
 73
23
 74
0
 42
0.0000001
 43
0.0000001
 44
0.0000000001
 40
0.0
 40
0.0
 40
0.0
 40
0.0
 40
0.0403330012
 40
0.0800851369
 40
0.1191795155
 40
0.1575734169
 40
0.195228018
 40
0.2321084031
 40
0.3034993359
 40
0.3717671822
 40
0.437070199
 40
0.4996542359
 40
0.5300210491
 40
0.5598225734
 40
0.6178935326
 40
0.6742392967
 40
0.7292615097
 40
0.7833919993
 40
0.8370831585
 40
0.8907927133
 40
0.9449636968
 40
1.0
 40
1.0
 40
1.0
 40
1.0
 10
2.7330432839
 20
1.3286850307
 30
0.0
 10
2.7324967555
 20
1.3267115481
 30
0.0
 10
2.7314231372
 20
1.3227897999
 30
0.0
 10
2.7298457767
 20
1.3169481026
 30
0.0
 10
2.7283002625
 20
1.3111997886
 30
0.0
 10
2.7267738384
 20
1.3055566216
 30
0.0
 10
2.7252585483
 20
1.3000269057
 30
0.0
 10
2.7232673962
 20
1.292890615
 30
0.0
 10
2.7207749888
 20
1.2842805448
 30
0.0
 10
2.7176646956
 20
1.2743487689
 30
0.0
 10
2.7143912449
 20
1.2649409091
 30
0.0
 10
2.7114355579
 20
1.2574659555
 30
0.0
 10
2.708915621
 20
1.251764953
 30
0.0
 10
2.7063309351
 20
1.2463459746
 30
0.0
 10
2.7028699452
 20
1.2398865991
 30
0.0
 10
2.6982565388
 20
1.232615279
 30
0.0
 10
2.693172897
 20
1.225911369
 30
0.0
 10
2.6875835086
 20
1.2198019387
 30
0.0
 10
2.6814653629
 20
1.2143193103
 30
0.0
 10
2.6748091064
 20
1.2094986272
 30
0.0
 10
2.6676211726
 20
1.205375814
 30
0.0
 10
2.6625361819
 20
1.2031356874
 30
0.0
 10
2.6599248001
 20
1.2021413942
 30
0.0
  0
SPLINE
  5
5C9
100
AcDbEntity
  8
0
100
AcDbSpline
 62
7
  6
CONTINUOUS
 70
0
 71
3
 72
22
 73
18
 74
0
 42
0.0000001
 43
0.0000001
 44
0.0000000001
 40
0.0
 40
0.0
 40
0.0
 40
0.0
 40
0.1201183745
 40
0.1814110767
 40
0.2433399542
 40
0.3057915189
 40
0.3686579079
 40
0.4318362666
 40
0.4952281497
 40
0.558739665
 40
0.6222820667
 40
0.685771914
 40
0.7491314408
 40
0.8122898742
 40
0.8751858205
 40
0.9377680487
 40
1.0
 40
1.0
 40
1.0
 40
1.0
 10
2.658741999
 20
1.5537749415
 30
0.0
 10
2.6663575516
 20
1.5472949849
 30
0.0
 10
2.6772050951
 20
1.5367043047
 30
0.0
 10
2.6902590488
 20
1.5212024448
 30
0.0
 10
2.6994306913
 20
1.5087462856
 30
0.0
 10
2.7078401098
 20
1.495608978
 30
0.0
 10
2.7154197304
 20
1.4818564387
 30
0.0
 10
2.7221032638
 20
1.4675600648
 30
0.0
 10
2.7278275775
 20
1.4527951808
 30
0.0
 10
2.73253228
 20
1.4376421653
 30
0.0
 10
2.7361615646
 20
1.4221872435
 30
0.0
 10
2.7386674623
 20
1.406523115
 30
0.0
 10
2.7400096082
 20
1.3907480776
 30
0.0
 10
2.7401562559
 20
1.3749655488
 30
0.0
 10
2.7390851401
 20
1.3592825803
 30
0.0
 10
2.7367855633
 20
1.3438105651
 30
0.0
 10
2.7344263715
 20
1.3336775261
 30
0.0
 10
2.7330432839
 20
1.3286850307
 30
0.0
  0
SPLINE
  5
5CA
100
AcDbEntity
  8
0
100
AcDbSpline
 62
7
  6
CONTINUOUS
 70
0
 71
3
 72
54
 73
50
 74
0
 42
0.0000001
 43
0.0000001
 44
0.0000000001
 40
0.0
 40
0.0
 40
0.0
 40
0.0
 40
0.0329823204
 40
0.0679551953
 40
0.1430370771
 40
0.2234948179
 40
0.2651766668
 40
0.3075282613
 40
0.3503280819
 40
0.3933566487
 40
0.4792317822
 40
0.5216486052
 40
0.5634348836
 40
0.6043811768
 40
0.6442811945
 40
0.6829327553
 40
0.7201387968
 40
0.7557083841
 40
0.7894578335
 40
0.8212118261
 40
0.8508044545
 40
0.8780802665
 40
0.9028952396
 40
0.9143382225
 40
0.9251177335
 40
0.9352191787
 40
0.9446292288
 40
0.9533351131
 40
0.9613252442
 40
0.9685887652
 40
0.9751158787
 40
0.9808977667
 40
0.9859264994
 40
0.9881563341
 40
0.9901953871
 40
0.9920429518
 40
0.9936984773
 40
0.9951614334
 40
0.9964313043
 40
0.997507652
 40
0.9983902763
 40
0.9990791256
 40
0.9993509459
 40
0.9995744571
 40
0.9997498456
 40
0.9998775613
 40
0.9999239144
 40
0.9999590426
 40
1.0
 40
1.0
 40
1.0
 40
1.0
 10
3.0400261148
 20
1.7847532927
 30
0.0
 10
3.0437297791
 20
1.7847533259
 30
0.0
 10
3.0513606538
 20
1.784786497
 30
0.0
 10
3.0674216695
 20
1.7849717193
 30
0.0
 10
3.0888106091
 20
1.7854136255
 30
0.0
 10
3.1109485296
 20
1.7860313683
 30
0.0
 10
3.1294111281
 20
1.7865921757
 30
0.0
 10
3.1436465604
 20
1.7870380937
 30
0.0
 10
3.1580329737
 20
1.7874941289
 30
0.0
 10
3.1773044234
 20
1.7881009828
 30
0.0
 10
3.1965333238
 20
1.7886927497
 30
0.0
 10
3.2156236368
 20
1.7892518414
 30
0.0
 10
3.229671299
 20
1.7896509174
 30
0.0
 10
3.2434368672
 20
1.7900272694
 30
0.0
 10
3.2568509123
 20
1.7903809177
 30
0.0
 10
3.2698453954
 20
1.7907121598
 30
0.0
 10
3.2823540372
 20
1.791020002
 30
0.0
 10
3.2943125769
 20
1.7913059861
 30
0.0
 10
3.305659219
 20
1.7915709324
 30
0.0
 10
3.3163349967
 20
1.7918150052
 30
0.0
 10
3.3262840709
 20
1.7920403962
 30
0.0
 10
3.3354541602
 20
1.7922474916
 30
0.0
 10
3.3425866761
 20
1.7924097077
 30
0.0
 10
3.3478672064
 20
1.7925321973
 30
0.0
 10
3.3514959321
 20
1.7926177155
 30
0.0
 10
3.3548964018
 20
1.7926993854
 30
0.0
 10
3.3580640392
 20
1.792777401
 30
0.0
 10
3.3609946029
 20
1.7928520175
 30
0.0
 10
3.3636841325
 20
1.7929233263
 30
0.0
 10
3.3661290019
 20
1.7929913521
 30
0.0
 10
3.3683258934
 20
1.7930561599
 30
0.0
 10
3.3702718136
 20
1.7931178486
 30
0.0
 10
3.3717352836
 20
1.7931685424
 30
0.0
 10
3.3727785886
 20
1.7932080599
 30
0.0
 10
3.3734648602
 20
1.7932358
 30
0.0
 10
3.3740866139
 20
1.7932628515
 30
0.0
 10
3.3746436416
 20
1.7932892089
 30
0.0
 10
3.3751357547
 20
1.7933148597
 30
0.0
 10
3.3755627721
 20
1.793339795
 30
0.0
 10
3.3759245466
 20
1.7933639642
 30
0.0
 10
3.3762209617
 20
1.7933873861
 30
0.0
 10
3.3764270027
 20
1.7934073629
 30
0.0
 10
3.3765589942
 20
1.7934236734
 30
0.0
 10
3.3766334884
 20
1.7934346587
 30
0.0
 10
3.376691716
 20
1.7934454966
 30
0.0
 10
3.376729723
 20
1.7934547363
 30
0.0
 10
3.376752114
 20
1.7934628106
 30
0.0
 10
3.3767640034
 20
1.7934684914
 30
0.0
 10
3.3767721098
 20
1.7934749083
 30
0.0
 10
3.3767723441
 20
1.7934795015
 30
0.0
  0
SPLINE
  5
5CB
100
AcDbEntity
  8
0
100
AcDbSpline
 62
7
  6
CONTINUOUS
 70
0
 71
3
 72
60
 73
56
 74
0
 42
0.0000001
 43
0.0000001
 44
0.0000000001
 40
0.0
 40
0.0
 40
0.0
 40
0.0
 40
0.033031991
 40
0.0680057387
 40
0.1047348105
 40
0.1430202198
 40
0.1826550207
 40
0.2234268712
 40
0.30750826
 40
0.3503752059
 40
0.3934951817
 40
0.4366446828
 40
0.479600966
 40
0.5221428061
 40
0.5640514817
 40
0.6051119504
 40
0.6451127217
 40
0.6838482822
 40
0.7211191068
 40
0.7567318232
 40
0.7905033412
 40
0.8222571366
 40
0.8518284445
 40
0.8790634373
 40
0.9038182945
 40
0.9259644659
 40
0.9360223141
 40
0.9453846601
 40
0.954039637
 40
0.961975982
 40
0.9691833332
 40
0.9756517828
 40
0.9813726749
 40
0.9863380656
 40
0.9885354324
 40
0.9905417091
 40
0.9923562485
 40
0.9939784325
 40
0.99540772
 40
0.996643592
 40
0.9976855458
 40
0.9981336604
 40
0.9985331659
 40
0.9988840679
 40
0.9991863815
 40
0.9994401376
 40
0.9996453985
 40
0.9997298834
 40
0.9998023062
 40
0.9998627153
 40
0.9999111967
 40
0.999947922
 40
0.9999733044
 40
0.9999887055
 40
1.0
 40
1.0
 40
1.0
 40
1.0
 10
3.0342705813
 20
1.8314463208
 30
0.0
 10
3.0381662728
 20
1.83144605
 30
0.0
 10
3.046186661
 20
1.8314295196
 30
0.0
 10
3.0585386308
 20
1.8313693409
 30
0.0
 10
3.0715099299
 20
1.831268704
 30
0.0
 10
3.0850306489
 20
1.8311337836
 30
0.0
 10
3.0990278614
 20
1.8309688993
 30
0.0
 10
3.1184253742
 20
1.8307116317
 30
0.0
 10
3.1382036283
 20
1.830419418
 30
0.0
 10
3.1582585382
 20
1.8301076186
 30
0.0
 10
3.1734865943
 20
1.8298672401
 30
0.0
 10
3.1887251515
 20
1.829624583
 30
0.0
 10
3.2038955492
 20
1.8293839752
 30
0.0
 10
3.2189196576
 20
1.8291476796
 30
0.0
 10
3.2337202396
 20
1.8289169732
 30
0.0
 10
3.2482212397
 20
1.828695303
 30
0.0
 10
3.262348093
 20
1.8284817952
 30
0.0
 10
3.2760281094
 20
1.8282784369
 30
0.0
 10
3.2891907195
 20
1.8280861883
 30
0.0
 10
3.3017679576
 20
1.8279031394
 30
0.0
 10
3.3136946429
 20
1.827732321
 30
0.0
 10
3.3249088887
 20
1.8275711846
 30
0.0
 10
3.3353523067
 20
1.8274204608
 30
0.0
 10
3.3449703647
 20
1.8272807541
 30
0.0
 10
3.3537127587
 20
1.8271497964
 30
0.0
 10
3.3604295128
 20
1.8270460433
 30
0.0
 10
3.3653310925
 20
1.8269674541
 30
0.0
 10
3.3686417318
 20
1.8269122378
 30
0.0
 10
3.3717021669
 20
1.8268591143
 30
0.0
 10
3.3745084499
 20
1.8268083206
 30
0.0
 10
3.3770568579
 20
1.8267597595
 30
0.0
 10
3.3793439731
 20
1.8267132914
 30
0.0
 10
3.3813666612
 20
1.8266687921
 30
0.0
 10
3.3828856723
 20
1.8266318483
 30
0.0
 10
3.3839666532
 20
1.8266029079
 30
0.0
 10
3.3846761291
 20
1.826582603
 30
0.0
 10
3.3853177561
 20
1.8265628368
 30
0.0
 10
3.3858913181
 20
1.8265436388
 30
0.0
 10
3.3863966108
 20
1.8265249673
 30
0.0
 10
3.3868334395
 20
1.826506778
 30
0.0
 10
3.3871545617
 20
1.8264913376
 30
0.0
 10
3.3873770683
 20
1.8264789414
 30
0.0
 10
3.3875181498
 20
1.8264702149
 30
0.0
 10
3.3876420064
 20
1.8264615954
 30
0.0
 10
3.3877486363
 20
1.826453098
 30
0.0
 10
3.3878380381
 20
1.8264447315
 30
0.0
 10
3.3879017365
 20
1.8264375176
 30
0.0
 10
3.3879440485
 20
1.8264316382
 30
0.0
 10
3.3879693475
 20
1.8264275614
 30
0.0
 10
3.3879903722
 20
1.8264235298
 30
0.0
 10
3.3880070364
 20
1.8264195704
 30
0.0
 10
3.3880196349
 20
1.8264156674
 30
0.0
 10
3.3880277141
 20
1.826411927
 30
0.0
 10
3.3880331328
 20
1.8264078598
 30
0.0
 10
3.3880326408
 20
1.8264041327
 30
0.0
 10
3.3880318778
 20
1.8264030408
 30
0.0
  0
SPLINE
  5
5CC
100
AcDbEntity
  8
0
100
AcDbSpline
 62
7
  6
CONTINUOUS
 70
0
 71
3
 72
49
 73
45
 74
0
 42
0.0000001
 43
0.0000001
 44
0.0000000001
 40
0.0
 40
0.0
 40
0.0
 40
0.0
 40
0.0132339586
 40
0.0264952927
 40
0.0398074184
 40
0.0531963083
 40
0.066685642
 40
0.0802974943
 40
0.0940524327
 40
0.1079689437
 40
0.1220633606
 40
0.1363497406
 40
0.1655318519
 40
0.1955916395
 40
0.2265559496
 40
0.2584160613
 40
0.2911309558
 40
0.3246310991
 40
0.3588225199
 40
0.3935910163
 40
0.4288062904
 40
0.4643260358
 40
0.5
 40
0.5356739642
 40
0.5711937096
 40
0.6064089837
 40
0.6411774801
 40
0.6753689009
 40
0.7088690442
 40
0.7415839387
 40
0.7734440504
 40
0.8044083605
 40
0.8344681481
 40
0.8636502594
 40
0.8779366394
 40
0.8920310563
 40
0.9059475673
 40
0.9197025057
 40
0.933314358
 40
0.9468036917
 40
0.9601925816
 40
0.9735047073
 40
0.9867660414
 40
1.0
 40
1.0
 40
1.0
 40
1.0
 10
5.7669331757
 20
1.1962930325
 30
0.0
 10
5.7645074771
 20
1.1962930325
 30
0.0
 10
5.7596495335
 20
1.1964541305
 30
0.0
 10
5.7523840157
 20
1.1971778863
 30
0.0
 10
5.7451534991
 20
1.1983823189
 30
0.0
 10
5.7379761936
 20
1.200064295
 30
0.0
 10
5.7308692194
 20
1.2022195981
 30
0.0
 10
5.7238498643
 20
1.2048429505
 30
0.0
 10
5.7169351062
 20
1.2079279055
 30
0.0
 10
5.7101416305
 20
1.2114667565
 30
0.0
 10
5.7034856223
 20
1.2154510441
 30
0.0
 10
5.694755608
 20
1.2213849445
 30
0.0
 10
5.684266731
 20
1.2298945629
 30
0.0
 10
5.6725775017
 20
1.2416278543
 30
0.0
 10
5.6618018
 20
1.2548432814
 30
0.0
 10
5.6520418735
 20
1.2694121854
 30
0.0
 10
5.6433889081
 20
1.285194733
 30
0.0
 10
5.6359243075
 20
1.3020396005
 30
0.0
 10
5.6297182785
 20
1.3197856075
 30
0.0
 10
5.6248294084
 20
1.3382630779
 30
0.0
 10
5.6213039397
 20
1.3572953751
 30
0.0
 10
5.6191751931
 20
1.3767005359
 30
0.0
 10
5.618463346
 20
1.3962930325
 30
0.0
 10
5.6191751931
 20
1.4158855291
 30
0.0
 10
5.6213039397
 20
1.4352906899
 30
0.0
 10
5.6248294084
 20
1.4543229871
 30
0.0
 10
5.6297182785
 20
1.4728004576
 30
0.0
 10
5.6359243075
 20
1.4905464645
 30
0.0
 10
5.6433889081
 20
1.507391332
 30
0.0
 10
5.6520418735
 20
1.5231738797
 30
0.0
 10
5.6618018
 20
1.5377427836
 30
0.0
 10
5.6725775017
 20
1.5509582107
 30
0.0
 10
5.684266731
 20
1.5626915022
 30
0.0
 10
5.694755608
 20
1.5712011205
 30
0.0
 10
5.7034856223
 20
1.577135021
 30
0.0
 10
5.7101416305
 20
1.5811193085
 30
0.0
 10
5.7169351062
 20
1.5846581595
 30
0.0
 10
5.7238498643
 20
1.5877431145
 30
0.0
 10
5.7308692194
 20
1.5903664669
 30
0.0
 10
5.7379761936
 20
1.59252177
 30
0.0
 10
5.7451534991
 20
1.5942037461
 30
0.0
 10
5.7523840157
 20
1.5954081788
 30
0.0
 10
5.7596495335
 20
1.5961319345
 30
0.0
 10
5.7645074771
 20
1.5962930325
 30
0.0
 10
5.7669331757
 20
1.5962930325
 30
0.0
  0
SPLINE
  5
5CD
100
AcDbEntity
  8
0
100
AcDbSpline
 62
7
  6
CONTINUOUS
 70
0
 71
3
 72
23
 73
19
 74
0
 42
0.0000001
 43
0.0000001
 44
0.0000000001
 40
0.0
 40
0.0
 40
0.0
 40
0.0
 40
0.0622984659
 40
0.0935794787
 40
0.1249382792
 40
0.1878592883
 40
0.2510259564
 40
0.282689437
 40
0.314391513
 40
0.3778653983
 40
0.441383776
 40
0.504865574
 40
0.5682250076
 40
0.6313719453
 40
0.7565749859
 40
0.818496683
 40
0.8797979432
 40
1.0
 40
1.0
 40
1.0
 40
1.0
 10
5.9177525741
 20
1.3287078679
 30
0.0
 10
5.9163304236
 20
1.3337170382
 30
0.0
 10
5.9145082577
 20
1.3413356646
 30
0.0
 10
5.9127081572
 20
1.3516241936
 30
0.0
 10
5.911320735
 20
1.3620296178
 30
0.0
 10
5.9103713007
 20
1.3751701316
 30
0.0
 10
5.9104572978
 20
1.3883692901
 30
0.0
 10
5.9111335461
 20
1.398925895
 30
0.0
 10
5.9122115502
 20
1.409474868
 30
0.0
 10
5.9142998704
 20
1.4225870348
 30
0.0
 10
5.9179464383
 20
1.4380981907
 30
0.0
 10
5.9226852098
 20
1.4533007944
 30
0.0
 10
5.9284611093
 20
1.4681074157
 30
0.0
 10
5.9374339783
 20
1.487150458
 30
0.0
 10
5.9482419072
 20
1.5051465746
 30
0.0
 10
5.960650542
 20
1.5218110282
 30
0.0
 10
5.9738555104
 20
1.5373037
 30
0.0
 10
5.9848260749
 20
1.5478679968
 30
0.0
 10
5.9925256017
 20
1.5543223177
 30
0.0
  0
LINE
  5
5CE
100
AcDbEntity
  8
0
100
AcDbLine
 62
7
  6
CONTINUOUS
 10
6.4848490716
 20
3.0601396043
 11
6.4857567997
 21
3.0599935594
  0
SPLINE
  5
5CF
100
AcDbEntity
  8
0
100
AcDbSpline
 62
7
  6
CONTINUOUS
 70
0
 71
3
 72
9
 73
5
 74
0
 42
0.0000001
 43
0.0000001
 44
0.0000000001
 40
0.0
 40
0.0
 40
0.0
 40
0.0
 40
0.3022491204
 40
1.0
 40
1.0
 40
1.0
 40
1.0
 10
6.4857567997
 20
3.0599935594
 30
0.0
 10
6.4857603357
 20
3.0599929109
 30
0.0
 10
6.4857720297
 20
3.0599907411
 30
0.0
 10
6.4857837117
 20
3.0599884982
 30
0.0
 10
6.485791831
 20
3.059986781
 30
0.0
  0
LINE
  5
5D0
100
AcDbEntity
  8
0
100
AcDbLine
 62
7
  6
CONTINUOUS
 10
6.4436184246
 20
3.0677055141
 11
6.4466184246
 21
3.0671229865
  0
LINE
  5
5D1
100
AcDbEntity
  8
0
100
AcDbLine
 62
7
  6
CONTINUOUS
 10
6.4605498785
 20
3.0647870897
 11
6.4622238056
 21
3.0644911476
  0
LINE
  5
5D2
100
AcDbEntity
  8
0
100
AcDbLine
 62
7
  6
CONTINUOUS
 10
6.4622238056
 20
3.0644911476
 11
6.4638899268
 21
3.0641974683
  0
LINE
  5
5D3
100
AcDbEntity
  8
0
100
AcDbLine
 62
7
  6
CONTINUOUS
 10
6.4638899268
 20
3.0641974683
 11
6.4833174874
 21
3.0608857233
  0
SPLINE
  5
5D4
100
AcDbEntity
  8
0
100
AcDbSpline
 62
7
  6
CONTINUOUS
 70
0
 71
3
 72
32
 73
28
 74
0
 42
0.0000001
 43
0.0000001
 44
0.0000000001
 40
0.0
 40
0.0
 40
0.0
 40
0.0
 40
0.2255554458
 40
0.3287858214
 40
0.4252847797
 40
0.514809664
 40
0.5971529446
 40
0.6721352155
 40
0.7396010454
 40
0.7994212087
 40
0.8514875632
 40
0.8745849808
 40
0.8957133587
 40
0.9148653669
 40
0.9320355729
 40
0.9472215431
 40
0.9604230379
 40
0.9716446417
 40
0.9808995741
 40
0.9847980605
 40
0.9882176005
 40
0.9911675761
 40
0.993662848
 40
0.9957282168
 40
0.9974077622
 40
0.9987833263
 40
1.0
 40
1.0
 40
1.0
 40
1.0
 10
5.6109288542
 20
1.7847532927
 30
0.0
 10
5.6158147023
 20
1.7847533364
 30
0.0
 10
5.6229368317
 20
1.7847939521
 30
0.0
 10
5.632147882
 20
1.7849477332
 30
0.0
 10
5.6384117435
 20
1.7851004956
 30
0.0
 10
5.6442218921
 20
1.7852913725
 30
0.0
 10
5.6495644031
 20
1.7855154166
 30
0.0
 10
5.6544272577
 20
1.7857675325
 30
0.0
 10
5.6588000812
 20
1.7860434914
 30
0.0
 10
5.6626740667
 20
1.7863376086
 30
0.0
 10
5.6655861141
 20
1.7866028973
 30
0.0
 10
5.6676603047
 20
1.7868232163
 30
0.0
 10
5.6690237927
 20
1.7869835843
 30
0.0
 10
5.6702577468
 20
1.7871452778
 30
0.0
 10
5.6713616453
 20
1.7873077991
 30
0.0
 10
5.6723350489
 20
1.7874705482
 30
0.0
 10
5.6731776775
 20
1.7876328295
 30
0.0
 10
5.6738892646
 20
1.7877941594
 30
0.0
 10
5.6743987297
 20
1.7879341341
 30
0.0
 10
5.6747392039
 20
1.7880482451
 30
0.0
 10
5.6749467335
 20
1.7881285294
 30
0.0
 10
5.6751215175
 20
1.7882084115
 30
0.0
 10
5.6752637438
 20
1.7882878943
 30
0.0
 10
5.6753737774
 20
1.7883671267
 30
0.0
 10
5.6754520782
 20
1.7884467551
 30
0.0
 10
5.6754985586
 20
1.7885286011
 30
0.0
 10
5.6755055621
 20
1.7885862785
 30
0.0
 10
5.6755028999
 20
1.7886124985
 30
0.0
  0
SPLINE
  5
5D5
100
AcDbEntity
  8
0
100
AcDbSpline
 62
7
  6
CONTINUOUS
 70
0
 71
3
 72
39
 73
35
 74
0
 42
0.0000001
 43
0.0000001
 44
0.0000000001
 40
0.0
 40
0.0
 40
0.0
 40
0.0
 40
0.1163607533
 40
0.2266483172
 40
0.3305326166
 40
0.4277269638
 40
0.5179672114
 40
0.6010121684
 40
0.6766401324
 40
0.7446503106
 40
0.7757454277
 40
0.804874234
 40
0.8320183301
 40
0.8571596474
 40
0.8802819229
 40
0.9013724767
 40
0.9204192418
 40
0.9374117351
 40
0.9523416842
 40
0.9652017306
 40
0.9708540943
 40
0.9759877284
 40
0.9806027067
 40
0.9846994238
 40
0.9882787855
 40
0.9913427778
 40
0.9938952223
 40
0.9959429458
 40
0.9974995553
 40
0.9981032353
 40
0.9985999127
 40
0.9993343105
 40
0.9996517529
 40
1.0
 40
1.0
 40
1.0
 40
1.0
 10
5.6166843876
 20
1.8314463208
 30
0.0
 10
5.6193649409
 20
1.8314461344
 30
0.0
 10
5.6245861441
 20
1.831438435
 30
0.0
 10
5.6322004261
 20
1.8314065622
 30
0.0
 10
5.6393730641
 20
1.8313547633
 30
0.0
 10
5.6460836715
 20
1.8312816656
 30
0.0
 10
5.652313937
 20
1.8311900775
 30
0.0
 10
5.6580470415
 20
1.8310818609
 30
0.0
 10
5.6632676133
 20
1.8309587275
 30
0.0
 10
5.6672911909
 20
1.830841577
 30
0.0
 10
5.6702435638
 20
1.8307411842
 30
0.0
 10
5.6722548185
 20
1.8306658649
 30
0.0
 10
5.6741287273
 20
1.8305883774
 30
0.0
 10
5.675864047
 20
1.8305088383
 30
0.0
 10
5.6774596605
 20
1.830427405
 30
0.0
 10
5.6789145903
 20
1.8303444162
 30
0.0
 10
5.6802279808
 20
1.8302601993
 30
0.0
 10
5.6813990651
 20
1.8301750671
 30
0.0
 10
5.6824271458
 20
1.8300892443
 30
0.0
 10
5.6831939561
 20
1.8300145699
 30
0.0
 10
5.6837352782
 20
1.8299537007
 30
0.0
 10
5.6840873679
 20
1.8299099679
 30
0.0
 10
5.6844033128
 20
1.8298662006
 30
0.0
 10
5.6846830704
 20
1.8298224275
 30
0.0
 10
5.6849266189
 20
1.8297786998
 30
0.0
 10
5.6851339516
 20
1.8297350558
 30
0.0
 10
5.6853051749
 20
1.8296916648
 30
0.0
 10
5.6854403754
 20
1.8296484754
 30
0.0
 10
5.6855298693
 20
1.8296105582
 30
0.0
 10
5.685582418
 20
1.8295785849
 30
0.0
 10
5.6856151455
 20
1.8295523484
 30
0.0
 10
5.6856375645
 20
1.8295208515
 30
0.0
 10
5.685636121
 20
1.8294875557
 30
0.0
 10
5.6856291613
 20
1.829473479
 30
0.0
 10
5.6856247176
 20
1.8294667997
 30
0.0
  0
LINE
  5
5D6
100
AcDbEntity
  8
0
100
AcDbLine
 62
7
  6
CONTINUOUS
 10
2.2662274845
 20
3.0697495752
 11
2.2735383899
 21
3.0699235292
  0
LINE
  5
5D7
100
AcDbEntity
  8
0
100
AcDbLine
 62
7
  6
CONTINUOUS
 10
2.2388989831
 20
3.0668134106
 11
2.2462274845
 21
3.0679553859
  0
LINE
  5
5D8
100
AcDbEntity
  8
0
100
AcDbLine
 62
7
  6
CONTINUOUS
 10
2.2212274845
 20
3.0649747439
 11
2.228535583
 21
3.0655775956
  0
SPLINE
  5
5D9
100
AcDbEntity
  8
0
100
AcDbSpline
 62
7
  6
CONTINUOUS
 70
0
 71
3
 72
21
 73
17
 74
0
 42
0.0000001
 43
0.0000001
 44
0.0000000001
 40
0.0
 40
0.0
 40
0.0
 40
0.0
 40
0.1154949712
 40
0.2335453181
 40
0.2936215863
 40
0.3544264623
 40
0.4159804165
 40
0.4782955446
 40
0.5413715771
 40
0.6051921637
 40
0.669720919
 40
0.7348977091
 40
0.8006368937
 40
0.8668268785
 40
0.9333319289
 40
1.0
 40
1.0
 40
1.0
 40
1.0
 10
8.8653113292
 20
2.4942044998
 30
0.0
 10
8.8603875346
 20
2.4889761253
 30
0.0
 10
8.8500194654
 20
2.478782595
 30
0.0
 10
8.8359765547
 20
2.4670768493
 30
0.0
 10
8.8239584853
 20
2.4583335559
 30
0.0
 10
8.8144843889
 20
2.4520856862
 30
0.0
 10
8.8046029446
 20
2.4462260249
 30
0.0
 10
8.794318036
 20
2.4407969727
 30
0.0
 10
8.7836393956
 20
2.4358442757
 30
0.0
 10
8.7725837941
 20
2.4314164116
 30
0.0
 10
8.7611776107
 20
2.4275601436
 30
0.0
 10
8.7494554923
 20
2.4243256968
 30
0.0
 10
8.7374641323
 20
2.4217551445
 30
0.0
 10
8.7252591336
 20
2.4198886668
 30
0.0
 10
8.7129065009
 20
2.4187574793
 30
0.0
 10
8.7046231477
 20
2.4185028926
 30
0.0
 10
8.7004774845
 20
2.418502795
 30
0.0
  0
LINE
  5
5DA
100
AcDbEntity
  8
0
100
AcDbLine
 62
7
  6
CONTINUOUS
 10
2.1939701448
 20
3.0604246819
 11
2.2012274845
 21
3.0619939264
  0
LINE
  5
5DB
100
AcDbEntity
  8
0
100
AcDbLine
 62
7
  6
CONTINUOUS
 10
2.4217274845
 20
3.0661135906
 11
2.4303688333
 21
3.0645332147
  0
LINE
  5
5DC
100
AcDbEntity
  8
0
100
AcDbLine
 62
7
  6
CONTINUOUS
 10
2.4303688333
 20
3.0645332147
 11
2.4309774845
 21
3.0644358005
  0
LINE
  5
5DD
100
AcDbEntity
  8
0
100
AcDbLine
 62
7
  6
CONTINUOUS
 10
2.3944774845
 20
3.0685738873
 11
2.3950909317
 21
3.0685328274
  0
LINE
  5
5DE
100
AcDbEntity
  8
0
100
AcDbLine
 62
7
  6
CONTINUOUS
 10
2.3950909317
 20
3.0685328274
 11
2.4037274845
 21
3.0681526264
  0
LINE
  5
5DF
100
AcDbEntity
  8
0
100
AcDbLine
 62
7
  6
CONTINUOUS
 10
2.4308977719
 20
3.0639434372
 11
2.4303684869
 21
3.0640282388
  0
LINE
  5
5E0
100
AcDbEntity
  8
0
100
AcDbLine
 62
7
  6
CONTINUOUS
 10
2.4303684869
 20
3.0640282388
 11
2.4217274845
 21
3.0656095974
  0
LINE
  5
5E1
100
AcDbEntity
  8
0
100
AcDbLine
 62
7
  6
CONTINUOUS
 10
2.4037274845
 20
3.0676499665
 11
2.4032281274
 21
3.0676083157
  0
LINE
  5
5E2
100
AcDbEntity
  8
0
100
AcDbLine
 62
7
  6
CONTINUOUS
 10
2.4032281274
 20
3.0676083157
 11
2.3950909336
 21
3.0680304152
  0
LINE
  5
5E3
100
AcDbEntity
  8
0
100
AcDbLine
 62
7
  6
CONTINUOUS
 10
2.3950909336
 20
3.0680304152
 11
2.3944774845
 21
3.068071502
  0
LINE
  5
5E4
100
AcDbEntity
  8
0
100
AcDbLine
 62
7
  6
CONTINUOUS
 10
2.2744774845
 20
3.0694707285
 11
2.2740043361
 21
3.0694459117
  0
LINE
  5
5E5
100
AcDbEntity
  8
0
100
AcDbLine
 62
7
  6
CONTINUOUS
 10
2.2740043361
 20
3.0694459117
 11
2.2735386274
 21
3.0694220337
  0
LINE
  5
5E6
100
AcDbEntity
  8
0
100
AcDbLine
 62
7
  6
CONTINUOUS
 10
2.2735386274
 20
3.0694220337
 11
2.2662274845
 21
3.0692479547
  0
SPLINE
  5
5E7
100
AcDbEntity
  8
0
100
AcDbSpline
 62
7
  6
CONTINUOUS
 70
0
 71
3
 72
31
 73
27
 74
0
 42
0.0000001
 43
0.0000001
 44
0.0000000001
 40
0.0
 40
0.0
 40
0.0
 40
0.0
 40
0.0639436864
 40
0.1274672952
 40
0.1905407254
 40
0.253156656
 40
0.284302781
 40
0.3153439356
 40
0.3462873888
 40
0.3771439624
 40
0.407926568
 40
0.4386512518
 40
0.4693358201
 40
0.5000000001
 40
0.5306641802
 40
0.5613487484
 40
0.5920734323
 40
0.6228560378
 40
0.6537126114
 40
0.6846560645
 40
0.7156972191
 40
0.746843344
 40
0.8094592746
 40
0.8725327049
 40
0.9360563136
 40
1.0
 40
1.0
 40
1.0
 40
1.0
 10
3.1294493477
 20
1.9502095098
 30
0.0
 10
3.1256936279
 20
1.9474823862
 30
0.0
 10
3.1180794054
 20
1.9422182979
 30
0.0
 10
3.1062925252
 20
1.9349685631
 30
0.0
 10
3.094165877
 20
1.9285006425
 30
0.0
 10
3.083758816
 20
1.9238573982
 30
0.0
 10
3.0752779892
 20
1.9206667286
 30
0.0
 10
3.0688541792
 20
1.9185545749
 30
0.0
 10
3.0623631896
 20
1.9167347951
 30
0.0
 10
3.0558126868
 20
1.9152229438
 30
0.0
 10
3.0492123605
 20
1.9140314791
 30
0.0
 10
3.0425730424
 20
1.9131724312
 30
0.0
 10
3.0359070717
 20
1.9126530549
 30
0.0
 10
3.0292274844
 20
1.9124797708
 30
0.0
 10
3.0225478972
 20
1.9126530549
 30
0.0
 10
3.0158819265
 20
1.9131724312
 30
0.0
 10
3.0092426084
 20
1.9140314791
 30
0.0
 10
3.0026422821
 20
1.9152229438
 30
0.0
 10
2.9960917793
 20
1.9167347951
 30
0.0
 10
2.9896007897
 20
1.9185545749
 30
0.0
 10
2.9831769797
 20
1.9206667286
 30
0.0
 10
2.974696153
 20
1.9238573982
 30
0.0
 10
2.964289092
 20
1.9285006425
 30
0.0
 10
2.9521624437
 20
1.9349685631
 30
0.0
 10
2.9403755635
 20
1.9422182979
 30
0.0
 10
2.932761341
 20
1.9474823862
 30
0.0
 10
2.9290056212
 20
1.9502095098
 30
0.0
  0
SPLINE
  5
5E8
100
AcDbEntity
  8
0
100
AcDbSpline
 62
7
  6
CONTINUOUS
 70
0
 71
3
 72
31
 73
27
 74
0
 42
0.0000001
 43
0.0000001
 44
0.0000000001
 40
0.0
 40
0.0
 40
0.0
 40
0.0
 40
0.0639436864
 40
0.1274672952
 40
0.1905407254
 40
0.253156656
 40
0.284302781
 40
0.3153439356
 40
0.3462873888
 40
0.3771439624
 40
0.407926568
 40
0.4386512518
 40
0.4693358201
 40
0.5000000001
 40
0.5306641802
 40
0.5613487484
 40
0.5920734323
 40
0.6228560378
 40
0.6537126114
 40
0.6846560645
 40
0.7156972191
 40
0.746843344
 40
0.8094592746
 40
0.8725327049
 40
0.9360563136
 40
1.0
 40
1.0
 40
1.0
 40
1.0
 10
3.1294493477
 20
2.1232960803
 30
0.0
 10
3.1256936279
 20
2.1260232039
 30
0.0
 10
3.1180794054
 20
2.1312872922
 30
0.0
 10
3.1062925252
 20
2.1385370269
 30
0.0
 10
3.094165877
 20
2.1450049475
 30
0.0
 10
3.083758816
 20
2.1496481918
 30
0.0
 10
3.0752779892
 20
2.1528388614
 30
0.0
 10
3.0688541792
 20
2.1549510152
 30
0.0
 10
3.0623631896
 20
2.156770795
 30
0.0
 10
3.0558126868
 20
2.1582826463
 30
0.0
 10
3.0492123605
 20
2.159474111
 30
0.0
 10
3.0425730424
 20
2.1603331588
 30
0.0
 10
3.0359070717
 20
2.1608525351
 30
0.0
 10
3.0292274844
 20
2.1610258193
 30
0.0
 10
3.0225478972
 20
2.1608525351
 30
0.0
 10
3.0158819265
 20
2.1603331588
 30
0.0
 10
3.0092426084
 20
2.159474111
 30
0.0
 10
3.0026422821
 20
2.1582826463
 30
0.0
 10
2.9960917793
 20
2.156770795
 30
0.0
 10
2.9896007897
 20
2.1549510152
 30
0.0
 10
2.9831769797
 20
2.1528388614
 30
0.0
 10
2.974696153
 20
2.1496481918
 30
0.0
 10
2.964289092
 20
2.1450049475
 30
0.0
 10
2.9521624437
 20
2.1385370269
 30
0.0
 10
2.9403755635
 20
2.1312872922
 30
0.0
 10
2.932761341
 20
2.1260232039
 30
0.0
 10
2.9290056212
 20
2.1232960803
 30
0.0
  0
SPLINE
  5
5E9
100
AcDbEntity
  8
0
100
AcDbSpline
 62
7
  6
CONTINUOUS
 70
0
 71
3
 72
31
 73
27
 74
0
 42
0.0000001
 43
0.0000001
 44
0.0000000001
 40
0.0
 40
0.0
 40
0.0
 40
0.0
 40
0.0639436864
 40
0.1274672952
 40
0.1905407254
 40
0.253156656
 40
0.284302781
 40
0.3153439356
 40
0.3462873888
 40
0.3771439624
 40
0.407926568
 40
0.4386512518
 40
0.4693358201
 40
0.5000000001
 40
0.5306641802
 40
0.5613487484
 40
0.5920734323
 40
0.6228560378
 40
0.6537126114
 40
0.6846560645
 40
0.7156972191
 40
0.746843344
 40
0.8094592746
 40
0.8725327049
 40
0.9360563136
 40
1.0
 40
1.0
 40
1.0
 40
1.0
 10
3.4264493477
 20
1.9502095098
 30
0.0
 10
3.4226936279
 20
1.9474823862
 30
0.0
 10
3.4150794054
 20
1.9422182979
 30
0.0
 10
3.4032925252
 20
1.9349685631
 30
0.0
 10
3.391165877
 20
1.9285006425
 30
0.0
 10
3.380758816
 20
1.9238573982
 30
0.0
 10
3.3722779892
 20
1.9206667286
 30
0.0
 10
3.3658541792
 20
1.9185545749
 30
0.0
 10
3.3593631896
 20
1.9167347951
 30
0.0
 10
3.3528126868
 20
1.9152229438
 30
0.0
 10
3.3462123605
 20
1.9140314791
 30
0.0
 10
3.3395730424
 20
1.9131724312
 30
0.0
 10
3.3329070717
 20
1.9126530549
 30
0.0
 10
3.3262274844
 20
1.9124797708
 30
0.0
 10
3.3195478972
 20
1.9126530549
 30
0.0
 10
3.3128819265
 20
1.9131724312
 30
0.0
 10
3.3062426084
 20
1.9140314791
 30
0.0
 10
3.2996422821
 20
1.9152229438
 30
0.0
 10
3.2930917793
 20
1.9167347951
 30
0.0
 10
3.2866007897
 20
1.9185545749
 30
0.0
 10
3.2801769797
 20
1.9206667286
 30
0.0
 10
3.271696153
 20
1.9238573982
 30
0.0
 10
3.261289092
 20
1.9285006425
 30
0.0
 10
3.2491624437
 20
1.9349685631
 30
0.0
 10
3.2373755635
 20
1.9422182979
 30
0.0
 10
3.229761341
 20
1.9474823862
 30
0.0
 10
3.2260056212
 20
1.9502095098
 30
0.0
  0
LINE
  5
5EA
100
AcDbEntity
  8
0
100
AcDbLine
 62
7
  6
CONTINUOUS
 10
2.2462274845
 20
3.0674525974
 11
2.2460230777
 21
3.0673737155
  0
LINE
  5
5EB
100
AcDbEntity
  8
0
100
AcDbLine
 62
7
  6
CONTINUOUS
 10
2.2460230777
 20
3.0673737155
 11
2.2388989685
 21
3.0663098738
  0
SPLINE
  5
5EC
100
AcDbEntity
  8
0
100
AcDbSpline
 62
7
  6
CONTINUOUS
 70
0
 71
3
 72
31
 73
27
 74
0
 42
0.0000001
 43
0.0000001
 44
0.0000000001
 40
0.0
 40
0.0
 40
0.0
 40
0.0
 40
0.0639436864
 40
0.1274672952
 40
0.1905407254
 40
0.253156656
 40
0.284302781
 40
0.3153439356
 40
0.3462873888
 40
0.3771439624
 40
0.407926568
 40
0.4386512518
 40
0.4693358201
 40
0.5000000001
 40
0.5306641802
 40
0.5613487484
 40
0.5920734323
 40
0.6228560378
 40
0.6537126114
 40
0.6846560645
 40
0.7156972191
 40
0.746843344
 40
0.8094592746
 40
0.8725327049
 40
0.9360563136
 40
1.0
 40
1.0
 40
1.0
 40
1.0
 10
3.4264493477
 20
2.1232960803
 30
0.0
 10
3.4226936279
 20
2.1260232039
 30
0.0
 10
3.4150794054
 20
2.1312872922
 30
0.0
 10
3.4032925252
 20
2.1385370269
 30
0.0
 10
3.391165877
 20
2.1450049475
 30
0.0
 10
3.380758816
 20
2.1496481918
 30
0.0
 10
3.3722779892
 20
2.1528388614
 30
0.0
 10
3.3658541792
 20
2.1549510152
 30
0.0
 10
3.3593631896
 20
2.156770795
 30
0.0
 10
3.3528126868
 20
2.1582826463
 30
0.0
 10
3.3462123605
 20
2.159474111
 30
0.0
 10
3.3395730424
 20
2.1603331588
 30
0.0
 10
3.3329070717
 20
2.1608525351
 30
0.0
 10
3.3262274844
 20
2.1610258193
 30
0.0
 10
3.3195478972
 20
2.1608525351
 30
0.0
 10
3.3128819265
 20
2.1603331588
 30
0.0
 10
3.3062426084
 20
2.159474111
 30
0.0
 10
3.2996422821
 20
2.1582826463
 30
0.0
 10
3.2930917793
 20
2.156770795
 30
0.0
 10
3.2866007897
 20
2.1549510152
 30
0.0
 10
3.2801769797
 20
2.1528388614
 30
0.0
 10
3.271696153
 20
2.1496481918
 30
0.0
 10
3.261289092
 20
2.1450049475
 30
0.0
 10
3.2491624437
 20
2.1385370269
 30
0.0
 10
3.2373755635
 20
2.1312872922
 30
0.0
 10
3.229761341
 20
2.1260232039
 30
0.0
 10
3.2260056212
 20
2.1232960803
 30
0.0
  0
SPLINE
  5
5ED
100
AcDbEntity
  8
0
100
AcDbSpline
 62
7
  6
CONTINUOUS
 70
0
 71
3
 72
51
 73
47
 74
0
 42
0.0000001
 43
0.0000001
 44
0.0000000001
 40
0.0
 40
0.0
 40
0.0
 40
0.0
 40
0.0087535638
 40
0.0174833615
 40
0.0261668255
 40
0.0347890195
 40
0.0433394903
 40
0.0518133775
 40
0.0685246456
 40
0.1011186825
 40
0.1171269561
 40
0.1329797587
 40
0.1487075366
 40
0.1643344628
 40
0.1953500391
 40
0.2261470841
 40
0.2567952834
 40
0.2873404716
 40
0.3178137974
 40
0.3482369618
 40
0.3786246916
 40
0.4089880844
 40
0.4393352289
 40
0.5000000257
 40
0.5606648268
 40
0.5910119918
 40
0.6213753898
 40
0.6517631273
 40
0.6821862696
 40
0.7126595754
 40
0.7432047528
 40
0.7738529379
 40
0.8046499643
 40
0.8356655253
 40
0.8512924433
 40
0.8670202139
 40
0.882873012
 40
0.898881289
 40
0.9314753307
 40
0.9481865991
 40
0.9566604909
 40
0.965210964
 40
0.9738331581
 40
0.9825166224
 40
0.9912464291
 40
1.0
 40
1.0
 40
1.0
 40
1.0
 10
4.3756932586
 20
4.158752795
 30
0.0
 10
4.3756932586
 20
4.1593749988
 30
0.0
 10
4.3757511715
 20
4.160618484
 30
0.0
 10
4.3760086739
 20
4.1624629844
 30
0.0
 10
4.3764280533
 20
4.164267919
 30
0.0
 10
4.3769961771
 20
4.1660179781
 30
0.0
 10
4.3776978192
 20
4.1677025363
 30
0.0
 10
4.3787847453
 20
4.1698422028
 30
0.0
 10
4.3810218914
 20
4.1733000295
 30
0.0
 10
4.3842122069
 20
4.1767239446
 30
0.0
 10
4.3877398162
 20
4.1796503952
 30
0.0
 10
4.3904961771
 20
4.1816164926
 30
0.0
 10
4.3933471018
 20
4.1833896277
 30
0.0
 10
4.397236784
 20
4.1855205071
 30
0.0
 10
4.4022500254
 20
4.187811969
 30
0.0
 10
4.4084240187
 20
4.1900787556
 30
0.0
 10
4.4146946161
 20
4.191944525
 30
0.0
 10
4.4210305382
 20
4.1934749161
 30
0.0
 10
4.4274116897
 20
4.1947200876
 30
0.0
 10
4.4338243735
 20
4.1957180321
 30
0.0
 10
4.4402589456
 20
4.1964986467
 30
0.0
 10
4.446708584
 20
4.1970844742
 30
0.0
 10
4.4553197833
 20
4.1976266995
 30
0.0
 10
4.4661024904
 20
4.197888907
 30
0.0
 10
4.4768851979
 20
4.1976266913
 30
0.0
 10
4.4854964008
 20
4.1970844834
 30
0.0
 10
4.4919460394
 20
4.1964986339
 30
0.0
 10
4.4983806133
 20
4.1957180394
 30
0.0
 10
4.5047932924
 20
4.1947200791
 30
0.0
 10
4.5111744407
 20
4.1934749127
 30
0.0
 10
4.5175103603
 20
4.1919445239
 30
0.0
 10
4.5237809544
 20
4.1900787545
 30
0.0
 10
4.5299549442
 20
4.1878119681
 30
0.0
 10
4.5349681832
 20
4.1855205082
 30
0.0
 10
4.538857863
 20
4.1833896291
 30
0.0
 10
4.5417087874
 20
4.1816164963
 30
0.0
 10
4.5444651479
 20
4.1796503992
 30
0.0
 10
4.5479927573
 20
4.1767239484
 30
0.0
 10
4.5511830741
 20
4.1733000337
 30
0.0
 10
4.5534202212
 20
4.1698422069
 30
0.0
 10
4.554507148
 20
4.1677025401
 30
0.0
 10
4.5552087907
 20
4.1660179816
 30
0.0
 10
4.5557769147
 20
4.1642679224
 30
0.0
 10
4.5561962945
 20
4.1624629872
 30
0.0
 10
4.5564537971
 20
4.1606184857
 30
0.0
 10
4.5565117104
 20
4.1593749993
 30
0.0
 10
4.5565117104
 20
4.158752795
 30
0.0
  0
SPLINE
  5
5EE
100
AcDbEntity
  8
0
100
AcDbSpline
 62
7
  6
CONTINUOUS
 70
0
 71
3
 72
51
 73
47
 74
0
 42
0.0000001
 43
0.0000001
 44
0.0000000001
 40
0.0
 40
0.0
 40
0.0
 40
0.0
 40
0.0087535639
 40
0.0174833619
 40
0.0261668258
 40
0.0347890198
 40
0.0433394905
 40
0.0518133778
 40
0.0685246459
 40
0.1011186828
 40
0.1171269565
 40
0.132979759
 40
0.1487075368
 40
0.1643344628
 40
0.1953500387
 40
0.2261470831
 40
0.256795282
 40
0.2873404697
 40
0.3178137951
 40
0.3482369594
 40
0.3786246897
 40
0.4089880828
 40
0.4393352279
 40
0.5000000246
 40
0.5606648256
 40
0.5910119907
 40
0.6213753891
 40
0.651763127
 40
0.6821862696
 40
0.7126595753
 40
0.7432047528
 40
0.7738529378
 40
0.804649964
 40
0.8356655248
 40
0.8512924427
 40
0.8670202134
 40
0.8828730115
 40
0.8988812887
 40
0.9314753306
 40
0.9481865988
 40
0.9566604907
 40
0.9652109638
 40
0.9738331579
 40
0.9825166221
 40
0.991246429
 40
1.0
 40
1.0
 40
1.0
 40
1.0
 10
4.0944432586
 20
4.158752795
 30
0.0
 10
4.0944432586
 20
4.1593749988
 30
0.0
 10
4.0945011715
 20
4.160618484
 30
0.0
 10
4.0947586739
 20
4.1624629845
 30
0.0
 10
4.0951780533
 20
4.164267919
 30
0.0
 10
4.0957461771
 20
4.1660179782
 30
0.0
 10
4.0964478192
 20
4.1677025364
 30
0.0
 10
4.0975347454
 20
4.1698422029
 30
0.0
 10
4.0997718914
 20
4.1733000295
 30
0.0
 10
4.102962207
 20
4.1767239447
 30
0.0
 10
4.1064898162
 20
4.1796503953
 30
0.0
 10
4.1092461772
 20
4.1816164927
 30
0.0
 10
4.1120971018
 20
4.1833896277
 30
0.0
 10
4.1159867839
 20
4.1855205071
 30
0.0
 10
4.1210000253
 20
4.1878119689
 30
0.0
 10
4.1271740185
 20
4.1900787555
 30
0.0
 10
4.1334446158
 20
4.1919445249
 30
0.0
 10
4.1397805379
 20
4.193474916
 30
0.0
 10
4.1461616893
 20
4.1947200874
 30
0.0
 10
4.152574373
 20
4.1957180323
 30
0.0
 10
4.1590089453
 20
4.1964986465
 30
0.0
 10
4.1654585836
 20
4.1970844744
 30
0.0
 10
4.1740697831
 20
4.1976266993
 30
0.0
 10
4.1848524901
 20
4.197888907
 30
0.0
 10
4.1956351977
 20
4.1976266914
 30
0.0
 10
4.2042464006
 20
4.1970844834
 30
0.0
 10
4.2106960393
 20
4.196498634
 30
0.0
 10
4.2171306132
 20
4.1957180394
 30
0.0
 10
4.2235432923
 20
4.1947200791
 30
0.0
 10
4.2299244407
 20
4.1934749127
 30
0.0
 10
4.2362603602
 20
4.1919445239
 30
0.0
 10
4.2425309544
 20
4.1900787546
 30
0.0
 10
4.2487049441
 20
4.1878119681
 30
0.0
 10
4.2537181831
 20
4.1855205082
 30
0.0
 10
4.2576078629
 20
4.1833896292
 30
0.0
 10
4.2604587873
 20
4.1816164964
 30
0.0
 10
4.2632151478
 20
4.1796503993
 30
0.0
 10
4.2667427572
 20
4.1767239484
 30
0.0
 10
4.2699330741
 20
4.1733000337
 30
0.0
 10
4.2721702212
 20
4.1698422069
 30
0.0
 10
4.273257148
 20
4.1677025402
 30
0.0
 10
4.2739587907
 20
4.1660179817
 30
0.0
 10
4.2745269147
 20
4.1642679224
 30
0.0
 10
4.2749462945
 20
4.1624629872
 30
0.0
 10
4.2752037971
 20
4.1606184857
 30
0.0
 10
4.2752617104
 20
4.1593749993
 30
0.0
 10
4.2752617104
 20
4.158752795
 30
0.0
  0
LINE
  5
5EF
100
AcDbEntity
  8
0
100
AcDbLine
 62
7
  6
CONTINUOUS
 10
2.2294774845
 20
3.065177549
 11
2.2290027213
 21
3.0651246992
  0
LINE
  5
5F0
100
AcDbEntity
  8
0
100
AcDbLine
 62
7
  6
CONTINUOUS
 10
2.2290027213
 20
3.0651246992
 11
2.2285355966
 21
3.0650732521
  0
LINE
  5
5F1
100
AcDbEntity
  8
0
100
AcDbLine
 62
7
  6
CONTINUOUS
 10
2.2285355966
 20
3.0650732521
 11
2.2212274845
 21
3.0644700029
  0
LINE
  5
5F2
100
AcDbEntity
  8
0
100
AcDbLine
 62
7
  6
CONTINUOUS
 10
2.2012274845
 20
3.0614872175
 11
2.2010658605
 21
3.0614093737
  0
LINE
  5
5F3
100
AcDbEntity
  8
0
100
AcDbLine
 62
7
  6
CONTINUOUS
 10
2.2010658605
 20
3.0614093737
 11
2.1939701539
 21
3.0599169326
  0
LINE
  5
5F4
100
AcDbEntity
  8
0
100
AcDbLine
 62
7
  6
CONTINUOUS
 10
2.3461274845
 20
3.0714775769
 11
2.3451041825
 21
3.0714197048
  0
SPLINE
  5
5F5
100
AcDbEntity
  8
0
100
AcDbSpline
 62
7
  6
CONTINUOUS
 70
0
 71
3
 72
22
 73
18
 74
0
 42
0.0000001
 43
0.0000001
 44
0.0000000001
 40
0.0
 40
0.0
 40
0.0
 40
0.0
 40
0.0239309152
 40
0.0589290211
 40
0.1065170639
 40
0.1668264436
 40
0.237892756
 40
0.3174917651
 40
0.40371694
 40
0.4941702802
 40
0.672841227
 40
0.7544482343
 40
0.8278918634
 40
0.8907222999
 40
0.9402325615
 40
0.9760732219
 40
1.0
 40
1.0
 40
1.0
 40
1.0
 10
2.3451041825
 20
3.0714197048
 30
0.0
 10
2.3447816271
 20
3.0714055053
 30
0.0
 10
2.343987112
 20
3.0713758759
 30
0.0
 10
2.342550576
 20
3.0713353884
 30
0.0
 10
2.3406230784
 20
3.0712953554
 30
0.0
 10
2.3382088243
 20
3.0712591007
 30
0.0
 10
2.3353626152
 20
3.0712259126
 30
0.0
 10
2.332166702
 20
3.0711963689
 30
0.0
 10
2.3287091666
 20
3.0711730619
 30
0.0
 10
2.3239149332
 20
3.0711554134
 30
0.0
 10
2.319182954
 20
3.0711667651
 30
0.0
 10
2.3146805828
 20
3.0711950122
 30
0.0
 10
2.3117411146
 20
3.0712208633
 30
0.0
 10
2.3092347502
 20
3.0712511375
 30
0.0
 10
2.3072358516
 20
3.0712877948
 30
0.0
 10
2.3057620439
 20
3.0713280977
 30
0.0
 10
2.304956264
 20
3.0713595671
 30
0.0
 10
2.3046338332
 20
3.0713752502
 30
0.0
  0
LINE
  5
5F6
100
AcDbEntity
  8
0
100
AcDbLine
 62
7
  6
CONTINUOUS
 10
2.3046338332
 20
3.0713752502
 11
2.3036274845
 21
3.0714446543
  0
LINE
  5
5F7
100
AcDbEntity
  8
0
100
AcDbLine
 62
7
  6
CONTINUOUS
 10
2.3036274845
 20
3.0719448531
 11
2.3042191285
 21
3.0718978021
  0
SPLINE
  5
5F8
100
AcDbEntity
  8
0
100
AcDbSpline
 62
7
  6
CONTINUOUS
 70
0
 71
3
 72
23
 73
19
 74
0
 42
0.0000001
 43
0.0000001
 44
0.0000000001
 40
0.0
 40
0.0
 40
0.0
 40
0.0
 40
0.0218163106
 40
0.0590811417
 40
0.1153322637
 40
0.1903769382
 40
0.2797389488
 40
0.3794484037
 40
0.4854346216
 40
0.5915015303
 40
0.6913557333
 40
0.7810170786
 40
0.857045951
 40
0.9156596776
 40
0.9563309941
 40
0.9816501121
 40
0.9951267143
 40
1.0
 40
1.0
 40
1.0
 40
1.0
 10
2.3042191285
 20
3.0718978021
 30
0.0
 10
2.304523332
 20
3.0718795552
 30
0.0
 10
2.3053478412
 20
3.0718420084
 30
0.0
 10
2.3069582068
 20
3.0717933994
 30
0.0
 10
2.3093124446
 20
3.071749281
 30
0.0
 10
2.3123946047
 20
3.0717141858
 30
0.0
 10
2.3160839106
 20
3.0716849833
 30
0.0
 10
2.3202055016
 20
3.0716645348
 30
0.0
 10
2.3245604972
 20
3.0716582156
 30
0.0
 10
2.3289174923
 20
3.0716737368
 30
0.0
 10
2.3330463577
 20
3.0717034998
 30
0.0
 10
2.33675554
 20
3.0717410486
 30
0.0
 10
2.3398885561
 20
3.0717825221
 30
0.0
 10
2.3423370766
 20
3.0718295553
 30
0.0
 10
2.3440769975
 20
3.07187836
 30
0.0
 10
2.3451862674
 20
3.0719215447
 30
0.0
 10
2.3457954183
 20
3.0719539978
 30
0.0
 10
2.3460511949
 20
3.0719711642
 30
0.0
 10
2.3461190184
 20
3.071977005
 30
0.0
  0
LINE
  5
5F9
100
AcDbEntity
  8
0
100
AcDbLine
 62
7
  6
CONTINUOUS
 10
6.1744619932
 20
3.062248987
 11
6.1911213671
 21
3.0649402806
  0
LINE
  5
5FA
100
AcDbEntity
  8
0
100
AcDbLine
 62
7
  6
CONTINUOUS
 10
6.3304774845
 20
3.0766365261
 11
6.331582553
 21
3.0766432315
  0
LINE
  5
5FB
100
AcDbEntity
  8
0
100
AcDbLine
 62
7
  6
CONTINUOUS
 10
6.331582553
 20
3.0766432315
 11
6.3412274845
 21
3.0769252898
  0
LINE
  5
5FC
100
AcDbEntity
  8
0
100
AcDbLine
 62
7
  6
CONTINUOUS
 10
6.3862274845
 20
3.0742426468
 11
6.3990600794
 21
3.0733836951
  0
SPLINE
  5
5FD
100
AcDbEntity
  8
0
100
AcDbSpline
 62
7
  6
CONTINUOUS
 70
0
 71
3
 72
28
 73
24
 74
0
 42
0.0000001
 43
0.0000001
 44
0.0000000001
 40
0.0
 40
0.0
 40
0.0
 40
0.0
 40
0.0006075553
 40
0.0016719453
 40
0.0054831272
 40
0.0116369297
 40
0.0201469793
 40
0.0310034768
 40
0.0441835206
 40
0.0596581574
 40
0.0773901811
 40
0.0973381392
 40
0.1194532183
 40
0.1699681263
 40
0.2284484186
 40
0.2943312346
 40
0.3669819483
 40
0.4457010355
 40
0.5297309242
 40
0.6182646031
 40
0.7104544399
 40
0.8054109208
 40
1.0
 40
1.0
 40
1.0
 40
1.0
 10
6.3592274845
 20
3.0763502433
 30
0.0
 10
6.3592274845
 20
3.0763471926
 30
0.0
 10
6.3592334726
 20
3.0763397924
 30
0.0
 10
6.3592575479
 20
3.0763273653
 30
0.0
 10
6.3593112576
 20
3.0763109776
 30
0.0
 10
6.3594015363
 20
3.0762911286
 30
0.0
 10
6.3595278643
 20
3.0762685693
 30
0.0
 10
6.3596893524
 20
3.0762438142
 30
0.0
 10
6.3598859445
 20
3.0762168992
 30
0.0
 10
6.3601170601
 20
3.0761879756
 30
0.0
 10
6.3603821815
 20
3.0761571192
 30
0.0
 10
6.3606806468
 20
3.0761244239
 30
0.0
 10
6.3611430165
 20
3.0760763239
 30
0.0
 10
6.3617982914
 20
3.0760127358
 30
0.0
 10
6.3626728252
 20
3.0759334434
 30
0.0
 10
6.3636584836
 20
3.0758489724
 30
0.0
 10
6.3647457574
 20
3.075760151
 30
0.0
 10
6.3659241659
 20
3.075667855
 30
0.0
 10
6.3671823644
 20
3.0755729811
 30
0.0
 10
6.368508266
 20
3.0754764482
 30
0.0
 10
6.3698891218
 20
3.0753791879
 30
0.0
 10
6.3718014907
 20
3.0752487245
 30
0.0
 10
6.3732523283
 20
3.0751543423
 30
0.0
 10
6.3742274845
 20
3.0750928571
 30
0.0
  0
SPLINE
  5
5FE
100
AcDbEntity
  8
0
100
AcDbSpline
 62
7
  6
CONTINUOUS
 70
0
 71
3
 72
56
 73
52
 74
0
 42
0.0000001
 43
0.0000001
 44
0.0000000001
 40
0.0
 40
0.0
 40
0.0
 40
0.0
 40
0.0000409455
 40
0.000076069
 40
0.0001224163
 40
0.0002501093
 40
0.0004254479
 40
0.0006488862
 40
0.0009206283
 40
0.0016093769
 40
0.0024919801
 40
0.0035682804
 40
0.0048380069
 40
0.0063008382
 40
0.0079563309
 40
0.0098038698
 40
0.0118428161
 40
0.0140725249
 40
0.0191011943
 40
0.0248828758
 40
0.0314099169
 40
0.0386732819
 40
0.0466633258
 40
0.0553690974
 40
0.064779051
 40
0.074880418
 40
0.0856598268
 40
0.0971027579
 40
0.1219176022
 40
0.1491933077
 40
0.1787858618
 40
0.2105398095
 40
0.2442892466
 40
0.2798588474
 40
0.3170649339
 40
0.3557165561
 40
0.3956166595
 40
0.4365630543
 40
0.4783494531
 40
0.5207663969
 40
0.5636018608
 40
0.6066418315
 40
0.6496705583
 40
0.6924705343
 40
0.7348223014
 40
0.7765042962
 40
0.8172928496
 40
0.8569624202
 40
0.9320446594
 40
0.9670174906
 40
1.0
 40
1.0
 40
1.0
 40
1.0
 10
5.2741826099
 20
1.7934795134
 30
0.0
 10
5.2741828417
 20
1.7934749213
 30
0.0
 10
5.274190948
 20
1.7934685046
 30
0.0
 10
5.2742028347
 20
1.7934628256
 30
0.0
 10
5.2742252223
 20
1.793454752
 30
0.0
 10
5.2742632199
 20
1.7934455123
 30
0.0
 10
5.2743214303
 20
1.7934346708
 30
0.0
 10
5.2743959008
 20
1.7934236798
 30
0.0
 10
5.2745278626
 20
1.7934073589
 30
0.0
 10
5.2747338802
 20
1.7933873727
 30
0.0
 10
5.2750302762
 20
1.7933639491
 30
0.0
 10
5.2753920273
 20
1.7933397866
 30
0.0
 10
5.2758190101
 20
1.7933148683
 30
0.0
 10
5.2763110901
 20
1.7932892324
 30
0.0
 10
5.2768680975
 20
1.7932628792
 30
0.0
 10
5.2774898324
 20
1.7932358227
 30
0.0
 10
5.2781760744
 20
1.7932080664
 30
0.0
 10
5.2792193456
 20
1.7931685294
 30
0.0
 10
5.2806827722
 20
1.7931178572
 30
0.0
 10
5.282628655
 20
1.7930561973
 30
0.0
 10
5.2848254976
 20
1.7929913779
 30
0.0
 10
5.2872703316
 20
1.7929233413
 30
0.0
 10
5.2899598218
 20
1.7928520419
 30
0.0
 10
5.2928903522
 20
1.7927774054
 30
0.0
 10
5.2960579572
 20
1.7926993727
 30
0.0
 10
5.299458397
 20
1.792617731
 30
0.0
 10
5.3030870977
 20
1.7925322403
 30
0.0
 10
5.3083675963
 20
1.7924097223
 30
0.0
 10
5.31550008
 20
1.7922474679
 30
0.0
 10
5.3246701379
 20
1.7920404644
 30
0.0
 10
5.3346191859
 20
1.7918149779
 30
0.0
 10
5.3452949517
 20
1.791570968
 30
0.0
 10
5.3566415909
 20
1.7913060432
 30
0.0
 10
5.3686001358
 20
1.7910199941
 30
0.0
 10
5.3811087941
 20
1.7907122047
 30
0.0
 10
5.3941032989
 20
1.7903809007
 30
0.0
 10
5.4075173739
 20
1.7900272568
 30
0.0
 10
5.4212829788
 20
1.7896509197
 30
0.0
 10
5.4353306871
 20
1.7892520392
 30
0.0
 10
5.4495900606
 20
1.7888340669
 30
0.0
 10
5.4639897358
 20
1.7883983893
 30
0.0
 10
5.4784577309
 20
1.7879493388
 30
0.0
 10
5.4929215513
 20
1.7874943015
 30
0.0
 10
5.5073080161
 20
1.7870381033
 30
0.0
 10
5.5215435032
 20
1.7865921717
 30
0.0
 10
5.5355536456
 20
1.7861666774
 30
0.0
 10
5.5492634233
 20
1.7857730116
 30
0.0
 10
5.566723525
 20
1.7853191592
 30
0.0
 10
5.5835332021
 20
1.7849715773
 30
0.0
 10
5.5995942758
 20
1.7847864559
 30
0.0
 10
5.6072251681
 20
1.7847533192
 30
0.0
 10
5.6109288542
 20
1.7847532927
 30
0.0
  0
LINE
  5
5FF
100
AcDbEntity
  8
0
100
AcDbLine
 62
7
  6
CONTINUOUS
 10
6.4215576509
 20
3.0706966541
 11
6.4254774845
 21
3.0704494535
  0
SPLINE
  5
600
100
AcDbEntity
  8
0
100
AcDbSpline
 62
7
  6
CONTINUOUS
 70
0
 71
3
 72
60
 73
56
 74
0
 42
0.0000001
 43
0.0000001
 44
0.0000000001
 40
0.0
 40
0.0
 40
0.0
 40
0.0
 40
0.0000113181
 40
0.0000267224
 40
0.0000520931
 40
0.0000887976
 40
0.0001372527
 40
0.0001976321
 40
0.0002700236
 40
0.0003544773
 40
0.0005596811
 40
0.0008133962
 40
0.0011156952
 40
0.0014666171
 40
0.0018661577
 40
0.0023142846
 40
0.0033561356
 40
0.0045918236
 40
0.0060209676
 40
0.0076431104
 40
0.0094576404
 40
0.0114639203
 40
0.0136613091
 40
0.0186265754
 40
0.0243470249
 40
0.0308155453
 40
0.0380229038
 40
0.0459591633
 40
0.0546139309
 40
0.0639764109
 40
0.0740340574
 40
0.0847734408
 40
0.0961801444
 40
0.1209348094
 40
0.1481697829
 40
0.177741022
 40
0.2094948749
 40
0.2432663017
 40
0.2788791365
 40
0.316149844
 40
0.3548855419
 40
0.3948863492
 40
0.4359468761
 40
0.5203975754
 40
0.5633539935
 40
0.6065036057
 40
0.6924907713
 40
0.7348812301
 40
0.7765724431
 40
0.817344425
 40
0.8569793288
 40
0.8952647413
 40
0.9319942583
 40
0.9669681816
 40
1.0
 40
1.0
 40
1.0
 40
1.0
 10
5.2629231142
 20
1.8264030046
 30
0.0
 10
5.2629223495
 20
1.8264040987
 30
0.0
 10
5.2629218506
 20
1.8264078273
 30
0.0
 10
5.2629272604
 20
1.8264119089
 30
0.0
 10
5.2629353347
 20
1.826415655
 30
0.0
 10
5.262947923
 20
1.826419565
 30
0.0
 10
5.2629645773
 20
1.826423529
 30
0.0
 10
5.2629855906
 20
1.8264275645
 30
0.0
 10
5.2630108783
 20
1.8264316437
 30
0.0
 10
5.2630531758
 20
1.8264375251
 30
0.0
 10
5.263116859
 20
1.8264447374
 30
0.0
 10
5.2632062482
 20
1.8264530966
 30
0.0
 10
5.263312875
 20
1.826461581
 30
0.0
 10
5.2634367378
 20
1.8264701805
 30
0.0
 10
5.2635778285
 20
1.8264788858
 30
0.0
 10
5.2638003295
 20
1.8264912639
 30
0.0
 10
5.2641214184
 20
1.8265067208
 30
0.0
 10
5.2645581945
 20
1.8265249539
 30
0.0
 10
5.265063442
 20
1.8265436732
 30
0.0
 10
5.2656369803
 20
1.8265628965
 30
0.0
 10
5.2662786029
 20
1.8265826223
 30
0.0
 10
5.2669880828
 20
1.8266028582
 30
0.0
 10
5.268069054
 20
1.8266317206
 30
0.0
 10
5.2695879989
 20
1.8266687376
 30
0.0
 10
5.2716106241
 20
1.8267134435
 30
0.0
 10
5.2738976987
 20
1.8267598026
 30
0.0
 10
5.2764461085
 20
1.8268082217
 30
0.0
 10
5.2792523557
 20
1.8268591242
 30
0.0
 10
5.2823127714
 20
1.8269122772
 30
0.0
 10
5.2856233805
 20
1.8269673482
 30
0.0
 10
5.2891798418
 20
1.8270244799
 30
0.0
 10
5.2929773865
 20
1.8270839039
 30
0.0
 10
5.2985080676
 20
1.827168682
 30
0.0
 10
5.3059839966
 20
1.8272808476
 30
0.0
 10
5.315602024
 20
1.8274203985
 30
0.0
 10
5.3260454369
 20
1.8275712472
 30
0.0
 10
5.3372596734
 20
1.8277322108
 30
0.0
 10
5.3491863663
 20
1.8279032244
 30
0.0
 10
5.3617635976
 20
1.8280860337
 30
0.0
 10
5.3749262201
 20
1.8282785792
 30
0.0
 10
5.3886062466
 20
1.8284817265
 30
0.0
 10
5.4027331273
 20
1.8286952633
 30
0.0
 10
5.4222508258
 20
1.8289937989
 30
0.0
 10
5.4421169328
 20
1.8293058451
 30
0.0
 10
5.462229346
 20
1.8296244955
 30
0.0
 10
5.4825229155
 20
1.8299477083
 30
0.0
 10
5.5027498063
 20
1.830266138
 30
0.0
 10
5.5228049286
 20
1.8305682877
 30
0.0
 10
5.537528296
 20
1.8307778427
 30
0.0
 10
5.5519269068
 20
1.8309689075
 30
0.0
 10
5.565924148
 20
1.8311337882
 30
0.0
 10
5.579444935
 20
1.8312684256
 30
0.0
 10
5.5924163042
 20
1.8313695002
 30
0.0
 10
5.6047683268
 20
1.8314299327
 30
0.0
 10
5.6127887163
 20
1.8314461088
 30
0.0
 10
5.6166843876
 20
1.8314463208
 30
0.0
  0
LINE
  5
601
100
AcDbEntity
  8
0
100
AcDbLine
 62
7
  6
CONTINUOUS
 10
6.2636274845
 20
3.0747819097
 11
6.2642136777
 21
3.0747653967
  0
SPLINE
  5
602
100
AcDbEntity
  8
0
100
AcDbSpline
 62
7
  6
CONTINUOUS
 70
0
 71
3
 72
23
 73
19
 74
0
 42
0.0000001
 43
0.0000001
 44
0.0000000001
 40
0.0
 40
0.0
 40
0.0
 40
0.0
 40
0.0217631812
 40
0.059073824
 40
0.1155119882
 40
0.1908723414
 40
0.28059776
 40
0.380680103
 40
0.4869928526
 40
0.5932606681
 40
0.6932051109
 40
0.782851222
 40
0.8587112791
 40
0.9169958139
 40
0.9572912972
 40
0.9822504923
 40
0.9954057765
 40
1.0
 40
1.0
 40
1.0
 40
1.0
 10
6.2642136777
 20
3.0747653967
 30
0.0
 10
6.2645181685
 20
3.0747627675
 30
0.0
 10
6.265344758
 20
3.0747677637
 30
0.0
 10
6.2669606172
 20
3.0748024644
 30
0.0
 10
6.2693254844
 20
3.0748804823
 30
0.0
 10
6.2724224491
 20
3.0750055206
 30
0.0
 10
6.2761290267
 20
3.0751679843
 30
0.0
 10
6.2802677094
 20
3.075361642
 30
0.0
 10
6.2846368544
 20
3.0755815384
 30
0.0
 10
6.2890029183
 20
3.0758231862
 30
0.0
 10
6.2931352856
 20
3.0760668257
 30
0.0
 10
6.2968422882
 20
3.0762961372
 30
0.0
 10
6.2999668974
 20
3.076499219
 30
0.0
 10
6.3024014823
 20
3.0766722591
 30
0.0
 10
6.3041245087
 20
3.0768101218
 30
0.0
 10
6.3052171227
 20
3.0769095115
 30
0.0
 10
6.3058113896
 20
3.0769722409
 30
0.0
 10
6.3060580115
 20
3.0770016406
 30
0.0
 10
6.3061216812
 20
3.0770104815
 30
0.0
  0
LINE
  5
603
100
AcDbEntity
  8
0
100
AcDbLine
 62
7
  6
CONTINUOUS
 10
6.4061582824
 20
3.0724279839
 11
6.4072297222
 21
3.0723036648
  0
LINE
  5
604
100
AcDbEntity
  8
0
100
AcDbLine
 62
7
  6
CONTINUOUS
 10
6.3061274845
 20
3.076511143
 11
6.3049655276
 21
3.0763872947
  0
SPLINE
  5
605
100
AcDbEntity
  8
0
100
AcDbSpline
 62
7
  6
CONTINUOUS
 70
0
 71
3
 72
21
 73
17
 74
0
 42
0.0000001
 43
0.0000001
 44
0.0000000001
 40
0.0
 40
0.0
 40
0.0
 40
0.0
 40
0.025533687
 40
0.0622549954
 40
0.1114877028
 40
0.1730573544
 40
0.2448611081
 40
0.3248041996
 40
0.5010661694
 40
0.6779433356
 40
0.7585008725
 40
0.8309050453
 40
0.8927195954
 40
0.9413230899
 40
0.9765009198
 40
1.0
 40
1.0
 40
1.0
 40
1.0
 10
6.3049655276
 20
3.0763872947
 30
0.0
 10
6.3046231266
 20
3.0763551969
 30
0.0
 10
6.3037878033
 20
3.0762822579
 30
0.0
 10
6.3022908251
 20
3.0761646255
 30
0.0
 10
6.3003089363
 20
3.0760229516
 30
0.0
 10
6.2978548426
 20
3.0758607386
 30
0.0
 10
6.2949874649
 20
3.0756799647
 30
0.0
 10
6.2905777597
 20
3.0754124993
 30
0.0
 10
6.2847541353
 20
3.0750811091
 30
0.0
 10
6.2789198381
 20
3.0747947248
 30
0.0
 10
6.2744819343
 20
3.0745936295
 30
0.0
 10
6.2715918483
 20
3.0744699358
 30
0.0
 10
6.2691314008
 20
3.0743728756
 30
0.0
 10
6.2671714818
 20
3.074308096
 30
0.0
 10
6.2657269655
 20
3.0742733709
 30
0.0
 10
6.2649366999
 20
3.0742636615
 30
0.0
 10
6.2646202022
 20
3.0742627944
 30
0.0
  0
LINE
  5
606
100
AcDbEntity
  8
0
100
AcDbLine
 62
7
  6
CONTINUOUS
 10
6.2646202022
 20
3.0742627944
 11
6.2636274845
 21
3.0742803102
  0
LINE
  5
607
100
AcDbEntity
  8
0
100
AcDbLine
 62
7
  6
CONTINUOUS
 10
6.3412274845
 20
3.0764250783
 11
6.3406748941
 21
3.0763416789
  0
LINE
  5
608
100
AcDbEntity
  8
0
100
AcDbLine
 62
7
  6
CONTINUOUS
 10
6.3406748941
 20
3.0763416789
 11
6.3315825562
 21
3.0761428379
  0
LINE
  5
609
100
AcDbEntity
  8
0
100
AcDbLine
 62
7
  6
CONTINUOUS
 10
6.3315825562
 20
3.0761428379
 11
6.3304774845
 21
3.0761361281
  0
SPLINE
  5
60A
100
AcDbEntity
  8
0
100
AcDbSpline
 62
7
  6
CONTINUOUS
 70
0
 71
3
 72
24
 73
20
 74
0
 42
0.0000001
 43
0.0000001
 44
0.0000000001
 40
0.0
 40
0.0
 40
0.0
 40
0.0
 40
0.0541107126
 40
0.1075755614
 40
0.1608532027
 40
0.2143964322
 40
0.2686299189
 40
0.3239416087
 40
0.3806821254
 40
0.4391725574
 40
0.4997140322
 40
0.5625951576
 40
0.6280945225
 40
0.6964650148
 40
0.7678932575
 40
0.80477998
 40
0.8424394989
 40
0.9199409278
 40
1.0
 40
1.0
 40
1.0
 40
1.0
 10
5.9909879119
 20
1.2023244783
 30
0.0
 10
5.9884375785
 20
1.2033283126
 30
0.0
 10
5.983465943
 20
1.2055867485
 30
0.0
 10
5.9764294161
 20
1.2097218243
 30
0.0
 10
5.9698813699
 20
1.2145455952
 30
0.0
 10
5.9638208396
 20
1.2200253896
 30
0.0
 10
5.9582383979
 20
1.2261300034
 30
0.0
 10
5.9531183095
 20
1.2328302658
 30
0.0
 10
5.9484381117
 20
1.2401007229
 30
0.0
 10
5.9441675284
 20
1.2479204421
 30
0.0
 10
5.9402667046
 20
1.2562738599
 30
0.0
 10
5.9366845618
 20
1.2651512362
 30
0.0
 10
5.933357343
 20
1.2745476255
 30
0.0
 10
5.9302088683
 20
1.2844594973
 30
0.0
 10
5.9276913754
 20
1.2930479289
 30
0.0
 10
5.9256784273
 20
1.300162454
 30
0.0
 10
5.9236125066
 20
1.3075816354
 30
0.0
 10
5.9209944538
 20
1.3171168925
 30
0.0
 10
5.9188599315
 20
1.3248068926
 30
0.0
 10
5.9177525741
 20
1.3287078679
 30
0.0
  0
LINE
  5
60B
100
AcDbEntity
  8
0
100
AcDbLine
 62
7
  6
CONTINUOUS
 10
6.3990600794
 20
3.0728811858
 11
6.3862274845
 21
3.0737406967
  0
SPLINE
  5
60C
100
AcDbEntity
  8
0
100
AcDbSpline
 62
7
  6
CONTINUOUS
 70
0
 71
3
 72
28
 73
24
 74
0
 42
0.0000001
 43
0.0000001
 44
0.0000000001
 40
0.0
 40
0.0
 40
0.0
 40
0.0
 40
0.19458672
 40
0.2895421687
 40
0.3817307036
 40
0.4702633433
 40
0.5542928926
 40
0.6330124512
 40
0.7056643256
 40
0.77154863
 40
0.8300304358
 40
0.8805460478
 40
0.9026612336
 40
0.9226092174
 40
0.940341257
 40
0.9558158914
 40
0.9689959124
 40
0.9798523782
 40
0.9883624272
 40
0.994516272
 40
0.998327619
 40
0.9993921613
 40
1.0
 40
1.0
 40
1.0
 40
1.0
 10
6.3742274845
 20
3.0745914594
 30
0.0
 10
6.3732523374
 20
3.074652984
 30
0.0
 10
6.3718015129
 20
3.0747474264
 30
0.0
 10
6.369889163
 20
3.0748779731
 30
0.0
 10
6.3685083211
 20
3.0749752954
 30
0.0
 10
6.3671824303
 20
3.0750718899
 30
0.0
 10
6.3659242342
 20
3.0751668248
 30
0.0
 10
6.3647458175
 20
3.0752591811
 30
0.0
 10
6.363658527
 20
3.0753480612
 30
0.0
 10
6.3626728471
 20
3.0754325887
 30
0.0
 10
6.3617982946
 20
3.075511934
 30
0.0
 10
6.3611430086
 20
3.0755755644
 30
0.0
 10
6.3606806354
 20
3.0756236959
 30
0.0
 10
6.36038217
 20
3.0756564125
 30
0.0
 10
6.3601170493
 20
3.0756872888
 30
0.0
 10
6.3598859349
 20
3.0757162311
 30
0.0
 10
6.3596893443
 20
3.0757431634
 30
0.0
 10
6.359527858
 20
3.0757679345
 30
0.0
 10
6.359401532
 20
3.075790508
 30
0.0
 10
6.3593112541
 20
3.0758103704
 30
0.0
 10
6.359257546
 20
3.0758267674
 30
0.0
 10
6.3592334702
 20
3.075839204
 30
0.0
 10
6.3592274845
 20
3.075846608
 30
0.0
 10
6.3592274845
 20
3.0758496602
 30
0.0
  0
SPLINE
  5
60D
100
AcDbEntity
  8
0
100
AcDbSpline
 62
7
  6
CONTINUOUS
 70
0
 71
3
 72
20
 73
16
 74
0
 42
0.0000001
 43
0.0000001
 44
0.0000000001
 40
0.0
 40
0.0
 40
0.0
 40
0.0
 40
0.0369048759
 40
0.0769945766
 40
0.1204050189
 40
0.1672297945
 40
0.2175311825
 40
0.271346318
 40
0.3286913753
 40
0.3895676002
 40
0.4539610853
 40
0.5218481976
 40
0.6679432962
 40
0.8274927363
 40
1.0
 40
1.0
 40
1.0
 40
1.0
 10
5.9590016412
 20
1.3232197436
 30
0.0
 10
5.9585540268
 20
1.3234774597
 30
0.0
 10
5.9575962049
 20
1.3239740578
 30
0.0
 10
5.9560476202
 20
1.3246413483
 30
0.0
 10
5.954330886
 20
1.3252604438
 30
0.0
 10
5.952447729
 20
1.3258308067
 30
0.0
 10
5.9503998699
 20
1.3263519224
 30
0.0
 10
5.9481893166
 20
1.3268232573
 30
0.0
 10
5.9458182609
 20
1.3272443601
 30
0.0
 10
5.9432890952
 20
1.3276147254
 30
0.0
 10
5.9406043827
 20
1.3279340342
 30
0.0
 10
5.9367252762
 20
1.3283000513
 30
0.0
 10
5.9315055261
 20
1.3286168073
 30
0.0
 10
5.9248144585
 20
1.3287813347
 30
0.0
 10
5.9201664805
 20
1.3287532603
 30
0.0
 10
5.9177525741
 20
1.3287078679
 30
0.0
  0
LINE
  5
60E
100
AcDbEntity
  8
0
100
AcDbLine
 62
7
  6
CONTINUOUS
 10
6.1911213671
 20
3.064432207
 11
6.1744619932
 21
3.0617391139
  0
LINE
  5
60F
100
AcDbEntity
  8
0
100
AcDbLine
 62
7
  6
CONTINUOUS
 10
6.4254774845
 20
3.0699450244
 11
6.4250110733
 21
3.0699167424
  0
LINE
  5
610
100
AcDbEntity
  8
0
100
AcDbLine
 62
7
  6
CONTINUOUS
 10
6.4250110733
 20
3.0699167424
 11
6.4215576899
 21
3.0701923835
  0
LINE
  5
611
100
AcDbEntity
  8
0
100
AcDbLine
 62
7
  6
CONTINUOUS
 10
6.4466184246
 20
3.0666163631
 11
6.4436184246
 21
3.0671992763
  0
LINE
  5
612
100
AcDbEntity
  8
0
100
AcDbLine
 62
7
  6
CONTINUOUS
 10
6.4833174874
 20
3.0603749336
 11
6.463889969
 21
3.0636888919
  0
LINE
  5
613
100
AcDbEntity
  8
0
100
AcDbLine
 62
7
  6
CONTINUOUS
 10
6.463889969
 20
3.0636888919
 11
6.4622238271
 21
3.0639827708
  0
LINE
  5
614
100
AcDbEntity
  8
0
100
AcDbLine
 62
7
  6
CONTINUOUS
 10
6.4622238271
 20
3.0639827708
 11
6.4605498785
 21
3.064278914
  0
SPLINE
  5
615
100
AcDbEntity
  8
0
100
AcDbSpline
 62
6
  6
CONTINUOUS
 70
0
 71
3
 72
57
 73
53
 74
0
 42
0.0000001
 43
0.0000001
 44
0.0000000001
 40
0.0
 40
0.0
 40
0.0
 40
0.0
 40
0.0312341816
 40
0.0468558513
 40
0.0624799376
 40
0.0781035033
 40
0.0937256823
 40
0.1093536386
 40
0.1249825678
 40
0.1406117379
 40
0.1562515525
 40
0.1718869024
 40
0.1875337215
 40
0.1953627517
 40
0.2031883554
 40
0.2110138667
 40
0.2188456332
 40
0.2266790487
 40
0.2345096385
 40
0.2423382119
 40
0.2501690704
 40
0.2580024696
 40
0.2658354145
 40
0.2736637558
 40
0.2814909908
 40
0.2893218001
 40
0.2971539999
 40
0.3127954427
 40
0.3284391047
 40
0.3440779681
 40
0.3597087992
 40
0.375342347
 40
0.3909680946
 40
0.4065932843
 40
0.4222189003
 40
0.4378400316
 40
0.4534610776
 40
0.4690826175
 40
0.5003170197
 40
0.5315520946
 40
0.5627844885
 40
0.5940173353
 40
0.6252484001
 40
0.6564799148
 40
0.6877100558
 40
0.7189405251
 40
0.7501703741
 40
0.8126275787
 40
0.8750842267
 40
0.9063138401
 40
0.9375434995
 40
1.0
 40
1.0
 40
1.0
 40
1.0
 10
6.2362749748
 20
1.8902631044
 30
0.0
 10
6.2345326013
 20
1.8896208179
 30
0.0
 10
6.2319426581
 20
1.8885892497
 30
0.0
 10
6.2285606538
 20
1.8870514661
 30
0.0
 10
6.2260649201
 20
1.885810588
 30
0.0
 10
6.2236191761
 20
1.8844735025
 30
0.0
 10
6.2212343595
 20
1.8830297172
 30
0.0
 10
6.2189222062
 20
1.8814712041
 30
0.0
 10
6.216699948
 20
1.8797855581
 30
0.0
 10
6.2145901929
 20
1.8779592872
 30
0.0
 10
6.2126182484
 20
1.8759833675
 30
0.0
 10
6.2108219432
 20
1.8738439857
 30
0.0
 10
6.2095088181
 20
1.8719189252
 30
0.0
 10
6.2085955217
 20
1.8702963486
 30
0.0
 10
6.2079867578
 20
1.8690390109
 30
0.0
 10
6.2074625799
 20
1.8677438198
 30
0.0
 10
6.2070313968
 20
1.8664141588
 30
0.0
 10
6.2066984146
 20
1.8650561952
 30
0.0
 10
6.2064692211
 20
1.8636769909
 30
0.0
 10
6.2063500937
 20
1.8622839728
 30
0.0
 10
6.206345061
 20
1.8608857228
 30
0.0
 10
6.2064508449
 20
1.859491308
 30
0.0
 10
6.206665003
 20
1.8581095398
 30
0.0
 10
6.206985859
 20
1.856749004
 30
0.0
 10
6.2074076455
 20
1.8554166006
 30
0.0
 10
6.207921785
 20
1.8541169164
 30
0.0
 10
6.2087194851
 20
1.8524341246
 30
0.0
 10
6.2099108202
 20
1.8504298635
 30
0.0
 10
6.2115912141
 20
1.8481973312
 30
0.0
 10
6.2134692503
 20
1.8461305255
 30
0.0
 10
6.2155056876
 20
1.8442217331
 30
0.0
 10
6.2176690083
 20
1.84246035
 30
0.0
 10
6.2199324703
 20
1.8408310252
 30
0.0
 10
6.2222787256
 20
1.8393247557
 30
0.0
 10
6.2246923408
 20
1.8379300891
 30
0.0
 10
6.2271606512
 20
1.8366355949
 30
0.0
 10
6.22967531
 20
1.8354344059
 30
0.0
 10
6.2330794171
 20
1.8339466101
 30
0.0
 10
6.2374153011
 20
1.8322792216
 30
0.0
 10
6.2427111924
 20
1.8305444564
 30
0.0
 10
6.2480750887
 20
1.8290348864
 30
0.0
 10
6.2534900788
 20
1.8277229888
 30
0.0
 10
6.2589432197
 20
1.8265814801
 30
0.0
 10
6.2644256301
 20
1.8255919573
 30
0.0
 10
6.2699301259
 20
1.8247349028
 30
0.0
 10
6.2754517804
 20
1.82399781
 30
0.0
 10
6.2828311473
 20
1.823156466
 30
0.0
 10
6.2920807229
 20
1.8223458487
 30
0.0
 10
6.3013491126
 20
1.821800879
 30
0.0
 10
6.3087700671
 20
1.8215046708
 30
0.0
 10
6.3161939494
 20
1.8212956426
 30
0.0
 10
6.3217642177
 20
1.8212349418
 30
0.0
 10
6.3254774845
 20
1.8212349418
 30
0.0
  0
SPLINE
  5
616
100
AcDbEntity
  8
0
100
AcDbSpline
 62
6
  6
CONTINUOUS
 70
0
 71
3
 72
26
 73
22
 74
0
 42
0.0000001
 43
0.0000001
 44
0.0000000001
 40
0.0
 40
0.0
 40
0.0
 40
0.0
 40
0.0630833826
 40
0.126009533
 40
0.1887549982
 40
0.2513357204
 40
0.3137298859
 40
0.3448544698
 40
0.3759344986
 40
0.4069805135
 40
0.4380070883
 40
0.469023874
 40
0.5000371114
 40
0.5620660267
 40
0.5931006572
 40
0.6241519223
 40
0.6552294944
 40
0.6863466819
 40
0.748722951
 40
0.8740114456
 40
1.0
 40
1.0
 40
1.0
 40
1.0
 10
2.099725845
 20
1.8902631044
 30
0.0
 10
2.1028218179
 20
1.8915809181
 30
0.0
 10
2.1090369815
 20
1.894141741
 30
0.0
 10
2.1184586983
 20
1.8976957
 30
0.0
 10
2.1279815549
 20
1.9008887473
 30
0.0
 10
2.1376102867
 20
1.9036482853
 30
0.0
 10
2.1457256929
 20
1.9055301611
 30
0.0
 10
2.152260092
 20
1.90674727
 30
0.0
 10
2.1571765169
 20
1.9075065092
 30
0.0
 10
2.1621100364
 20
1.9081039652
 30
0.0
 10
2.1670579767
 20
1.908529866
 30
0.0
 10
2.1720160171
 20
1.9087839103
 30
0.0
 10
2.1786331783
 20
1.9088949662
 30
0.0
 10
2.1852534337
 20
1.9086655794
 30
0.0
 10
2.1918502363
 20
1.9080995671
 30
0.0
 10
2.1967849375
 20
1.9075065253
 30
0.0
 10
2.2017013807
 20
1.9067489744
 30
0.0
 10
2.2082344729
 20
1.9055326219
 30
0.0
 10
2.2196075898
 20
1.9028920265
 30
0.0
 10
2.2355879871
 20
1.897859449
 30
0.0
 10
2.2480459243
 20
1.8928950091
 30
0.0
 10
2.2542291239
 20
1.8902631044
 30
0.0
  0
SPLINE
  5
617
100
AcDbEntity
  8
0
100
AcDbSpline
 62
6
  6
CONTINUOUS
 70
0
 71
3
 72
26
 73
22
 74
0
 42
0.0000001
 43
0.0000001
 44
0.0000000001
 40
0.0
 40
0.0
 40
0.0
 40
0.0
 40
0.1259885537
 40
0.2512770251
 40
0.313653261
 40
0.3447704381
 40
0.3758480107
 40
0.4068992887
 40
0.4379339295
 40
0.4999628421
 40
0.5309760658
 40
0.5619928324
 40
0.5930193875
 40
0.6240653984
 40
0.655145439
 40
0.6862700431
 40
0.7486642467
 40
0.8112449709
 40
0.8739904407
 40
0.9369166072
 40
1.0
 40
1.0
 40
1.0
 40
1.0
 10
2.396725845
 20
1.8902631044
 30
0.0
 10
2.4029090446
 20
1.892895009
 30
0.0
 10
2.4153669819
 20
1.8978594454
 30
0.0
 10
2.4313473745
 20
1.9028920268
 30
0.0
 10
2.4427204874
 20
1.9055326245
 30
0.0
 10
2.4492535777
 20
1.9067489746
 30
0.0
 10
2.4541700217
 20
1.9075065219
 30
0.0
 10
2.4591047249
 20
1.9080995575
 30
0.0
 10
2.4657015281
 20
1.9086655737
 30
0.0
 10
2.4723217828
 20
1.9088949722
 30
0.0
 10
2.4789389423
 20
1.9087839238
 30
0.0
 10
2.48389698
 20
1.9085298808
 30
0.0
 10
2.4888449173
 20
1.90810397
 30
0.0
 10
2.4937784351
 20
1.9075065051
 30
0.0
 10
2.4986948609
 20
1.906747263
 30
0.0
 10
2.5052292638
 20
1.9055301542
 30
0.0
 10
2.5133446749
 20
1.9036482853
 30
0.0
 10
2.5229734109
 20
1.9008887529
 30
0.0
 10
2.5324962685
 20
1.8976957046
 30
0.0
 10
2.5419179861
 20
1.8941417428
 30
0.0
 10
2.5481331505
 20
1.8915809184
 30
0.0
 10
2.5512291239
 20
1.8902631044
 30
0.0
  0
SPLINE
  5
618
100
AcDbEntity
  8
0
100
AcDbSpline
 62
6
  6
CONTINUOUS
 70
0
 71
3
 72
71
 73
67
 74
0
 42
0.0000001
 43
0.0000001
 44
0.0000000001
 40
0.0
 40
0.0
 40
0.0
 40
0.0
 40
0.0155404751
 40
0.0311653935
 40
0.0468949331
 40
0.0627527792
 40
0.0707452014
 40
0.0787863346
 40
0.0868796429
 40
0.0950337655
 40
0.1115527589
 40
0.1199325427
 40
0.1284065998
 40
0.1369698466
 40
0.1456122701
 40
0.1543354163
 40
0.1631124067
 40
0.1675119977
 40
0.171914024
 40
0.1807104051
 40
0.189472501
 40
0.1981655482
 40
0.2067838389
 40
0.2153177871
 40
0.2237546173
 40
0.2321075879
 40
0.2403834855
 40
0.2485817476
 40
0.2567136891
 40
0.2647893783
 40
0.2728128279
 40
0.2807885751
 40
0.2966230293
 40
0.3044921818
 40
0.3123323658
 40
0.3279405971
 40
0.3357151459
 40
0.3434715507
 40
0.3589381624
 40
0.3743554612
 40
0.3897314217
 40
0.4203890903
 40
0.4356838261
 40
0.4509610843
 40
0.466223801
 40
0.4814741661
 40
0.5119466726
 40
0.5423923385
 40
0.5728207094
 40
0.6336441688
 40
0.6640509008
 40
0.6944573684
 40
0.7552782691
 40
0.7704895618
 40
0.7857041329
 40
0.8161450338
 40
0.846610416
 40
0.8771112511
 40
0.8923814052
 40
0.9076673906
 40
0.9229732383
 40
0.9383037514
 40
0.9536633809
 40
0.9690601169
 40
0.9845021849
 40
1.0
 40
1.0
 40
1.0
 40
1.0
 10
2.396725845
 20
1.8902631044
 30
0.0
 10
2.3955801069
 20
1.8897754162
 30
0.0
 10
2.3933032937
 20
1.8887470986
 30
0.0
 10
2.3899600978
 20
1.8870279366
 30
0.0
 10
2.3866982791
 20
1.8851072403
 30
0.0
 10
2.3840779714
 20
1.8833150587
 30
0.0
 10
2.3820568296
 20
1.8817504137
 30
0.0
 10
2.3805795724
 20
1.8805024137
 30
0.0
 10
2.3791535076
 20
1.8791767218
 30
0.0
 10
2.3773253135
 20
1.877291361
 30
0.0
 10
2.3756430174
 20
1.8752352004
 30
0.0
 10
2.3741701669
 20
1.8730009067
 30
0.0
 10
2.3731793939
 20
1.8712190841
 30
0.0
 10
2.3723286486
 20
1.8693428524
 30
0.0
 10
2.3716415371
 20
1.8673789035
 30
0.0
 10
2.3711444702
 20
1.8653405668
 30
0.0
 10
2.370900317
 20
1.8635995411
 30
0.0
 10
2.3708137718
 20
1.8621930966
 30
0.0
 10
2.370802935
 20
1.8607824604
 30
0.0
 10
2.3709296985
 20
1.8590239535
 30
0.0
 10
2.3712937035
 20
1.8569486553
 30
0.0
 10
2.3718608367
 20
1.8549343986
 30
0.0
 10
2.3726075745
 20
1.8529998351
 30
0.0
 10
2.3735088494
 20
1.851155542
 30
0.0
 10
2.3745435677
 20
1.8494077568
 30
0.0
 10
2.3756914879
 20
1.8477577045
 30
0.0
 10
2.376934119
 20
1.8462025637
 30
0.0
 10
2.3782550658
 20
1.8447374438
 30
0.0
 10
2.3796431174
 20
1.8433586253
 30
0.0
 10
2.3810882662
 20
1.8420609086
 30
0.0
 10
2.3825810072
 20
1.8408380659
 30
0.0
 10
2.3846198605
 20
1.8393043496
 30
0.0
 10
2.3867355524
 20
1.8378971163
 30
0.0
 10
2.3889062758
 20
1.8366019056
 30
0.0
 10
2.391099175
 20
1.8353812893
 30
0.0
 10
2.3933361372
 20
1.8342579127
 30
0.0
 10
2.3956058303
 20
1.833221218
 30
0.0
 10
2.3978880909
 20
1.8322407841
 30
0.0
 10
2.40077174
 20
1.8311109813
 30
0.0
 10
2.404273044
 20
1.8298919314
 30
0.0
 10
2.4089756816
 20
1.8284300536
 30
0.0
 10
2.4137329927
 20
1.827186927
 30
0.0
 10
2.4185224849
 20
1.8261222569
 30
0.0
 10
2.422125077
 20
1.8254068952
 30
0.0
 10
2.4257380031
 20
1.8247663255
 30
0.0
 10
2.4305649061
 20
1.8240033036
 30
0.0
 10
2.4366171774
 20
1.8232078769
 30
0.0
 10
2.4438998555
 20
1.8224673405
 30
0.0
 10
2.4536242121
 20
1.821732412
 30
0.0
 10
2.4633674411
 20
1.8213293374
 30
0.0
 10
2.4731135742
 20
1.8212117294
 30
0.0
 10
2.4828599044
 20
1.8212847913
 30
0.0
 10
2.4913859116
 20
1.8215958181
 30
0.0
 10
2.4986822199
 20
1.8220658455
 30
0.0
 10
2.503545308
 20
1.8224363039
 30
0.0
 10
2.5096179467
 20
1.8230146536
 30
0.0
 10
2.5168875813
 20
1.8239156755
 30
0.0
 10
2.5229227908
 20
1.8248693571
 30
0.0
 10
2.5277309995
 20
1.8257742778
 30
0.0
 10
2.531327096
 20
1.8265322638
 30
0.0
 10
2.5349089554
 20
1.8273764417
 30
0.0
 10
2.5384735311
 20
1.8283146991
 30
0.0
 10
2.5420162935
 20
1.8293586758
 30
0.0
 10
2.5455323472
 20
1.8305186833
 30
0.0
 10
2.549014919
 20
1.8318082604
 30
0.0
 10
2.5513034293
 20
1.8327639761
 30
0.0
 10
2.5524381369
 20
1.8332684493
 30
0.0
  0
SPLINE
  5
619
100
AcDbEntity
  8
0
100
AcDbSpline
 62
6
  6
CONTINUOUS
 70
0
 71
3
 72
71
 73
67
 74
0
 42
0.0000001
 43
0.0000001
 44
0.0000000001
 40
0.0
 40
0.0
 40
0.0
 40
0.0
 40
0.0155404752
 40
0.0311653937
 40
0.0468949336
 40
0.06275278
 40
0.0707452026
 40
0.0787863361
 40
0.0868796449
 40
0.0950337679
 40
0.1115527627
 40
0.1199325472
 40
0.128406605
 40
0.1369698533
 40
0.1456122777
 40
0.1543354243
 40
0.1631124156
 40
0.1675120069
 40
0.1719140331
 40
0.1807104133
 40
0.1894725085
 40
0.1981655548
 40
0.2067838442
 40
0.2153177915
 40
0.2237546208
 40
0.23210759
 40
0.2403834868
 40
0.2485817482
 40
0.2567136886
 40
0.2647893768
 40
0.2728128257
 40
0.2807885723
 40
0.296623025
 40
0.304492177
 40
0.3123323606
 40
0.327940591
 40
0.3357151394
 40
0.3434715439
 40
0.3589381549
 40
0.3743554532
 40
0.3897314134
 40
0.4203890813
 40
0.4356838168
 40
0.4509610747
 40
0.4662237913
 40
0.4814741562
 40
0.5119466625
 40
0.5423923282
 40
0.5728206991
 40
0.6336441583
 40
0.6640508903
 40
0.6944573577
 40
0.7552782585
 40
0.7704895513
 40
0.7857041225
 40
0.8161450238
 40
0.8466104064
 40
0.8771112422
 40
0.8923813968
 40
0.9076673828
 40
0.9229732312
 40
0.9383037451
 40
0.9536633757
 40
0.9690601131
 40
0.9845021828
 40
1.0
 40
1.0
 40
1.0
 40
1.0
 10
2.099725845
 20
1.8902631044
 30
0.0
 10
2.0985801063
 20
1.8897754159
 30
0.0
 10
2.0963032919
 20
1.8887470978
 30
0.0
 10
2.0929600943
 20
1.8870279347
 30
0.0
 10
2.089698274
 20
1.8851072371
 30
0.0
 10
2.0870779651
 20
1.8833150542
 30
0.0
 10
2.0850568225
 20
1.8817504079
 30
0.0
 10
2.0835795647
 20
1.8805024069
 30
0.0
 10
2.0821534994
 20
1.8791767139
 30
0.0
 10
2.0803253049
 20
1.8772913514
 30
0.0
 10
2.0786430086
 20
1.8752351887
 30
0.0
 10
2.0771701585
 20
1.8730008929
 30
0.0
 10
2.076179386
 20
1.8712190685
 30
0.0
 10
2.0753286416
 20
1.8693428349
 30
0.0
 10
2.0746415312
 20
1.8673788843
 30
0.0
 10
2.0741444661
 20
1.8653405457
 30
0.0
 10
2.0739003148
 20
1.8635995188
 30
0.0
 10
2.073813771
 20
1.8621930734
 30
0.0
 10
2.0738029357
 20
1.8607824365
 30
0.0
 10
2.0739297014
 20
1.8590239289
 30
0.0
 10
2.0742937092
 20
1.8569486303
 30
0.0
 10
2.074860845
 20
1.8549343735
 30
0.0
 10
2.0756075854
 20
1.8529998101
 30
0.0
 10
2.0765088628
 20
1.8511555172
 30
0.0
 10
2.0775435834
 20
1.8494077325
 30
0.0
 10
2.0786915056
 20
1.8477576807
 30
0.0
 10
2.0799341388
 20
1.8462025405
 30
0.0
 10
2.0812550875
 20
1.8447374211
 30
0.0
 10
2.0826431407
 20
1.8433586032
 30
0.0
 10
2.0840882912
 20
1.8420608871
 30
0.0
 10
2.0855810338
 20
1.8408380451
 30
0.0
 10
2.087619889
 20
1.8393043296
 30
0.0
 10
2.0897355827
 20
1.837897097
 30
0.0
 10
2.091906308
 20
1.8366018871
 30
0.0
 10
2.0940992089
 20
1.8353812715
 30
0.0
 10
2.0963361727
 20
1.8342578955
 30
0.0
 10
2.0986058674
 20
1.8332212015
 30
0.0
 10
2.1008881296
 20
1.8322407684
 30
0.0
 10
2.1037717806
 20
1.8311109663
 30
0.0
 10
2.1072730868
 20
1.8298919173
 30
0.0
 10
2.1119757274
 20
1.8284300406
 30
0.0
 10
2.1167330413
 20
1.8271869152
 30
0.0
 10
2.1215225363
 20
1.8261222461
 30
0.0
 10
2.1251251304
 20
1.8254068851
 30
0.0
 10
2.1287380586
 20
1.8247663162
 30
0.0
 10
2.1335649642
 20
1.8240032953
 30
0.0
 10
2.1396172389
 20
1.8232078697
 30
0.0
 10
2.1468999209
 20
1.8224673347
 30
0.0
 10
2.1566242827
 20
1.821732408
 30
0.0
 10
2.1663675169
 20
1.8213293352
 30
0.0
 10
2.1761136551
 20
1.8212117293
 30
0.0
 10
2.1858599903
 20
1.8212847932
 30
0.0
 10
2.194386002
 20
1.8215958224
 30
0.0
 10
2.2016823139
 20
1.8220658521
 30
0.0
 10
2.2065454045
 20
1.8224363122
 30
0.0
 10
2.2126180462
 20
1.8230146644
 30
0.0
 10
2.2198876843
 20
1.8239156899
 30
0.0
 10
2.2259228967
 20
1.8248693751
 30
0.0
 10
2.2307311075
 20
1.8257742992
 30
0.0
 10
2.2343272054
 20
1.8265322881
 30
0.0
 10
2.2379090662
 20
1.8273764693
 30
0.0
 10
2.2414736432
 20
1.8283147303
 30
0.0
 10
2.2450164067
 20
1.8293587111
 30
0.0
 10
2.2485324613
 20
1.8305187231
 30
0.0
 10
2.2520150337
 20
1.8318083054
 30
0.0
 10
2.2543035441
 20
1.8327640251
 30
0.0
 10
2.2554382516
 20
1.8332685003
 30
0.0
  0
SPLINE
  5
61A
100
AcDbEntity
  8
0
100
AcDbSpline
 62
6
  6
CONTINUOUS
 70
0
 71
3
 72
29
 73
25
 74
0
 42
0.0000001
 43
0.0000001
 44
0.0000000001
 40
0.0
 40
0.0
 40
0.0
 40
0.0
 40
0.0672984623
 40
0.1333508401
 40
0.1979638118
 40
0.2610486853
 40
0.3225759428
 40
0.3527880072
 40
0.3826664947
 40
0.4122594558
 40
0.4416313378
 40
0.470856739
 40
0.5000106774
 40
0.5291672575
 40
0.5583991972
 40
0.5877773877
 40
0.6173705228
 40
0.6472433228
 40
0.6774473939
 40
0.7389618567
 40
0.8020477649
 40
0.8666603011
 40
0.9327059522
 40
1.0
 40
1.0
 40
1.0
 40
1.0
 10
6.5380857746
 20
1.8902631044
 30
0.0
 10
6.5398607725
 20
1.8915717299
 30
0.0
 10
6.5434177742
 20
1.8941115916
 30
0.0
 10
6.5488487757
 20
1.8976631075
 30
0.0
 10
6.5543401897
 20
1.9008567237
 30
0.0
 10
6.5598964159
 20
1.9036203417
 30
0.0
 10
6.5646089386
 20
1.9055182486
 30
0.0
 10
6.5684026873
 20
1.9067432244
 30
0.0
 10
6.5712428015
 20
1.9075036295
 30
0.0
 10
6.5740934329
 20
1.9081022288
 30
0.0
 10
6.5769532954
 20
1.9085291126
 30
0.0
 10
6.579819149
 20
1.9087837634
 30
0.0
 10
6.58268802
 20
1.9088672272
 30
0.0
 10
6.5855569869
 20
1.9087802003
 30
0.0
 10
6.5884231118
 20
1.9085234278
 30
0.0
 10
6.5912835202
 20
1.9080978819
 30
0.0
 10
6.5941350941
 20
1.9075036398
 30
0.0
 10
6.596975247
 20
1.9067448968
 30
0.0
 10
6.6007683351
 20
1.905520635
 30
0.0
 10
6.6054794808
 20
1.9036208541
 30
0.0
 10
6.6110341374
 20
1.9008551132
 30
0.0
 10
6.6165253618
 20
1.897661644
 30
0.0
 10
6.6219564658
 20
1.8941109787
 30
0.0
 10
6.6255134027
 20
1.891571644
 30
0.0
 10
6.6272882842
 20
1.8902631044
 30
0.0
  0
SPLINE
  5
61B
100
AcDbEntity
  8
0
100
AcDbSpline
 62
6
  6
CONTINUOUS
 70
0
 71
3
 72
17
 73
13
 74
0
 42
0.0000001
 43
0.0000001
 44
0.0000000001
 40
0.0
 40
0.0
 40
0.0
 40
0.0
 40
0.1249927567
 40
0.1875140297
 40
0.2500308611
 40
0.3125406689
 40
0.375049693
 40
0.4375581676
 40
0.5000609129
 40
0.6250552683
 40
0.7500559865
 40
1.0
 40
1.0
 40
1.0
 40
1.0
 10
6.3254774845
 20
1.908852341
 30
0.0
 10
6.3292942411
 20
1.908852341
 30
0.0
 10
6.3350220159
 20
1.9086763038
 30
0.0
 10
6.3426360786
 20
1.9081032456
 30
0.0
 10
6.3483327459
 20
1.9075067962
 30
0.0
 10
6.3540096818
 20
1.9067491893
 30
0.0
 10
6.3596638805
 20
1.9058392066
 30
0.0
 10
6.3652926966
 20
1.9047849429
 30
0.0
 10
6.3727605923
 20
1.9031975408
 30
0.0
 10
6.382024308
 20
1.900894791
 30
0.0
 10
6.3966870843
 20
1.8966357801
 30
0.0
 10
6.407518808
 20
1.8929029132
 30
0.0
 10
6.4146799942
 20
1.8902631044
 30
0.0
  0
SPLINE
  5
61C
100
AcDbEntity
  8
0
100
AcDbSpline
 62
6
  6
CONTINUOUS
 70
0
 71
3
 72
62
 73
58
 74
0
 42
0.0000001
 43
0.0000001
 44
0.0000000001
 40
0.0
 40
0.0
 40
0.0
 40
0.0
 40
0.0154354858
 40
0.0314073678
 40
0.0480314276
 40
0.0566342536
 40
0.0654589462
 40
0.0745299994
 40
0.0838726718
 40
0.0935140651
 40
0.1034852883
 40
0.1245311912
 40
0.1472109656
 40
0.1715520829
 40
0.1842688953
 40
0.197226514
 40
0.2102942933
 40
0.223342024
 40
0.2362308106
 40
0.2488292297
 40
0.2610719045
 40
0.2729121822
 40
0.2843158235
 40
0.2952996044
 40
0.3058837915
 40
0.3160862809
 40
0.3259387266
 40
0.3354736206
 40
0.3447191086
 40
0.3537013712
 40
0.3624463191
 40
0.3709775102
 40
0.3874775363
 40
0.4033468739
 40
0.4336258156
 40
0.4482170723
 40
0.4625257839
 40
0.4904794956
 40
0.504205418
 40
0.5178006159
 40
0.5712475411
 40
0.6238735341
 40
0.6761439411
 40
0.7022317931
 40
0.7283170748
 40
0.7805646885
 40
0.8067931802
 40
0.8331427839
 40
0.8864561436
 40
0.899997818
 40
0.9136588208
 40
0.9274644366
 40
0.9414449789
 40
0.9556379592
 40
0.970088838
 40
0.9848530944
 40
1.0
 40
1.0
 40
1.0
 40
1.0
 10
6.5380857746
 20
1.8902631044
 30
0.0
 10
6.5374157754
 20
1.8897691444
 30
0.0
 10
6.5360816135
 20
1.8887236996
 30
0.0
 10
6.534147772
 20
1.8869978434
 30
0.0
 10
6.5325929735
 20
1.8854078639
 30
0.0
 10
6.5313833065
 20
1.8840257657
 30
0.0
 10
6.5304843664
 20
1.8829144265
 30
0.0
 10
6.5296064579
 20
1.8817362321
 30
0.0
 10
6.5287532001
 20
1.880486295
 30
0.0
 10
6.5279298365
 20
1.8791588632
 30
0.0
 10
6.5268596018
 20
1.8772444817
 30
0.0
 10
6.5256275966
 20
1.8746182637
 30
0.0
 10
6.5244162035
 20
1.8711462987
 30
0.0
 10
6.5236899592
 20
1.8679998342
 30
0.0
 10
6.5233150427
 20
1.8653274613
 30
0.0
 10
6.523146701
 20
1.8632436812
 30
0.0
 10
6.5231044451
 20
1.8611356448
 30
0.0
 10
6.5231918798
 20
1.8590327654
 30
0.0
 10
6.5234005787
 20
1.8569639328
 30
0.0
 10
6.5237261895
 20
1.8549542411
 30
0.0
 10
6.524155489
 20
1.8530221528
 30
0.0
 10
6.5246741318
 20
1.8511790533
 30
0.0
 10
6.5252701428
 20
1.8494311665
 30
0.0
 10
6.5259319672
 20
1.8477799864
 30
0.0
 10
6.5266489147
 20
1.8462231393
 30
0.0
 10
6.5274111787
 20
1.8447564858
 30
0.0
 10
6.5282124769
 20
1.8433758965
 30
0.0
 10
6.5290470977
 20
1.8420762037
 30
0.0
 10
6.5299092431
 20
1.8408516441
 30
0.0
 10
6.530794599
 20
1.8396970543
 30
0.0
 10
6.531700558
 20
1.8386082275
 30
0.0
 10
6.5329186176
 20
1.8372534793
 30
0.0
 10
6.53448065
 20
1.8356932814
 30
0.0
 10
6.5370290531
 20
1.8334723198
 30
0.0
 10
6.539693056
 20
1.8315514458
 30
0.0
 10
6.5424260431
 20
1.8299016609
 30
0.0
 10
6.5451259698
 20
1.8284465555
 30
0.0
 10
6.5478792785
 20
1.8271970463
 30
0.0
 10
6.5506613495
 20
1.8261254198
 30
0.0
 10
6.5547807616
 20
1.824708095
 30
0.0
 10
6.5610511481
 20
1.8231120355
 30
0.0
 10
6.5695038459
 20
1.8218357327
 30
0.0
 10
6.5765560584
 20
1.8213294153
 30
0.0
 10
6.5821881163
 20
1.8212117441
 30
0.0
 10
6.5878196145
 20
1.8212847751
 30
0.0
 10
6.5934527065
 20
1.8216416608
 30
0.0
 10
6.5990662107
 20
1.8223221389
 30
0.0
 10
6.604701383
 20
1.8232519173
 30
0.0
 10
6.6096011201
 20
1.8244306082
 30
0.0
 10
6.6137297188
 20
1.8257770624
 30
0.0
 10
6.6158074746
 20
1.8265359646
 30
0.0
 10
6.6178771971
 20
1.8273813223
 30
0.0
 10
6.6199374475
 20
1.828321233
 30
0.0
 10
6.621985199
 20
1.8293672511
 30
0.0
 10
6.6240180197
 20
1.830529989
 30
0.0
 10
6.6260319875
 20
1.8318232243
 30
0.0
 10
6.6273391818
 20
1.8327701323
 30
0.0
 10
6.6279863744
 20
1.8332685003
 30
0.0
  0
SPLINE
  5
61D
100
AcDbEntity
  8
0
100
AcDbSpline
 62
6
  6
CONTINUOUS
 70
0
 71
3
 72
56
 73
52
 74
0
 42
0.0000001
 43
0.0000001
 44
0.0000000001
 40
0.0
 40
0.0
 40
0.0
 40
0.0
 40
0.0624569011
 40
0.0936867621
 40
0.1249165779
 40
0.1873736287
 40
0.2498312378
 40
0.2810612859
 40
0.3122919613
 40
0.343522304
 40
0.3747540226
 40
0.4059852945
 40
0.4372183432
 40
0.4684509489
 40
0.4996862303
 40
0.5309208345
 40
0.5465424814
 40
0.5621636618
 40
0.5777848807
 40
0.593410583
 40
0.6090359286
 40
0.624661739
 40
0.6402954142
 40
0.6559264185
 40
0.6715652249
 40
0.6872091084
 40
0.7028505566
 40
0.71068283
 40
0.7185138353
 40
0.7263412665
 40
0.7341696985
 40
0.7420028512
 40
0.7498366188
 40
0.7576678957
 40
0.7654967168
 40
0.7733274169
 40
0.7811611004
 40
0.7889934783
 40
0.7968193736
 40
0.8124660517
 40
0.8281133827
 40
0.8437484954
 40
0.8593881432
 40
0.8750174786
 40
0.8906462129
 40
0.9062742481
 40
0.921896459
 40
0.9375199409
 40
0.9531440207
 40
0.9687657164
 40
1.0
 40
1.0
 40
1.0
 40
1.0
 10
6.3254774845
 20
1.8212349418
 30
0.0
 10
6.3291907472
 20
1.8212349418
 30
0.0
 10
6.3347610093
 20
1.8212956415
 30
0.0
 10
6.3421848835
 20
1.8215046699
 30
0.0
 10
6.3496058301
 20
1.8218008781
 30
0.0
 10
6.3588742098
 20
1.8223458465
 30
0.0
 10
6.3681237759
 20
1.8231564589
 30
0.0
 10
6.3755031346
 20
1.8239978052
 30
0.0
 10
6.3810247839
 20
1.8247348931
 30
0.0
 10
6.3865292743
 20
1.8255919459
 30
0.0
 10
6.3920116793
 20
1.8265814677
 30
0.0
 10
6.3974648161
 20
1.827722969
 30
0.0
 10
6.4028798005
 20
1.8290348686
 30
0.0
 10
6.4082436946
 20
1.8305444276
 30
0.0
 10
6.4135395807
 20
1.8322791924
 30
0.0
 10
6.4178754635
 20
1.8339465724
 30
0.0
 10
6.4212795676
 20
1.8354343709
 30
0.0
 10
6.4237942322
 20
1.8366355442
 30
0.0
 10
6.4262625407
 20
1.8379300368
 30
0.0
 10
6.4286761491
 20
1.8393247117
 30
0.0
 10
6.431022417
 20
1.8408309562
 30
0.0
 10
6.4332858765
 20
1.8424602851
 30
0.0
 10
6.4354491927
 20
1.8442216729
 30
0.0
 10
6.437485653
 20
1.8461304318
 30
0.0
 10
6.4393636735
 20
1.8481972518
 30
0.0
 10
6.4410440705
 20
1.8504297653
 30
0.0
 10
6.442235442
 20
1.8524340062
 30
0.0
 10
6.4430331376
 20
1.8541168033
 30
0.0
 10
6.4435472792
 20
1.8554165052
 30
0.0
 10
6.4439690771
 20
1.8567489228
 30
0.0
 10
6.4442899826
 20
1.8581094671
 30
0.0
 10
6.4445041067
 20
1.8594912721
 30
0.0
 10
6.4446098453
 20
1.8608857383
 30
0.0
 10
6.4446048298
 20
1.8622840364
 30
0.0
 10
6.4444857961
 20
1.8636770993
 30
0.0
 10
6.4442565266
 20
1.865056324
 30
0.0
 10
6.4439234512
 20
1.8664143043
 30
0.0
 10
6.443492241
 20
1.8677440548
 30
0.0
 10
6.4427936555
 20
1.8694705618
 30
0.0
 10
6.4417082079
 20
1.8715350067
 30
0.0
 10
6.4401329113
 20
1.8738439565
 30
0.0
 10
6.4383365764
 20
1.8759836005
 30
0.0
 10
6.4363646411
 20
1.8779593981
 30
0.0
 10
6.4342548773
 20
1.8797856287
 30
0.0
 10
6.4320326725
 20
1.8814713094
 30
0.0
 10
6.4297205043
 20
1.8830297577
 30
0.0
 10
6.4273357054
 20
1.8844735314
 30
0.0
 10
6.4248899949
 20
1.8858106283
 30
0.0
 10
6.4223942752
 20
1.8870514795
 30
0.0
 10
6.4190122874
 20
1.8885892483
 30
0.0
 10
6.4164223602
 20
1.8896208207
 30
0.0
 10
6.4146799942
 20
1.8902631044
 30
0.0
  0
SPLINE
  5
61E
100
AcDbEntity
  8
0
100
AcDbSpline
 62
6
  6
CONTINUOUS
 70
0
 71
3
 72
29
 73
25
 74
0
 42
0.0000001
 43
0.0000001
 44
0.0000000001
 40
0.0
 40
0.0
 40
0.0
 40
0.0
 40
0.0672940456
 40
0.1333396923
 40
0.1979522275
 40
0.2610381246
 40
0.322552558
 40
0.3527566158
 40
0.3826294096
 40
0.4122225509
 40
0.441600753
 40
0.4708326991
 40
0.4999892753
 40
0.5291431996
 40
0.5583685827
 40
0.5877404542
 40
0.6173334225
 40
0.6472119268
 40
0.6774240096
 40
0.7389512872
 40
0.8020361458
 40
0.8666491211
 40
0.9327015223
 40
1.0
 40
1.0
 40
1.0
 40
1.0
 10
6.0236666847
 20
1.8902631044
 30
0.0
 10
6.0254415662
 20
1.891571644
 30
0.0
 10
6.0289985033
 20
1.894110978
 30
0.0
 10
6.0344296077
 20
1.8976616424
 30
0.0
 10
6.0399208314
 20
1.9008551117
 30
0.0
 10
6.045475485
 20
1.9036208554
 30
0.0
 10
6.0501866285
 20
1.9055206375
 30
0.0
 10
6.0539797157
 20
1.9067448971
 30
0.0
 10
6.0568198692
 20
1.9075036364
 30
0.0
 10
6.0596714447
 20
1.9080978723
 30
0.0
 10
6.0625318534
 20
1.9085234212
 30
0.0
 10
6.0653979781
 20
1.9087802003
 30
0.0
 10
6.0682669444
 20
1.9088672351
 30
0.0
 10
6.0711358145
 20
1.9087837769
 30
0.0
 10
6.0740016669
 20
1.9085291273
 30
0.0
 10
6.0768615274
 20
1.9081022335
 30
0.0
 10
6.0797121573
 20
1.9075036255
 30
0.0
 10
6.0825522721
 20
1.9067432175
 30
0.0
 10
6.0863460228
 20
1.905518242
 30
0.0
 10
6.0910585489
 20
1.9036203419
 30
0.0
 10
6.0966147782
 20
1.9008567289
 30
0.0
 10
6.1021061923
 20
1.8976631119
 30
0.0
 10
6.1075371938
 20
1.8941115934
 30
0.0
 10
6.111094196
 20
1.8915717302
 30
0.0
 10
6.1128691944
 20
1.8902631044
 30
0.0
  0
SPLINE
  5
61F
100
AcDbEntity
  8
0
100
AcDbSpline
 62
6
  6
CONTINUOUS
 70
0
 71
3
 72
17
 73
13
 74
0
 42
0.0000001
 43
0.0000001
 44
0.0000000001
 40
0.0
 40
0.0
 40
0.0
 40
0.0
 40
0.2499439799
 40
0.374944678
 40
0.4999390067
 40
0.5624417594
 40
0.6249502349
 40
0.6874592571
 40
0.7499690731
 40
0.8124859315
 40
0.8750072277
 40
1.0
 40
1.0
 40
1.0
 40
1.0
 10
6.2362749748
 20
1.8902631044
 30
0.0
 10
6.24343616
 20
1.8929029129
 30
0.0
 10
6.2542678826
 20
1.8966357777
 30
0.0
 10
6.2689306558
 20
1.9008947905
 30
0.0
 10
6.2781943703
 20
1.9031975399
 30
0.0
 10
6.2856622658
 20
1.9047849404
 30
0.0
 10
6.2912910818
 20
1.9058392053
 30
0.0
 10
6.2969452806
 20
1.9067491894
 30
0.0
 10
6.3026222175
 20
1.9075067968
 30
0.0
 10
6.3083188868
 20
1.9081032434
 30
0.0
 10
6.3159329514
 20
1.9086763021
 30
0.0
 10
6.3216607274
 20
1.908852341
 30
0.0
 10
6.3254774845
 20
1.908852341
 30
0.0
  0
SPLINE
  5
620
100
AcDbEntity
  8
0
100
AcDbSpline
 62
6
  6
CONTINUOUS
 70
0
 71
3
 72
62
 73
58
 74
0
 42
0.0000001
 43
0.0000001
 44
0.0000000001
 40
0.0
 40
0.0
 40
0.0
 40
0.0
 40
0.0154354855
 40
0.0314073669
 40
0.0480314256
 40
0.0566342506
 40
0.0654589422
 40
0.0745299942
 40
0.0838726649
 40
0.0935140564
 40
0.1034852774
 40
0.1245311742
 40
0.1472109417
 40
0.1715520506
 40
0.1842688603
 40
0.1972264763
 40
0.210294255
 40
0.2233419876
 40
0.2362307771
 40
0.2488292001
 40
0.2610718803
 40
0.2729121631
 40
0.2843158098
 40
0.2952995968
 40
0.3058837896
 40
0.3160862842
 40
0.3259387352
 40
0.3354736344
 40
0.3447191269
 40
0.3537013939
 40
0.3624463457
 40
0.3709775407
 40
0.3874775735
 40
0.4033469167
 40
0.4336258676
 40
0.4482171279
 40
0.4625258426
 40
0.4904795591
 40
0.5042054835
 40
0.517800683
 40
0.5712476125
 40
0.6238736076
 40
0.6761440153
 40
0.7022318673
 40
0.7283171489
 40
0.7805647613
 40
0.8067932515
 40
0.833142853
 40
0.8864562046
 40
0.8999978758
 40
0.9136588744
 40
0.9274644852
 40
0.9414450214
 40
0.9556379942
 40
0.9700888636
 40
0.9848531087
 40
1.0
 40
1.0
 40
1.0
 40
1.0
 10
6.0236666847
 20
1.8902631044
 30
0.0
 10
6.0229966859
 20
1.8897691446
 30
0.0
 10
6.0216625247
 20
1.8887237005
 30
0.0
 10
6.0197286842
 20
1.8869978453
 30
0.0
 10
6.0181738865
 20
1.8854078669
 30
0.0
 10
6.01696422
 20
1.8840257697
 30
0.0
 10
6.0160652803
 20
1.8829144314
 30
0.0
 10
6.0151873722
 20
1.8817362379
 30
0.0
 10
6.0143341147
 20
1.8804863018
 30
0.0
 10
6.0135107514
 20
1.8791588712
 30
0.0
 10
6.012440517
 20
1.8772444915
 30
0.0
 10
6.0112085118
 20
1.874618276
 30
0.0
 10
6.0099971182
 20
1.8711463144
 30
0.0
 10
6.0092708729
 20
1.8679998528
 30
0.0
 10
6.0088959552
 20
1.8653274823
 30
0.0
 10
6.0087276121
 20
1.8632437037
 30
0.0
 10
6.0086853551
 20
1.8611356685
 30
0.0
 10
6.0087727883
 20
1.8590327898
 30
0.0
 10
6.0089814855
 20
1.8569639578
 30
0.0
 10
6.0093070949
 20
1.8549542662
 30
0.0
 10
6.0097363929
 20
1.8530221778
 30
0.0
 10
6.0102550342
 20
1.851179078
 30
0.0
 10
6.0108510439
 20
1.8494311908
 30
0.0
 10
6.0115128672
 20
1.8477800103
 30
0.0
 10
6.0122298134
 20
1.8462231625
 30
0.0
 10
6.0129920764
 20
1.8447565085
 30
0.0
 10
6.0137933736
 20
1.8433759186
 30
0.0
 10
6.0146279934
 20
1.8420762252
 30
0.0
 10
6.0154901379
 20
1.8408516649
 30
0.0
 10
6.016375493
 20
1.8396970745
 30
0.0
 10
6.0172814512
 20
1.8386082472
 30
0.0
 10
6.0184995097
 20
1.8372534983
 30
0.0
 10
6.0200615408
 20
1.8356932994
 30
0.0
 10
6.022609942
 20
1.8334723365
 30
0.0
 10
6.0252739431
 20
1.8315514612
 30
0.0
 10
6.0280069285
 20
1.829901675
 30
0.0
 10
6.0307068535
 20
1.8284465685
 30
0.0
 10
6.0334601605
 20
1.8271970582
 30
0.0
 10
6.03624223
 20
1.8261254306
 30
0.0
 10
6.0403616397
 20
1.8247081044
 30
0.0
 10
6.0466320226
 20
1.8231120427
 30
0.0
 10
6.055084716
 20
1.8218357372
 30
0.0
 10
6.0621369248
 20
1.8213294175
 30
0.0
 10
6.0677689797
 20
1.8212117443
 30
0.0
 10
6.073400475
 20
1.8212847732
 30
0.0
 10
6.0790335641
 20
1.8216416562
 30
0.0
 10
6.0846470654
 20
1.8223221311
 30
0.0
 10
6.0902822347
 20
1.8232519054
 30
0.0
 10
6.0951819695
 20
1.8244305917
 30
0.0
 10
6.0993105666
 20
1.8257770409
 30
0.0
 10
6.1013883215
 20
1.8265359402
 30
0.0
 10
6.1034580432
 20
1.8273812946
 30
0.0
 10
6.1055182928
 20
1.8283212017
 30
0.0
 10
6.1075660437
 20
1.8293672158
 30
0.0
 10
6.1095988638
 20
1.8305299491
 30
0.0
 10
6.1116128313
 20
1.8318231792
 30
0.0
 10
6.1129200256
 20
1.8327700833
 30
0.0
 10
6.1135672183
 20
1.8332684493
 30
0.0
  0
SPLINE
  5
621
100
AcDbEntity
  8
0
100
AcDbSpline
 62
6
  6
CONTINUOUS
 70
0
 71
3
 72
41
 73
37
 74
0
 42
0.0000001
 43
0.0000001
 44
0.0000000001
 40
0.0
 40
0.0
 40
0.0
 40
0.0
 40
0.059456812
 40
0.0893519706
 40
0.1193858708
 40
0.1495777089
 40
0.1799492461
 40
0.2105427508
 40
0.24139101
 40
0.2725260489
 40
0.3040184542
 40
0.3358888338
 40
0.3681794939
 40
0.4009242721
 40
0.4174451573
 40
0.4340578138
 40
0.4507595876
 40
0.467521791
 40
0.4843144336
 40
0.501112542
 40
0.5178980402
 40
0.5346524051
 40
0.5679447967
 40
0.6008506744
 40
0.6333583548
 40
0.6654073208
 40
0.6970618783
 40
0.7283560654
 40
0.75932311
 40
0.79002691
 40
0.820494483
 40
0.8507600022
 40
0.8808621954
 40
0.9108213774
 40
0.9406543897
 40
1.0
 40
1.0
 40
1.0
 40
1.0
 10
2.5524381369
 20
1.8332684493
 30
0.0
 10
2.5538977401
 20
1.833917366
 30
0.0
 10
2.5560637698
 20
1.8349573002
 30
0.0
 10
2.55887805
 20
1.8364970559
 30
0.0
 10
2.5609567282
 20
1.8377397958
 30
0.0
 10
2.5629918552
 20
1.8390763495
 30
0.0
 10
2.564973536
 20
1.8405170068
 30
0.0
 10
2.5668915266
 20
1.8420699411
 30
0.0
 10
2.5687317043
 20
1.8437455315
 30
0.0
 10
2.5704737598
 20
1.8455571864
 30
0.0
 10
2.5720960518
 20
1.8475133004
 30
0.0
 10
2.57356816
 20
1.8496238693
 30
0.0
 10
2.5748501874
 20
1.8518946156
 30
0.0
 10
2.5757224296
 20
1.8539100279
 30
0.0
 10
2.5762815083
 20
1.8555902385
 30
0.0
 10
2.5766253049
 20
1.85688517
 30
0.0
 10
2.5768861919
 20
1.8582059301
 30
0.0
 10
2.5770618433
 20
1.859545597
 30
0.0
 10
2.5771492886
 20
1.8608965445
 30
0.0
 10
2.5771451537
 20
1.8622509906
 30
0.0
 10
2.5770480086
 20
1.8636009435
 30
0.0
 10
2.57680129
 20
1.8653804589
 30
0.0
 10
2.5762828201
 20
1.8675546937
 30
0.0
 10
2.575351593
 20
1.8700439729
 30
0.0
 10
2.5741674926
 20
1.8723846959
 30
0.0
 10
2.5727759899
 20
1.8745674823
 30
0.0
 10
2.5712164104
 20
1.87659144
 30
0.0
 10
2.5695244453
 20
1.8784661604
 30
0.0
 10
2.5677261489
 20
1.8802019427
 30
0.0
 10
2.5658406353
 20
1.8818079312
 30
0.0
 10
2.5638858781
 20
1.8832974616
 30
0.0
 10
2.5618737925
 20
1.8846799473
 30
0.0
 10
2.5598134542
 20
1.8859634469
 30
0.0
 10
2.5577136322
 20
1.8871577192
 30
0.0
 10
2.5548753279
 20
1.8886382505
 30
0.0
 10
2.5526961215
 20
1.8896386708
 30
0.0
 10
2.5512291239
 20
1.8902631044
 30
0.0
  0
SPLINE
  5
622
100
AcDbEntity
  8
0
100
AcDbSpline
 62
6
  6
CONTINUOUS
 70
0
 71
3
 72
41
 73
37
 74
0
 42
0.0000001
 43
0.0000001
 44
0.0000000001
 40
0.0
 40
0.0
 40
0.0
 40
0.0
 40
0.0594568176
 40
0.0893519798
 40
0.1193858846
 40
0.1495777282
 40
0.1799492717
 40
0.2105427838
 40
0.2413910518
 40
0.2725261008
 40
0.3040185175
 40
0.3358889101
 40
0.3681795817
 40
0.4009243717
 40
0.4174452619
 40
0.4340579214
 40
0.4507596965
 40
0.4675219004
 40
0.4843145425
 40
0.5011126491
 40
0.5178981442
 40
0.534652505
 40
0.567944887
 40
0.6008507526
 40
0.6333584213
 40
0.6654073766
 40
0.6970619235
 40
0.7283561019
 40
0.7593231396
 40
0.7900269339
 40
0.820494502
 40
0.850760017
 40
0.8808622066
 40
0.9108213853
 40
0.9406543947
 40
1.0
 40
1.0
 40
1.0
 40
1.0
 10
2.2554382516
 20
1.8332685003
 30
0.0
 10
2.2568978517
 20
1.8339174184
 30
0.0
 10
2.2590638766
 20
1.8349573545
 30
0.0
 10
2.26187815
 20
1.8364971131
 30
0.0
 10
2.2639568229
 20
1.8377398552
 30
0.0
 10
2.2659919445
 20
1.8390764112
 30
0.0
 10
2.2679736194
 20
1.8405170707
 30
0.0
 10
2.2698916039
 20
1.8420700075
 30
0.0
 10
2.2717317751
 20
1.8437456004
 30
0.0
 10
2.2734738236
 20
1.8455572578
 30
0.0
 10
2.2750961079
 20
1.8475133742
 30
0.0
 10
2.2765682078
 20
1.8496239451
 30
0.0
 10
2.2778502261
 20
1.8518946931
 30
0.0
 10
2.2787224598
 20
1.8539101062
 30
0.0
 10
2.2792815316
 20
1.8555903168
 30
0.0
 10
2.2796253229
 20
1.8568852478
 30
0.0
 10
2.2798862046
 20
1.8582060069
 30
0.0
 10
2.2800618507
 20
1.8595456724
 30
0.0
 10
2.2801492908
 20
1.8608966181
 30
0.0
 10
2.2801451509
 20
1.8622510619
 30
0.0
 10
2.2800480014
 20
1.8636010121
 30
0.0
 10
2.2798012773
 20
1.8653805235
 30
0.0
 10
2.2792828018
 20
1.8675547526
 30
0.0
 10
2.2783515701
 20
1.8700440247
 30
0.0
 10
2.2771674668
 20
1.8723847406
 30
0.0
 10
2.2757759629
 20
1.8745675203
 30
0.0
 10
2.2742163834
 20
1.876591472
 30
0.0
 10
2.2725244193
 20
1.8784661869
 30
0.0
 10
2.2707261246
 20
1.8802019645
 30
0.0
 10
2.2688406132
 20
1.8818079489
 30
0.0
 10
2.2668858585
 20
1.8832974756
 30
0.0
 10
2.2648737758
 20
1.8846799582
 30
0.0
 10
2.2628134405
 20
1.885963455
 30
0.0
 10
2.2607136217
 20
1.8871577248
 30
0.0
 10
2.2578753219
 20
1.8886382533
 30
0.0
 10
2.2556961191
 20
1.8896386718
 30
0.0
 10
2.2542291239
 20
1.8902631044
 30
0.0
  0
SPLINE
  5
623
100
AcDbEntity
  8
0
100
AcDbSpline
 62
6
  6
CONTINUOUS
 70
0
 71
3
 72
37
 73
33
 74
0
 42
0.0000001
 43
0.0000001
 44
0.0000000001
 40
0.0
 40
0.0
 40
0.0
 40
0.0
 40
0.0488818413
 40
0.0741955335
 40
0.1001968024
 40
0.1269808155
 40
0.1546586872
 40
0.1833578198
 40
0.2132122509
 40
0.2443692688
 40
0.2769962577
 40
0.311207065
 40
0.3471044934
 40
0.423714853
 40
0.4437213903
 40
0.4639419066
 40
0.504656738
 40
0.5451758821
 40
0.5848372209
 40
0.623107093
 40
0.6597862
 40
0.6947409055
 40
0.7280585983
 40
0.7598588414
 40
0.7902759912
 40
0.8194736508
 40
0.8475926955
 40
0.8747616162
 40
0.9011001754
 40
0.9267127848
 40
0.9516867782
 40
1.0
 40
1.0
 40
1.0
 40
1.0
 10
6.6279863744
 20
1.8332685003
 30
0.0
 10
6.6288440565
 20
1.8339289549
 30
0.0
 10
6.6301076334
 20
1.8349829698
 30
0.0
 10
6.6317178544
 20
1.8365103772
 30
0.0
 10
6.6329190928
 20
1.8377555625
 30
0.0
 10
6.6340952003
 20
1.8390950948
 30
0.0
 10
6.6352399878
 20
1.8405387077
 30
0.0
 10
6.6363479691
 20
1.8420951246
 30
0.0
 10
6.637410833
 20
1.8437748239
 30
0.0
 10
6.6384160998
 20
1.8455899242
 30
0.0
 10
6.6393517567
 20
1.8475494717
 30
0.0
 10
6.640199793
 20
1.8496625663
 30
0.0
 10
6.6412035615
 20
1.8527545845
 30
0.0
 10
6.6418090824
 20
1.8556396195
 30
0.0
 10
6.6421018208
 20
1.858210653
 30
0.0
 10
6.6422370063
 20
1.8599984463
 30
0.0
 10
6.6422775646
 20
1.8622473089
 30
0.0
 10
6.6421144091
 20
1.8649222201
 30
0.0
 10
6.6417583696
 20
1.8675235966
 30
0.0
 10
6.6412246197
 20
1.8700072976
 30
0.0
 10
6.6405443902
 20
1.8723462071
 30
0.0
 10
6.6397436032
 20
1.8745299607
 30
0.0
 10
6.6388445063
 20
1.8765571826
 30
0.0
 10
6.6378682232
 20
1.8784355461
 30
0.0
 10
6.636830139
 20
1.8801748655
 30
0.0
 10
6.6357408377
 20
1.8817848525
 30
0.0
 10
6.6346115467
 20
1.8832775943
 30
0.0
 10
6.6334490917
 20
1.8846628722
 30
0.0
 10
6.6322583806
 20
1.8859491281
 30
0.0
 10
6.6310449446
 20
1.8871456288
 30
0.0
 10
6.6294201174
 20
1.8886149518
 30
0.0
 10
6.6281494546
 20
1.8896282025
 30
0.0
 10
6.6272882842
 20
1.8902631044
 30
0.0
  0
SPLINE
  5
624
100
AcDbEntity
  8
0
100
AcDbSpline
 62
6
  6
CONTINUOUS
 70
0
 71
3
 72
37
 73
33
 74
0
 42
0.0000001
 43
0.0000001
 44
0.0000000001
 40
0.0
 40
0.0
 40
0.0
 40
0.0
 40
0.0488818058
 40
0.0741954764
 40
0.1001967207
 40
0.126980706
 40
0.1546585466
 40
0.1833576445
 40
0.2132120372
 40
0.2443690133
 40
0.2769959572
 40
0.3112067181
 40
0.3471041032
 40
0.423714398
 40
0.4437209299
 40
0.4639414451
 40
0.5046562884
 40
0.5451754628
 40
0.5848368436
 40
0.6231067645
 40
0.6597859207
 40
0.6947406714
 40
0.7280584056
 40
0.7598586846
 40
0.7902758644
 40
0.8194735494
 40
0.8475926156
 40
0.8747615547
 40
0.9011001298
 40
0.9267127529
 40
0.9516867582
 40
1.0
 40
1.0
 40
1.0
 40
1.0
 10
6.1135672183
 20
1.8332684493
 30
0.0
 10
6.1144249022
 20
1.8339289025
 30
0.0
 10
6.1156884818
 20
1.8349829153
 30
0.0
 10
6.1172987068
 20
1.83651032
 30
0.0
 10
6.1184999483
 20
1.8377555031
 30
0.0
 10
6.1196760589
 20
1.8390950331
 30
0.0
 10
6.1208208497
 20
1.8405386437
 30
0.0
 10
6.1219288346
 20
1.8420950582
 30
0.0
 10
6.1229917024
 20
1.843774755
 30
0.0
 10
6.1239969732
 20
1.8455898529
 30
0.0
 10
6.1249326345
 20
1.847549398
 30
0.0
 10
6.1257806757
 20
1.8496624905
 30
0.0
 10
6.1267844516
 20
1.852754507
 30
0.0
 10
6.1273899794
 20
1.8556395418
 30
0.0
 10
6.1276827237
 20
1.8582105763
 30
0.0
 10
6.1278179133
 20
1.8599983717
 30
0.0
 10
6.1278584764
 20
1.862247238
 30
0.0
 10
6.1276953259
 20
1.8649221547
 30
0.0
 10
6.1273392903
 20
1.8675235378
 30
0.0
 10
6.126805543
 20
1.8700072458
 30
0.0
 10
6.1261253153
 20
1.8723461623
 30
0.0
 10
6.1253245289
 20
1.8745299225
 30
0.0
 10
6.124425432
 20
1.8765571504
 30
0.0
 10
6.1234491484
 20
1.8784355194
 30
0.0
 10
6.1224110633
 20
1.8801748436
 30
0.0
 10
6.1213217607
 20
1.8817848347
 30
0.0
 10
6.1201924682
 20
1.8832775801
 30
0.0
 10
6.1190300115
 20
1.8846628613
 30
0.0
 10
6.1178392987
 20
1.88594912
 30
0.0
 10
6.1166258608
 20
1.8871456231
 30
0.0
 10
6.1150010311
 20
1.8886149489
 30
0.0
 10
6.1137303662
 20
1.8896282014
 30
0.0
 10
6.1128691944
 20
1.8902631044
 30
0.0
  0
ENDSEC
  0
SECTION
  2
OBJECTS
  0
DICTIONARY
  5
C
100
AcDbDictionary
280
0
281
1
  3
ACAD_GROUP
350
D
  3
ACAD_MLINESTYLE
350
17
  3
ACAD_LAYOUT
350
1A
  3
ACAD_PLOTSETTINGS
350
19
  3
ACAD_PLOTSTYLENAME
350
E
  0
DICTIONARY
  5
D
102
{ACAD_REACTORS
330
C
102
}
100
AcDbDictionary
280
0
281
1
  0
ACDBDICTIONARYWDFLT
  5
E
102
{ACAD_REACTORS
330
C
102
}
100
AcDbDictionary
281
1
  3
Normal
350
F
100
AcDbDictionaryWithDefault
340
F
  0
DICTIONARY
  5
17
102
{ACAD_REACTORS
330
C
102
}
100
AcDbDictionary
280
0
281
1
  3
Standard
350
18
  0
DICTIONARY
  5
19
102
{ACAD_REACTORS
330
C
102
}
100
AcDbDictionary
281
1
  0
DICTIONARY
  5
1A
102
{ACAD_REACTORS
330
C
102
}
100
AcDbDictionary
281
1
  3
Model
350
625
  3
Layout1
350
626
  0
ACDBPLACEHOLDER
  5
F
102
{ACAD_REACTORS
330
E
102
}
  0
MLINESTYLE
  5
18
102
{ACAD_REACTORS
330
17
102
}
100
AcDbMlineStyle
  2
STANDARD
 70
0
  3

 62
256
 51
90.0
 52
90.0
 71
2
 49
0.5
 62
256
  6
BYLAYER
 49
-0.5
 62
256
  6
BYLAYER
  0
LAYOUT
  5
625
102
{ACAD_REACTORS
330
1A
102
}
100
AcDbPlotSettings
  1

  2
none_device
  4
ANSI_A_(11.00_x_8.50_Inches)
  6

 40
0.0
 41
0.0
 42
0.0
 43
0.0
 44
279.4
 45
215.9
 46
0.0
 47
0.0
 48
0.0
 49
0.0
140
0.0
141
0.0
142
1.0
143
1.0
 70
1024
 72
0
 73
0
 74
0
  7

 75
0
147
1.0
148
0.0
149
0.0
100
AcDbLayout
  1
Model
 70
0
 71
0
 10
0.0
 20
0.0
 11
11.0
 21
8.5
 12
0.0
 22
0.0
 32
0.0
 14
0.0
 24
0.0
 34
0.0
 15
0.0
 25
0.0
 35
0.0
146
0.0
 13
0.0
 23
0.0
 33
0.0
 16
1.0
 26
0.0
 36
0.0
 17
0.0
 27
1.0
 37
0.0
 76
0
330
202
345
0
346
0
  0
LAYOUT
  5
626
102
{ACAD_REACTORS
330
1A
102
}
100
AcDbPlotSettings
  1

  2
none_device
  4
ANSI_A_(11.00_x_8.50_Inches)
  6

 40
0.0
 41
0.0
 42
0.0
 43
0.0
 44
279.4
 45
215.9
 46
0.0
 47
0.0
 48
0.0
 49
0.0
140
0.0
141
0.0
142
1.0
143
1.0
 70
0
 72
0
 73
0
 74
0
  7

 75
0
147
1.0
148
0.0
149
0.0
100
AcDbLayout
  1
Layout1
 70
0
 71
1
 10
0.0
 20
0.0
 11
11.0
 21
8.5
 12
0.0
 22
0.0
 32
0.0
 14
0.0
 24
0.0
 34
0.0
 15
0.0
 25
0.0
 35
0.0
146
0.0
 13
0.0
 23
0.0
 33
0.0
 16
1.0
 26
0.0
 36
0.0
 17
0.0
 27
1.0
 37
0.0
 76
0
330
203
345
0
346
0
  0
ENDSEC
  0
EOF
