999
DXF file: 9461_front.dxf
999
Pro/ENGINEER 2018400 by Parametric Technology Corporation
  0
SECTION
  2
HEADER
  9
$ACADVER
  1
AC1027
  9
$DWGCODEPAGE
  3
ANSI_1252
  9
$EXTMAX
 10
11.0
 20
8.5
 30
0.0
  9
$EXTMIN
 10
0.0
 20
0.0
 30
0.0
  9
$LIMMIN
 10
0.0
 20
0.0
  9
$LIMMAX
 10
11.0
 20
8.5
  9
$VIEWCTR
 10
5.5
 20
4.25
  9
$VIEWSIZE
 40
8.5
  9
$CLAYER
  8
0
  9
$LTSCALE
 40
0.605
  9
$CELTYPE
  6
BYLAYER
  9
$DIMSCALE
 40
1.0
  9
$DIMASZ
 40
0.1
  9
$DIMEXO
 40
0.0625
  9
$DIMDLI
 40
0.418
  9
$DIMEXE
 40
0.125
  9
$DIMCEN
 40
0.099
  9
$DIMLFAC
 40
1.0
  9
$DIMBLK
  1
_FILLED
  9
$DIMALT
 70
1
  9
$DIMALTD
 70
1
  9
$DIMALTTD
 70
2
  9
$DIMALTF
 40
25.4
  9
$DIMTXT
 40
0.08
  9
$DIMTOL
 70
1
  9
$DIMLIM
 70
0
  9
$DIMTFAC
 40
1.0
  9
$DIMTP
 40
0.01
  9
$DIMTM
 40
0.01
  9
$DIMGAP
 40
0.09
  9
$DIMDSEP
 70
46
  9
$AUNITS
 70
0
  9
$PDMODE
 70
3
  9
$PDSIZE
 40
0.3125
  9
$HANDSEED
  5
46B
  9
$TILEMODE
 70
1
  9
$MEASUREMENT
 70
0
  9
$INSUNITS
 70
1
  0
ENDSEC
  0
SECTION
  2
CLASSES
  0
CLASS
  1
ACDBDICTIONARYWDFLT
  2
AcDbDictionaryWithDefault
  3
AutoCAD 2000
 90
0
 91
1
280
0
281
0
  0
CLASS
  1
ACDBPLACEHOLDER
  2
AcDbPlaceHolder
  3
AutoCAD 2000
 90
0
 91
1
280
0
281
0
  0
CLASS
  1
LAYOUT
  2
AcDbLayout
  3
AutoCAD 2000
 90
0
 91
0
280
0
281
0
  0
ENDSEC
  0
SECTION
  2
TABLES
  0
TABLE
  2
VPORT
  5
8
100
AcDbSymbolTable
 70
2
  0
VPORT
  5
1F4
100
AcDbSymbolTableRecord
100
AcDbViewportTableRecord
  2
*ACTIVE
 70
0
 10
0.0
 20
0.0
 11
1.0
 21
1.0
 12
5.5
 22
4.25
 13
0.0
 23
0.0
 14
1.0
 24
1.0
 15
0.0
 25
0.0
 16
0.0
 26
0.0
 36
1.0
 17
0.0
 27
0.0
 37
0.0
 40
8.5
 41
1.2941176471
 42
50.0
 43
0.0
 44
0.0
 50
0.0
 51
0.0
 71
0
 72
100
 73
1
 74
1
 75
0
 76
0
 77
0
 78
0
  0
ENDTAB
  0
TABLE
  2
LTYPE
  5
5
100
AcDbSymbolTable
 70
6
  0
LTYPE
  5
14
100
AcDbSymbolTableRecord
100
AcDbLinetypeTableRecord
  2
BYBLOCK
 70
0
  3

 72
65
 73
0
 40
0.0
  0
LTYPE
  5
15
100
AcDbSymbolTableRecord
100
AcDbLinetypeTableRecord
  2
BYLAYER
 70
0
  3

 72
65
 73
0
 40
0.0
  0
LTYPE
  5
16
100
AcDbSymbolTableRecord
100
AcDbLinetypeTableRecord
  2
CONTINUOUS
 70
64
  3
Solid line
 72
65
 73
0
 40
0.0
  0
LTYPE
  5
1F5
100
AcDbSymbolTableRecord
100
AcDbLinetypeTableRecord
  2
CENTER
 70
64
  3
____ _ ____ _ ____ _ ____ _ ____ _ ____ _ ____
 72
65
 73
4
 40
0.6
 49
0.375
 74
0
 49
-0.075
 74
0
 49
0.075
 74
0
 49
-0.075
 74
0
  0
LTYPE
  5
1F6
100
AcDbSymbolTableRecord
100
AcDbLinetypeTableRecord
  2
HIDDEN
 70
64
  3
- - - - - - - - - - - - - - - - - - - -
 72
65
 73
2
 40
0.2
 49
0.1
 74
0
 49
-0.1
 74
0
  0
LTYPE
  5
1F7
100
AcDbSymbolTableRecord
100
AcDbLinetypeTableRecord
  2
PHANTOM
 70
64
  3
_____ _ _ _____ _ _ _____ _ _ _____
 72
65
 73
6
 40
0.8
 49
0.45
 74
0
 49
-0.05
 74
0
 49
0.1
 74
0
 49
-0.05
 74
0
 49
0.1
 74
0
 49
-0.05
 74
0
  0
LTYPE
  5
1F8
100
AcDbSymbolTableRecord
100
AcDbLinetypeTableRecord
  2
DOT
 70
64
  3
. . . . . . . . . . . . . . . . . . . .
 72
65
 73
2
 40
0.2
 49
0.1
 74
0
 49
-0.1
 74
0
  0
LTYPE
  5
1F9
100
AcDbSymbolTableRecord
100
AcDbLinetypeTableRecord
  2
DASHED
 70
64
  3
- - - - - - - - - - - - - - - - - - - -
 72
65
 73
2
 40
0.2
 49
0.1
 74
0
 49
-0.1
 74
0
  0
ENDTAB
  0
TABLE
  2
LAYER
  5
2
100
AcDbSymbolTable
 70
36
  0
LAYER
  5
10
100
AcDbSymbolTableRecord
100
AcDbLayerTableRecord
  2
0
 70
0
 62
7
  6
CONTINUOUS
370
-3
390
F
  0
LAYER
  5
1FA
100
AcDbSymbolTableRecord
100
AcDbLayerTableRecord
  2
DEFAULT_1
 70
0
 62
7
  6
CENTER
370
-3
390
F
  0
LAYER
  5
1FB
100
AcDbSymbolTableRecord
100
AcDbLayerTableRecord
  2
DEFAULT_2
 70
0
 62
8
  6
HIDDEN
370
-3
390
F
  0
LAYER
  5
1FC
100
AcDbSymbolTableRecord
100
AcDbLayerTableRecord
  2
DEFAULT_3
 70
0
 62
7
  6
PHANTOM
370
-3
390
F
  0
LAYER
  5
1FD
100
AcDbSymbolTableRecord
100
AcDbLayerTableRecord
  2
DEFAULT_COORDINATE_SYSTEM
 70
0
 62
7
  6
CONTINUOUS
370
-3
390
F
  0
LAYER
  5
1FE
100
AcDbSymbolTableRecord
100
AcDbLayerTableRecord
  2
DEFAULT_DATUM_AXES
 70
0
 62
7
  6
CONTINUOUS
370
-3
390
F
  0
LAYER
  5
1FF
100
AcDbSymbolTableRecord
100
AcDbLayerTableRecord
  2
DEFAULT_DATUM_PLANES
 70
0
 62
7
  6
CONTINUOUS
370
-3
390
F
  0
ENDTAB
  0
TABLE
  2
STYLE
  5
3
100
AcDbSymbolTable
 70
1
  0
STYLE
  5
11
100
AcDbSymbolTableRecord
100
AcDbTextStyleTableRecord
  2
STANDARD
 70
0
 40
0.0
 41
0.8
 50
0.0
 71
0
 42
0.2
  3
txt
  4

  0
STYLE
  5
200
100
AcDbSymbolTableRecord
100
AcDbTextStyleTableRecord
  2
TEXTSTYLE_1
 70
0
 40
0.0
 41
0.8
 50
0.0
 71
0
 42
0.2
  3
gdt
  4

  0
ENDTAB
  0
TABLE
  2
VIEW
  5
6
100
AcDbSymbolTable
 70
0
  0
ENDTAB
  0
TABLE
  2
UCS
  5
7
100
AcDbSymbolTable
 70
0
  0
ENDTAB
  0
TABLE
  2
APPID
  5
9
100
AcDbSymbolTable
 70
1
  0
APPID
  5
201
100
AcDbSymbolTableRecord
100
AcDbRegAppTableRecord
  2
ACAD
 70
0
  0
ENDTAB
  0
TABLE
  2
BLOCK_RECORD
  5
1
100
AcDbSymbolTable
 70
0
  0
BLOCK_RECORD
  5
202
100
AcDbSymbolTableRecord
100
AcDbBlockTableRecord
  2
*Model_Space
  0
BLOCK_RECORD
  5
203
100
AcDbSymbolTableRecord
100
AcDbBlockTableRecord
  2
*Paper_Space
  0
BLOCK_RECORD
  5
204
100
AcDbSymbolTableRecord
100
AcDbBlockTableRecord
  2
_FILLED
  0
ENDTAB
  0
TABLE
  2
DIMSTYLE
  5
A
100
AcDbSymbolTable
 70
1
100
AcDbDimStyleTable
 71
0
  0
DIMSTYLE
105
205
100
AcDbSymbolTableRecord
100
AcDbDimStyleTableRecord
  2
STANDARD
 70
0
  3

  4

 40
1.0
 41
0.1
 42
0.0625
 43
0.38
 44
0.125
 45
0.0
 46
0.0
 47
0.01
 48
0.01
140
0.08
141
0.09
142
0.0
143
25.4
144
1.0
145
0.0
146
1.0
147
0.09
 71
1.0
 72
0.0
 73
1
 74
1
 75
0
 76
0
 77
0
 78
4
 79
1
170
1
171
1
172
0
173
0
174
0
175
0
176
0
177
0
178
0
270
2
179
2
271
2
272
2
273
2
274
2
275
0
280
0
281
0
282
0
283
1
284
4
285
0
286
0
287
3
288
0
340
11
278
46
341
204
342
204
343
204
344
204
  0
ENDTAB
  0
ENDSEC
  0
SECTION
  2
BLOCKS
  0
BLOCK
  5
20
100
AcDbEntity
  8
0
100
AcDbBlockBegin
  2
*Model_Space
 70
0
 10
0.0
 20
0.0
 30
0.0
  3
*Model_Space
  1

  0
ENDBLK
  5
21
100
AcDbEntity
  8
0
100
AcDbBlockEnd
  0
BLOCK
  5
1C
100
AcDbEntity
  8
0
100
AcDbBlockBegin
  2
*Paper_Space
 70
0
 10
0.0
 20
0.0
 30
0.0
  3
*Paper_Space
  1

  0
ENDBLK
  5
1D
100
AcDbEntity
  8
0
100
AcDbBlockEnd
  0
BLOCK
  5
206
100
AcDbEntity
  8
0
100
AcDbBlockBegin
  2
_FILLED
 70
64
 10
0.0
 20
0.0
  3
_FILLED
  1

  0
SOLID
  5
207
100
AcDbEntity
  8
0
  6
BYBLOCK
 62
0
100
AcDbTrace
 10
0.0
 20
0.0
 11
-1.0
 21
0.2
 12
-1.0
 22
-0.2
 13
-1.0
 23
-0.2
  0
ENDBLK
  5
208
100
AcDbEntity
  8
0
  6
BYBLOCK
 62
0
100
AcDbBlockEnd
  0
ENDSEC
  0
SECTION
  2
ENTITIES
  0
MTEXT
  5
209
100
AcDbEntity
  8
0
100
AcDbMText
 62
2
  6
CONTINUOUS
  7
STANDARD
 71
3
 72
1
 10
5.3731754658
 20
1.779617236
 30
0.0
 11
1.0
 21
0.0
 31
0.0
 73
2
 44
0.9
  1
SCALE  .500
 40
0.08
 41
0.704
  0
LINE
  5
20A
100
AcDbEntity
  8
0
100
AcDbLine
 62
7
  6
CONTINUOUS
 10
0.0
 20
0.0
 11
0.0
 21
8.5
  0
LINE
  5
20B
100
AcDbEntity
  8
0
100
AcDbLine
 62
7
  6
CONTINUOUS
 10
0.0
 20
0.0
 11
11.0
 21
0.0
  0
LINE
  5
20C
100
AcDbEntity
  8
0
100
AcDbLine
 62
7
  6
CONTINUOUS
 10
0.0
 20
8.5
 11
11.0
 21
8.5
  0
LINE
  5
20D
100
AcDbEntity
  8
0
100
AcDbLine
 62
7
  6
CONTINUOUS
 10
11.0
 20
0.0
 11
11.0
 21
8.5
  0
LINE
  5
20E
100
AcDbEntity
  8
0
100
AcDbLine
 62
7
  6
CONTINUOUS
 10
1.7349254658
 20
4.3608671457
 11
1.7349254658
 21
4.6223673264
  0
LINE
  5
20F
100
AcDbEntity
  8
0
100
AcDbLine
 62
7
  6
CONTINUOUS
 10
1.7449254658
 20
4.632367236
 11
1.7449254658
 21
4.350867236
  0
LINE
  5
210
100
AcDbEntity
  8
0
100
AcDbLine
 62
7
  6
CONTINUOUS
 10
1.7849254658
 20
4.350867236
 11
1.7849254658
 21
4.632367236
  0
LINE
  5
211
100
AcDbEntity
  8
0
100
AcDbLine
 62
7
  6
CONTINUOUS
 10
1.7449254658
 20
4.632367236
 11
1.7349254658
 21
4.622367236
  0
LINE
  5
212
100
AcDbEntity
  8
0
100
AcDbLine
 62
7
  6
CONTINUOUS
 10
2.7856754658
 20
1.874617236
 11
2.7856754658
 21
1.929617236
  0
LINE
  5
213
100
AcDbEntity
  8
0
100
AcDbLine
 62
7
  6
CONTINUOUS
 10
2.9294254658
 20
4.350867236
 11
2.9294254658
 21
4.632367236
  0
LINE
  5
214
100
AcDbEntity
  8
0
100
AcDbLine
 62
7
  6
CONTINUOUS
 10
2.9819254658
 20
4.350867236
 11
2.9819254658
 21
4.632367236
  0
LINE
  5
215
100
AcDbEntity
  8
0
100
AcDbLine
 62
7
  6
CONTINUOUS
 10
3.0761754658
 20
3.4860993828
 11
3.0761754658
 21
3.573716782
  0
LINE
  5
216
100
AcDbEntity
  8
0
100
AcDbLine
 62
7
  6
CONTINUOUS
 10
3.0819254658
 20
4.393117236
 11
3.0819254658
 21
4.590117236
  0
LINE
  5
217
100
AcDbEntity
  8
0
100
AcDbLine
 62
7
  6
CONTINUOUS
 10
7.9606754658
 20
1.874617236
 11
6.7856754658
 21
1.874617236
  0
LINE
  5
218
100
AcDbEntity
  8
0
100
AcDbLine
 62
7
  6
CONTINUOUS
 10
2.7856754658
 20
1.874617236
 11
3.9606754658
 21
1.874617236
  0
LINE
  5
219
100
AcDbEntity
  8
0
100
AcDbLine
 62
7
  6
CONTINUOUS
 10
1.7449254658
 20
4.350867236
 11
1.7349254658
 21
4.360867236
  0
LINE
  5
21A
100
AcDbEntity
  8
0
100
AcDbLine
 62
7
  6
CONTINUOUS
 10
3.0944254658
 20
4.594117236
 11
3.0944254658
 21
4.590117236
  0
LINE
  5
21B
100
AcDbEntity
  8
0
100
AcDbLine
 62
7
  6
CONTINUOUS
 10
3.0944254658
 20
4.393117236
 11
3.0944254658
 21
4.389117236
  0
LINE
  5
21C
100
AcDbEntity
  8
0
100
AcDbLine
 62
7
  6
CONTINUOUS
 10
3.1094254658
 20
4.6852592846
 11
3.1094254658
 21
4.649617236
  0
LINE
  5
21D
100
AcDbEntity
  8
0
100
AcDbLine
 62
7
  6
CONTINUOUS
 10
3.1119254658
 20
4.4757348559
 11
3.1119254658
 21
4.5074996162
  0
LINE
  5
21E
100
AcDbEntity
  8
0
100
AcDbLine
 62
7
  6
CONTINUOUS
 10
3.2014254658
 20
4.324117236
 11
3.2014254658
 21
4.144617236
  0
LINE
  5
21F
100
AcDbEntity
  8
0
100
AcDbLine
 62
7
  6
CONTINUOUS
 10
3.2406754658
 20
4.7295285273
 11
3.2406754658
 21
4.7301025508
  0
LINE
  5
220
100
AcDbEntity
  8
0
100
AcDbLine
 62
7
  6
CONTINUOUS
 10
3.2489254658
 20
4.7313516585
 11
3.2489254658
 21
4.7320937945
  0
LINE
  5
221
100
AcDbEntity
  8
0
100
AcDbLine
 62
7
  6
CONTINUOUS
 10
3.2689254658
 20
4.7343344438
 11
3.2689254658
 21
4.7350603912
  0
LINE
  5
222
100
AcDbEntity
  8
0
100
AcDbLine
 62
7
  6
CONTINUOUS
 10
3.2771754658
 20
4.7355462665
 11
3.2771754658
 21
4.7349763108
  0
LINE
  5
223
100
AcDbEntity
  8
0
100
AcDbLine
 62
7
  6
CONTINUOUS
 10
3.2856754658
 20
4.7359908443
 11
3.2856754658
 21
4.7365600488
  0
LINE
  5
224
100
AcDbEntity
  8
0
100
AcDbLine
 62
7
  6
CONTINUOUS
 10
3.2939254658
 20
4.7373170384
 11
3.2939254658
 21
4.7380401783
  0
LINE
  5
225
100
AcDbEntity
  8
0
100
AcDbLine
 62
7
  6
CONTINUOUS
 10
3.3139254658
 20
4.7391123957
 11
3.3139254658
 21
4.7398500257
  0
LINE
  5
226
100
AcDbEntity
  8
0
100
AcDbLine
 62
7
  6
CONTINUOUS
 10
3.3221754658
 20
4.7398366455
 11
3.3221754658
 21
4.7392698553
  0
LINE
  5
227
100
AcDbEntity
  8
0
100
AcDbLine
 62
7
  6
CONTINUOUS
 10
3.3513254658
 20
4.7413090953
 11
3.3513254658
 21
4.7418092941
  0
LINE
  5
228
100
AcDbEntity
  8
0
100
AcDbLine
 62
7
  6
CONTINUOUS
 10
3.1109840674
 20
3.671117236
 11
3.1646078398
 21
4.1126314419
  0
LINE
  5
229
100
AcDbEntity
  8
0
100
AcDbLine
 62
7
  6
CONTINUOUS
 10
7.9606754658
 20
1.929617236
 11
6.7856754658
 21
1.929617236
  0
LINE
  5
22A
100
AcDbEntity
  8
0
100
AcDbLine
 62
7
  6
CONTINUOUS
 10
2.7856754658
 20
1.929617236
 11
3.9606754658
 21
1.929617236
  0
LINE
  5
22B
100
AcDbEntity
  8
0
100
AcDbLine
 62
7
  6
CONTINUOUS
 10
7.9456754658
 20
1.944617236
 11
6.8006754658
 21
1.944617236
  0
LINE
  5
22C
100
AcDbEntity
  8
0
100
AcDbLine
 62
7
  6
CONTINUOUS
 10
2.8006754658
 20
1.944617236
 11
3.9456754658
 21
1.944617236
  0
LINE
  5
22D
100
AcDbEntity
  8
0
100
AcDbLine
 62
7
  6
CONTINUOUS
 10
7.8081754658
 20
2.064617236
 11
6.9381754658
 21
2.064617236
  0
LINE
  5
22E
100
AcDbEntity
  8
0
100
AcDbLine
 62
7
  6
CONTINUOUS
 10
2.9381754658
 20
2.064617236
 11
3.8081754658
 21
2.064617236
  0
LINE
  5
22F
100
AcDbEntity
  8
0
100
AcDbLine
 62
7
  6
CONTINUOUS
 10
3.3938254658
 20
4.7413420179
 11
3.3938254658
 21
4.7418421954
  0
LINE
  5
230
100
AcDbEntity
  8
0
100
AcDbLine
 62
7
  6
CONTINUOUS
 10
3.4421754658
 20
4.7378705102
 11
3.4421754658
 21
4.7384383283
  0
LINE
  5
231
100
AcDbEntity
  8
0
100
AcDbLine
 62
7
  6
CONTINUOUS
 10
3.4514254658
 20
4.7375144074
 11
3.4514254658
 21
4.7381567107
  0
LINE
  5
232
100
AcDbEntity
  8
0
100
AcDbLine
 62
7
  6
CONTINUOUS
 10
3.4694254658
 20
4.7354740384
 11
3.4694254658
 21
4.7361198213
  0
LINE
  5
233
100
AcDbEntity
  8
0
100
AcDbLine
 62
7
  6
CONTINUOUS
 10
3.4786754658
 20
4.7343002415
 11
3.4786754658
 21
4.7337293598
  0
LINE
  5
234
100
AcDbEntity
  8
0
100
AcDbLine
 62
7
  6
CONTINUOUS
 10
3.5449254658
 20
4.324117236
 11
3.5449254658
 21
4.144617236
  0
LINE
  5
235
100
AcDbEntity
  8
0
100
AcDbLine
 62
7
  6
CONTINUOUS
 10
3.6344254658
 20
4.4792075624
 11
3.6344254658
 21
4.5040269097
  0
LINE
  5
236
100
AcDbEntity
  8
0
100
AcDbLine
 62
7
  6
CONTINUOUS
 10
3.6369254658
 20
4.6852592846
 11
3.6369254658
 21
4.649617236
  0
LINE
  5
237
100
AcDbEntity
  8
0
100
AcDbLine
 62
7
  6
CONTINUOUS
 10
3.6415203387
 20
4.4290759833
 11
3.6415203387
 21
4.5541584888
  0
LINE
  5
238
100
AcDbEntity
  8
0
100
AcDbLine
 62
7
  6
CONTINUOUS
 10
3.6518330513
 20
4.58541447
 11
3.6518330513
 21
4.397820002
  0
LINE
  5
239
100
AcDbEntity
  8
0
100
AcDbLine
 62
7
  6
CONTINUOUS
 10
3.6519254658
 20
4.594117236
 11
3.6519254658
 21
4.5856064129
  0
LINE
  5
23A
100
AcDbEntity
  8
0
100
AcDbLine
 62
7
  6
CONTINUOUS
 10
3.6519254658
 20
4.3976280591
 11
3.6519254658
 21
4.389117236
  0
LINE
  5
23B
100
AcDbEntity
  8
0
100
AcDbLine
 62
7
  6
CONTINUOUS
 10
3.6519254658
 20
4.5856064129
 11
3.6518330513
 21
4.58541447
  0
LINE
  5
23C
100
AcDbEntity
  8
0
100
AcDbLine
 62
7
  6
CONTINUOUS
 10
3.1205352552
 20
4.696369074
 11
3.1094254658
 21
4.6852592846
  0
LINE
  5
23D
100
AcDbEntity
  8
0
100
AcDbLine
 62
7
  6
CONTINUOUS
 10
7.6381754658
 20
2.229617236
 11
7.1081754658
 21
2.229617236
  0
LINE
  5
23E
100
AcDbEntity
  8
0
100
AcDbLine
 62
7
  6
CONTINUOUS
 10
3.1081754658
 20
2.229617236
 11
3.6381754658
 21
2.229617236
  0
LINE
  5
23F
100
AcDbEntity
  8
0
100
AcDbLine
 62
7
  6
CONTINUOUS
 10
3.097826091
 20
2.2462863549
 11
3.6485248406
 21
2.2462863549
  0
LINE
  5
240
100
AcDbEntity
  8
0
100
AcDbLine
 62
7
  6
CONTINUOUS
 10
7.097826091
 20
2.2462863549
 11
7.6485248406
 21
2.2462863549
  0
LINE
  5
241
100
AcDbEntity
  8
0
100
AcDbLine
 62
7
  6
CONTINUOUS
 10
5.3166537472
 20
2.465617236
 11
5.4296971845
 21
2.465617236
  0
LINE
  5
242
100
AcDbEntity
  8
0
100
AcDbLine
 62
7
  6
CONTINUOUS
 10
3.6353668642
 20
3.671117236
 11
3.5817430919
 21
4.1126314419
  0
LINE
  5
243
100
AcDbEntity
  8
0
100
AcDbLine
 62
7
  6
CONTINUOUS
 10
3.6701754658
 20
3.4860993828
 11
3.6701754658
 21
3.573716782
  0
LINE
  5
244
100
AcDbEntity
  8
0
100
AcDbLine
 62
7
  6
CONTINUOUS
 10
3.7774953663
 20
4.3957954538
 11
3.7774953663
 21
4.5874390182
  0
LINE
  5
245
100
AcDbEntity
  8
0
100
AcDbLine
 62
7
  6
CONTINUOUS
 10
3.7788973816
 20
3.3644808724
 11
3.7788973816
 21
2.9417535997
  0
LINE
  5
246
100
AcDbEntity
  8
0
100
AcDbLine
 62
7
  6
CONTINUOUS
 10
3.7909823374
 20
4.401617236
 11
3.7909823374
 21
4.581617236
  0
LINE
  5
247
100
AcDbEntity
  8
0
100
AcDbLine
 62
7
  6
CONTINUOUS
 10
3.803323302
 20
4.4062485573
 11
3.803323302
 21
4.5769859147
  0
LINE
  5
248
100
AcDbEntity
  8
0
100
AcDbLine
 62
7
  6
CONTINUOUS
 10
3.827906337
 20
4.3890988757
 11
3.827906337
 21
4.5941355964
  0
LINE
  5
249
100
AcDbEntity
  8
0
100
AcDbLine
 62
7
  6
CONTINUOUS
 10
3.8336219926
 20
3.353117236
 11
3.8336219926
 21
2.953117236
  0
LINE
  5
24A
100
AcDbEntity
  8
0
100
AcDbLine
 62
7
  6
CONTINUOUS
 10
3.1224254658
 20
4.642117236
 11
3.1085793082
 21
4.634117236
  0
LINE
  5
24B
100
AcDbEntity
  8
0
100
AcDbLine
 62
7
  6
CONTINUOUS
 10
5.2626754658
 20
2.509117236
 11
5.4836754658
 21
2.509117236
  0
LINE
  5
24C
100
AcDbEntity
  8
0
100
AcDbLine
 62
7
  6
CONTINUOUS
 10
5.2326754658
 20
2.539117236
 11
5.5136754658
 21
2.539117236
  0
LINE
  5
24D
100
AcDbEntity
  8
0
100
AcDbLine
 62
7
  6
CONTINUOUS
 10
5.2326754658
 20
2.557117236
 11
5.5136754658
 21
2.557117236
  0
LINE
  5
24E
100
AcDbEntity
  8
0
100
AcDbLine
 62
7
  6
CONTINUOUS
 10
5.2626754658
 20
2.587117236
 11
5.4836754658
 21
2.587117236
  0
LINE
  5
24F
100
AcDbEntity
  8
0
100
AcDbLine
 62
7
  6
CONTINUOUS
 10
5.2839254658
 20
2.602617236
 11
5.4624254658
 21
2.602617236
  0
LINE
  5
250
100
AcDbEntity
  8
0
100
AcDbLine
 62
7
  6
CONTINUOUS
 10
5.287368
 20
2.6101670467
 11
5.4589829317
 21
2.6101670467
  0
LINE
  5
251
100
AcDbEntity
  8
0
100
AcDbLine
 62
7
  6
CONTINUOUS
 10
5.2821145309
 20
2.694515405
 11
5.4642364008
 21
2.694515405
  0
LINE
  5
252
100
AcDbEntity
  8
0
100
AcDbLine
 62
7
  6
CONTINUOUS
 10
5.2719254658
 20
2.713617236
 11
5.4744254658
 21
2.713617236
  0
LINE
  5
253
100
AcDbEntity
  8
0
100
AcDbLine
 62
7
  6
CONTINUOUS
 10
5.4744254658
 20
2.7661438035
 11
5.2719254658
 21
2.7661438035
  0
LINE
  5
254
100
AcDbEntity
  8
0
100
AcDbLine
 62
7
  6
CONTINUOUS
 10
3.6518330513
 20
4.397820002
 11
3.6519254658
 21
4.3976280591
  0
LINE
  5
255
100
AcDbEntity
  8
0
100
AcDbLine
 62
7
  6
CONTINUOUS
 10
3.9606754658
 20
1.874617236
 11
3.9606754658
 21
1.929617236
  0
LINE
  5
256
100
AcDbEntity
  8
0
100
AcDbLine
 62
7
  6
CONTINUOUS
 10
4.1006754658
 20
3.3656298955
 11
4.1006754658
 21
2.9406045765
  0
LINE
  5
257
100
AcDbEntity
  8
0
100
AcDbLine
 62
7
  6
CONTINUOUS
 10
4.1598319784
 20
3.3656298955
 11
4.1598319784
 21
2.9406045765
  0
LINE
  5
258
100
AcDbEntity
  8
0
100
AcDbLine
 62
7
  6
CONTINUOUS
 10
3.827906337
 20
4.5941355964
 11
3.803323302
 21
4.5769859147
  0
LINE
  5
259
100
AcDbEntity
  8
0
100
AcDbLine
 62
7
  6
CONTINUOUS
 10
3.6369254658
 20
4.649617236
 11
3.6239254658
 21
4.642117236
  0
LINE
  5
25A
100
AcDbEntity
  8
0
100
AcDbLine
 62
7
  6
CONTINUOUS
 10
3.1459204878
 20
4.704617236
 11
3.1205352552
 21
4.696369074
  0
LINE
  5
25B
100
AcDbEntity
  8
0
100
AcDbLine
 62
7
  6
CONTINUOUS
 10
3.7178383462
 20
2.8275647527
 11
3.0285125854
 21
2.8275647527
  0
LINE
  5
25C
100
AcDbEntity
  8
0
100
AcDbLine
 62
7
  6
CONTINUOUS
 10
7.0285125854
 20
2.8275647527
 11
7.7178383462
 21
2.8275647527
  0
LINE
  5
25D
100
AcDbEntity
  8
0
100
AcDbLine
 62
7
  6
CONTINUOUS
 10
3.7031754658
 20
2.854617236
 11
3.0431754658
 21
2.854617236
  0
LINE
  5
25E
100
AcDbEntity
  8
0
100
AcDbLine
 62
7
  6
CONTINUOUS
 10
7.0431754658
 20
2.854617236
 11
7.7031754658
 21
2.854617236
  0
LINE
  5
25F
100
AcDbEntity
  8
0
100
AcDbLine
 62
7
  6
CONTINUOUS
 10
3.6912020996
 20
2.8699594549
 11
3.0551488321
 21
2.8699594549
  0
LINE
  5
260
100
AcDbEntity
  8
0
100
AcDbLine
 62
7
  6
CONTINUOUS
 10
7.0551488321
 20
2.8699594549
 11
7.6912020996
 21
2.8699594549
  0
LINE
  5
261
100
AcDbEntity
  8
0
100
AcDbLine
 62
7
  6
CONTINUOUS
 10
2.9819254658
 20
4.350867236
 11
3.0819254658
 21
4.393117236
  0
LINE
  5
262
100
AcDbEntity
  8
0
100
AcDbLine
 62
7
  6
CONTINUOUS
 10
3.6258156764
 20
4.696369074
 11
3.6369254658
 21
4.6852592846
  0
LINE
  5
263
100
AcDbEntity
  8
0
100
AcDbLine
 62
7
  6
CONTINUOUS
 10
3.6369254658
 20
4.349617236
 11
3.5584254658
 21
4.324117236
  0
LINE
  5
264
100
AcDbEntity
  8
0
100
AcDbLine
 62
7
  6
CONTINUOUS
 10
5.6669254658
 20
3.425617236
 11
5.0794254658
 21
3.425617236
  0
LINE
  5
265
100
AcDbEntity
  8
0
100
AcDbLine
 62
7
  6
CONTINUOUS
 10
3.0699326558
 20
3.4584170527
 11
3.6764182759
 21
3.4584170527
  0
LINE
  5
266
100
AcDbEntity
  8
0
100
AcDbLine
 62
7
  6
CONTINUOUS
 10
7.0699326558
 20
3.4584170527
 11
7.6764182759
 21
3.4584170527
  0
LINE
  5
267
100
AcDbEntity
  8
0
100
AcDbLine
 62
7
  6
CONTINUOUS
 10
3.6464254658
 20
3.479617236
 11
3.0999254658
 21
3.479617236
  0
LINE
  5
268
100
AcDbEntity
  8
0
100
AcDbLine
 62
7
  6
CONTINUOUS
 10
7.0999254467
 20
3.479617236
 11
7.6464254387
 21
3.479617236
  0
LINE
  5
269
100
AcDbEntity
  8
0
100
AcDbLine
 62
7
  6
CONTINUOUS
 10
5.6669254658
 20
3.489117236
 11
5.0794254658
 21
3.489117236
  0
LINE
  5
26A
100
AcDbEntity
  8
0
100
AcDbLine
 62
7
  6
CONTINUOUS
 10
3.6701754658
 20
3.5551275454
 11
3.5989271053
 21
3.5551275454
  0
LINE
  5
26B
100
AcDbEntity
  8
0
100
AcDbLine
 62
7
  6
CONTINUOUS
 10
3.4444238264
 20
3.5551275454
 11
3.3019271053
 21
3.5551275454
  0
LINE
  5
26C
100
AcDbEntity
  8
0
100
AcDbLine
 62
7
  6
CONTINUOUS
 10
3.1474238264
 20
3.5551275454
 11
3.0761754658
 21
3.5551275454
  0
LINE
  5
26D
100
AcDbEntity
  8
0
100
AcDbLine
 62
7
  6
CONTINUOUS
 10
7.0761357275
 20
3.5551275454
 11
7.1473290648
 21
3.5551275454
  0
LINE
  5
26E
100
AcDbEntity
  8
0
100
AcDbLine
 62
7
  6
CONTINUOUS
 10
7.3017925605
 20
3.5551275454
 11
7.4442892675
 21
3.5551275454
  0
LINE
  5
26F
100
AcDbEntity
  8
0
100
AcDbLine
 62
7
  6
CONTINUOUS
 10
7.5988322989
 20
3.5551275454
 11
7.6701356685
 21
3.5551275454
  0
LINE
  5
270
100
AcDbEntity
  8
0
100
AcDbLine
 62
7
  6
CONTINUOUS
 10
3.1094254658
 20
4.349617236
 11
3.1879254658
 21
4.324117236
  0
LINE
  5
271
100
AcDbEntity
  8
0
100
AcDbLine
 62
7
  6
CONTINUOUS
 10
3.1094254658
 20
4.649617236
 11
3.1224254658
 21
4.642117236
  0
LINE
  5
272
100
AcDbEntity
  8
0
100
AcDbLine
 62
7
  6
CONTINUOUS
 10
3.827906337
 20
4.3890988757
 11
3.803323302
 21
4.4062485573
  0
LINE
  5
273
100
AcDbEntity
  8
0
100
AcDbLine
 62
7
  6
CONTINUOUS
 10
4.9916754658
 20
3.365617236
 11
4.9916754658
 21
2.940617236
  0
LINE
  5
274
100
AcDbEntity
  8
0
100
AcDbLine
 62
7
  6
CONTINUOUS
 10
5.0486754658
 20
3.3869970128
 11
5.0486754658
 21
2.9192374592
  0
LINE
  5
275
100
AcDbEntity
  8
0
100
AcDbLine
 62
7
  6
CONTINUOUS
 10
3.6353668642
 20
3.671117236
 11
3.1109840674
 21
3.671117236
  0
LINE
  5
276
100
AcDbEntity
  8
0
100
AcDbLine
 62
7
  6
CONTINUOUS
 10
7.1109840674
 20
3.671117236
 11
7.6353668382
 21
3.671117236
  0
LINE
  5
277
100
AcDbEntity
  8
0
100
AcDbLine
 62
7
  6
CONTINUOUS
 10
2.9819254658
 20
4.632367236
 11
3.0819254658
 21
4.590117236
  0
LINE
  5
278
100
AcDbEntity
  8
0
100
AcDbLine
 62
7
  6
CONTINUOUS
 10
3.6239254658
 20
4.642117236
 11
3.6377716235
 21
4.634117236
  0
LINE
  5
279
100
AcDbEntity
  8
0
100
AcDbLine
 62
7
  6
CONTINUOUS
 10
5.1646832168
 20
5.4278536168
 11
5.1991819343
 21
5.0791585369
  0
LINE
  5
27A
100
AcDbEntity
  8
0
100
AcDbLine
 62
7
  6
CONTINUOUS
 10
5.1414254658
 20
6.355617236
 11
5.1414254658
 21
6.382617236
  0
LINE
  5
27B
100
AcDbEntity
  8
0
100
AcDbLine
 62
7
  6
CONTINUOUS
 10
5.1466754658
 20
4.378117236
 11
5.1466754658
 21
4.393617236
  0
LINE
  5
27C
100
AcDbEntity
  8
0
100
AcDbLine
 62
7
  6
CONTINUOUS
 10
5.1466754658
 20
4.687117236
 11
5.1466754658
 21
4.702617236
  0
LINE
  5
27D
100
AcDbEntity
  8
0
100
AcDbLine
 62
7
  6
CONTINUOUS
 10
5.2169254658
 20
6.1432338939
 11
5.2169254658
 21
5.5009853047
  0
LINE
  5
27E
100
AcDbEntity
  8
0
100
AcDbLine
 62
7
  6
CONTINUOUS
 10
5.2169254658
 20
6.279117236
 11
5.2169254658
 21
6.310617236
  0
LINE
  5
27F
100
AcDbEntity
  8
0
100
AcDbLine
 62
7
  6
CONTINUOUS
 10
5.2169254658
 20
6.443117236
 11
5.2169254658
 21
6.459117236
  0
LINE
  5
280
100
AcDbEntity
  8
0
100
AcDbLine
 62
7
  6
CONTINUOUS
 10
5.2326754658
 20
2.557117236
 11
5.2326754658
 21
2.539117236
  0
LINE
  5
281
100
AcDbEntity
  8
0
100
AcDbLine
 62
7
  6
CONTINUOUS
 10
5.2719254658
 20
2.7661438035
 11
5.2719254658
 21
2.713617236
  0
LINE
  5
282
100
AcDbEntity
  8
0
100
AcDbLine
 62
7
  6
CONTINUOUS
 10
5.2839254658
 20
2.602617236
 11
5.2839254658
 21
2.587117236
  0
LINE
  5
283
100
AcDbEntity
  8
0
100
AcDbLine
 62
7
  6
CONTINUOUS
 10
3.5817430919
 20
4.1126314419
 11
3.1646078398
 21
4.1126314419
  0
LINE
  5
284
100
AcDbEntity
  8
0
100
AcDbLine
 62
7
  6
CONTINUOUS
 10
7.1646078398
 20
4.1126314419
 11
7.5817430712
 21
4.1126314419
  0
LINE
  5
285
100
AcDbEntity
  8
0
100
AcDbLine
 62
7
  6
CONTINUOUS
 10
3.5569254658
 20
4.134617236
 11
3.1894254658
 21
4.134617236
  0
LINE
  5
286
100
AcDbEntity
  8
0
100
AcDbLine
 62
7
  6
CONTINUOUS
 10
7.1894254486
 20
4.134617236
 11
7.5569254476
 21
4.134617236
  0
LINE
  5
287
100
AcDbEntity
  8
0
100
AcDbLine
 62
7
  6
CONTINUOUS
 10
3.2014254298
 20
4.144617236
 11
3.5449255019
 21
4.144617236
  0
LINE
  5
288
100
AcDbEntity
  8
0
100
AcDbLine
 62
7
  6
CONTINUOUS
 10
7.2014254658
 20
4.144617236
 11
7.5449254658
 21
4.144617236
  0
LINE
  5
289
100
AcDbEntity
  8
0
100
AcDbLine
 62
7
  6
CONTINUOUS
 10
3.6004304439
 20
4.704617236
 11
3.6258156764
 21
4.696369074
  0
LINE
  5
28A
100
AcDbEntity
  8
0
100
AcDbLine
 62
7
  6
CONTINUOUS
 10
5.4624254658
 20
2.602617236
 11
5.4624254658
 21
2.587117236
  0
LINE
  5
28B
100
AcDbEntity
  8
0
100
AcDbLine
 62
7
  6
CONTINUOUS
 10
5.4744254658
 20
2.7661438035
 11
5.4744254658
 21
2.713617236
  0
LINE
  5
28C
100
AcDbEntity
  8
0
100
AcDbLine
 62
7
  6
CONTINUOUS
 10
5.5136754658
 20
2.557117236
 11
5.5136754658
 21
2.539117236
  0
LINE
  5
28D
100
AcDbEntity
  8
0
100
AcDbLine
 62
7
  6
CONTINUOUS
 10
5.5294254658
 20
6.1432338939
 11
5.5294254658
 21
5.5009853744
  0
LINE
  5
28E
100
AcDbEntity
  8
0
100
AcDbLine
 62
7
  6
CONTINUOUS
 10
5.5294254658
 20
6.279117236
 11
5.5294254658
 21
6.310617236
  0
LINE
  5
28F
100
AcDbEntity
  8
0
100
AcDbLine
 62
7
  6
CONTINUOUS
 10
5.5294254658
 20
6.443117236
 11
5.5294254658
 21
6.459117236
  0
LINE
  5
290
100
AcDbEntity
  8
0
100
AcDbLine
 62
7
  6
CONTINUOUS
 10
5.5996754658
 20
4.378117236
 11
5.5996754658
 21
4.393617236
  0
LINE
  5
291
100
AcDbEntity
  8
0
100
AcDbLine
 62
7
  6
CONTINUOUS
 10
5.5996754658
 20
4.687117236
 11
5.5996754658
 21
4.702617236
  0
LINE
  5
292
100
AcDbEntity
  8
0
100
AcDbLine
 62
7
  6
CONTINUOUS
 10
5.6049254658
 20
6.355617236
 11
5.6049254658
 21
6.382617236
  0
LINE
  5
293
100
AcDbEntity
  8
0
100
AcDbLine
 62
7
  6
CONTINUOUS
 10
5.6976754658
 20
3.3869970128
 11
5.6976754658
 21
2.9192374592
  0
LINE
  5
294
100
AcDbEntity
  8
0
100
AcDbLine
 62
7
  6
CONTINUOUS
 10
5.5816677148
 20
5.4278536168
 11
5.5471689974
 21
5.0791585369
  0
LINE
  5
295
100
AcDbEntity
  8
0
100
AcDbLine
 62
7
  6
CONTINUOUS
 10
7.1459204878
 20
4.704617236
 11
7.1205352552
 21
4.696369074
  0
LINE
  5
296
100
AcDbEntity
  8
0
100
AcDbLine
 62
7
  6
CONTINUOUS
 10
7.2099868031
 20
4.7241917374
 11
7.1981754658
 21
4.7221095575
  0
LINE
  5
297
100
AcDbEntity
  8
0
100
AcDbLine
 62
7
  6
CONTINUOUS
 10
7.2553525949
 20
4.7320474028
 11
7.2388193485
 21
4.729296648
  0
LINE
  5
298
100
AcDbEntity
  8
0
100
AcDbLine
 62
7
  6
CONTINUOUS
 10
7.2419580962
 20
4.7298197292
 11
7.2409063874
 21
4.7296447874
  0
LINE
  5
299
100
AcDbEntity
  8
0
100
AcDbLine
 62
7
  6
CONTINUOUS
 10
7.2535789739
 20
4.7317528812
 11
7.2525377678
 21
4.7315797811
  0
LWPOLYLINE
  5
29A
100
AcDbEntity
  8
0
100
AcDbPolyline
 62
7
  6
CONTINUOUS
 90
3
 70
0
 10
7.2493774619
 20
4.7310545012
 10
7.2483164382
 20
4.7308781203
 10
7.2472545975
 20
4.7307015564
  0
LINE
  5
29B
100
AcDbEntity
  8
0
100
AcDbLine
 62
7
  6
CONTINUOUS
 10
7.2388193485
 20
4.7298047216
 11
7.27440041
 21
4.7357060623
  0
LINE
  5
29C
100
AcDbEntity
  8
0
100
AcDbLine
 62
7
  6
CONTINUOUS
 10
7.2574823584
 20
4.7329069425
 11
7.2584243502
 21
4.7330630851
  0
LINE
  5
29D
100
AcDbEntity
  8
0
100
AcDbLine
 62
7
  6
CONTINUOUS
 10
7.2593426713
 20
4.733215376
 11
7.2602351276
 21
4.733363298
  0
LINE
  5
29E
100
AcDbEntity
  8
0
100
AcDbLine
 62
7
  6
CONTINUOUS
 10
7.2611011948
 20
4.7335067708
 11
7.2619407427
 21
4.7336458747
  0
LINE
  5
29F
100
AcDbEntity
  8
0
100
AcDbLine
 62
7
  6
CONTINUOUS
 10
7.2682961528
 20
4.734697786
 11
7.2700018908
 21
4.7349797607
  0
LINE
  5
2A0
100
AcDbEntity
  8
0
100
AcDbLine
 62
7
  6
CONTINUOUS
 10
7.2700018908
 20
4.7349797607
 11
7.2728762602
 21
4.7354545791
  0
LINE
  5
2A1
100
AcDbEntity
  8
0
100
AcDbLine
 62
7
  6
CONTINUOUS
 10
7.2728762602
 20
4.7354545791
 11
7.2740498975
 21
4.7356480996
  0
LINE
  5
2A2
100
AcDbEntity
  8
0
100
AcDbLine
 62
7
  6
CONTINUOUS
 10
7.2191765987
 20
4.7266695378
 11
7.2197268851
 21
4.7267529546
  0
LINE
  5
2A3
100
AcDbEntity
  8
0
100
AcDbLine
 62
7
  6
CONTINUOUS
 10
7.219726889
 20
4.7267529386
 11
7.2221599746
 21
4.727113428
  0
LINE
  5
2A4
100
AcDbEntity
  8
0
100
AcDbLine
 62
7
  6
CONTINUOUS
 10
7.2191765995
 20
4.7261593667
 11
7.2221599746
 21
4.7266035549
  0
LINE
  5
2A5
100
AcDbEntity
  8
0
100
AcDbLine
 62
7
  6
CONTINUOUS
 10
7.3538196465
 20
4.7418749202
 11
7.3538254658
 21
4.7418757399
  0
LINE
  5
2A6
100
AcDbEntity
  8
0
100
AcDbLine
 62
7
  6
CONTINUOUS
 10
3.1879254658
 20
4.324117236
 11
3.5584254658
 21
4.324117236
  0
LINE
  5
2A7
100
AcDbEntity
  8
0
100
AcDbLine
 62
7
  6
CONTINUOUS
 10
7.187925427
 20
4.324117236
 11
7.5584255047
 21
4.324117236
  0
LINE
  5
2A8
100
AcDbEntity
  8
0
100
AcDbLine
 62
7
  6
CONTINUOUS
 10
3.1094254658
 20
4.349617236
 11
3.6369254658
 21
4.349617236
  0
LINE
  5
2A9
100
AcDbEntity
  8
0
100
AcDbLine
 62
7
  6
CONTINUOUS
 10
7.1094254658
 20
4.349617236
 11
7.6369254658
 21
4.349617236
  0
LINE
  5
2AA
100
AcDbEntity
  8
0
100
AcDbLine
 62
7
  6
CONTINUOUS
 10
9.0014254658
 20
4.350867236
 11
8.9614254658
 21
4.350867236
  0
LINE
  5
2AB
100
AcDbEntity
  8
0
100
AcDbLine
 62
7
  6
CONTINUOUS
 10
7.8169254658
 20
4.350867236
 11
7.7644254658
 21
4.350867236
  0
LINE
  5
2AC
100
AcDbEntity
  8
0
100
AcDbLine
 62
7
  6
CONTINUOUS
 10
1.7449254658
 20
4.350867236
 11
1.7849254658
 21
4.350867236
  0
LINE
  5
2AD
100
AcDbEntity
  8
0
100
AcDbLine
 62
7
  6
CONTINUOUS
 10
2.9294254658
 20
4.350867236
 11
2.9819254658
 21
4.350867236
  0
LINE
  5
2AE
100
AcDbEntity
  8
0
100
AcDbLine
 62
7
  6
CONTINUOUS
 10
5.5996754658
 20
4.378117236
 11
5.1466754658
 21
4.378117236
  0
LINE
  5
2AF
100
AcDbEntity
  8
0
100
AcDbLine
 62
7
  6
CONTINUOUS
 10
3.0944254658
 20
4.389117236
 11
3.6519254658
 21
4.389117236
  0
LINE
  5
2B0
100
AcDbEntity
  8
0
100
AcDbLine
 62
7
  6
CONTINUOUS
 10
7.0944254658
 20
4.389117236
 11
7.6519254658
 21
4.389117236
  0
LINE
  5
2B1
100
AcDbEntity
  8
0
100
AcDbLine
 62
7
  6
CONTINUOUS
 10
7.6644254658
 20
4.393117236
 11
7.6519254658
 21
4.393117236
  0
LINE
  5
2B2
100
AcDbEntity
  8
0
100
AcDbLine
 62
7
  6
CONTINUOUS
 10
3.0819254658
 20
4.393117236
 11
3.0944254658
 21
4.393117236
  0
LINE
  5
2B3
100
AcDbEntity
  8
0
100
AcDbLine
 62
7
  6
CONTINUOUS
 10
5.5996754658
 20
4.393617236
 11
5.1466754658
 21
4.393617236
  0
LINE
  5
2B4
100
AcDbEntity
  8
0
100
AcDbLine
 62
7
  6
CONTINUOUS
 10
5.7546754658
 20
3.365617236
 11
5.7546754658
 21
2.940617236
  0
LINE
  5
2B5
100
AcDbEntity
  8
0
100
AcDbLine
 62
7
  6
CONTINUOUS
 10
7.1224254658
 20
4.642117236
 11
7.1085793082
 21
4.634117236
  0
LINE
  5
2B6
100
AcDbEntity
  8
0
100
AcDbLine
 62
7
  6
CONTINUOUS
 10
7.7644254658
 20
4.632367236
 11
7.6644254658
 21
4.590117236
  0
LINE
  5
2B7
100
AcDbEntity
  8
0
100
AcDbLine
 62
7
  6
CONTINUOUS
 10
7.6369254658
 20
4.349617236
 11
7.5584254658
 21
4.324117236
  0
LINE
  5
2B8
100
AcDbEntity
  8
0
100
AcDbLine
 62
7
  6
CONTINUOUS
 10
7.371595857
 20
4.742109812
 11
7.3715844053
 21
4.7421086765
  0
LINE
  5
2B9
100
AcDbEntity
  8
0
100
AcDbLine
 62
7
  6
CONTINUOUS
 10
7.3715475236
 20
4.7421062105
 11
7.3715313329
 21
4.7421048869
  0
LINE
  5
2BA
100
AcDbEntity
  8
0
100
AcDbLine
 62
7
  6
CONTINUOUS
 10
7.3716754658
 20
4.742115785
 11
7.3705684253
 21
4.742035132
  0
LINE
  5
2BB
100
AcDbEntity
  8
0
100
AcDbLine
 62
7
  6
CONTINUOUS
 10
7.3714031482
 20
4.7420954932
 11
7.3713775447
 21
4.7420936296
  0
LINE
  5
2BC
100
AcDbEntity
  8
0
100
AcDbLine
 62
7
  6
CONTINUOUS
 10
7.3711844436
 20
4.7420794862
 11
7.371098027
 21
4.7420732009
  0
LINE
  5
2BD
100
AcDbEntity
  8
0
100
AcDbLine
 62
7
  6
CONTINUOUS
 10
7.3538107766
 20
4.7418746989
 11
7.3538254658
 21
4.7418757399
  0
LINE
  5
2BE
100
AcDbEntity
  8
0
100
AcDbLine
 62
7
  6
CONTINUOUS
 10
7.353388621
 20
4.7410078615
 11
7.311608031
 21
4.7387992021
  0
LWPOLYLINE
  5
2BF
100
AcDbEntity
  8
0
100
AcDbPolyline
 62
7
  6
CONTINUOUS
 90
3
 70
0
 10
7.3325218541
 20
4.7398971548
 10
7.3311458943
 20
4.7398244714
 10
7.3297697749
 20
4.7397518822
  0
LINE
  5
2C0
100
AcDbEntity
  8
0
100
AcDbLine
 62
7
  6
CONTINUOUS
 10
7.3176327332
 20
4.7391138879
 11
7.3163625052
 21
4.7390473
  0
LINE
  5
2C1
100
AcDbEntity
  8
0
100
AcDbLine
 62
7
  6
CONTINUOUS
 10
7.3163625052
 20
4.7390473
 11
7.3116080324
 21
4.7387992028
  0
LINE
  5
2C2
100
AcDbEntity
  8
0
100
AcDbLine
 62
7
  6
CONTINUOUS
 10
7.294101344
 20
4.7380066637
 11
7.2931754658
 21
4.7379789439
  0
LINE
  5
2C3
100
AcDbEntity
  8
0
100
AcDbLine
 62
7
  6
CONTINUOUS
 10
3.4116754658
 20
4.741160771
 11
3.4107982261
 21
4.7411417792
  0
LWPOLYLINE
  5
2C4
100
AcDbEntity
  8
0
100
AcDbPolyline
 62
7
  6
CONTINUOUS
 90
10
 70
0
 10
7.3716754658
 20
4.742115785
 10
7.3716375513
 20
4.7421156114
 10
7.371641292
 20
4.7421153406
 10
7.3716644522
 20
4.7421149528
 10
7.3716682207
 20
4.7421143888
 10
7.3716463521
 20
4.7421136419
 10
7.3716357664
 20
4.7421127976
 10
7.3716335363
 20
4.7421118911
 10
7.37161321
 20
4.7421108879
 10
7.3715654356
 20
4.7421074757
  0
LINE
  5
2C5
100
AcDbEntity
  8
0
100
AcDbLine
 62
7
  6
CONTINUOUS
 10
7.6644254658
 20
4.590117236
 11
7.6519254658
 21
4.590117236
  0
LINE
  5
2C6
100
AcDbEntity
  8
0
100
AcDbLine
 62
7
  6
CONTINUOUS
 10
3.0819254658
 20
4.590117236
 11
3.0944254658
 21
4.590117236
  0
LINE
  5
2C7
100
AcDbEntity
  8
0
100
AcDbLine
 62
7
  6
CONTINUOUS
 10
3.0944254658
 20
4.594117236
 11
3.6519254658
 21
4.594117236
  0
LINE
  5
2C8
100
AcDbEntity
  8
0
100
AcDbLine
 62
7
  6
CONTINUOUS
 10
7.0944254658
 20
4.594117236
 11
7.6519254658
 21
4.594117236
  0
LINE
  5
2C9
100
AcDbEntity
  8
0
100
AcDbLine
 62
7
  6
CONTINUOUS
 10
9.0014254658
 20
4.632367236
 11
8.9614254658
 21
4.632367236
  0
LINE
  5
2CA
100
AcDbEntity
  8
0
100
AcDbLine
 62
7
  6
CONTINUOUS
 10
7.8169254658
 20
4.632367236
 11
7.7644254658
 21
4.632367236
  0
LINE
  5
2CB
100
AcDbEntity
  8
0
100
AcDbLine
 62
7
  6
CONTINUOUS
 10
1.7449254658
 20
4.632367236
 11
1.7849254658
 21
4.632367236
  0
LINE
  5
2CC
100
AcDbEntity
  8
0
100
AcDbLine
 62
7
  6
CONTINUOUS
 10
2.9294254658
 20
4.632367236
 11
2.9819254658
 21
4.632367236
  0
LINE
  5
2CD
100
AcDbEntity
  8
0
100
AcDbLine
 62
7
  6
CONTINUOUS
 10
3.1085793082
 20
4.634117236
 11
3.6377716235
 21
4.634117236
  0
LINE
  5
2CE
100
AcDbEntity
  8
0
100
AcDbLine
 62
7
  6
CONTINUOUS
 10
7.1085793082
 20
4.634117236
 11
7.6377716235
 21
4.634117236
  0
LINE
  5
2CF
100
AcDbEntity
  8
0
100
AcDbLine
 62
7
  6
CONTINUOUS
 10
3.1224254658
 20
4.642117236
 11
3.6239254658
 21
4.642117236
  0
LINE
  5
2D0
100
AcDbEntity
  8
0
100
AcDbLine
 62
7
  6
CONTINUOUS
 10
7.1224254658
 20
4.642117236
 11
7.6239254658
 21
4.642117236
  0
LINE
  5
2D1
100
AcDbEntity
  8
0
100
AcDbLine
 62
7
  6
CONTINUOUS
 10
3.1094254658
 20
4.649617236
 11
3.6369254658
 21
4.649617236
  0
LINE
  5
2D2
100
AcDbEntity
  8
0
100
AcDbLine
 62
7
  6
CONTINUOUS
 10
7.1094254658
 20
4.649617236
 11
7.6369254658
 21
4.649617236
  0
LINE
  5
2D3
100
AcDbEntity
  8
0
100
AcDbLine
 62
7
  6
CONTINUOUS
 10
3.1094254658
 20
4.6852592846
 11
3.6369254658
 21
4.6852592846
  0
LINE
  5
2D4
100
AcDbEntity
  8
0
100
AcDbLine
 62
7
  6
CONTINUOUS
 10
7.1094254658
 20
4.6852592846
 11
7.6369254658
 21
4.6852592846
  0
LINE
  5
2D5
100
AcDbEntity
  8
0
100
AcDbLine
 62
7
  6
CONTINUOUS
 10
5.5996754658
 20
4.687117236
 11
5.1466754658
 21
4.687117236
  0
LINE
  5
2D6
100
AcDbEntity
  8
0
100
AcDbLine
 62
7
  6
CONTINUOUS
 10
3.1205352552
 20
4.696369074
 11
3.6258156764
 21
4.696369074
  0
LINE
  5
2D7
100
AcDbEntity
  8
0
100
AcDbLine
 62
7
  6
CONTINUOUS
 10
7.1205352552
 20
4.696369074
 11
7.6258156764
 21
4.696369074
  0
LINE
  5
2D8
100
AcDbEntity
  8
0
100
AcDbLine
 62
7
  6
CONTINUOUS
 10
5.5996754658
 20
4.702617236
 11
5.1466754658
 21
4.702617236
  0
LINE
  5
2D9
100
AcDbEntity
  8
0
100
AcDbLine
 62
7
  6
CONTINUOUS
 10
3.1459204878
 20
4.704617236
 11
3.6004304439
 21
4.704617236
  0
LINE
  5
2DA
100
AcDbEntity
  8
0
100
AcDbLine
 62
7
  6
CONTINUOUS
 10
7.1459207378
 20
4.704617236
 11
7.6004301939
 21
4.704617236
  0
LINE
  5
2DB
100
AcDbEntity
  8
0
100
AcDbLine
 62
7
  6
CONTINUOUS
 10
7.5707477941
 20
4.7165218826
 11
7.1756031376
 21
4.7165218826
  0
LINE
  5
2DC
100
AcDbEntity
  8
0
100
AcDbLine
 62
7
  6
CONTINUOUS
 10
3.5707477856
 20
4.7165219425
 11
3.175603146
 21
4.7165219425
  0
LINE
  5
2DD
100
AcDbEntity
  8
0
100
AcDbLine
 62
7
  6
CONTINUOUS
 10
7.3116064603
 20
4.7396345446
 11
7.3117397333
 21
4.739631924
  0
LINE
  5
2DE
100
AcDbEntity
  8
0
100
AcDbLine
 62
7
  6
CONTINUOUS
 10
3.3340605047
 20
4.7410653376
 11
3.3331754658
 21
4.7410847387
  0
LINE
  5
2DF
100
AcDbEntity
  8
0
100
AcDbLine
 62
7
  6
CONTINUOUS
 10
7.3113254658
 20
4.7396463507
 11
7.3117397333
 21
4.739631924
  0
LINE
  5
2E0
100
AcDbEntity
  8
0
100
AcDbLine
 62
7
  6
CONTINUOUS
 10
7.1205352552
 20
4.696369074
 11
7.1094254658
 21
4.6852592846
  0
LINE
  5
2E1
100
AcDbEntity
  8
0
100
AcDbLine
 62
7
  6
CONTINUOUS
 10
6.9184445947
 20
4.3890988757
 11
6.9430276297
 21
4.4062485573
  0
LINE
  5
2E2
100
AcDbEntity
  8
0
100
AcDbLine
 62
7
  6
CONTINUOUS
 10
7.6369254658
 20
4.649617236
 11
7.6239254658
 21
4.642117236
  0
LINE
  5
2E3
100
AcDbEntity
  8
0
100
AcDbLine
 62
7
  6
CONTINUOUS
 10
3.3938176472
 20
4.7418414286
 11
3.3938254658
 21
4.7418421954
  0
LINE
  5
2E4
100
AcDbEntity
  8
0
100
AcDbLine
 62
7
  6
CONTINUOUS
 10
3.3938169973
 20
4.7418414458
 11
3.3938254658
 21
4.7418421954
  0
LINE
  5
2E5
100
AcDbEntity
  8
0
100
AcDbLine
 62
7
  6
CONTINUOUS
 10
7.4519256165
 20
4.7374522459
 11
7.4533979342
 21
4.7373449771
  0
LINE
  5
2E6
100
AcDbEntity
  8
0
100
AcDbLine
 62
7
  6
CONTINUOUS
 10
7.4533979342
 20
4.7373449771
 11
7.4538567464
 21
4.7372923867
  0
LINE
  5
2E7
100
AcDbEntity
  8
0
100
AcDbLine
 62
7
  6
CONTINUOUS
 10
7.4533979342
 20
4.7373449771
 11
7.453856745
 21
4.7372923695
  0
LINE
  5
2E8
100
AcDbEntity
  8
0
100
AcDbLine
 62
7
  6
CONTINUOUS
 10
7.5526754658
 20
4.7210527853
 11
7.5104254658
 21
4.7286881029
  0
LINE
  5
2E9
100
AcDbEntity
  8
0
100
AcDbLine
 62
7
  6
CONTINUOUS
 10
7.1094254658
 20
4.349617236
 11
7.1879254658
 21
4.324117236
  0
LINE
  5
2EA
100
AcDbEntity
  8
0
100
AcDbLine
 62
7
  6
CONTINUOUS
 10
5.5996754658
 20
5.289617236
 11
5.5679910726
 21
5.289617236
  0
LINE
  5
2EB
100
AcDbEntity
  8
0
100
AcDbLine
 62
7
  6
CONTINUOUS
 10
5.178359859
 20
5.289617236
 11
5.1466754658
 21
5.289617236
  0
LINE
  5
2EC
100
AcDbEntity
  8
0
100
AcDbLine
 62
7
  6
CONTINUOUS
 10
5.5908060434
 20
5.353117236
 11
5.5742735489
 21
5.353117236
  0
LINE
  5
2ED
100
AcDbEntity
  8
0
100
AcDbLine
 62
7
  6
CONTINUOUS
 10
5.1720773828
 20
5.353117236
 11
5.1555448883
 21
5.353117236
  0
LINE
  5
2EE
100
AcDbEntity
  8
0
100
AcDbLine
 62
7
  6
CONTINUOUS
 10
5.1620220709
 20
5.358117236
 11
5.1715826996
 21
5.358117236
  0
LINE
  5
2EF
100
AcDbEntity
  8
0
100
AcDbLine
 62
7
  6
CONTINUOUS
 10
5.5747682321
 20
5.358117236
 11
5.5843288608
 21
5.358117236
  0
LINE
  5
2F0
100
AcDbEntity
  8
0
100
AcDbLine
 62
7
  6
CONTINUOUS
 10
7.6004304439
 20
4.704617236
 11
7.6258156764
 21
4.696369074
  0
LINE
  5
2F1
100
AcDbEntity
  8
0
100
AcDbLine
 62
7
  6
CONTINUOUS
 10
7.7644254658
 20
4.350867236
 11
7.6644254658
 21
4.393117236
  0
LINE
  5
2F2
100
AcDbEntity
  8
0
100
AcDbLine
 62
7
  6
CONTINUOUS
 10
6.5865189533
 20
3.3656298955
 11
6.5865189533
 21
2.9406045765
  0
LINE
  5
2F3
100
AcDbEntity
  8
0
100
AcDbLine
 62
7
  6
CONTINUOUS
 10
6.6456754658
 20
3.3656298955
 11
6.6456754658
 21
2.9406045765
  0
LINE
  5
2F4
100
AcDbEntity
  8
0
100
AcDbLine
 62
7
  6
CONTINUOUS
 10
6.7856754658
 20
1.874617236
 11
6.7856754658
 21
1.929617236
  0
LINE
  5
2F5
100
AcDbEntity
  8
0
100
AcDbLine
 62
7
  6
CONTINUOUS
 10
7.0944254658
 20
4.3976280591
 11
7.0945178804
 21
4.397820002
  0
LINE
  5
2F6
100
AcDbEntity
  8
0
100
AcDbLine
 62
7
  6
CONTINUOUS
 10
7.1094254658
 20
4.649617236
 11
7.1224254658
 21
4.642117236
  0
LINE
  5
2F7
100
AcDbEntity
  8
0
100
AcDbLine
 62
7
  6
CONTINUOUS
 10
6.9184445947
 20
4.5941355964
 11
6.9430276297
 21
4.5769859147
  0
LINE
  5
2F8
100
AcDbEntity
  8
0
100
AcDbLine
 62
7
  6
CONTINUOUS
 10
7.0761754363
 20
3.4860996028
 11
7.0761357275
 21
3.5551275454
  0
LINE
  5
2F9
100
AcDbEntity
  8
0
100
AcDbLine
 62
7
  6
CONTINUOUS
 10
6.912728939
 20
3.353117236
 11
6.912728939
 21
2.953117236
  0
LINE
  5
2FA
100
AcDbEntity
  8
0
100
AcDbLine
 62
7
  6
CONTINUOUS
 10
6.9184445947
 20
4.3890988757
 11
6.9184445947
 21
4.5941355964
  0
LINE
  5
2FB
100
AcDbEntity
  8
0
100
AcDbLine
 62
7
  6
CONTINUOUS
 10
6.9430276297
 20
4.4062485573
 11
6.9430276297
 21
4.5769859147
  0
LINE
  5
2FC
100
AcDbEntity
  8
0
100
AcDbLine
 62
7
  6
CONTINUOUS
 10
6.9553685943
 20
4.581617236
 11
6.9553685943
 21
4.401617236
  0
LINE
  5
2FD
100
AcDbEntity
  8
0
100
AcDbLine
 62
7
  6
CONTINUOUS
 10
6.9674535501
 20
3.3644808724
 11
6.9674535501
 21
2.9417535997
  0
LINE
  5
2FE
100
AcDbEntity
  8
0
100
AcDbLine
 62
7
  6
CONTINUOUS
 10
6.9688555654
 20
4.3957954538
 11
6.9688555654
 21
4.5874390182
  0
LINE
  5
2FF
100
AcDbEntity
  8
0
100
AcDbLine
 62
7
  6
CONTINUOUS
 10
7.0944254658
 20
4.594117236
 11
7.0944254658
 21
4.5856064129
  0
LINE
  5
300
100
AcDbEntity
  8
0
100
AcDbLine
 62
7
  6
CONTINUOUS
 10
7.0944254658
 20
4.3976280591
 11
7.0944254658
 21
4.389117236
  0
LINE
  5
301
100
AcDbEntity
  8
0
100
AcDbLine
 62
7
  6
CONTINUOUS
 10
7.0945178804
 20
4.397820002
 11
7.0945178804
 21
4.58541447
  0
LINE
  5
302
100
AcDbEntity
  8
0
100
AcDbLine
 62
7
  6
CONTINUOUS
 10
7.104830593
 20
4.5541584888
 11
7.104830593
 21
4.4290759833
  0
LINE
  5
303
100
AcDbEntity
  8
0
100
AcDbLine
 62
7
  6
CONTINUOUS
 10
7.1094254658
 20
4.6852592846
 11
7.1094254658
 21
4.649617236
  0
LINE
  5
304
100
AcDbEntity
  8
0
100
AcDbLine
 62
7
  6
CONTINUOUS
 10
7.1119254658
 20
4.5040269097
 11
7.1119254658
 21
4.4792075624
  0
LINE
  5
305
100
AcDbEntity
  8
0
100
AcDbLine
 62
7
  6
CONTINUOUS
 10
7.0761754363
 20
3.5737167974
 11
7.0761357275
 21
3.5551275454
  0
LINE
  5
306
100
AcDbEntity
  8
0
100
AcDbLine
 62
7
  6
CONTINUOUS
 10
5.2106754658
 20
5.959117236
 11
5.2169254658
 21
5.959117236
  0
LINE
  5
307
100
AcDbEntity
  8
0
100
AcDbLine
 62
7
  6
CONTINUOUS
 10
5.5294254658
 20
5.959117236
 11
5.5356754658
 21
5.959117236
  0
LINE
  5
308
100
AcDbEntity
  8
0
100
AcDbLine
 62
7
  6
CONTINUOUS
 10
7.6239254658
 20
4.642117236
 11
7.6377716235
 21
4.634117236
  0
LINE
  5
309
100
AcDbEntity
  8
0
100
AcDbLine
 62
7
  6
CONTINUOUS
 10
7.0945178804
 20
4.58541447
 11
7.0944254658
 21
4.5856064129
  0
LINE
  5
30A
100
AcDbEntity
  8
0
100
AcDbLine
 62
7
  6
CONTINUOUS
 10
7.2014254658
 20
4.324117236
 11
7.2014254658
 21
4.144617236
  0
LINE
  5
30B
100
AcDbEntity
  8
0
100
AcDbLine
 62
7
  6
CONTINUOUS
 10
7.2191754658
 20
4.7261590734
 11
7.2191754658
 21
4.7266692448
  0
LINE
  5
30C
100
AcDbEntity
  8
0
100
AcDbLine
 62
7
  6
CONTINUOUS
 10
7.2221599746
 20
4.7266035549
 11
7.2221599746
 21
4.727113428
  0
LINE
  5
30D
100
AcDbEntity
  8
0
100
AcDbLine
 62
7
  6
CONTINUOUS
 10
7.2388193485
 20
4.729296648
 11
7.2388193485
 21
4.7298047216
  0
LINE
  5
30E
100
AcDbEntity
  8
0
100
AcDbLine
 62
7
  6
CONTINUOUS
 10
7.27440041
 20
4.7352794552
 11
7.27440041
 21
4.7357060623
  0
LINE
  5
30F
100
AcDbEntity
  8
0
100
AcDbLine
 62
7
  6
CONTINUOUS
 10
7.3113254658
 20
4.7391447511
 11
7.3113254658
 21
4.7396463507
  0
LINE
  5
310
100
AcDbEntity
  8
0
100
AcDbLine
 62
7
  6
CONTINUOUS
 10
7.3538254658
 20
4.741375584
 11
7.3538254658
 21
4.7418757399
  0
LINE
  5
311
100
AcDbEntity
  8
0
100
AcDbLine
 62
7
  6
CONTINUOUS
 10
7.3781754658
 20
4.7409353942
 11
7.3781754658
 21
4.7415009671
  0
LINE
  5
312
100
AcDbEntity
  8
0
100
AcDbLine
 62
7
  6
CONTINUOUS
 10
7.3889254658
 20
4.7412895193
 11
7.3889254658
 21
4.741956947
  0
LINE
  5
313
100
AcDbEntity
  8
0
100
AcDbLine
 62
7
  6
CONTINUOUS
 10
7.4069254658
 20
4.7407141012
 11
7.4069254658
 21
4.7413823262
  0
LINE
  5
314
100
AcDbEntity
  8
0
100
AcDbLine
 62
7
  6
CONTINUOUS
 10
7.4219254658
 20
4.7394559004
 11
7.4219254658
 21
4.7399572981
  0
LINE
  5
315
100
AcDbEntity
  8
0
100
AcDbLine
 62
7
  6
CONTINUOUS
 10
7.4339254658
 20
4.7386051377
 11
7.4339254658
 21
4.7391070878
  0
LINE
  5
316
100
AcDbEntity
  8
0
100
AcDbLine
 62
7
  6
CONTINUOUS
 10
7.1646078398
 20
4.1126314419
 11
7.1109840674
 21
3.671117236
  0
LINE
  5
317
100
AcDbEntity
  8
0
100
AcDbLine
 62
7
  6
CONTINUOUS
 10
7.6258156764
 20
4.696369074
 11
7.6369254658
 21
4.6852592846
  0
LWPOLYLINE
  5
318
100
AcDbEntity
  8
0
100
AcDbPolyline
 62
7
  6
CONTINUOUS
 90
3
 70
0
 10
7.3113254658
 20
4.7396463507
 10
7.3113259985
 20
4.7396448087
 10
7.311359107
 20
4.7396429224
  0
LINE
  5
319
100
AcDbEntity
  8
0
100
AcDbLine
 62
7
  6
CONTINUOUS
 10
7.6701754954
 20
3.5737167974
 11
7.6702152042
 21
3.5551275454
  0
LINE
  5
31A
100
AcDbEntity
  8
0
100
AcDbLine
 62
7
  6
CONTINUOUS
 10
7.4467580608
 20
4.7377456268
 11
7.4467580608
 21
4.7382481361
  0
LINE
  5
31B
100
AcDbEntity
  8
0
100
AcDbLine
 62
7
  6
CONTINUOUS
 10
7.4533979342
 20
4.7373449771
 11
7.4533979342
 21
4.7378477475
  0
LINE
  5
31C
100
AcDbEntity
  8
0
100
AcDbLine
 62
7
  6
CONTINUOUS
 10
7.4681754658
 20
4.7351006025
 11
7.4681754658
 21
4.7356704674
  0
LINE
  5
31D
100
AcDbEntity
  8
0
100
AcDbLine
 62
7
  6
CONTINUOUS
 10
7.4731754658
 20
4.7348094654
 11
7.4731754658
 21
4.7356372466
  0
LINE
  5
31E
100
AcDbEntity
  8
0
100
AcDbLine
 62
7
  6
CONTINUOUS
 10
7.491316406
 20
4.7320637173
 11
7.491316406
 21
4.7330635579
  0
LINE
  5
31F
100
AcDbEntity
  8
0
100
AcDbLine
 62
7
  6
CONTINUOUS
 10
7.494316406
 20
4.7314808041
 11
7.494316406
 21
4.7319874275
  0
LINE
  5
320
100
AcDbEntity
  8
0
100
AcDbLine
 62
7
  6
CONTINUOUS
 10
7.5082478599
 20
4.729143355
 11
7.5082478599
 21
4.7296515307
  0
LINE
  5
321
100
AcDbEntity
  8
0
100
AcDbLine
 62
7
  6
CONTINUOUS
 10
7.5310154688
 20
4.7252393746
 11
7.5310154688
 21
4.7257501643
  0
LINE
  5
322
100
AcDbEntity
  8
0
100
AcDbLine
 62
7
  6
CONTINUOUS
 10
7.5335059258
 20
4.7248467838
 11
7.5335059258
 21
4.7253578378
  0
LINE
  5
323
100
AcDbEntity
  8
0
100
AcDbLine
 62
7
  6
CONTINUOUS
 10
7.5449254658
 20
4.324117236
 11
7.5449254658
 21
4.144617236
  0
LINE
  5
324
100
AcDbEntity
  8
0
100
AcDbLine
 62
7
  6
CONTINUOUS
 10
7.6344254658
 20
4.4757348559
 11
7.6344254658
 21
4.5074996162
  0
LINE
  5
325
100
AcDbEntity
  8
0
100
AcDbLine
 62
7
  6
CONTINUOUS
 10
7.6369254658
 20
4.6852592846
 11
7.6369254658
 21
4.649617236
  0
LINE
  5
326
100
AcDbEntity
  8
0
100
AcDbLine
 62
7
  6
CONTINUOUS
 10
7.6519254658
 20
4.594117236
 11
7.6519254658
 21
4.590117236
  0
LINE
  5
327
100
AcDbEntity
  8
0
100
AcDbLine
 62
7
  6
CONTINUOUS
 10
7.6519254658
 20
4.393117236
 11
7.6519254658
 21
4.389117236
  0
LINE
  5
328
100
AcDbEntity
  8
0
100
AcDbLine
 62
7
  6
CONTINUOUS
 10
7.6644254658
 20
4.393117236
 11
7.6644254658
 21
4.590117236
  0
LINE
  5
329
100
AcDbEntity
  8
0
100
AcDbLine
 62
7
  6
CONTINUOUS
 10
7.6701754954
 20
3.4860996028
 11
7.6702152042
 21
3.5551275454
  0
LINE
  5
32A
100
AcDbEntity
  8
0
100
AcDbLine
 62
7
  6
CONTINUOUS
 10
7.6701356685
 20
3.5551275454
 11
7.6701754363
 21
3.4860993828
  0
LINE
  5
32B
100
AcDbEntity
  8
0
100
AcDbLine
 62
7
  6
CONTINUOUS
 10
7.6701356685
 20
3.5551275454
 11
7.6701754363
 21
3.573716782
  0
LINE
  5
32C
100
AcDbEntity
  8
0
100
AcDbLine
 62
7
  6
CONTINUOUS
 10
5.5294254658
 20
6.279117236
 11
5.4507459931
 21
6.279117236
  0
LINE
  5
32D
100
AcDbEntity
  8
0
100
AcDbLine
 62
7
  6
CONTINUOUS
 10
5.2956049385
 20
6.279117236
 11
5.2169254658
 21
6.279117236
  0
LINE
  5
32E
100
AcDbEntity
  8
0
100
AcDbLine
 62
7
  6
CONTINUOUS
 10
5.5599254658
 20
6.310617236
 11
5.1864254658
 21
6.310617236
  0
LINE
  5
32F
100
AcDbEntity
  8
0
100
AcDbLine
 62
7
  6
CONTINUOUS
 10
5.6049254658
 20
6.355617236
 11
5.1414254658
 21
6.355617236
  0
LINE
  5
330
100
AcDbEntity
  8
0
100
AcDbLine
 62
7
  6
CONTINUOUS
 10
5.6049254658
 20
6.382617236
 11
5.1414254658
 21
6.382617236
  0
LINE
  5
331
100
AcDbEntity
  8
0
100
AcDbLine
 62
7
  6
CONTINUOUS
 10
5.5599254658
 20
6.427617236
 11
5.1864254658
 21
6.427617236
  0
LINE
  5
332
100
AcDbEntity
  8
0
100
AcDbLine
 62
7
  6
CONTINUOUS
 10
5.5294254658
 20
6.443117236
 11
5.2169254658
 21
6.443117236
  0
LINE
  5
333
100
AcDbEntity
  8
0
100
AcDbLine
 62
7
  6
CONTINUOUS
 10
5.5294254658
 20
6.459117236
 11
5.2169254658
 21
6.459117236
  0
LINE
  5
334
100
AcDbEntity
  8
0
100
AcDbLine
 62
7
  6
CONTINUOUS
 10
5.4669254658
 20
6.521617236
 11
5.2794254658
 21
6.521617236
  0
LINE
  5
335
100
AcDbEntity
  8
0
100
AcDbLine
 62
7
  6
CONTINUOUS
 10
7.5817430919
 20
4.1126314419
 11
7.6353668642
 21
3.671117236
  0
LINE
  5
336
100
AcDbEntity
  8
0
100
AcDbLine
 62
7
  6
CONTINUOUS
 10
7.7644254658
 20
4.350867236
 11
7.7644254658
 21
4.632367236
  0
LINE
  5
337
100
AcDbEntity
  8
0
100
AcDbLine
 62
7
  6
CONTINUOUS
 10
7.8169254658
 20
4.350867236
 11
7.8169254658
 21
4.632367236
  0
LINE
  5
338
100
AcDbEntity
  8
0
100
AcDbLine
 62
7
  6
CONTINUOUS
 10
7.9606754658
 20
1.874617236
 11
7.9606754658
 21
1.929617236
  0
LINE
  5
339
100
AcDbEntity
  8
0
100
AcDbLine
 62
7
  6
CONTINUOUS
 10
9.0014254658
 20
4.350867236
 11
9.0114254658
 21
4.360867236
  0
LINE
  5
33A
100
AcDbEntity
  8
0
100
AcDbLine
 62
7
  6
CONTINUOUS
 10
9.0014254658
 20
4.632367236
 11
9.0114254658
 21
4.622367236
  0
LINE
  5
33B
100
AcDbEntity
  8
0
100
AcDbLine
 62
7
  6
CONTINUOUS
 10
8.9614254658
 20
4.350867236
 11
8.9614254658
 21
4.632367236
  0
LINE
  5
33C
100
AcDbEntity
  8
0
100
AcDbLine
 62
7
  6
CONTINUOUS
 10
9.0014254658
 20
4.350867236
 11
9.0014254658
 21
4.632367236
  0
LINE
  5
33D
100
AcDbEntity
  8
0
100
AcDbLine
 62
7
  6
CONTINUOUS
 10
9.0114254658
 20
4.622367236
 11
9.0114254658
 21
4.360867236
  0
ARC
  5
33E
100
AcDbEntity
  8
0
100
AcDbCircle
 62
7
  6
CONTINUOUS
 10
4.5757910587
 20
0.4872623775
 40
2.4883548585
100
AcDbArc
 50
80.3788749104
 51
99.6228690154
  0
ARC
  5
33F
100
AcDbEntity
  8
0
100
AcDbCircle
 62
7
  6
CONTINUOUS
 10
4.2716805238
 20
2.4667510487
 40
0.6610050579
100
AcDbArc
 50
146.9168077474
 51
199.4831430565
  0
ARC
  5
340
100
AcDbEntity
  8
0
100
AcDbCircle
 62
7
  6
CONTINUOUS
 10
2.4746704079
 20
2.4667510487
 40
0.6610050579
100
AcDbArc
 50
340.5168569435
 51
33.0831922526
  0
ARC
  5
341
100
AcDbEntity
  8
0
100
AcDbCircle
 62
7
  6
CONTINUOUS
 10
3.2431376881
 20
3.153117236
 40
0.5300377778
100
AcDbArc
 50
20.332576683
 51
35.1694359445
  0
ARC
  5
342
100
AcDbEntity
  8
0
100
AcDbCircle
 62
7
  6
CONTINUOUS
 10
3.5032132436
 20
3.153117236
 40
0.5300377778
100
AcDbArc
 50
144.8305640555
 51
212.2911569963
  0
ARC
  5
343
100
AcDbEntity
  8
0
100
AcDbCircle
 62
7
  6
CONTINUOUS
 10
3.2431376881
 20
3.153117236
 40
0.5300377778
100
AcDbArc
 50
327.7088430037
 51
339.667423317
  0
ARC
  5
344
100
AcDbEntity
  8
0
100
AcDbCircle
 62
7
  6
CONTINUOUS
 10
3.9516050423
 20
2.615117236
 40
0.358
100
AcDbArc
 50
65.39262454
 51
109.2421680269
  0
ARC
  5
345
100
AcDbEntity
  8
0
100
AcDbCircle
 62
7
  6
CONTINUOUS
 10
3.1475019471
 20
2.0488454797
 40
0.185
100
AcDbArc
 50
102.2733303409
 51
175.109441632
  0
ARC
  5
346
100
AcDbEntity
  8
0
100
AcDbCircle
 62
7
  6
CONTINUOUS
 10
3.5988489846
 20
2.0488454797
 40
0.185
100
AcDbArc
 50
4.890558368
 51
77.7266696591
  0
ARC
  5
347
100
AcDbEntity
  8
0
100
AcDbCircle
 62
7
  6
CONTINUOUS
 10
2.8132755059
 20
2.069617236
 40
0.125
100
AcDbArc
 50
270.0
 51
357.707557224
  0
ARC
  5
348
100
AcDbEntity
  8
0
100
AcDbCircle
 62
7
  6
CONTINUOUS
 10
3.9330754258
 20
2.069617236
 40
0.125
100
AcDbArc
 50
182.292442776
 51
270.0
  0
ARC
  5
349
100
AcDbEntity
  8
0
100
AcDbCircle
 62
7
  6
CONTINUOUS
 10
3.7256754658
 20
2.907117236
 40
0.0635
100
AcDbArc
 50
33.0557311509
 51
76.8242114636
  0
ARC
  5
34A
100
AcDbEntity
  8
0
100
AcDbCircle
 62
7
  6
CONTINUOUS
 10
3.7256754658
 20
3.399117236
 40
0.0635
100
AcDbArc
 50
283.1757885364
 51
326.9442688491
  0
ARC
  5
34B
100
AcDbEntity
  8
0
100
AcDbCircle
 62
7
  6
CONTINUOUS
 10
5.2524822815
 20
2.6503320395
 40
0.0532
100
AcDbArc
 50
310.9762844863
 51
56.1516146287
  0
ARC
  5
34C
100
AcDbEntity
  8
0
100
AcDbCircle
 62
7
  6
CONTINUOUS
 10
3.1108052696
 20
3.429617236
 40
0.05
100
AcDbArc
 50
90.0
 51
144.8305640554
  0
ARC
  5
34D
100
AcDbEntity
  8
0
100
AcDbCircle
 62
7
  6
CONTINUOUS
 10
3.6355456621
 20
3.429617236
 40
0.05
100
AcDbArc
 50
35.1694359446
 51
90.0
  0
ARC
  5
34E
100
AcDbEntity
  8
0
100
AcDbCircle
 62
7
  6
CONTINUOUS
 10
5.3281754658
 20
2.509117236
 40
0.045
100
AcDbArc
 50
180.0
 51
255.164888418
  0
ARC
  5
34F
100
AcDbEntity
  8
0
100
AcDbCircle
 62
7
  6
CONTINUOUS
 10
5.0241754557
 20
3.3656428679
 40
0.0325
100
AcDbArc
 50
41.0753217545
 51
180.0451876894
  0
ARC
  5
350
100
AcDbEntity
  8
0
100
AcDbCircle
 62
7
  6
CONTINUOUS
 10
5.0241754557
 20
2.9405916041
 40
0.0325
100
AcDbArc
 50
179.9548123106
 51
318.9246782455
  0
ARC
  5
351
100
AcDbEntity
  8
0
100
AcDbCircle
 62
7
  6
CONTINUOUS
 10
5.0794254658
 20
3.457367236
 40
0.03175
100
AcDbArc
 50
90.0
 51
270.0
  0
ARC
  5
352
100
AcDbEntity
  8
0
100
AcDbCircle
 62
7
  6
CONTINUOUS
 10
4.1302537221
 20
3.360617236
 40
0.03
100
AcDbArc
 50
9.618589969
 51
170.381410031
  0
ARC
  5
353
100
AcDbEntity
  8
0
100
AcDbCircle
 62
7
  6
CONTINUOUS
 10
4.1302537221
 20
2.945617236
 40
0.03
100
AcDbArc
 50
189.618589969
 51
350.381410031
  0
ARC
  5
354
100
AcDbEntity
  8
0
100
AcDbCircle
 62
7
  6
CONTINUOUS
 10
3.8040415937
 20
3.348117236
 40
0.03
100
AcDbArc
 50
9.5940682269
 51
146.9442688491
  0
ARC
  5
355
100
AcDbEntity
  8
0
100
AcDbCircle
 62
7
  6
CONTINUOUS
 10
3.8040415937
 20
2.958117236
 40
0.03
100
AcDbArc
 50
213.0557311509
 51
350.4059317731
  0
ARC
  5
356
100
AcDbEntity
  8
0
100
AcDbCircle
 62
7
  6
CONTINUOUS
 10
5.2626754658
 20
2.557117236
 40
0.03
100
AcDbArc
 50
90.0
 51
180.0
  0
ARC
  5
357
100
AcDbEntity
  8
0
100
AcDbCircle
 62
7
  6
CONTINUOUS
 10
5.2626754658
 20
2.539117236
 40
0.03
100
AcDbArc
 50
180.0
 51
270.0
  0
ARC
  5
358
100
AcDbEntity
  8
0
100
AcDbCircle
 62
7
  6
CONTINUOUS
 10
5.2949254658
 20
2.713617236
 40
0.023
100
AcDbArc
 50
180.0
 51
236.1516146287
  0
ARC
  5
359
100
AcDbEntity
  8
0
100
AcDbCircle
 62
7
  6
CONTINUOUS
 10
3.7031754658
 20
2.837117236
 40
0.0175
100
AcDbArc
 50
326.9168077474
 51
90.0
  0
ARC
  5
35A
100
AcDbEntity
  8
0
100
AcDbCircle
 62
7
  6
CONTINUOUS
 10
3.0431754658
 20
2.837117236
 40
0.0175
100
AcDbArc
 50
90.0
 51
213.0831922526
  0
ARC
  5
35B
100
AcDbEntity
  8
0
100
AcDbCircle
 62
7
  6
CONTINUOUS
 10
2.8006754658
 20
1.929617236
 40
0.015
100
AcDbArc
 50
90.0
 51
180.0
  0
ARC
  5
35C
100
AcDbEntity
  8
0
100
AcDbCircle
 62
7
  6
CONTINUOUS
 10
3.9456754658
 20
1.929617236
 40
0.015
100
AcDbArc
 50
0.0
 51
90.0
  0
ARC
  5
35D
100
AcDbEntity
  8
0
100
AcDbCircle
 62
7
  6
CONTINUOUS
 10
3.1096103368
 20
2.242117236
 40
0.0125
100
AcDbArc
 50
160.5168569435
 51
266.9588015818
  0
ARC
  5
35E
100
AcDbEntity
  8
0
100
AcDbCircle
 62
7
  6
CONTINUOUS
 10
3.6367405949
 20
2.242117236
 40
0.0125
100
AcDbArc
 50
273.0411984182
 51
19.4831430565
  0
ARC
  5
35F
100
AcDbEntity
  8
0
100
AcDbCircle
 62
7
  6
CONTINUOUS
 10
5.2939254658
 20
2.602617236
 40
0.01
100
AcDbArc
 50
130.9762844863
 51
180.0
  0
ARC
  5
360
100
AcDbEntity
  8
0
100
AcDbCircle
 62
7
  6
CONTINUOUS
 10
3.6996555425
 20
2.864617236
 40
0.01
100
AcDbArc
 50
147.7088430037
 51
270.0
  0
ARC
  5
361
100
AcDbEntity
  8
0
100
AcDbCircle
 62
7
  6
CONTINUOUS
 10
3.0466953892
 20
2.864617236
 40
0.01
100
AcDbArc
 50
270.0
 51
32.2911569963
  0
ARC
  5
362
100
AcDbEntity
  8
0
100
AcDbCircle
 62
7
  6
CONTINUOUS
 10
3.2969994549
 20
4.070995673
 40
1.875
100
AcDbArc
 50
341.9205696715
 51
9.427424663
  0
ARC
  5
363
100
AcDbEntity
  8
0
100
AcDbCircle
 62
7
  6
CONTINUOUS
 10
3.3731754658
 20
3.96678054
 40
0.775336696
100
AcDbArc
 50
75.2370022574
 51
82.8689275621
  0
ARC
  5
364
100
AcDbEntity
  8
0
100
AcDbCircle
 62
7
  6
CONTINUOUS
 10
3.3731754658
 20
3.96678054
 40
0.775336696
100
AcDbArc
 50
99.221579184
 51
104.7629977426
  0
ARC
  5
365
100
AcDbEntity
  8
0
100
AcDbCircle
 62
7
  6
CONTINUOUS
 10
3.3731754658
 20
3.96678054
 40
0.775336696
100
AcDbArc
 50
92.9572301428
 51
94.3827253199
  0
ARC
  5
366
100
AcDbEntity
  8
0
100
AcDbCircle
 62
7
  6
CONTINUOUS
 10
3.3731754658
 20
3.96678054
 40
0.775336696
100
AcDbArc
 50
84.2076250178
 51
87.1537590823
  0
ARC
  5
367
100
AcDbEntity
  8
0
100
AcDbCircle
 62
7
  6
CONTINUOUS
 10
3.3731754658
 20
3.96678054
 40
0.775336696
100
AcDbArc
 50
88.473827208
 51
91.6148836456
  0
ARC
  5
368
100
AcDbEntity
  8
0
100
AcDbCircle
 62
7
  6
CONTINUOUS
 10
3.3731754658
 20
3.96678054
 40
0.7753341165
100
AcDbArc
 50
96.0895835634
 51
97.5036217175
  0
ARC
  5
369
100
AcDbEntity
  8
0
100
AcDbCircle
 62
7
  6
CONTINUOUS
 10
3.3731754658
 20
3.96678054
 40
0.774836696
100
AcDbArc
 50
82.8687745639
 51
84.2038744154
  0
ARC
  5
36A
100
AcDbEntity
  8
0
100
AcDbCircle
 62
7
  6
CONTINUOUS
 10
3.3731754658
 20
3.96678054
 40
0.774836696
100
AcDbArc
 50
94.3855590149
 51
95.8683848097
  0
ARC
  5
36B
100
AcDbEntity
  8
0
100
AcDbCircle
 62
7
  6
CONTINUOUS
 10
3.3731754658
 20
3.96678054
 40
0.774836696
100
AcDbArc
 50
97.7347338023
 51
99.2216419429
  0
ARC
  5
36C
100
AcDbEntity
  8
0
100
AcDbCircle
 62
7
  6
CONTINUOUS
 10
3.3731754658
 20
3.96678054
 40
0.774836696
100
AcDbArc
 50
91.6159260019
 51
92.335601978
  0
ARC
  5
36D
100
AcDbEntity
  8
0
100
AcDbCircle
 62
7
  6
CONTINUOUS
 10
3.3731754658
 20
3.96678054
 40
0.774836696
100
AcDbArc
 50
87.7881877744
 51
88.4728421397
  0
ARC
  5
36E
100
AcDbEntity
  8
0
100
AcDbCircle
 62
7
  6
CONTINUOUS
 10
3.3731754658
 20
3.96678054
 40
0.7741710032
100
AcDbArc
 50
93.7772047905
 51
96.4896726718
  0
ARC
  5
36F
100
AcDbEntity
  8
0
100
AcDbCircle
 62
7
  6
CONTINUOUS
 10
3.3731754658
 20
3.96678054
 40
0.7741710032
100
AcDbArc
 50
97.1232192299
 51
99.8547367444
  0
ARC
  5
370
100
AcDbEntity
  8
0
100
AcDbCircle
 62
7
  6
CONTINUOUS
 10
3.3731754658
 20
3.96678054
 40
0.7741710032
100
AcDbArc
 50
82.1676580455
 51
84.8865797045
  0
ARC
  5
371
100
AcDbEntity
  8
0
100
AcDbCircle
 62
7
  6
CONTINUOUS
 10
3.0041094435
 20
4.3873942302
 40
0.68
100
AcDbArc
 50
17.6982774827
 51
21.2739720086
  0
ARC
  5
372
100
AcDbEntity
  8
0
100
AcDbCircle
 62
7
  6
CONTINUOUS
 10
3.0090260754
 20
4.6106581438
 40
0.68
100
AcDbArc
 50
337.4255442891
 51
340.9862257999
  0
ARC
  5
373
100
AcDbEntity
  8
0
100
AcDbCircle
 62
7
  6
CONTINUOUS
 10
2.8781947351
 20
3.6993904875
 40
0.2345
100
AcDbArc
 50
327.5935402047
 51
353.0751017558
  0
ARC
  5
374
100
AcDbEntity
  8
0
100
AcDbCircle
 62
7
  6
CONTINUOUS
 10
1.8736858825
 20
4.491617236
 40
0.1867604167
100
AcDbArc
 50
137.9864211385
 51
222.0135788615
  0
ARC
  5
375
100
AcDbEntity
  8
0
100
AcDbCircle
 62
7
  6
CONTINUOUS
 10
3.0999254658
 20
3.526367236
 40
0.04675
100
AcDbArc
 50
239.4678748052
 51
270.0
  0
ARC
  5
376
100
AcDbEntity
  8
0
100
AcDbCircle
 62
7
  6
CONTINUOUS
 10
3.5569254658
 20
4.109617236
 40
0.025
100
AcDbArc
 50
6.9248982442
 51
90.0
  0
ARC
  5
377
100
AcDbEntity
  8
0
100
AcDbCircle
 62
7
  6
CONTINUOUS
 10
3.1894254658
 20
4.109617236
 40
0.025
100
AcDbArc
 50
90.0
 51
173.0751017558
  0
ARC
  5
378
100
AcDbEntity
  8
0
100
AcDbCircle
 62
7
  6
CONTINUOUS
 10
3.5669254658
 20
4.7020171202
 40
0.015
100
AcDbArc
 50
9.982999291
 51
75.2370022574
  0
ARC
  5
379
100
AcDbEntity
  8
0
100
AcDbCircle
 62
7
  6
CONTINUOUS
 10
3.1794254658
 20
4.7020171202
 40
0.015
100
AcDbArc
 50
104.7629977426
 51
170.017000709
  0
ARC
  5
37A
100
AcDbEntity
  8
0
100
AcDbCircle
 62
7
  6
CONTINUOUS
 10
3.1643589094
 20
5.1381067539
 40
0.4155795141
100
AcDbArc
 50
280.5947987426
 51
280.7210448827
  0
ARC
  5
37B
100
AcDbEntity
  8
0
100
AcDbCircle
 62
7
  6
CONTINUOUS
 10
3.2349208555
 20
5.1364840395
 40
0.4036313836
100
AcDbArc
 50
277.232899489
 51
277.3685996191
  0
ARC
  5
37C
100
AcDbEntity
  8
0
100
AcDbCircle
 62
7
  6
CONTINUOUS
 10
3.2324191266
 20
5.1356909759
 40
0.4026399364
100
AcDbArc
 50
276.2471779586
 51
276.3820289831
  0
ARC
  5
37D
100
AcDbEntity
  8
0
100
AcDbCircle
 62
7
  6
CONTINUOUS
 10
3.3011394461
 20
5.1366025805
 40
0.397323195
100
AcDbArc
 50
272.8993035537
 51
273.0349070027
  0
ARC
  5
37E
100
AcDbEntity
  8
0
100
AcDbCircle
 62
7
  6
CONTINUOUS
 10
3.7422414882
 20
4.3873942302
 40
0.68
100
AcDbArc
 50
158.7260279914
 51
162.3017225173
  0
ARC
  5
37F
100
AcDbEntity
  8
0
100
AcDbCircle
 62
7
  6
CONTINUOUS
 10
3.7373248563
 20
4.6106581438
 40
0.68
100
AcDbArc
 50
199.0137742001
 51
202.5744557109
  0
ARC
  5
380
100
AcDbEntity
  8
0
100
AcDbCircle
 62
7
  6
CONTINUOUS
 10
3.9516050423
 20
3.691117236
 40
0.358
100
AcDbArc
 50
250.7578319731
 51
294.60737546
  0
ARC
  5
381
100
AcDbEntity
  8
0
100
AcDbCircle
 62
7
  6
CONTINUOUS
 10
3.8681561966
 20
3.6993904875
 40
0.2345
100
AcDbArc
 50
186.9248982442
 51
212.4064597953
  0
ARC
  5
382
100
AcDbEntity
  8
0
100
AcDbCircle
 62
7
  6
CONTINUOUS
 10
5.3266324036
 20
4.540367236
 40
0.2322069378
100
AcDbArc
 50
140.8036898637
 51
219.1963101363
  0
ARC
  5
383
100
AcDbEntity
  8
0
100
AcDbCircle
 62
7
  6
CONTINUOUS
 10
3.8994254658
 20
4.491617236
 40
0.125
100
AcDbArc
 50
235.0995
 51
124.9005
  0
ARC
  5
384
100
AcDbEntity
  8
0
100
AcDbCircle
 62
7
  6
CONTINUOUS
 10
3.7137093268
 20
4.328117236
 40
0.093
100
AcDbArc
 50
46.6958241996
 51
131.6319105028
  0
ARC
  5
385
100
AcDbEntity
  8
0
100
AcDbCircle
 62
7
  6
CONTINUOUS
 10
3.7137093268
 20
4.655117236
 40
0.093
100
AcDbArc
 50
228.3680894972
 51
313.3041758004
  0
ARC
  5
386
100
AcDbEntity
  8
0
100
AcDbCircle
 62
7
  6
CONTINUOUS
 10
3.6464254658
 20
3.526367236
 40
0.04675
100
AcDbArc
 50
270.0
 51
300.5321251948
  0
ARC
  5
387
100
AcDbEntity
  8
0
100
AcDbCircle
 62
7
  6
CONTINUOUS
 10
3.7987460778
 20
4.3996873823
 40
0.008
100
AcDbArc
 50
55.0995
 51
166.0407512246
  0
ARC
  5
388
100
AcDbEntity
  8
0
100
AcDbCircle
 62
7
  6
CONTINUOUS
 10
3.7829823374
 20
4.401617236
 40
0.008
100
AcDbArc
 50
226.6958241996
 51
360.0
  0
ARC
  5
389
100
AcDbEntity
  8
0
100
AcDbCircle
 62
7
  6
CONTINUOUS
 10
3.7987460778
 20
4.5835470898
 40
0.008
100
AcDbArc
 50
193.9592487754
 51
304.9005
  0
ARC
  5
38A
100
AcDbEntity
  8
0
100
AcDbCircle
 62
7
  6
CONTINUOUS
 10
3.7829823374
 20
4.581617236
 40
0.008
100
AcDbArc
 50
0.0
 51
133.3041758004
  0
ARC
  5
38B
100
AcDbEntity
  8
0
100
AcDbCircle
 62
7
  6
CONTINUOUS
 10
4.5757910587
 20
5.8189720945
 40
2.4883548585
100
AcDbArc
 50
260.3771309846
 51
279.6211250896
  0
ARC
  5
38C
100
AcDbEntity
  8
0
100
AcDbCircle
 62
7
  6
CONTINUOUS
 10
4.1295670321
 20
4.996117236
 40
1.0586084337
100
AcDbArc
 50
343.9038098157
 51
16.0961901843
  0
ARC
  5
38D
100
AcDbEntity
  8
0
100
AcDbCircle
 62
7
  6
CONTINUOUS
 10
5.1342568485
 20
6.1953807254
 40
0.1176686173
100
AcDbArc
 50
18.9592050915
 51
45.36768663
  0
ARC
  5
38E
100
AcDbEntity
  8
0
100
AcDbCircle
 62
7
  6
CONTINUOUS
 10
5.2794254658
 20
6.459117236
 40
0.0625
100
AcDbArc
 50
90.0
 51
180.0
  0
ARC
  5
38F
100
AcDbEntity
  8
0
100
AcDbCircle
 62
7
  6
CONTINUOUS
 10
5.1864254658
 20
6.355617236
 40
0.045
100
AcDbArc
 50
180.0
 51
270.0
  0
ARC
  5
390
100
AcDbEntity
  8
0
100
AcDbCircle
 62
7
  6
CONTINUOUS
 10
5.1864254658
 20
6.382617236
 40
0.045
100
AcDbArc
 50
90.0
 51
180.0
  0
ARC
  5
391
100
AcDbEntity
  8
0
100
AcDbCircle
 62
7
  6
CONTINUOUS
 10
5.1555448883
 20
5.3207478135
 40
0.0323694225
100
AcDbArc
 50
90.0
 51
254.0972010097
  0
ARC
  5
392
100
AcDbEntity
  8
0
100
AcDbCircle
 62
7
  6
CONTINUOUS
 10
5.2014254658
 20
6.443117236
 40
0.0155
100
AcDbArc
 50
270.0
 51
360.0
  0
ARC
  5
393
100
AcDbEntity
  8
0
100
AcDbCircle
 62
7
  6
CONTINUOUS
 10
6.170559873
 20
0.4872623775
 40
2.4883548585
100
AcDbArc
 50
80.3771309846
 51
99.6211250896
  0
ARC
  5
394
100
AcDbEntity
  8
0
100
AcDbCircle
 62
7
  6
CONTINUOUS
 10
6.8006754658
 20
1.929617236
 40
0.015
100
AcDbArc
 50
90.0
 51
180.0
  0
ARC
  5
395
100
AcDbEntity
  8
0
100
AcDbCircle
 62
7
  6
CONTINUOUS
 10
6.4746704079
 20
2.4667510487
 40
0.6610050579
100
AcDbArc
 50
340.5168569435
 51
33.0831922526
  0
ARC
  5
396
100
AcDbEntity
  8
0
100
AcDbCircle
 62
7
  6
CONTINUOUS
 10
5.3731754658
 20
3.153117236
 40
0.4
100
AcDbArc
 50
137.0586001588
 51
144.2182401935
  0
ARC
  5
397
100
AcDbEntity
  8
0
100
AcDbCircle
 62
7
  6
CONTINUOUS
 10
5.3731754658
 20
3.153117236
 40
0.4
100
AcDbArc
 50
215.7817598065
 51
255.3374890444
  0
ARC
  5
398
100
AcDbEntity
  8
0
100
AcDbCircle
 62
7
  6
CONTINUOUS
 10
5.3731754658
 20
3.153117236
 40
0.4
100
AcDbArc
 50
284.6625109556
 51
324.2182401935
  0
ARC
  5
399
100
AcDbEntity
  8
0
100
AcDbCircle
 62
7
  6
CONTINUOUS
 10
5.3731754658
 20
3.153117236
 40
0.4
100
AcDbArc
 50
35.7817598065
 51
42.9413998412
  0
ARC
  5
39A
100
AcDbEntity
  8
0
100
AcDbCircle
 62
7
  6
CONTINUOUS
 10
6.7947458894
 20
2.615117236
 40
0.358
100
AcDbArc
 50
70.7578319731
 51
114.60737546
  0
ARC
  5
39B
100
AcDbEntity
  8
0
100
AcDbCircle
 62
7
  6
CONTINUOUS
 10
6.8132755059
 20
2.069617236
 40
0.125
100
AcDbArc
 50
270.0
 51
357.707557224
  0
ARC
  5
39C
100
AcDbEntity
  8
0
100
AcDbCircle
 62
7
  6
CONTINUOUS
 10
5.4938686502
 20
2.6503320395
 40
0.0532
100
AcDbArc
 50
123.8483853713
 51
229.0237155137
  0
ARC
  5
39D
100
AcDbEntity
  8
0
100
AcDbCircle
 62
7
  6
CONTINUOUS
 10
5.4181754658
 20
2.509117236
 40
0.045
100
AcDbArc
 50
284.835111582
 51
360.0
  0
ARC
  5
39E
100
AcDbEntity
  8
0
100
AcDbCircle
 62
7
  6
CONTINUOUS
 10
5.7221754759
 20
3.3656428679
 40
0.0325
100
AcDbArc
 50
359.9548123106
 51
138.9246782455
  0
ARC
  5
39F
100
AcDbEntity
  8
0
100
AcDbCircle
 62
7
  6
CONTINUOUS
 10
5.7221754759
 20
2.9405916041
 40
0.0325
100
AcDbArc
 50
221.0753217545
 51
0.0451876894
  0
ARC
  5
3A0
100
AcDbEntity
  8
0
100
AcDbCircle
 62
7
  6
CONTINUOUS
 10
5.6669254658
 20
3.457367236
 40
0.03175
100
AcDbArc
 50
270.0
 51
90.0
  0
ARC
  5
3A1
100
AcDbEntity
  8
0
100
AcDbCircle
 62
7
  6
CONTINUOUS
 10
6.6160972096
 20
3.360617236
 40
0.03
100
AcDbArc
 50
9.618589969
 51
170.381410031
  0
ARC
  5
3A2
100
AcDbEntity
  8
0
100
AcDbCircle
 62
7
  6
CONTINUOUS
 10
6.6160972096
 20
2.945617236
 40
0.03
100
AcDbArc
 50
189.618589969
 51
350.381410031
  0
ARC
  5
3A3
100
AcDbEntity
  8
0
100
AcDbCircle
 62
7
  6
CONTINUOUS
 10
5.4836754658
 20
2.557117236
 40
0.03
100
AcDbArc
 50
0.0
 51
90.0
  0
ARC
  5
3A4
100
AcDbEntity
  8
0
100
AcDbCircle
 62
7
  6
CONTINUOUS
 10
5.4836754658
 20
2.539117236
 40
0.03
100
AcDbArc
 50
270.0
 51
360.0
  0
ARC
  5
3A5
100
AcDbEntity
  8
0
100
AcDbCircle
 62
7
  6
CONTINUOUS
 10
5.4514254658
 20
2.713617236
 40
0.023
100
AcDbArc
 50
303.8483853713
 51
360.0
  0
ARC
  5
3A6
100
AcDbEntity
  8
0
100
AcDbCircle
 62
7
  6
CONTINUOUS
 10
5.4524254658
 20
2.602617236
 40
0.01
100
AcDbArc
 50
0.0
 51
49.0237155137
  0
ARC
  5
3A7
100
AcDbEntity
  8
0
100
AcDbCircle
 62
7
  6
CONTINUOUS
 10
7.9456754658
 20
1.929617236
 40
0.015
100
AcDbArc
 50
0.0
 51
90.0
  0
ARC
  5
3A8
100
AcDbEntity
  8
0
100
AcDbCircle
 62
7
  6
CONTINUOUS
 10
8.2716805238
 20
2.4667510487
 40
0.6610050579
100
AcDbArc
 50
146.9168077474
 51
199.4831430565
  0
ARC
  5
3A9
100
AcDbEntity
  8
0
100
AcDbCircle
 62
7
  6
CONTINUOUS
 10
7.5032132436
 20
3.153117236
 40
0.5300377778
100
AcDbArc
 50
144.8305640555
 51
159.667423317
  0
ARC
  5
3AA
100
AcDbEntity
  8
0
100
AcDbCircle
 62
7
  6
CONTINUOUS
 10
7.2431376881
 20
3.153117236
 40
0.5300377778
100
AcDbArc
 50
327.7088430037
 51
35.1694359445
  0
ARC
  5
3AB
100
AcDbEntity
  8
0
100
AcDbCircle
 62
7
  6
CONTINUOUS
 10
7.5032132436
 20
3.153117236
 40
0.5300377778
100
AcDbArc
 50
200.332576683
 51
212.2911569963
  0
ARC
  5
3AC
100
AcDbEntity
  8
0
100
AcDbCircle
 62
7
  6
CONTINUOUS
 10
7.5988489846
 20
2.0488454797
 40
0.185
100
AcDbArc
 50
4.890558368
 51
77.7266696591
  0
ARC
  5
3AD
100
AcDbEntity
  8
0
100
AcDbCircle
 62
7
  6
CONTINUOUS
 10
7.1475019471
 20
2.0488454797
 40
0.185
100
AcDbArc
 50
102.2733303409
 51
175.109441632
  0
ARC
  5
3AE
100
AcDbEntity
  8
0
100
AcDbCircle
 62
7
  6
CONTINUOUS
 10
7.9330754258
 20
2.069617236
 40
0.125
100
AcDbArc
 50
182.292442776
 51
270.0
  0
ARC
  5
3AF
100
AcDbEntity
  8
0
100
AcDbCircle
 62
7
  6
CONTINUOUS
 10
7.0206754658
 20
3.399117236
 40
0.0635
100
AcDbArc
 50
213.0557311509
 51
256.8242114636
  0
ARC
  5
3B0
100
AcDbEntity
  8
0
100
AcDbCircle
 62
7
  6
CONTINUOUS
 10
7.0206754658
 20
2.907117236
 40
0.0635
100
AcDbArc
 50
103.1757885364
 51
146.9442688491
  0
ARC
  5
3B1
100
AcDbEntity
  8
0
100
AcDbCircle
 62
7
  6
CONTINUOUS
 10
7.6355456621
 20
3.429617236
 40
0.05
100
AcDbArc
 50
35.1694359446
 51
90.0
  0
ARC
  5
3B2
100
AcDbEntity
  8
0
100
AcDbCircle
 62
7
  6
CONTINUOUS
 10
7.1108052696
 20
3.429617236
 40
0.05
100
AcDbArc
 50
90.0
 51
144.8305640554
  0
ARC
  5
3B3
100
AcDbEntity
  8
0
100
AcDbCircle
 62
7
  6
CONTINUOUS
 10
6.942309338
 20
3.348117236
 40
0.03
100
AcDbArc
 50
33.0557311509
 51
170.4059317731
  0
ARC
  5
3B4
100
AcDbEntity
  8
0
100
AcDbCircle
 62
7
  6
CONTINUOUS
 10
6.942309338
 20
2.958117236
 40
0.03
100
AcDbArc
 50
189.5940682269
 51
326.9442688491
  0
ARC
  5
3B5
100
AcDbEntity
  8
0
100
AcDbCircle
 62
7
  6
CONTINUOUS
 10
7.0431754658
 20
2.837117236
 40
0.0175
100
AcDbArc
 50
90.0
 51
213.0831922526
  0
ARC
  5
3B6
100
AcDbEntity
  8
0
100
AcDbCircle
 62
7
  6
CONTINUOUS
 10
7.7031754658
 20
2.837117236
 40
0.0175
100
AcDbArc
 50
326.9168077474
 51
90.0
  0
ARC
  5
3B7
100
AcDbEntity
  8
0
100
AcDbCircle
 62
7
  6
CONTINUOUS
 10
7.6367405949
 20
2.242117236
 40
0.0125
100
AcDbArc
 50
273.0411984182
 51
19.4831430565
  0
ARC
  5
3B8
100
AcDbEntity
  8
0
100
AcDbCircle
 62
7
  6
CONTINUOUS
 10
7.1096103368
 20
2.242117236
 40
0.0125
100
AcDbArc
 50
160.5168569435
 51
266.9588015818
  0
ARC
  5
3B9
100
AcDbEntity
  8
0
100
AcDbCircle
 62
7
  6
CONTINUOUS
 10
7.0466953892
 20
2.864617236
 40
0.01
100
AcDbArc
 50
270.0
 51
32.2911569963
  0
ARC
  5
3BA
100
AcDbEntity
  8
0
100
AcDbCircle
 62
7
  6
CONTINUOUS
 10
7.6996555425
 20
2.864617236
 40
0.01
100
AcDbArc
 50
147.7088430037
 51
270.0
  0
ARC
  5
3BB
100
AcDbEntity
  8
0
100
AcDbCircle
 62
7
  6
CONTINUOUS
 10
7.0041094435
 20
4.3873942302
 40
0.68
100
AcDbArc
 50
17.6982774827
 51
21.2739720086
  0
ARC
  5
3BC
100
AcDbEntity
  8
0
100
AcDbCircle
 62
7
  6
CONTINUOUS
 10
7.0090260754
 20
4.6106581438
 40
0.68
100
AcDbArc
 50
337.4255442891
 51
340.9862257999
  0
ARC
  5
3BD
100
AcDbEntity
  8
0
100
AcDbCircle
 62
7
  6
CONTINUOUS
 10
6.7947458894
 20
3.691117236
 40
0.358
100
AcDbArc
 50
245.39262454
 51
289.2421680269
  0
ARC
  5
3BE
100
AcDbEntity
  8
0
100
AcDbCircle
 62
7
  6
CONTINUOUS
 10
6.8781947351
 20
3.6993904875
 40
0.2345
100
AcDbArc
 50
327.5935267488
 51
353.0751017558
  0
ARC
  5
3BF
100
AcDbEntity
  8
0
100
AcDbCircle
 62
7
  6
CONTINUOUS
 10
5.419718528
 20
4.540367236
 40
0.2322069378
100
AcDbArc
 50
320.8036898637
 51
39.1963101363
  0
ARC
  5
3C0
100
AcDbEntity
  8
0
100
AcDbCircle
 62
7
  6
CONTINUOUS
 10
6.8469254658
 20
4.491617236
 40
0.125
100
AcDbArc
 50
55.0995
 51
304.9005
  0
ARC
  5
3C1
100
AcDbEntity
  8
0
100
AcDbCircle
 62
7
  6
CONTINUOUS
 10
7.0326416049
 20
4.328117236
 40
0.093
100
AcDbArc
 50
48.3680894972
 51
133.3041758004
  0
ARC
  5
3C2
100
AcDbEntity
  8
0
100
AcDbCircle
 62
7
  6
CONTINUOUS
 10
7.0326416049
 20
4.655117236
 40
0.093
100
AcDbArc
 50
226.6958241996
 51
311.6319105028
  0
ARC
  5
3C3
100
AcDbEntity
  8
0
100
AcDbCircle
 62
7
  6
CONTINUOUS
 10
7.0999254658
 20
3.526367236
 40
0.04675
100
AcDbArc
 50
239.4678328099
 51
270.0
  0
ARC
  5
3C4
100
AcDbEntity
  8
0
100
AcDbCircle
 62
7
  6
CONTINUOUS
 10
6.9476048539
 20
4.3996873823
 40
0.008
100
AcDbArc
 50
13.9592487754
 51
124.9005
  0
ARC
  5
3C5
100
AcDbEntity
  8
0
100
AcDbCircle
 62
7
  6
CONTINUOUS
 10
6.9633685943
 20
4.401617236
 40
0.008
100
AcDbArc
 50
180.0
 51
313.3041758004
  0
ARC
  5
3C6
100
AcDbEntity
  8
0
100
AcDbCircle
 62
7
  6
CONTINUOUS
 10
6.9476048539
 20
4.5835470898
 40
0.008
100
AcDbArc
 50
235.0995
 51
346.0407512246
  0
ARC
  5
3C7
100
AcDbEntity
  8
0
100
AcDbCircle
 62
7
  6
CONTINUOUS
 10
6.9633685943
 20
4.581617236
 40
0.008
100
AcDbArc
 50
46.6958241996
 51
180.0
  0
ARC
  5
3C8
100
AcDbEntity
  8
0
100
AcDbCircle
 62
7
  6
CONTINUOUS
 10
6.170559873
 20
5.8189720945
 40
2.4883548585
100
AcDbArc
 50
260.3788749104
 51
279.6228690154
  0
ARC
  5
3C9
100
AcDbEntity
  8
0
100
AcDbCircle
 62
7
  6
CONTINUOUS
 10
6.6167838996
 20
4.996117236
 40
1.0586084337
100
AcDbArc
 50
163.9038098157
 51
196.0961901843
  0
ARC
  5
3CA
100
AcDbEntity
  8
0
100
AcDbCircle
 62
7
  6
CONTINUOUS
 10
5.3731754658
 20
5.6434928548
 40
0.355
100
AcDbArc
 50
306.4982543829
 51
62.7582127656
  0
ARC
  5
3CB
100
AcDbEntity
  8
0
100
AcDbCircle
 62
7
  6
CONTINUOUS
 10
5.3731754658
 20
5.6434928548
 40
0.355
100
AcDbArc
 50
117.2417872344
 51
233.5017456171
  0
ARC
  5
3CC
100
AcDbEntity
  8
0
100
AcDbCircle
 62
7
  6
CONTINUOUS
 10
5.3731754658
 20
5.6434928548
 40
0.23475
100
AcDbArc
 50
321.5067844156
 51
48.269553295
  0
ARC
  5
3CD
100
AcDbEntity
  8
0
100
AcDbCircle
 62
7
  6
CONTINUOUS
 10
5.3731754658
 20
5.6434928548
 40
0.23475
100
AcDbArc
 50
131.730446705
 51
218.4932674704
  0
ARC
  5
3CE
100
AcDbEntity
  8
0
100
AcDbCircle
 62
7
  6
CONTINUOUS
 10
5.3731754658
 20
5.6434928548
 40
0.2035
100
AcDbArc
 50
140.1586855164
 51
219.8413144836
  0
ARC
  5
3CF
100
AcDbEntity
  8
0
100
AcDbCircle
 62
7
  6
CONTINUOUS
 10
5.3731754658
 20
5.6434928548
 40
0.2035
100
AcDbArc
 50
320.1586855164
 51
39.8413144836
  0
ARC
  5
3D0
100
AcDbEntity
  8
0
100
AcDbCircle
 62
7
  6
CONTINUOUS
 10
5.3731754658
 20
6.1434928548
 40
0.15625
100
AcDbArc
 50
0.0
 51
180.0
  0
ARC
  5
3D1
100
AcDbEntity
  8
0
100
AcDbCircle
 62
7
  6
CONTINUOUS
 10
5.6120940831
 20
6.1953807254
 40
0.1176686173
100
AcDbArc
 50
134.63231337
 51
161.0407949085
  0
ARC
  5
3D2
100
AcDbEntity
  8
0
100
AcDbCircle
 62
7
  6
CONTINUOUS
 10
5.4669254658
 20
6.459117236
 40
0.0625
100
AcDbArc
 50
0.0
 51
90.0
  0
ARC
  5
3D3
100
AcDbEntity
  8
0
100
AcDbCircle
 62
7
  6
CONTINUOUS
 10
5.5599254658
 20
6.355617236
 40
0.045
100
AcDbArc
 50
270.0
 51
360.0
  0
ARC
  5
3D4
100
AcDbEntity
  8
0
100
AcDbCircle
 62
7
  6
CONTINUOUS
 10
5.5599254658
 20
6.382617236
 40
0.045
100
AcDbArc
 50
0.0
 51
90.0
  0
ARC
  5
3D5
100
AcDbEntity
  8
0
100
AcDbCircle
 62
7
  6
CONTINUOUS
 10
5.5908060434
 20
5.3207478135
 40
0.0323694225
100
AcDbArc
 50
285.9027989903
 51
90.0
  0
ARC
  5
3D6
100
AcDbEntity
  8
0
100
AcDbCircle
 62
7
  6
CONTINUOUS
 10
5.5449254658
 20
6.443117236
 40
0.0155
100
AcDbArc
 50
180.0
 51
270.0
  0
ARC
  5
3D7
100
AcDbEntity
  8
0
100
AcDbCircle
 62
7
  6
CONTINUOUS
 10
7.4493514768
 20
4.070995673
 40
1.875
100
AcDbArc
 50
170.572575337
 51
198.0794303285
  0
ARC
  5
3D8
100
AcDbEntity
  8
0
100
AcDbCircle
 62
7
  6
CONTINUOUS
 10
7.3731754658
 20
3.9667822283
 40
0.7753350077
100
AcDbArc
 50
78.0669933483
 51
81.2354682492
  0
ARC
  5
3D9
100
AcDbEntity
  8
0
100
AcDbCircle
 62
7
  6
CONTINUOUS
 10
7.3731754658
 20
3.9667822283
 40
0.7753350077
100
AcDbArc
 50
91.4300766046
 51
94.5754586167
  0
ARC
  5
3DA
100
AcDbEntity
  8
0
100
AcDbCircle
 62
7
  6
CONTINUOUS
 10
7.3731754658
 20
3.9667822283
 40
0.7753350077
100
AcDbArc
 50
95.9223880643
 51
101.456409806
  0
ARC
  5
3DB
100
AcDbEntity
  8
0
100
AcDbCircle
 62
7
  6
CONTINUOUS
 10
7.3731754658
 20
3.9667822283
 40
0.7753350077
100
AcDbArc
 50
88.836024953
 51
90.1108472106
  0
ARC
  5
3DC
100
AcDbEntity
  8
0
100
AcDbCircle
 62
7
  6
CONTINUOUS
 10
7.3731754658
 20
3.9667822283
 40
0.7753350077
100
AcDbArc
 50
82.589547494
 51
87.505151011
  0
ARC
  5
3DD
100
AcDbEntity
  8
0
100
AcDbCircle
 62
7
  6
CONTINUOUS
 10
7.3731754658
 20
3.9667822283
 40
0.7753350077
100
AcDbArc
 50
75.2369687319
 51
76.6139015814
  0
ARC
  5
3DE
100
AcDbEntity
  8
0
100
AcDbCircle
 62
7
  6
CONTINUOUS
 10
7.3731754658
 20
3.9667822283
 40
0.7753350077
100
AcDbArc
 50
103.0445666344
 51
104.7630312681
  0
ARC
  5
3DF
100
AcDbEntity
  8
0
100
AcDbCircle
 62
7
  6
CONTINUOUS
 10
7.3731754658
 20
3.9667822283
 40
0.7748350077
100
AcDbArc
 50
101.4639028364
 51
102.158859726
  0
ARC
  5
3E0
100
AcDbEntity
  8
0
100
AcDbCircle
 62
7
  6
CONTINUOUS
 10
7.3731754658
 20
3.9667822283
 40
0.7748350077
100
AcDbArc
 50
94.5784174525
 51
95.2988832844
  0
ARC
  5
3E1
100
AcDbEntity
  8
0
100
AcDbCircle
 62
7
  6
CONTINUOUS
 10
7.3731754658
 20
3.9667822283
 40
0.7748350077
100
AcDbArc
 50
90.7469240285
 51
91.430999623
  0
ARC
  5
3E2
100
AcDbEntity
  8
0
100
AcDbCircle
 62
7
  6
CONTINUOUS
 10
7.3731754658
 20
3.9667822283
 40
0.7748350077
100
AcDbArc
 50
77.3976624415
 51
78.0591795779
  0
ARC
  5
3E3
100
AcDbEntity
  8
0
100
AcDbCircle
 62
7
  6
CONTINUOUS
 10
7.3731754658
 20
3.9667822283
 40
0.7748350077
100
AcDbArc
 50
81.2352442586
 51
82.5847386687
  0
ARC
  5
3E4
100
AcDbEntity
  8
0
100
AcDbCircle
 62
7
  6
CONTINUOUS
 10
7.3731754658
 20
3.9667822283
 40
0.7748350077
100
AcDbArc
 50
87.503540069
 51
88.835273738
  0
ARC
  5
3E5
100
AcDbEntity
  8
0
100
AcDbCircle
 62
7
  6
CONTINUOUS
 10
7.3731754658
 20
3.9667822283
 40
0.7747348735
100
AcDbArc
 50
79.9593632588
 51
81.0040654587
  0
ARC
  5
3E6
100
AcDbEntity
  8
0
100
AcDbCircle
 62
7
  6
CONTINUOUS
 10
7.3731754658
 20
3.9667822283
 40
0.7747104305
100
AcDbArc
 50
85.5024540677
 51
86.3921798126
  0
ARC
  5
3E7
100
AcDbEntity
  8
0
100
AcDbCircle
 62
7
  6
CONTINUOUS
 10
7.3731754658
 20
3.9667822283
 40
0.7742344859
100
AcDbArc
 50
79.9528066769
 51
80.9982030894
  0
ARC
  5
3E8
100
AcDbEntity
  8
0
100
AcDbCircle
 62
7
  6
CONTINUOUS
 10
7.3731754658
 20
3.9667822283
 40
0.7742100271
100
AcDbArc
 50
85.49954113
 51
86.3898448421
  0
ARC
  5
3E9
100
AcDbEntity
  8
0
100
AcDbCircle
 62
7
  6
CONTINUOUS
 10
7.3731754658
 20
3.9667822283
 40
0.7741693124
100
AcDbArc
 50
84.0880697177
 51
89.6299506004
  0
ARC
  5
3EA
100
AcDbEntity
  8
0
100
AcDbCircle
 62
7
  6
CONTINUOUS
 10
7.3731754658
 20
3.9667822283
 40
0.7741693124
100
AcDbArc
 50
79.7882367111
 51
82.9513441199
  0
ARC
  5
3EB
100
AcDbEntity
  8
0
100
AcDbCircle
 62
7
  6
CONTINUOUS
 10
7.353722163
 20
4.0843807515
 40
0.6561376387
100
AcDbArc
 50
96.2161845715
 51
96.9435818355
  0
ARC
  5
3EC
100
AcDbEntity
  8
0
100
AcDbCircle
 62
7
  6
CONTINUOUS
 10
7.3887182918
 20
4.1713571354
 40
0.5701710881
100
AcDbArc
 50
83.0535751546
 51
83.4864024216
  0
ARC
  5
3ED
100
AcDbEntity
  8
0
100
AcDbCircle
 62
7
  6
CONTINUOUS
 10
7.4459404763
 20
4.166447624
 40
0.565230904
100
AcDbArc
 50
81.1862287023
 51
81.3433028419
  0
ARC
  5
3EE
100
AcDbEntity
  8
0
100
AcDbCircle
 62
7
  6
CONTINUOUS
 10
7.1894254658
 20
4.109617236
 40
0.025
100
AcDbArc
 50
90.0
 51
173.0751017558
  0
ARC
  5
3EF
100
AcDbEntity
  8
0
100
AcDbCircle
 62
7
  6
CONTINUOUS
 10
7.8681561966
 20
3.6993904875
 40
0.2345
100
AcDbArc
 50
186.9248982442
 51
212.4064732512
  0
ARC
  5
3F0
100
AcDbEntity
  8
0
100
AcDbCircle
 62
7
  6
CONTINUOUS
 10
7.6464254658
 20
3.526367236
 40
0.04675
100
AcDbArc
 50
270.0
 51
300.5321671901
  0
ARC
  5
3F1
100
AcDbEntity
  8
0
100
AcDbCircle
 62
7
  6
CONTINUOUS
 10
7.5569254658
 20
4.109617236
 40
0.025
100
AcDbArc
 50
6.9248982442
 51
90.0
  0
ARC
  5
3F2
100
AcDbEntity
  8
0
100
AcDbCircle
 62
7
  6
CONTINUOUS
 10
7.7422414882
 20
4.3873942302
 40
0.68
100
AcDbArc
 50
158.7260279914
 51
162.3017225173
  0
ARC
  5
3F3
100
AcDbEntity
  8
0
100
AcDbCircle
 62
7
  6
CONTINUOUS
 10
7.7373248563
 20
4.6106581438
 40
0.68
100
AcDbArc
 50
199.0137742001
 51
202.5744557109
  0
ARC
  5
3F4
100
AcDbEntity
  8
0
100
AcDbCircle
 62
7
  6
CONTINUOUS
 10
7.4375805372
 20
4.5307954066
 40
0.207655633
100
AcDbArc
 50
85.631475316
 51
87.4669374743
  0
ARC
  5
3F5
100
AcDbEntity
  8
0
100
AcDbCircle
 62
7
  6
CONTINUOUS
 10
7.4375844748
 20
4.5305069871
 40
0.2074415785
100
AcDbArc
 50
86.0357858793
 51
87.4654105971
  0
ARC
  5
3F6
100
AcDbEntity
  8
0
100
AcDbCircle
 62
7
  6
CONTINUOUS
 10
7.4894199787
 20
4.9400937921
 40
0.2055242686
100
AcDbArc
 50
264.0668853803
 51
264.3695528179
  0
ARC
  5
3F7
100
AcDbEntity
  8
0
100
AcDbCircle
 62
7
  6
CONTINUOUS
 10
7.4885866602
 20
4.9312309626
 40
0.1971242745
100
AcDbArc
 50
264.0566670354
 51
264.3722454568
  0
ARC
  5
3F8
100
AcDbEntity
  8
0
100
AcDbCircle
 62
7
  6
CONTINUOUS
 10
7.4577993287
 20
4.7136626813
 40
0.023680624
100
AcDbArc
 50
90.2996903337
 51
101.9040740022
  0
ARC
  5
3F9
100
AcDbEntity
  8
0
100
AcDbCircle
 62
7
  6
CONTINUOUS
 10
7.5669254658
 20
4.7020170625
 40
0.015
100
AcDbArc
 50
9.9832229831
 51
75.2369687319
  0
ARC
  5
3FA
100
AcDbEntity
  8
0
100
AcDbCircle
 62
7
  6
CONTINUOUS
 10
7.1794254658
 20
4.7020170625
 40
0.015
100
AcDbArc
 50
104.7630312681
 51
170.0167770169
  0
ARC
  5
3FB
100
AcDbEntity
  8
0
100
AcDbCircle
 62
7
  6
CONTINUOUS
 10
8.8726650492
 20
4.491617236
 40
0.1867604167
100
AcDbArc
 50
317.9864211385
 51
42.0135788615
  0
SPLINE
  5
3FC
100
AcDbEntity
  8
0
100
AcDbSpline
 62
7
  6
CONTINUOUS
 70
0
 71
3
 72
90
 73
86
 74
0
 42
0.0000001
 43
0.0000001
 44
0.0000000001
 40
0.0
 40
0.0
 40
0.0
 40
0.0
 40
0.0625016007
 40
0.1250032042
 40
0.1875048037
 40
0.2500064069
 40
0.3125080124
 40
0.3437593587
 40
0.3750107045
 40
0.4062620508
 40
0.4375133975
 40
0.4687647439
 40
0.5000160901
 40
0.5312674366
 40
0.5625187831
 40
0.5781445245
 40
0.5937702658
 40
0.609396007
 40
0.625021748
 40
0.6406474893
 40
0.6562732312
 40
0.6640861106
 40
0.6718989894
 40
0.6797118675
 40
0.687524746
 40
0.6953376263
 40
0.7031505078
 40
0.7109633815
 40
0.7148698193
 40
0.7187762641
 40
0.722682715
 40
0.7265891344
 40
0.72854234
 40
0.7304955744
 40
0.7324488559
 40
0.7344021273
 40
0.7353787298
 40
0.7363552964
 40
0.7373318211
 40
0.7383083517
 40
0.7392849976
 40
0.7397734095
 40
0.7402618954
 40
0.7407503939
 40
0.7412388267
 40
0.7417271365
 40
0.7422153109
 40
0.7427034058
 40
0.7431915549
 40
0.7441682236
 40
0.7446566266
 40
0.7451449754
 40
0.7461215762
 40
0.7470981644
 40
0.7480747689
 40
0.7490513789
 40
0.7500279866
 40
0.7519811885
 40
0.7539343964
 40
0.755887619
 40
0.757840853
 40
0.7597940852
 40
0.7617473055
 40
0.7656536801
 40
0.7695600556
 40
0.7734664501
 40
0.7773728473
 40
0.7812792387
 40
0.789091698
 40
0.7969041589
 40
0.8047166288
 40
0.8125290957
 40
0.820341562
 40
0.8281540292
 40
0.8437764722
 40
0.8593989459
 40
0.8750212986
 40
0.8906436808
 40
0.9062662147
 40
0.9218888249
 40
0.9375110545
 40
0.9531331266
 40
0.9687554921
 40
0.9843778145
 40
1.0
 40
1.0
 40
1.0
 40
1.0
 10
2.9294254658
 20
4.350867236
 30
0.0
 10
2.9048554133
 20
4.3519918364
 30
0.0
 10
2.855686761
 20
4.3536606825
 30
0.0
 10
2.7818968572
 20
4.3544222111
 30
0.0
 10
2.708109048
 20
4.3534417259
 30
0.0
 10
2.6343652973
 20
4.3507189581
 30
0.0
 10
2.572981974
 20
4.3469996354
 30
0.0
 10
2.523939495
 20
4.3431553774
 30
0.0
 10
2.4871937172
 20
4.3398381202
 30
0.0
 10
2.4504897217
 20
4.3360872327
 30
0.0
 10
2.4138325497
 20
4.3319033025
 30
0.0
 10
2.3772273323
 20
4.327286898
 30
0.0
 10
2.3406791647
 20
4.3222386153
 30
0.0
 10
2.304193166
 20
4.3167592335
 30
0.0
 10
2.273844083
 20
4.3118344371
 30
0.0
 10
2.2496011246
 20
4.3076798373
 30
0.0
 10
2.2314375524
 20
4.3044565982
 30
0.0
 10
2.2132933314
 20
4.3011261912
 30
0.0
 10
2.195169084
 20
4.2976887329
 30
0.0
 10
2.1770654462
 20
4.2941443528
 30
0.0
 10
2.1619967635
 20
4.291101708
 30
0.0
 10
2.149952771
 20
4.2886142537
 30
0.0
 10
2.1409253172
 20
4.2867219975
 30
0.0
 10
2.1319034937
 20
4.2848030825
 30
0.0
 10
2.1228873704
 20
4.2828575576
 30
0.0
 10
2.1138770212
 20
4.2808854575
 30
0.0
 10
2.104872507
 20
4.2788868935
 30
0.0
 10
2.0973737551
 20
4.2771990092
 30
0.0
 10
2.0913777675
 20
4.2758354143
 30
0.0
 10
2.08688225
 20
4.2748062325
 30
0.0
 10
2.0823881207
 20
4.2737710359
 30
0.0
 10
2.07864458
 20
4.2729016285
 30
0.0
 10
2.0756506063
 20
4.2722024252
 30
0.0
 10
2.0734052652
 20
4.2716772937
 30
0.0
 10
2.0711597788
 20
4.271152671
 30
0.0
 10
2.0692888709
 20
4.2707140686
 30
0.0
 10
2.0677928186
 20
4.2703604688
 30
0.0
 10
2.0666712214
 20
4.2700936356
 30
0.0
 10
2.0655502572
 20
4.2698242778
 30
0.0
 10
2.0644294326
 20
4.2695542102
 30
0.0
 10
2.0634945313
 20
4.2693325245
 30
0.0
 10
2.0627455417
 20
4.2691592748
 30
0.0
 10
2.062183119
 20
4.2690318952
 30
0.0
 10
2.0616206277
 20
4.268904786
 30
0.0
 10
2.061058653
 20
4.2687757084
 30
0.0
 10
2.0604977911
 20
4.268642403
 30
0.0
 10
2.059938631
 20
4.2685026435
 30
0.0
 10
2.0593817923
 20
4.2683540875
 30
0.0
 10
2.0586431566
 20
4.2681417417
 30
0.0
 10
2.0579084515
 20
4.2679158034
 30
0.0
 10
2.0571734875
 20
4.2676905312
 30
0.0
 10
2.056436916
 20
4.2674706308
 30
0.0
 10
2.0555137782
 20
4.2672042113
 30
0.0
 10
2.0544042834
 20
4.2668906973
 30
0.0
 10
2.0532940642
 20
4.2665797401
 30
0.0
 10
2.0521827465
 20
4.2662726988
 30
0.0
 10
2.0506994365
 20
4.2658689904
 30
0.0
 10
2.0488418593
 20
4.2653770722
 30
0.0
 10
2.0466072116
 20
4.2648081591
 30
0.0
 10
2.0443673998
 20
4.2642598822
 30
0.0
 10
2.0421227026
 20
4.2637319295
 30
0.0
 10
2.0398734362
 20
4.2632237961
 30
0.0
 10
2.0368686378
 20
4.2625725902
 30
0.0
 10
2.0331020344
 20
4.261808374
 30
0.0
 10
2.0285664449
 20
4.2609723954
 30
0.0
 10
2.0240165893
 20
4.2602178471
 30
0.0
 10
2.0194539709
 20
4.2595446382
 30
0.0
 10
2.0133556389
 20
4.2587557161
 30
0.0
 10
2.0057077229
 20
4.2579737307
 30
0.0
 10
1.9965028607
 20
4.2573637833
 30
0.0
 10
1.9872820201
 20
4.2570828372
 30
0.0
 10
1.978057074
 20
4.2571313417
 30
0.0
 10
1.9688396159
 20
4.2575091139
 30
0.0
 10
1.9565770593
 20
4.2584510064
 30
0.0
 10
1.9413231254
 20
4.2604490264
 30
0.0
 10
1.923238654
 20
4.2641465547
 30
0.0
 10
1.9054633417
 20
4.2691241687
 30
0.0
 10
1.8880892671
 20
4.275359165
 30
0.0
 10
1.8712034459
 20
4.2828161685
 30
0.0
 10
1.8548931033
 20
4.2914595964
 30
0.0
 10
1.8392414532
 20
4.3012452936
 30
0.0
 10
1.8243317122
 20
4.3121276386
 30
0.0
 10
1.8102338223
 20
4.324043111
 30
0.0
 10
1.7970186234
 20
4.3369293445
 30
0.0
 10
1.7888417937
 20
4.3461284246
 30
0.0
 10
1.7849254658
 20
4.350867236
 30
0.0
  0
SPLINE
  5
3FD
100
AcDbEntity
  8
0
100
AcDbSpline
 62
7
  6
CONTINUOUS
 70
0
 71
3
 72
90
 73
86
 74
0
 42
0.0000001
 43
0.0000001
 44
0.0000000001
 40
0.0
 40
0.0
 40
0.0
 40
0.0
 40
0.0625016007
 40
0.1250032042
 40
0.1875048037
 40
0.2500064069
 40
0.3125080124
 40
0.3437593587
 40
0.3750107045
 40
0.4062620508
 40
0.4375133975
 40
0.4687647439
 40
0.5000160901
 40
0.5312674366
 40
0.5625187831
 40
0.5781445245
 40
0.5937702658
 40
0.609396007
 40
0.625021748
 40
0.6406474893
 40
0.6562732312
 40
0.6640861106
 40
0.6718989894
 40
0.6797118675
 40
0.687524746
 40
0.6953376263
 40
0.7031505078
 40
0.7109633815
 40
0.7148698193
 40
0.7187762641
 40
0.722682715
 40
0.7265891344
 40
0.72854234
 40
0.7304955744
 40
0.7324488559
 40
0.7344021273
 40
0.7353787298
 40
0.7363552964
 40
0.7373318211
 40
0.7383083517
 40
0.7392849976
 40
0.7397734095
 40
0.7402618954
 40
0.7407503939
 40
0.7412388267
 40
0.7417271365
 40
0.7422153109
 40
0.7427034058
 40
0.7431915549
 40
0.7441682236
 40
0.7446566266
 40
0.7451449754
 40
0.7461215762
 40
0.7470981644
 40
0.7480747689
 40
0.7490513789
 40
0.7500279866
 40
0.7519811885
 40
0.7539343964
 40
0.755887619
 40
0.757840853
 40
0.7597940852
 40
0.7617473055
 40
0.7656536801
 40
0.7695600556
 40
0.7734664501
 40
0.7773728473
 40
0.7812792387
 40
0.789091698
 40
0.7969041589
 40
0.8047166288
 40
0.8125290957
 40
0.820341562
 40
0.8281540292
 40
0.8437764722
 40
0.8593989459
 40
0.8750212986
 40
0.8906436808
 40
0.9062662147
 40
0.9218888249
 40
0.9375110545
 40
0.9531331266
 40
0.9687554921
 40
0.9843778145
 40
1.0
 40
1.0
 40
1.0
 40
1.0
 10
2.9294254658
 20
4.632367236
 30
0.0
 10
2.9048554133
 20
4.6312426356
 30
0.0
 10
2.855686761
 20
4.6295737896
 30
0.0
 10
2.7818968572
 20
4.628812261
 30
0.0
 10
2.708109048
 20
4.6297927461
 30
0.0
 10
2.6343652973
 20
4.6325155139
 30
0.0
 10
2.572981974
 20
4.6362348367
 30
0.0
 10
2.523939495
 20
4.6400790947
 30
0.0
 10
2.4871937172
 20
4.6433963518
 30
0.0
 10
2.4504897217
 20
4.6471472393
 30
0.0
 10
2.4138325497
 20
4.6513311696
 30
0.0
 10
2.3772273323
 20
4.6559475741
 30
0.0
 10
2.3406791647
 20
4.6609958567
 30
0.0
 10
2.304193166
 20
4.6664752385
 30
0.0
 10
2.273844083
 20
4.671400035
 30
0.0
 10
2.2496011246
 20
4.6755546348
 30
0.0
 10
2.2314375524
 20
4.6787778738
 30
0.0
 10
2.2132933314
 20
4.6821082808
 30
0.0
 10
2.195169084
 20
4.6855457391
 30
0.0
 10
2.1770654462
 20
4.6890901193
 30
0.0
 10
2.1619967635
 20
4.692132764
 30
0.0
 10
2.149952771
 20
4.6946202183
 30
0.0
 10
2.1409253172
 20
4.6965124745
 30
0.0
 10
2.1319034937
 20
4.6984313896
 30
0.0
 10
2.1228873704
 20
4.7003769145
 30
0.0
 10
2.1138770212
 20
4.7023490145
 30
0.0
 10
2.104872507
 20
4.7043475786
 30
0.0
 10
2.0973737551
 20
4.7060354628
 30
0.0
 10
2.0913777675
 20
4.7073990577
 30
0.0
 10
2.08688225
 20
4.7084282396
 30
0.0
 10
2.0823881207
 20
4.7094634361
 30
0.0
 10
2.07864458
 20
4.7103328435
 30
0.0
 10
2.0756506063
 20
4.7110320469
 30
0.0
 10
2.0734052652
 20
4.7115571784
 30
0.0
 10
2.0711597788
 20
4.712081801
 30
0.0
 10
2.0692888709
 20
4.7125204034
 30
0.0
 10
2.0677928186
 20
4.7128740033
 30
0.0
 10
2.0666712214
 20
4.7131408365
 30
0.0
 10
2.0655502572
 20
4.7134101943
 30
0.0
 10
2.0644294326
 20
4.7136802619
 30
0.0
 10
2.0634945313
 20
4.7139019476
 30
0.0
 10
2.0627455417
 20
4.7140751972
 30
0.0
 10
2.062183119
 20
4.7142025769
 30
0.0
 10
2.0616206277
 20
4.714329686
 30
0.0
 10
2.061058653
 20
4.7144587636
 30
0.0
 10
2.0604977911
 20
4.7145920691
 30
0.0
 10
2.059938631
 20
4.7147318286
 30
0.0
 10
2.0593817923
 20
4.7148803845
 30
0.0
 10
2.0586431566
 20
4.7150927304
 30
0.0
 10
2.0579084515
 20
4.7153186687
 30
0.0
 10
2.0571734875
 20
4.7155439408
 30
0.0
 10
2.056436916
 20
4.7157638413
 30
0.0
 10
2.0555137782
 20
4.7160302608
 30
0.0
 10
2.0544042834
 20
4.7163437748
 30
0.0
 10
2.0532940642
 20
4.7166547319
 30
0.0
 10
2.0521827465
 20
4.7169617733
 30
0.0
 10
2.0506994365
 20
4.7173654816
 30
0.0
 10
2.0488418593
 20
4.7178573999
 30
0.0
 10
2.0466072116
 20
4.718426313
 30
0.0
 10
2.0443673998
 20
4.7189745898
 30
0.0
 10
2.0421227026
 20
4.7195025425
 30
0.0
 10
2.0398734362
 20
4.7200106759
 30
0.0
 10
2.0368686378
 20
4.7206618819
 30
0.0
 10
2.0331020344
 20
4.721426098
 30
0.0
 10
2.0285664449
 20
4.7222620767
 30
0.0
 10
2.0240165893
 20
4.7230166249
 30
0.0
 10
2.0194539709
 20
4.7236898338
 30
0.0
 10
2.0133556389
 20
4.7244787559
 30
0.0
 10
2.0057077229
 20
4.7252607414
 30
0.0
 10
1.9965028607
 20
4.7258706888
 30
0.0
 10
1.9872820201
 20
4.7261516349
 30
0.0
 10
1.978057074
 20
4.7261031304
 30
0.0
 10
1.9688396159
 20
4.7257253582
 30
0.0
 10
1.9565770593
 20
4.7247834657
 30
0.0
 10
1.9413231254
 20
4.7227854456
 30
0.0
 10
1.923238654
 20
4.7190879174
 30
0.0
 10
1.9054633417
 20
4.7141103034
 30
0.0
 10
1.8880892671
 20
4.7078753071
 30
0.0
 10
1.8712034459
 20
4.7004183035
 30
0.0
 10
1.8548931033
 20
4.6917748756
 30
0.0
 10
1.8392414532
 20
4.6819891785
 30
0.0
 10
1.8243317122
 20
4.6711068335
 30
0.0
 10
1.8102338223
 20
4.6591913611
 30
0.0
 10
1.7970186234
 20
4.6463051276
 30
0.0
 10
1.7888417937
 20
4.6371060474
 30
0.0
 10
1.7849254658
 20
4.632367236
 30
0.0
  0
SPLINE
  5
3FE
100
AcDbEntity
  8
0
100
AcDbSpline
 62
7
  6
CONTINUOUS
 70
0
 71
3
 72
90
 73
86
 74
0
 42
0.0000001
 43
0.0000001
 44
0.0000000001
 40
0.0
 40
0.0
 40
0.0
 40
0.0
 40
0.0625016007
 40
0.1250032042
 40
0.1875048037
 40
0.2500064069
 40
0.3125080124
 40
0.3437593587
 40
0.3750107045
 40
0.4062620508
 40
0.4375133975
 40
0.4687647439
 40
0.5000160901
 40
0.5312674366
 40
0.5625187831
 40
0.5781445245
 40
0.5937702658
 40
0.609396007
 40
0.625021748
 40
0.6406474893
 40
0.6562732312
 40
0.6640861106
 40
0.6718989894
 40
0.6797118675
 40
0.687524746
 40
0.6953376263
 40
0.7031505078
 40
0.7109633815
 40
0.7148698193
 40
0.7187762641
 40
0.722682715
 40
0.7265891344
 40
0.72854234
 40
0.7304955744
 40
0.7324488559
 40
0.7344021273
 40
0.7353787298
 40
0.7363552964
 40
0.7373318211
 40
0.7383083517
 40
0.7392849976
 40
0.7397734095
 40
0.7402618954
 40
0.7407503939
 40
0.7412388267
 40
0.7417271365
 40
0.7422153109
 40
0.7427034058
 40
0.7431915549
 40
0.7441682236
 40
0.7446566266
 40
0.7451449754
 40
0.7461215762
 40
0.7470981644
 40
0.7480747689
 40
0.7490513789
 40
0.7500279866
 40
0.7519811885
 40
0.7539343964
 40
0.755887619
 40
0.757840853
 40
0.7597940852
 40
0.7617473055
 40
0.7656536801
 40
0.7695600556
 40
0.7734664501
 40
0.7773728473
 40
0.7812792387
 40
0.789091698
 40
0.7969041589
 40
0.8047166288
 40
0.8125290957
 40
0.820341562
 40
0.8281540292
 40
0.8437764722
 40
0.8593989459
 40
0.8750212986
 40
0.8906436808
 40
0.9062662147
 40
0.9218888249
 40
0.9375110545
 40
0.9531331266
 40
0.9687554921
 40
0.9843778145
 40
1.0
 40
1.0
 40
1.0
 40
1.0
 10
7.8169254658
 20
4.350867236
 30
0.0
 10
7.8414955184
 20
4.3519918364
 30
0.0
 10
7.8906641707
 20
4.3536606825
 30
0.0
 10
7.9644540745
 20
4.3544222111
 30
0.0
 10
8.0382418837
 20
4.3534417259
 30
0.0
 10
8.1119856343
 20
4.3507189581
 30
0.0
 10
8.1733689577
 20
4.3469996354
 30
0.0
 10
8.2224114367
 20
4.3431553774
 30
0.0
 10
8.2591572145
 20
4.3398381202
 30
0.0
 10
8.2958612099
 20
4.3360872327
 30
0.0
 10
8.332518382
 20
4.3319033025
 30
0.0
 10
8.3691235993
 20
4.327286898
 30
0.0
 10
8.405671767
 20
4.3222386153
 30
0.0
 10
8.4421577656
 20
4.3167592335
 30
0.0
 10
8.4725068487
 20
4.3118344371
 30
0.0
 10
8.4967498071
 20
4.3076798373
 30
0.0
 10
8.5149133793
 20
4.3044565982
 30
0.0
 10
8.5330576003
 20
4.3011261912
 30
0.0
 10
8.5511818476
 20
4.2976887329
 30
0.0
 10
8.5692854855
 20
4.2941443528
 30
0.0
 10
8.5843541682
 20
4.291101708
 30
0.0
 10
8.5963981607
 20
4.2886142537
 30
0.0
 10
8.6054256145
 20
4.2867219975
 30
0.0
 10
8.6144474379
 20
4.2848030825
 30
0.0
 10
8.6234635613
 20
4.2828575576
 30
0.0
 10
8.6324739105
 20
4.2808854575
 30
0.0
 10
8.6414784246
 20
4.2788868935
 30
0.0
 10
8.6489771765
 20
4.2771990092
 30
0.0
 10
8.6549731642
 20
4.2758354143
 30
0.0
 10
8.6594686817
 20
4.2748062325
 30
0.0
 10
8.663962811
 20
4.2737710359
 30
0.0
 10
8.6677063516
 20
4.2729016285
 30
0.0
 10
8.6707003254
 20
4.2722024252
 30
0.0
 10
8.6729456665
 20
4.2716772937
 30
0.0
 10
8.6751911528
 20
4.271152671
 30
0.0
 10
8.6770620608
 20
4.2707140686
 30
0.0
 10
8.6785581131
 20
4.2703604688
 30
0.0
 10
8.6796797103
 20
4.2700936356
 30
0.0
 10
8.6808006745
 20
4.2698242778
 30
0.0
 10
8.6819214991
 20
4.2695542102
 30
0.0
 10
8.6828564004
 20
4.2693325245
 30
0.0
 10
8.68360539
 20
4.2691592748
 30
0.0
 10
8.6841678127
 20
4.2690318952
 30
0.0
 10
8.684730304
 20
4.268904786
 30
0.0
 10
8.6852922787
 20
4.2687757084
 30
0.0
 10
8.6858531406
 20
4.268642403
 30
0.0
 10
8.6864123006
 20
4.2685026435
 30
0.0
 10
8.6869691394
 20
4.2683540875
 30
0.0
 10
8.6877077751
 20
4.2681417417
 30
0.0
 10
8.6884424801
 20
4.2679158034
 30
0.0
 10
8.6891774441
 20
4.2676905312
 30
0.0
 10
8.6899140157
 20
4.2674706308
 30
0.0
 10
8.6908371534
 20
4.2672042113
 30
0.0
 10
8.6919466483
 20
4.2668906973
 30
0.0
 10
8.6930568675
 20
4.2665797401
 30
0.0
 10
8.6941681851
 20
4.2662726988
 30
0.0
 10
8.6956514952
 20
4.2658689904
 30
0.0
 10
8.6975090724
 20
4.2653770722
 30
0.0
 10
8.69974372
 20
4.2648081591
 30
0.0
 10
8.7019835319
 20
4.2642598822
 30
0.0
 10
8.7042282291
 20
4.2637319295
 30
0.0
 10
8.7064774955
 20
4.2632237961
 30
0.0
 10
8.7094822938
 20
4.2625725902
 30
0.0
 10
8.7132488972
 20
4.261808374
 30
0.0
 10
8.7177844868
 20
4.2609723954
 30
0.0
 10
8.7223343423
 20
4.2602178471
 30
0.0
 10
8.7268969608
 20
4.2595446382
 30
0.0
 10
8.7329952927
 20
4.2587557161
 30
0.0
 10
8.7406432088
 20
4.2579737307
 30
0.0
 10
8.7498480709
 20
4.2573637833
 30
0.0
 10
8.7590689116
 20
4.2570828372
 30
0.0
 10
8.7682938577
 20
4.2571313417
 30
0.0
 10
8.7775113158
 20
4.2575091139
 30
0.0
 10
8.7897738724
 20
4.2584510064
 30
0.0
 10
8.8050278063
 20
4.2604490264
 30
0.0
 10
8.8231122777
 20
4.2641465547
 30
0.0
 10
8.84088759
 20
4.2691241687
 30
0.0
 10
8.8582616646
 20
4.275359165
 30
0.0
 10
8.8751474858
 20
4.2828161685
 30
0.0
 10
8.8914578284
 20
4.2914595964
 30
0.0
 10
8.9071094785
 20
4.3012452936
 30
0.0
 10
8.9220192195
 20
4.3121276386
 30
0.0
 10
8.9361171094
 20
4.324043111
 30
0.0
 10
8.9493323082
 20
4.3369293445
 30
0.0
 10
8.957509138
 20
4.3461284246
 30
0.0
 10
8.9614254658
 20
4.350867236
 30
0.0
  0
SPLINE
  5
3FF
100
AcDbEntity
  8
0
100
AcDbSpline
 62
7
  6
CONTINUOUS
 70
0
 71
3
 72
90
 73
86
 74
0
 42
0.0000001
 43
0.0000001
 44
0.0000000001
 40
0.0
 40
0.0
 40
0.0
 40
0.0
 40
0.0625016007
 40
0.1250032042
 40
0.1875048037
 40
0.2500064069
 40
0.3125080124
 40
0.3437593587
 40
0.3750107045
 40
0.4062620508
 40
0.4375133975
 40
0.4687647439
 40
0.5000160901
 40
0.5312674366
 40
0.5625187831
 40
0.5781445245
 40
0.5937702658
 40
0.609396007
 40
0.625021748
 40
0.6406474893
 40
0.6562732312
 40
0.6640861106
 40
0.6718989894
 40
0.6797118675
 40
0.687524746
 40
0.6953376263
 40
0.7031505078
 40
0.7109633815
 40
0.7148698193
 40
0.7187762641
 40
0.722682715
 40
0.7265891344
 40
0.72854234
 40
0.7304955744
 40
0.7324488559
 40
0.7344021273
 40
0.7353787298
 40
0.7363552964
 40
0.7373318211
 40
0.7383083517
 40
0.7392849976
 40
0.7397734095
 40
0.7402618954
 40
0.7407503939
 40
0.7412388267
 40
0.7417271365
 40
0.7422153109
 40
0.7427034058
 40
0.7431915549
 40
0.7441682236
 40
0.7446566266
 40
0.7451449754
 40
0.7461215762
 40
0.7470981644
 40
0.7480747689
 40
0.7490513789
 40
0.7500279866
 40
0.7519811885
 40
0.7539343964
 40
0.755887619
 40
0.757840853
 40
0.7597940852
 40
0.7617473055
 40
0.7656536801
 40
0.7695600556
 40
0.7734664501
 40
0.7773728473
 40
0.7812792387
 40
0.789091698
 40
0.7969041589
 40
0.8047166288
 40
0.8125290957
 40
0.820341562
 40
0.8281540292
 40
0.8437764722
 40
0.8593989459
 40
0.8750212986
 40
0.8906436808
 40
0.9062662147
 40
0.9218888249
 40
0.9375110545
 40
0.9531331266
 40
0.9687554921
 40
0.9843778145
 40
1.0
 40
1.0
 40
1.0
 40
1.0
 10
7.8169254658
 20
4.632367236
 30
0.0
 10
7.8414955184
 20
4.6312426356
 30
0.0
 10
7.8906641707
 20
4.6295737896
 30
0.0
 10
7.9644540745
 20
4.628812261
 30
0.0
 10
8.0382418837
 20
4.6297927461
 30
0.0
 10
8.1119856343
 20
4.6325155139
 30
0.0
 10
8.1733689577
 20
4.6362348367
 30
0.0
 10
8.2224114367
 20
4.6400790947
 30
0.0
 10
8.2591572145
 20
4.6433963518
 30
0.0
 10
8.2958612099
 20
4.6471472393
 30
0.0
 10
8.332518382
 20
4.6513311696
 30
0.0
 10
8.3691235993
 20
4.6559475741
 30
0.0
 10
8.405671767
 20
4.6609958567
 30
0.0
 10
8.4421577656
 20
4.6664752385
 30
0.0
 10
8.4725068487
 20
4.671400035
 30
0.0
 10
8.4967498071
 20
4.6755546348
 30
0.0
 10
8.5149133793
 20
4.6787778738
 30
0.0
 10
8.5330576003
 20
4.6821082808
 30
0.0
 10
8.5511818476
 20
4.6855457391
 30
0.0
 10
8.5692854855
 20
4.6890901193
 30
0.0
 10
8.5843541682
 20
4.692132764
 30
0.0
 10
8.5963981607
 20
4.6946202183
 30
0.0
 10
8.6054256145
 20
4.6965124745
 30
0.0
 10
8.6144474379
 20
4.6984313896
 30
0.0
 10
8.6234635613
 20
4.7003769145
 30
0.0
 10
8.6324739105
 20
4.7023490145
 30
0.0
 10
8.6414784246
 20
4.7043475786
 30
0.0
 10
8.6489771765
 20
4.7060354628
 30
0.0
 10
8.6549731642
 20
4.7073990577
 30
0.0
 10
8.6594686817
 20
4.7084282396
 30
0.0
 10
8.663962811
 20
4.7094634361
 30
0.0
 10
8.6677063516
 20
4.7103328435
 30
0.0
 10
8.6707003254
 20
4.7110320469
 30
0.0
 10
8.6729456665
 20
4.7115571784
 30
0.0
 10
8.6751911528
 20
4.712081801
 30
0.0
 10
8.6770620608
 20
4.7125204034
 30
0.0
 10
8.6785581131
 20
4.7128740033
 30
0.0
 10
8.6796797103
 20
4.7131408365
 30
0.0
 10
8.6808006745
 20
4.7134101943
 30
0.0
 10
8.6819214991
 20
4.7136802619
 30
0.0
 10
8.6828564004
 20
4.7139019476
 30
0.0
 10
8.68360539
 20
4.7140751972
 30
0.0
 10
8.6841678127
 20
4.7142025769
 30
0.0
 10
8.684730304
 20
4.714329686
 30
0.0
 10
8.6852922787
 20
4.7144587636
 30
0.0
 10
8.6858531406
 20
4.7145920691
 30
0.0
 10
8.6864123006
 20
4.7147318286
 30
0.0
 10
8.6869691394
 20
4.7148803845
 30
0.0
 10
8.6877077751
 20
4.7150927304
 30
0.0
 10
8.6884424801
 20
4.7153186687
 30
0.0
 10
8.6891774441
 20
4.7155439408
 30
0.0
 10
8.6899140157
 20
4.7157638413
 30
0.0
 10
8.6908371534
 20
4.7160302608
 30
0.0
 10
8.6919466483
 20
4.7163437748
 30
0.0
 10
8.6930568675
 20
4.7166547319
 30
0.0
 10
8.6941681851
 20
4.7169617733
 30
0.0
 10
8.6956514952
 20
4.7173654816
 30
0.0
 10
8.6975090724
 20
4.7178573999
 30
0.0
 10
8.69974372
 20
4.718426313
 30
0.0
 10
8.7019835319
 20
4.7189745898
 30
0.0
 10
8.7042282291
 20
4.7195025425
 30
0.0
 10
8.7064774955
 20
4.7200106759
 30
0.0
 10
8.7094822938
 20
4.7206618819
 30
0.0
 10
8.7132488972
 20
4.721426098
 30
0.0
 10
8.7177844868
 20
4.7222620767
 30
0.0
 10
8.7223343423
 20
4.7230166249
 30
0.0
 10
8.7268969608
 20
4.7236898338
 30
0.0
 10
8.7329952927
 20
4.7244787559
 30
0.0
 10
8.7406432088
 20
4.7252607414
 30
0.0
 10
8.7498480709
 20
4.7258706888
 30
0.0
 10
8.7590689116
 20
4.7261516349
 30
0.0
 10
8.7682938577
 20
4.7261031304
 30
0.0
 10
8.7775113158
 20
4.7257253582
 30
0.0
 10
8.7897738724
 20
4.7247834657
 30
0.0
 10
8.8050278063
 20
4.7227854456
 30
0.0
 10
8.8231122777
 20
4.7190879174
 30
0.0
 10
8.84088759
 20
4.7141103034
 30
0.0
 10
8.8582616646
 20
4.7078753071
 30
0.0
 10
8.8751474858
 20
4.7004183035
 30
0.0
 10
8.8914578284
 20
4.6917748756
 30
0.0
 10
8.9071094785
 20
4.6819891785
 30
0.0
 10
8.9220192195
 20
4.6711068335
 30
0.0
 10
8.9361171094
 20
4.6591913611
 30
0.0
 10
8.9493323082
 20
4.6463051276
 30
0.0
 10
8.957509138
 20
4.6371060474
 30
0.0
 10
8.9614254658
 20
4.632367236
 30
0.0
  0
LINE
  5
400
100
AcDbEntity
  8
0
100
AcDbLine
 62
7
  6
CONTINUOUS
 10
7.2826754658
 20
4.7366605748
 11
7.2099868031
 21
4.7241917374
  0
LINE
  5
401
100
AcDbEntity
  8
0
100
AcDbLine
 62
7
  6
CONTINUOUS
 10
7.3705684253
 20
4.742035132
 11
7.3544756486
 21
4.7410665556
  0
LINE
  5
402
100
AcDbEntity
  8
0
100
AcDbLine
 62
7
  6
CONTINUOUS
 10
7.3544756486
 20
4.7410665556
 11
7.353388621
 21
4.7410078615
  0
LINE
  5
403
100
AcDbEntity
  8
0
100
AcDbLine
 62
7
  6
CONTINUOUS
 10
7.311608031
 20
4.7387992021
 11
7.3105164138
 21
4.7387427327
  0
LINE
  5
404
100
AcDbEntity
  8
0
100
AcDbLine
 62
7
  6
CONTINUOUS
 10
7.3105164138
 20
4.7387427327
 11
7.294101344
 21
4.7380066637
  0
SPLINE
  5
405
100
AcDbEntity
  8
0
100
AcDbSpline
 62
7
  6
CONTINUOUS
 70
0
 71
3
 72
49
 73
45
 74
0
 42
0.0000001
 43
0.0000001
 44
0.0000000001
 40
0.0
 40
0.0
 40
0.0
 40
0.0
 40
0.0208421435
 40
0.032906942
 40
0.0464502486
 40
0.0615470629
 40
0.0780233989
 40
0.0955465546
 40
0.1137643246
 40
0.1323756165
 40
0.1511379662
 40
0.1698345433
 40
0.1882350782
 40
0.2060628903
 40
0.2229821007
 40
0.2386350251
 40
0.2527735037
 40
0.2653744718
 40
0.2711603235
 40
0.2766525837
 40
0.2818964078
 40
0.2869351922
 40
0.2918098934
 40
0.2965593456
 40
0.3058098815
 40
0.3149112888
 40
0.3240287726
 40
0.333286153
 40
0.3525596226
 40
0.373207778
 40
0.3954844817
 40
0.4195155322
 40
0.4453505005
 40
0.4729885272
 40
0.5023942146
 40
0.5335069646
 40
0.5662470324
 40
0.6005195414
 40
0.636217333
 40
0.6732230638
 40
0.7506471702
 40
0.8317054881
 40
0.9152297592
 40
1.0
 40
1.0
 40
1.0
 40
1.0
 10
5.5814500069
 20
5.4256679213
 30
0.0
 10
5.583345974
 20
5.4264536785
 30
0.0
 10
5.5862772697
 20
5.4278609989
 30
0.0
 10
5.5901579624
 20
5.430291242
 30
0.0
 10
5.5933421312
 20
5.4327382477
 30
0.0
 10
5.5965393176
 20
5.435839295
 30
0.0
 10
5.5995437581
 20
5.4396474062
 30
0.0
 10
5.602111862
 20
5.4441253558
 30
0.0
 10
5.6040214051
 20
5.4491502382
 30
0.0
 10
5.6051091988
 20
5.4545410308
 30
0.0
 10
5.6052858842
 20
5.4600855843
 30
0.0
 10
5.6045370485
 20
5.4655608841
 30
0.0
 10
5.6029236612
 20
5.4707485558
 30
0.0
 10
5.6005812033
 20
5.4754526404
 30
0.0
 10
5.5977131306
 20
5.4795245967
 30
0.0
 10
5.5945608474
 20
5.4828923129
 30
0.0
 10
5.591352023
 20
5.4855759266
 30
0.0
 10
5.5886929357
 20
5.487370004
 30
0.0
 10
5.5866618529
 20
5.4885557109
 30
0.0
 10
5.5852268153
 20
5.489323031
 30
0.0
 10
5.5838324471
 20
5.4900082113
 30
0.0
 10
5.5824736752
 20
5.4906263218
 30
0.0
 10
5.5811431513
 20
5.4911875224
 30
0.0
 10
5.5794135751
 20
5.4918683484
 30
0.0
 10
5.5772697564
 20
5.4926311897
 30
0.0
 10
5.5746898167
 20
5.4934454698
 30
0.0
 10
5.5720857879
 20
5.4941811881
 30
0.0
 10
5.568493411
 20
5.4950982087
 30
0.0
 10
5.5637630935
 20
5.4961414697
 30
0.0
 10
5.5577418157
 20
5.4972663669
 30
0.0
 10
5.5512315363
 20
5.4983124138
 30
0.0
 10
5.5441955473
 20
5.499295564
 30
0.0
 10
5.5366199563
 20
5.5002233275
 30
0.0
 10
5.5285056806
 20
5.5010987833
 30
0.0
 10
5.5198638409
 20
5.5019227038
 30
0.0
 10
5.5107129395
 20
5.5026945597
 30
0.0
 10
5.5010770841
 20
5.5034131286
 30
0.0
 10
5.4909847995
 20
5.5040768173
 30
0.0
 10
5.4804681915
 20
5.5046839077
 30
0.0
 10
5.4657035708
 20
5.5054266572
 30
0.0
 10
5.4464683564
 20
5.506192838
 30
0.0
 10
5.4226463012
 20
5.5068496917
 30
0.0
 10
5.3980950815
 20
5.5072476357
 30
0.0
 10
5.3815228549
 20
5.507336291
 30
0.0
 10
5.3731754658
 20
5.507336291
 30
0.0
  0
SPLINE
  5
406
100
AcDbEntity
  8
0
100
AcDbSpline
 62
7
  6
CONTINUOUS
 70
0
 71
3
 72
40
 73
36
 74
0
 42
0.0000001
 43
0.0000001
 44
0.0000000001
 40
0.0
 40
0.0
 40
0.0
 40
0.0
 40
0.0877176332
 40
0.1745677831
 40
0.2596962114
 40
0.3422682177
 40
0.4214822954
 40
0.49658198
 40
0.5668693486
 40
0.6317223926
 40
0.6619434796
 40
0.6906201787
 40
0.7177092685
 40
0.7431807617
 40
0.7670219103
 40
0.7892420894
 40
0.8098832785
 40
0.8290377083
 40
0.8468744261
 40
0.8553854866
 40
0.8636925661
 40
0.8718710233
 40
0.8800161416
 40
0.8967698655
 40
0.9057774709
 40
0.9155545402
 40
0.9208272396
 40
0.9264065053
 40
0.9385922676
 40
0.9522346372
 40
0.9672314107
 40
0.975154435
 40
0.9832939074
 40
0.9915873188
 40
1.0
 40
1.0
 40
1.0
 40
1.0
 10
5.3731754658
 20
5.0514830752
 30
0.0
 10
5.3785341571
 20
5.0514830752
 30
0.0
 10
5.3891986049
 20
5.0515296756
 30
0.0
 10
5.4050623287
 20
5.0517390266
 30
0.0
 10
5.4206092484
 20
5.0520856361
 30
0.0
 10
5.4356859076
 20
5.0525660846
 30
0.0
 10
5.4501447457
 20
5.0531757143
 30
0.0
 10
5.4638464255
 20
5.0539087008
 30
0.0
 10
5.4766622744
 20
5.0547584705
 30
0.0
 10
5.4867316376
 20
5.0555758156
 30
0.0
 10
5.4942578375
 20
5.0562906564
 30
0.0
 10
5.499482128
 20
5.0568396644
 30
0.0
 10
5.5044117332
 20
5.0574137666
 30
0.0
 10
5.5090406572
 20
5.0580129685
 30
0.0
 10
5.5133658817
 20
5.0586379324
 30
0.0
 10
5.5173884031
 20
5.0592904905
 30
0.0
 10
5.5211150672
 20
5.0599743823
 30
0.0
 10
5.5245612604
 20
5.0606972503
 30
0.0
 10
5.5272631135
 20
5.0613535875
 30
0.0
 10
5.5293038679
 20
5.0619175141
 30
0.0
 10
5.5307659062
 20
5.0623588628
 30
0.0
 10
5.5321939954
 20
5.0628337207
 30
0.0
 10
5.5340900424
 20
5.0635328731
 30
0.0
 10
5.5359912155
 20
5.0643643456
 30
0.0
 10
5.5379019252
 20
5.0653977817
 30
0.0
 10
5.5391437749
 20
5.066186884
 30
0.0
 10
5.540162639
 20
5.0669292616
 30
0.0
 10
5.5412599118
 20
5.0678113082
 30
0.0
 10
5.5426547988
 20
5.0691355801
 30
0.0
 10
5.54423484
 20
5.0710750735
 30
0.0
 10
5.5453783116
 20
5.0730058356
 30
0.0
 10
5.5461391654
 20
5.0747461191
 30
0.0
 10
5.54661534
 20
5.0761579212
 30
0.0
 10
5.5469710411
 20
5.0776354735
 30
0.0
 10
5.5471183976
 20
5.0786471011
 30
0.0
 10
5.5471689974
 20
5.0791585369
 30
0.0
  0
SPLINE
  5
407
100
AcDbEntity
  8
0
100
AcDbSpline
 62
7
  6
CONTINUOUS
 70
0
 71
3
 72
54
 73
50
 74
0
 42
0.0000001
 43
0.0000001
 44
0.0000000001
 40
0.0
 40
0.0
 40
0.0
 40
0.0
 40
0.0847671482
 40
0.1682883788
 40
0.2493437733
 40
0.3267651268
 40
0.3637695609
 40
0.3994661163
 40
0.4337374545
 40
0.4664764205
 40
0.4975881408
 40
0.526992875
 40
0.5546300252
 40
0.5804642022
 40
0.6044945239
 40
0.6267703695
 40
0.6474176891
 40
0.6572032118
 40
0.666691299
 40
0.6759487896
 40
0.6850656637
 40
0.6941664808
 40
0.7034171384
 40
0.7130396596
 40
0.7233199424
 40
0.7345942999
 40
0.74719366
 40
0.7613291257
 40
0.7769784899
 40
0.7938935781
 40
0.8117179644
 40
0.8301155246
 40
0.8488102778
 40
0.8675725588
 40
0.886184752
 40
0.9044046542
 40
0.9219304826
 40
0.9303290137
 40
0.938419728
 40
0.9461627549
 40
0.9535267244
 40
0.9604967767
 40
0.9670767156
 40
0.9732817102
 40
0.9791447801
 40
0.9847041904
 40
0.9900045772
 40
0.9950891203
 40
1.0
 40
1.0
 40
1.0
 40
1.0
 10
5.3731754658
 20
5.507336291
 30
0.0
 10
5.3648281227
 20
5.507336291
 30
0.0
 10
5.3482559866
 20
5.5072476367
 30
0.0
 10
5.3237048979
 20
5.5068496969
 30
0.0
 10
5.2998829624
 20
5.5061928505
 30
0.0
 10
5.280647838
 20
5.505426678
 30
0.0
 10
5.2658832794
 20
5.5046839367
 30
0.0
 10
5.2553667095
 20
5.5040768527
 30
0.0
 10
5.2452744565
 20
5.5034131711
 30
0.0
 10
5.2356386265
 20
5.5026946098
 30
0.0
 10
5.2264877436
 20
5.5019227622
 30
0.0
 10
5.2178459163
 20
5.5010988504
 30
0.0
 10
5.2097316428
 20
5.5002234049
 30
0.0
 10
5.2021560569
 20
5.4992956488
 30
0.0
 10
5.1951200566
 20
5.4983125262
 30
0.0
 10
5.1886098891
 20
5.4972664418
 30
0.0
 10
5.1835068925
 20
5.4963133252
 30
0.0
 10
5.1796614752
 20
5.495495836
 30
0.0
 10
5.1769245721
 20
5.4948601462
 30
0.0
 10
5.1742658945
 20
5.4941813223
 30
0.0
 10
5.1716618934
 20
5.4934456473
 30
0.0
 10
5.169081868
 20
5.4926316028
 30
0.0
 10
5.1664860244
 20
5.4917074865
 30
0.0
 10
5.1638256714
 20
5.4906254359
 30
0.0
 10
5.1610476254
 20
5.4893140756
 30
0.0
 10
5.1581080839
 20
5.4876733279
 30
0.0
 10
5.1550006612
 20
5.4855772058
 30
0.0
 10
5.1517920957
 20
5.4828941563
 30
0.0
 10
5.1486401713
 20
5.4795274209
 30
0.0
 10
5.1457720601
 20
5.4754566324
 30
0.0
 10
5.1434294423
 20
5.470753624
 30
0.0
 10
5.1418151704
 20
5.4655669128
 30
0.0
 10
5.1410654455
 20
5.4600920428
 30
0.0
 10
5.141240905
 20
5.4545474018
 30
0.0
 10
5.1423279939
 20
5.4491558769
 30
0.0
 10
5.1442365143
 20
5.4441302831
 30
0.0
 10
5.1464081433
 20
5.4403432361
 30
0.0
 10
5.1483904639
 20
5.4376403066
 30
0.0
 10
5.1499348603
 20
5.435818655
 30
0.0
 10
5.1515253658
 20
5.4341767927
 30
0.0
 10
5.1531331486
 20
5.432711522
 30
0.0
 10
5.1547329933
 20
5.4314129802
 30
0.0
 10
5.1563065726
 20
5.4302678202
 30
0.0
 10
5.1578415398
 20
5.4292586967
 30
0.0
 10
5.1593323409
 20
5.4283685645
 30
0.0
 10
5.1607779871
 20
5.4275791625
 30
0.0
 10
5.1621818391
 20
5.4268753858
 30
0.0
 10
5.1635486278
 20
5.4262419292
 30
0.0
 10
5.1644532104
 20
5.4258535726
 30
0.0
 10
5.1648999439
 20
5.4256683935
 30
0.0
  0
SPLINE
  5
408
100
AcDbEntity
  8
0
100
AcDbSpline
 62
7
  6
CONTINUOUS
 70
0
 71
3
 72
43
 73
39
 74
0
 42
0.0000001
 43
0.0000001
 44
0.0000000001
 40
0.0
 40
0.0
 40
0.0
 40
0.0
 40
0.0084149957
 40
0.0167052215
 40
0.024845829
 40
0.0327697634
 40
0.0477671416
 40
0.0614110673
 40
0.0676852743
 40
0.0736019724
 40
0.0791799082
 40
0.0844533229
 40
0.0942298572
 40
0.0988121458
 40
0.1032391169
 40
0.1117524058
 40
0.1199966129
 40
0.1281418311
 40
0.1363197251
 40
0.1446271385
 40
0.1531377855
 40
0.1709745716
 40
0.1901290834
 40
0.2107702774
 40
0.2329904891
 40
0.2568314767
 40
0.282302739
 40
0.3093915627
 40
0.338067944
 40
0.3682886613
 40
0.4331408207
 40
0.5034271171
 40
0.5785255615
 40
0.6577382522
 40
0.7403087506
 40
0.8254355776
 40
0.912284064
 40
1.0
 40
1.0
 40
1.0
 40
1.0
 10
5.1991819343
 20
5.0791585369
 30
0.0
 10
5.1992325485
 20
5.0786469549
 30
0.0
 10
5.1993798267
 20
5.077635354
 30
0.0
 10
5.1997357162
 20
5.0761578139
 30
0.0
 10
5.2002117739
 20
5.0747460368
 30
0.0
 10
5.2009727849
 20
5.073005593
 30
0.0
 10
5.2021162647
 20
5.0710747826
 30
0.0
 10
5.2034681271
 20
5.0694157347
 30
0.0
 10
5.2045809449
 20
5.0682954263
 30
0.0
 10
5.2053902339
 20
5.0675710912
 30
0.0
 10
5.2061886071
 20
5.0669285561
 30
0.0
 10
5.2072078617
 20
5.0661868807
 30
0.0
 10
5.2082210209
 20
5.0655423476
 30
0.0
 10
5.20922163
 20
5.0649800576
 30
0.0
 10
5.2101705925
 20
5.0644843662
 30
0.0
 10
5.2113429176
 20
5.063934638
 30
0.0
 10
5.2127490246
 20
5.0633527499
 30
0.0
 10
5.2141575203
 20
5.0628334972
 30
0.0
 10
5.2155855809
 20
5.062358713
 30
0.0
 10
5.2170475976
 20
5.0619173166
 30
0.0
 10
5.2190883931
 20
5.0613534735
 30
0.0
 10
5.2217902537
 20
5.0606971017
 30
0.0
 10
5.2252365001
 20
5.0599742538
 30
0.0
 10
5.2289632152
 20
5.0592903727
 30
0.0
 10
5.2329857749
 20
5.0586378206
 30
0.0
 10
5.2373110266
 20
5.0580128668
 30
0.0
 10
5.2419399622
 20
5.0574136726
 30
0.0
 10
5.2468695727
 20
5.0568395796
 30
0.0
 10
5.252093863
 20
5.0562905798
 30
0.0
 10
5.25962005
 20
5.0555757501
 30
0.0
 10
5.2696893818
 20
5.0547584178
 30
0.0
 10
5.2825051758
 20
5.0539086613
 30
0.0
 10
5.2962067792
 20
5.0531756864
 30
0.0
 10
5.3106655224
 20
5.0525660666
 30
0.0
 10
5.3257420711
 20
5.0520856261
 30
0.0
 10
5.3412888684
 20
5.0517390224
 30
0.0
 10
5.3571524615
 20
5.0515296749
 30
0.0
 10
5.36781682
 20
5.0514830752
 30
0.0
 10
5.3731754658
 20
5.0514830752
 30
0.0
  0
LINE
  5
409
100
AcDbEntity
  8
0
100
AcDbLine
 62
7
  6
CONTINUOUS
 10
3.4107982261
 20
4.7411417792
 11
3.3948881418
 21
4.7410004234
  0
LINE
  5
40A
100
AcDbEntity
  8
0
100
AcDbLine
 62
7
  6
CONTINUOUS
 10
3.3948881418
 20
4.7410004234
 11
3.3938261967
 21
4.7409978409
  0
LINE
  5
40B
100
AcDbEntity
  8
0
100
AcDbLine
 62
7
  6
CONTINUOUS
 10
3.3938261967
 20
4.7409978409
 11
3.3508500621
 21
4.7409499499
  0
LINE
  5
40C
100
AcDbEntity
  8
0
100
AcDbLine
 62
7
  6
CONTINUOUS
 10
3.3508500621
 20
4.7409499499
 11
3.3340605047
 21
4.7410653376
  0
LINE
  5
40D
100
AcDbEntity
  8
0
100
AcDbLine
 62
7
  6
CONTINUOUS
 10
3.2939254658
 20
4.7380401783
 11
3.2934376655
 21
4.7379987868
  0
LINE
  5
40E
100
AcDbEntity
  8
0
100
AcDbLine
 62
7
  6
CONTINUOUS
 10
3.2934376655
 20
4.7379987868
 11
3.2909254658
 21
4.7377396373
  0
LINE
  5
40F
100
AcDbEntity
  8
0
100
AcDbLine
 62
7
  6
CONTINUOUS
 10
3.2719254658
 20
4.7354751671
 11
3.2689254658
 21
4.7350603912
  0
SPLINE
  5
410
100
AcDbEntity
  8
0
100
AcDbSpline
 62
7
  6
CONTINUOUS
 70
0
 71
3
 72
11
 73
7
 74
0
 42
0.0000001
 43
0.0000001
 44
0.0000000001
 40
0.0
 40
0.0
 40
0.0
 40
0.0
 40
0.2699518592
 40
0.5297336064
 40
0.7745420378
 40
1.0
 40
1.0
 40
1.0
 40
1.0
 10
7.1119254658
 20
4.5040269097
 30
0.0
 10
7.1117090151
 20
4.5085836574
 30
0.0
 10
7.1110508798
 20
4.5175160954
 30
0.0
 10
7.1094370123
 20
4.530509984
 30
0.0
 10
7.1073553082
 20
4.5426739913
 30
0.0
 10
7.1056953837
 20
4.5504479432
 30
0.0
 10
7.104830593
 20
4.5541584888
 30
0.0
  0
SPLINE
  5
411
100
AcDbEntity
  8
0
100
AcDbSpline
 62
7
  6
CONTINUOUS
 70
0
 71
3
 72
14
 73
10
 74
0
 42
0.0000001
 43
0.0000001
 44
0.0000000001
 40
0.0
 40
0.0
 40
0.0
 40
0.0
 40
0.219323417
 40
0.4143096217
 40
0.5824209485
 40
0.7220684764
 40
0.8327489132
 40
0.9150163566
 40
1.0
 40
1.0
 40
1.0
 40
1.0
 10
7.104830593
 20
4.5541584888
 30
0.0
 10
7.1042834767
 20
4.5565059927
 30
0.0
 10
7.1031788672
 20
4.5609243794
 30
0.0
 10
7.101422324
 20
4.5670807164
 30
0.0
 10
7.0997362672
 20
4.5723434594
 30
0.0
 10
7.098197584
 20
4.5766779035
 30
0.0
 10
7.0968726398
 20
4.5800852143
 30
0.0
 10
7.0956866259
 20
4.5829003978
 30
0.0
 10
7.0949230442
 20
4.5845729352
 30
0.0
 10
7.0945178804
 20
4.58541447
 30
0.0
  0
SPLINE
  5
412
100
AcDbEntity
  8
0
100
AcDbSpline
 62
7
  6
CONTINUOUS
 70
0
 71
3
 72
19
 73
15
 74
0
 42
0.0000001
 43
0.0000001
 44
0.0000000001
 40
0.0
 40
0.0
 40
0.0
 40
0.0
 40
0.0388310119
 40
0.148086243
 40
0.2237839654
 40
0.3098410995
 40
0.4030762423
 40
0.4999998651
 40
0.5969234837
 40
0.6901585465
 40
0.7762156663
 40
0.8519134587
 40
0.9611689888
 40
1.0
 40
1.0
 40
1.0
 40
1.0
 10
7.0062013111
 20
3.3372888538
 30
0.0
 10
7.0067590205
 20
3.3325425807
 30
0.0
 10
7.0088116224
 20
3.3144330835
 30
0.0
 10
7.0114767899
 20
3.2870178369
 30
0.0
 10
7.0140074334
 20
3.2537588891
 30
0.0
 10
7.015796025
 20
3.2224256662
 30
0.0
 10
7.0170000063
 20
3.1884497827
 30
0.0
 10
7.0174247754
 20
3.1531172864
 30
0.0
 10
7.0170000082
 20
3.1177847998
 30
0.0
 10
7.015796031
 20
3.0838089283
 30
0.0
 10
7.0140074418
 20
3.0524757083
 30
0.0
 10
7.0114767974
 20
3.0192167168
 30
0.0
 10
7.0088116265
 20
2.991801425
 30
0.0
 10
7.0067590205
 20
2.9736918913
 30
0.0
 10
7.0062013111
 20
2.9689456182
 30
0.0
  0
SPLINE
  5
413
100
AcDbEntity
  8
0
100
AcDbSpline
 62
7
  6
CONTINUOUS
 70
0
 71
3
 72
39
 73
35
 74
0
 42
0.0000001
 43
0.0000001
 44
0.0000000001
 40
0.0
 40
0.0
 40
0.0
 40
0.0
 40
0.0972530406
 40
0.1935649913
 40
0.2880078453
 40
0.3796690557
 40
0.4676649379
 40
0.5511484536
 40
0.6293183239
 40
0.7014274885
 40
0.7349930968
 40
0.7667924105
 40
0.7967512897
 40
0.8248005493
 40
0.8508766232
 40
0.8749220104
 40
0.8968856097
 40
0.9167237891
 40
0.9344018546
 40
0.9424232024
 40
0.9498967178
 40
0.9568216048
 40
0.9631987174
 40
0.9690304966
 40
0.9743215156
 40
0.9790798014
 40
0.9833177044
 40
0.9870541937
 40
0.9903188024
 40
0.9931569783
 40
0.9956390249
 40
0.9978703883
 40
0.9989383639
 40
1.0
 40
1.0
 40
1.0
 40
1.0
 10
5.3731754658
 20
5.0944543983
 30
0.0
 10
5.3674592732
 20
5.0944543983
 30
0.0
 10
5.3560821402
 20
5.0944056534
 30
0.0
 10
5.3391552594
 20
5.0941866758
 30
0.0
 10
5.3225595637
 20
5.0938241581
 30
0.0
 10
5.306456516
 20
5.093321733
 30
0.0
 10
5.2910028883
 20
5.092684466
 30
0.0
 10
5.2763490308
 20
5.0919188386
 30
0.0
 10
5.2626375282
 20
5.0910325824
 30
0.0
 10
5.2518647909
 20
5.0901822929
 30
0.0
 10
5.2438185119
 20
5.0894410965
 30
0.0
 10
5.2382443821
 20
5.0888740856
 30
0.0
 10
5.2329987797
 20
5.0882840829
 30
0.0
 10
5.2280944476
 20
5.087672557
 30
0.0
 10
5.223543276
 20
5.0870410879
 30
0.0
 10
5.2193562762
 20
5.0863913208
 30
0.0
 10
5.2155435044
 20
5.0857250076
 30
0.0
 10
5.2121141318
 20
5.0850438928
 30
0.0
 10
5.2095042213
 20
5.0844479674
 30
0.0
 10
5.2076162811
 20
5.0839602991
 30
0.0
 10
5.2063475512
 20
5.0836037871
 30
0.0
 10
5.2051802557
 20
5.0832447902
 30
0.0
 10
5.204115048
 20
5.0828835439
 30
0.0
 10
5.2031524909
 20
5.0825202957
 30
0.0
 10
5.2022930568
 20
5.082155254
 30
0.0
 10
5.2015370814
 20
5.0817886475
 30
0.0
 10
5.2008847509
 20
5.0814206272
 30
0.0
 10
5.2003360956
 20
5.0810511563
 30
0.0
 10
5.1998909272
 20
5.0806799713
 30
0.0
 10
5.1995491542
 20
5.0803060002
 30
0.0
 10
5.19931143
 20
5.0799276302
 30
0.0
 10
5.1992014229
 20
5.0796016669
 30
0.0
 10
5.1991722294
 20
5.0793462583
 30
0.0
 10
5.1991757911
 20
5.0792206328
 30
0.0
 10
5.1991819364
 20
5.0791585369
 30
0.0
  0
SPLINE
  5
414
100
AcDbEntity
  8
0
100
AcDbSpline
 62
7
  6
CONTINUOUS
 70
0
 71
3
 72
14
 73
10
 74
0
 42
0.0000001
 43
0.0000001
 44
0.0000000001
 40
0.0
 40
0.0
 40
0.0
 40
0.0
 40
0.0849836596
 40
0.1672511125
 40
0.2779315452
 40
0.4175790784
 40
0.5856904051
 40
0.7806766007
 40
1.0
 40
1.0
 40
1.0
 40
1.0
 10
7.0945178804
 20
4.397820002
 30
0.0
 10
7.0949230443
 20
4.398661537
 30
0.0
 10
7.0956866261
 20
4.4003340747
 30
0.0
 10
7.09687264
 20
4.4031492584
 30
0.0
 10
7.0981975843
 20
4.4065565694
 30
0.0
 10
7.0997362675
 20
4.4108910134
 30
0.0
 10
7.1014223243
 20
4.4161537564
 30
0.0
 10
7.1031788673
 20
4.4223100932
 30
0.0
 10
7.1042834768
 20
4.4267284796
 30
0.0
 10
7.104830593
 20
4.4290759833
 30
0.0
  0
SPLINE
  5
415
100
AcDbEntity
  8
0
100
AcDbSpline
 62
7
  6
CONTINUOUS
 70
0
 71
3
 72
11
 73
7
 74
0
 42
0.0000001
 43
0.0000001
 44
0.0000000001
 40
0.0
 40
0.0
 40
0.0
 40
0.0
 40
0.2254579635
 40
0.4702663899
 40
0.7300481367
 40
1.0
 40
1.0
 40
1.0
 40
1.0
 10
7.104830593
 20
4.4290759833
 30
0.0
 10
7.1056953837
 20
4.4327865288
 30
0.0
 10
7.1073553082
 20
4.4405604807
 30
0.0
 10
7.1094370123
 20
4.4527244879
 30
0.0
 10
7.1110508798
 20
4.4657183766
 30
0.0
 10
7.1117090151
 20
4.4746508146
 30
0.0
 10
7.1119254658
 20
4.4792075624
 30
0.0
  0
SPLINE
  5
416
100
AcDbEntity
  8
0
100
AcDbSpline
 62
7
  6
CONTINUOUS
 70
0
 71
3
 72
51
 73
47
 74
0
 42
0.0000001
 43
0.0000001
 44
0.0000000001
 40
0.0
 40
0.0
 40
0.0
 40
0.0
 40
0.1010927265
 40
0.1999563837
 40
0.2958730273
 40
0.3881632082
 40
0.476188544
 40
0.5593395781
 40
0.637026558
 40
0.7086706892
 40
0.7420478061
 40
0.7736999637
 40
0.8035565356
 40
0.8315479735
 40
0.8576056548
 40
0.8816628085
 40
0.903654858
 40
0.9235199124
 40
0.9412001256
 40
0.949203707
 40
0.956641254
 40
0.9635069904
 40
0.9697951411
 40
0.975500464
 40
0.9806185355
 40
0.9851449965
 40
0.9890756696
 40
0.9908165921
 40
0.9924074525
 40
0.993847911
 40
0.9951376279
 40
0.9962762634
 40
0.9972635018
 40
0.9980991737
 40
0.9987831638
 40
0.9990682421
 40
0.9993153567
 40
0.9995244932
 40
0.9996956372
 40
0.9998287743
 40
0.9998810858
 40
0.9999238901
 40
0.9999571855
 40
0.9999809701
 40
0.9999952422
 40
1.0
 40
1.0
 40
1.0
 40
1.0
 10
7.6344254658
 20
4.4757348559
 30
0.0
 10
7.6345987172
 20
4.4728850369
 30
0.0
 10
7.6350330396
 20
4.4672533858
 30
0.0
 10
7.6359391684
 20
4.4589452823
 30
0.0
 10
7.6370614417
 20
4.4509146339
 30
0.0
 10
7.6383608607
 20
4.4432212146
 30
0.0
 10
7.6397942183
 20
4.4359188812
 30
0.0
 10
7.6413158888
 20
4.4290564793
 30
0.0
 10
7.6428791738
 20
4.4226790021
 30
0.0
 10
7.6442073567
 20
4.4176924457
 30
0.0
 10
7.6452513273
 20
4.4139763081
 30
0.0
 10
7.6459974275
 20
4.4114024507
 30
0.0
 10
7.6467198409
 20
4.4089801778
 30
0.0
 10
7.647413307
 20
4.4067142165
 30
0.0
 10
7.6480726929
 20
4.4046091663
 30
0.0
 10
7.6486931213
 20
4.4026695092
 30
0.0
 10
7.6492699524
 20
4.4008995615
 30
0.0
 10
7.6497988048
 20
4.399303423
 30
0.0
 10
7.6502087424
 20
4.3980840853
 30
0.0
 10
7.6505094353
 20
4.3971983122
 30
0.0
 10
7.6507130025
 20
4.3966021123
 30
0.0
 10
7.6509018241
 20
4.3960520724
 30
0.0
 10
7.651075512
 20
4.3955485621
 30
0.0
 10
7.6512337133
 20
4.3950919222
 30
0.0
 10
7.6513761363
 20
4.3946824716
 30
0.0
 10
7.6515024956
 20
4.3943204992
 30
0.0
 10
7.651597666
 20
4.3940486618
 30
0.0
 10
7.6516655638
 20
4.3938551184
 30
0.0
 10
7.6517102297
 20
4.3937279562
 30
0.0
 10
7.651750714
 20
4.3936128315
 30
0.0
 10
7.6517869944
 20
4.393509767
 30
0.0
 10
7.6518190493
 20
4.3934187849
 30
0.0
 10
7.6518468577
 20
4.3933399025
 30
0.0
 10
7.6518704086
 20
4.3932731339
 30
0.0
 10
7.6518873713
 20
4.3932250696
 30
0.0
 10
7.651898807
 20
4.3931926812
 30
0.0
 10
7.6519057785
 20
4.3931729399
 30
0.0
 10
7.6519116826
 20
4.3931562314
 30
0.0
 10
7.6519165081
 20
4.3931425635
 30
0.0
 10
7.6519198771
 20
4.3931330599
 30
0.0
 10
7.6519220062
 20
4.393126995
 30
0.0
 10
7.6519232563
 20
4.3931235489
 30
0.0
 10
7.6519240908
 20
4.3931209587
 30
0.0
 10
7.6519250026
 20
4.3931189021
 30
0.0
 10
7.6519249852
 20
4.3931180371
 30
0.0
 10
7.6519255999
 20
4.3931172458
 30
0.0
 10
7.6519254658
 20
4.393117236
 30
0.0
  0
SPLINE
  5
417
100
AcDbEntity
  8
0
100
AcDbSpline
 62
7
  6
CONTINUOUS
 70
0
 71
3
 72
39
 73
35
 74
0
 42
0.0000001
 43
0.0000001
 44
0.0000000001
 40
0.0
 40
0.0
 40
0.0
 40
0.0
 40
0.0972530406
 40
0.1935649913
 40
0.2880078453
 40
0.3796690557
 40
0.4676649379
 40
0.5511484536
 40
0.6293183239
 40
0.7014274885
 40
0.7349930968
 40
0.7667924105
 40
0.7967512897
 40
0.8248005493
 40
0.8508766232
 40
0.8749220104
 40
0.8968856097
 40
0.9167237891
 40
0.9344018546
 40
0.9424232024
 40
0.9498967178
 40
0.9568216048
 40
0.9631987174
 40
0.9690304966
 40
0.9743215156
 40
0.9790798014
 40
0.9833177044
 40
0.9870541937
 40
0.9903188024
 40
0.9931569783
 40
0.9956390249
 40
0.9978703883
 40
0.9989383639
 40
1.0
 40
1.0
 40
1.0
 40
1.0
 10
5.3731754658
 20
5.0944543983
 30
0.0
 10
5.3788916585
 20
5.0944543983
 30
0.0
 10
5.3902687915
 20
5.0944056534
 30
0.0
 10
5.4071956723
 20
5.0941866758
 30
0.0
 10
5.423791368
 20
5.0938241581
 30
0.0
 10
5.4398944157
 20
5.093321733
 30
0.0
 10
5.4553480434
 20
5.092684466
 30
0.0
 10
5.4700019009
 20
5.0919188386
 30
0.0
 10
5.4837134035
 20
5.0910325824
 30
0.0
 10
5.4944861408
 20
5.0901822929
 30
0.0
 10
5.5025324198
 20
5.0894410965
 30
0.0
 10
5.5081065496
 20
5.0888740856
 30
0.0
 10
5.513352152
 20
5.0882840829
 30
0.0
 10
5.5182564841
 20
5.087672557
 30
0.0
 10
5.5228076557
 20
5.0870410879
 30
0.0
 10
5.5269946554
 20
5.0863913208
 30
0.0
 10
5.5308074272
 20
5.0857250076
 30
0.0
 10
5.5342367998
 20
5.0850438928
 30
0.0
 10
5.5368467104
 20
5.0844479674
 30
0.0
 10
5.5387346506
 20
5.0839602991
 30
0.0
 10
5.5400033805
 20
5.0836037871
 30
0.0
 10
5.541170676
 20
5.0832447902
 30
0.0
 10
5.5422358837
 20
5.0828835439
 30
0.0
 10
5.5431984408
 20
5.0825202957
 30
0.0
 10
5.5440578749
 20
5.082155254
 30
0.0
 10
5.5448138503
 20
5.0817886475
 30
0.0
 10
5.5454661808
 20
5.0814206272
 30
0.0
 10
5.5460148361
 20
5.0810511563
 30
0.0
 10
5.5464600045
 20
5.0806799713
 30
0.0
 10
5.5468017775
 20
5.0803060002
 30
0.0
 10
5.5470395017
 20
5.0799276302
 30
0.0
 10
5.5471495088
 20
5.0796016669
 30
0.0
 10
5.5471787023
 20
5.0793462583
 30
0.0
 10
5.5471751405
 20
5.0792206328
 30
0.0
 10
5.5471689952
 20
5.0791585369
 30
0.0
  0
SPLINE
  5
418
100
AcDbEntity
  8
0
100
AcDbSpline
 62
7
  6
CONTINUOUS
 70
0
 71
3
 72
67
 73
63
 74
0
 42
0.0000001
 43
0.0000001
 44
0.0000000001
 40
0.0
 40
0.0
 40
0.0
 40
0.0
 40
0.0483979061
 40
0.0963326141
 40
0.1433473359
 40
0.188992587
 40
0.2328331289
 40
0.2744515695
 40
0.3134526794
 40
0.3494677655
 40
0.3662487122
 40
0.3821590397
 40
0.3971619246
 40
0.4112231287
 40
0.4243111043
 40
0.4363970824
 40
0.4474555742
 40
0.4574647028
 40
0.4664066501
 40
0.4742688546
 40
0.477793246
 40
0.4810463124
 40
0.4840289666
 40
0.4867432368
 40
0.4891924059
 40
0.4913817814
 40
0.4933196383
 40
0.4950185072
 40
0.4964978046
 40
0.4977876123
 40
0.4989334708
 40
0.5
 40
0.5010665292
 40
0.5022123877
 40
0.5035021954
 40
0.5049814928
 40
0.5066803617
 40
0.5086182186
 40
0.5108075941
 40
0.5132567632
 40
0.5159710334
 40
0.5189536876
 40
0.522206754
 40
0.5257311454
 40
0.5335933499
 40
0.5425352972
 40
0.5525444258
 40
0.5636029176
 40
0.5756888957
 40
0.5887768713
 40
0.6028380754
 40
0.6178409603
 40
0.6337512878
 40
0.6505322345
 40
0.6865473206
 40
0.7255484305
 40
0.7671668711
 40
0.811007413
 40
0.8566526641
 40
0.9036673859
 40
0.9516020939
 40
1.0
 40
1.0
 40
1.0
 40
1.0
 10
5.3731754658
 20
5.0791834549
 30
0.0
 10
5.3679943787
 20
5.0791834549
 30
0.0
 10
5.3576817355
 20
5.0791395104
 30
0.0
 10
5.3423372181
 20
5.0789420916
 30
0.0
 10
5.3272896341
 20
5.0786152421
 30
0.0
 10
5.3126837974
 20
5.0781621969
 30
0.0
 10
5.2986603641
 20
5.0775874719
 30
0.0
 10
5.285354287
 20
5.0768968512
 30
0.0
 10
5.2728936287
 20
5.0760972192
 30
0.0
 10
5.2630961207
 20
5.0753300348
 30
0.0
 10
5.2557713551
 20
5.0746612465
 30
0.0
 10
5.2506912446
 20
5.0741493687
 30
0.0
 10
5.2459061151
 20
5.0736166259
 30
0.0
 10
5.241427462
 20
5.0730643371
 30
0.0
 10
5.2372660306
 20
5.0724939137
 30
0.0
 10
5.2334317783
 20
5.0719068172
 30
0.0
 10
5.2299338511
 20
5.0713045819
 30
0.0
 10
5.2267804785
 20
5.0706888716
 30
0.0
 10
5.2239790996
 20
5.0700613055
 30
0.0
 10
5.2218726693
 20
5.069511929
 30
0.0
 10
5.2203711739
 20
5.069062342
 30
0.0
 10
5.219378623
 20
5.0687354678
 30
0.0
 10
5.2184784676
 20
5.0684067254
 30
0.0
 10
5.2176711513
 20
5.0680763229
 30
0.0
 10
5.2169570211
 20
5.0677444473
 30
0.0
 10
5.2163363012
 20
5.0674112444
 30
0.0
 10
5.2158090439
 20
5.0670767938
 30
0.0
 10
5.2153751593
 20
5.0667409077
 30
0.0
 10
5.2150345018
 20
5.0664029427
 30
0.0
 10
5.2147873013
 20
5.0660615315
 30
0.0
 10
5.2146355559
 20
5.065714725
 30
0.0
 10
5.2145839606
 20
5.0653627562
 30
0.0
 10
5.2146355559
 20
5.0650107873
 30
0.0
 10
5.2147873013
 20
5.0646639808
 30
0.0
 10
5.2150345018
 20
5.0643225696
 30
0.0
 10
5.2153751593
 20
5.0639846046
 30
0.0
 10
5.2158090439
 20
5.0636487185
 30
0.0
 10
5.2163363012
 20
5.0633142679
 30
0.0
 10
5.2169570211
 20
5.062981065
 30
0.0
 10
5.2176711513
 20
5.0626491894
 30
0.0
 10
5.2184784676
 20
5.0623187869
 30
0.0
 10
5.219378623
 20
5.0619900445
 30
0.0
 10
5.2203711739
 20
5.0616631703
 30
0.0
 10
5.2218726693
 20
5.0612135833
 30
0.0
 10
5.2239790996
 20
5.0606642068
 30
0.0
 10
5.2267804785
 20
5.0600366407
 30
0.0
 10
5.2299338511
 20
5.0594209304
 30
0.0
 10
5.2334317783
 20
5.0588186951
 30
0.0
 10
5.2372660306
 20
5.0582315986
 30
0.0
 10
5.241427462
 20
5.0576611752
 30
0.0
 10
5.2459061151
 20
5.0571088864
 30
0.0
 10
5.2506912446
 20
5.0565761436
 30
0.0
 10
5.2557713551
 20
5.0560642658
 30
0.0
 10
5.2630961207
 20
5.0553954775
 30
0.0
 10
5.2728936287
 20
5.0546282931
 30
0.0
 10
5.285354287
 20
5.0538286611
 30
0.0
 10
5.2986603641
 20
5.0531380404
 30
0.0
 10
5.3126837974
 20
5.0525633154
 30
0.0
 10
5.3272896341
 20
5.0521102702
 30
0.0
 10
5.3423372181
 20
5.0517834207
 30
0.0
 10
5.3576817355
 20
5.0515860019
 30
0.0
 10
5.3679943787
 20
5.0515420574
 30
0.0
 10
5.3731754658
 20
5.0515420574
 30
0.0
  0
SPLINE
  5
419
100
AcDbEntity
  8
0
100
AcDbSpline
 62
7
  6
CONTINUOUS
 70
0
 71
3
 72
41
 73
37
 74
0
 42
0.0000001
 43
0.0000001
 44
0.0000000001
 40
0.0
 40
0.0
 40
0.0
 40
0.0
 40
0.0972524449
 40
0.1935640552
 40
0.2880063566
 40
0.3796671213
 40
0.4676625263
 40
0.5511456283
 40
0.6293151182
 40
0.6661716826
 40
0.7014244083
 40
0.7349898774
 40
0.7667890798
 40
0.7967477407
 40
0.824796843
 40
0.8508728506
 40
0.8749180947
 40
0.8968815252
 40
0.9167196533
 40
0.9343976507
 40
0.9424189244
 40
0.949892376
 40
0.9568172816
 40
0.9631943264
 40
0.9690260689
 40
0.9743170944
 40
0.9790753276
 40
0.9833132139
 40
0.9870496983
 40
0.9903142746
 40
0.9931524407
 40
0.9956344785
 40
0.9967754785
 40
0.9978703996
 40
0.9989383694
 40
1.0
 40
1.0
 40
1.0
 40
1.0
 10
5.3731754658
 20
5.4461822783
 30
0.0
 10
5.366325897
 20
5.4461822783
 30
0.0
 10
5.352692949
 20
5.446123868
 30
0.0
 10
5.3324098772
 20
5.4458614743
 30
0.0
 10
5.3125236472
 20
5.4454270761
 30
0.0
 10
5.2932277614
 20
5.4448250303
 30
0.0
 10
5.2747100414
 20
5.4440614256
 30
0.0
 10
5.2571507115
 20
5.4431439252
 30
0.0
 10
5.2431981873
 20
5.4422422944
 30
0.0
 10
5.2326439674
 20
5.4414442809
 30
0.0
 10
5.2252269264
 20
5.4408250638
 30
0.0
 10
5.2181701494
 20
5.4401749446
 30
0.0
 10
5.2114908025
 20
5.4394955309
 30
0.0
 10
5.205205126
 20
5.4387885363
 30
0.0
 10
5.1993283841
 20
5.4380557597
 30
0.0
 10
5.193874822
 20
5.4372990896
 30
0.0
 10
5.1888576419
 20
5.4365204885
 30
0.0
 10
5.1842888921
 20
5.435722057
 30
0.0
 10
5.1801795558
 20
5.4349058974
 30
0.0
 10
5.1770521597
 20
5.4341918158
 30
0.0
 10
5.1747898895
 20
5.433607453
 30
0.0
 10
5.1732696027
 20
5.4331802489
 30
0.0
 10
5.1718708586
 20
5.4327500798
 30
0.0
 10
5.1705944468
 20
5.4323172016
 30
0.0
 10
5.1694410391
 20
5.4318819289
 30
0.0
 10
5.1684111972
 20
5.4314445138
 30
0.0
 10
5.1675053323
 20
5.4310052151
 30
0.0
 10
5.1667236602
 20
5.4305642168
 30
0.0
 10
5.1660662187
 20
5.4301215216
 30
0.0
 10
5.1655327812
 20
5.429676646
 30
0.0
 10
5.1651232619
 20
5.4292287978
 30
0.0
 10
5.164879478
 20
5.4288401585
 30
0.0
 10
5.1647557174
 20
5.4285309194
 30
0.0
 10
5.1646975163
 20
5.4283048878
 30
0.0
 10
5.16467157
 20
5.4280785494
 30
0.0
 10
5.1646758556
 20
5.4279280248
 30
0.0
 10
5.1646832191
 20
5.4278536168
 30
0.0
  0
SPLINE
  5
41A
100
AcDbEntity
  8
0
100
AcDbSpline
 62
7
  6
CONTINUOUS
 70
0
 71
3
 72
67
 73
63
 74
0
 42
0.0000001
 43
0.0000001
 44
0.0000000001
 40
0.0
 40
0.0
 40
0.0
 40
0.0
 40
0.0483979061
 40
0.0963326141
 40
0.1433473359
 40
0.188992587
 40
0.2328331289
 40
0.2744515695
 40
0.3134526794
 40
0.3494677655
 40
0.3662487122
 40
0.3821590397
 40
0.3971619246
 40
0.4112231287
 40
0.4243111043
 40
0.4363970824
 40
0.4474555742
 40
0.4574647028
 40
0.4664066501
 40
0.4742688546
 40
0.477793246
 40
0.4810463124
 40
0.4840289666
 40
0.4867432368
 40
0.4891924059
 40
0.4913817814
 40
0.4933196383
 40
0.4950185072
 40
0.4964978046
 40
0.4977876123
 40
0.4989334708
 40
0.5
 40
0.5010665292
 40
0.5022123877
 40
0.5035021954
 40
0.5049814928
 40
0.5066803617
 40
0.5086182186
 40
0.5108075941
 40
0.5132567632
 40
0.5159710334
 40
0.5189536876
 40
0.522206754
 40
0.5257311454
 40
0.5335933499
 40
0.5425352972
 40
0.5525444258
 40
0.5636029176
 40
0.5756888957
 40
0.5887768713
 40
0.6028380754
 40
0.6178409603
 40
0.6337512878
 40
0.6505322345
 40
0.6865473206
 40
0.7255484305
 40
0.7671668711
 40
0.811007413
 40
0.8566526641
 40
0.9036673859
 40
0.9516020939
 40
1.0
 40
1.0
 40
1.0
 40
1.0
 10
5.3731754658
 20
5.0791834549
 30
0.0
 10
5.3783565529
 20
5.0791834549
 30
0.0
 10
5.3886691962
 20
5.0791395104
 30
0.0
 10
5.4040137136
 20
5.0789420916
 30
0.0
 10
5.4190612975
 20
5.0786152421
 30
0.0
 10
5.4336671343
 20
5.0781621969
 30
0.0
 10
5.4476905676
 20
5.0775874719
 30
0.0
 10
5.4609966447
 20
5.0768968512
 30
0.0
 10
5.4734573029
 20
5.0760972192
 30
0.0
 10
5.483254811
 20
5.0753300348
 30
0.0
 10
5.4905795766
 20
5.0746612465
 30
0.0
 10
5.4956596871
 20
5.0741493687
 30
0.0
 10
5.5004448166
 20
5.0736166259
 30
0.0
 10
5.5049234697
 20
5.0730643371
 30
0.0
 10
5.5090849011
 20
5.0724939137
 30
0.0
 10
5.5129191533
 20
5.0719068172
 30
0.0
 10
5.5164170806
 20
5.0713045819
 30
0.0
 10
5.5195704532
 20
5.0706888716
 30
0.0
 10
5.5223718321
 20
5.0700613055
 30
0.0
 10
5.5244782623
 20
5.069511929
 30
0.0
 10
5.5259797578
 20
5.069062342
 30
0.0
 10
5.5269723087
 20
5.0687354678
 30
0.0
 10
5.5278724641
 20
5.0684067254
 30
0.0
 10
5.5286797804
 20
5.0680763229
 30
0.0
 10
5.5293939106
 20
5.0677444473
 30
0.0
 10
5.5300146305
 20
5.0674112444
 30
0.0
 10
5.5305418878
 20
5.0670767938
 30
0.0
 10
5.5309757723
 20
5.0667409077
 30
0.0
 10
5.5313164299
 20
5.0664029427
 30
0.0
 10
5.5315636303
 20
5.0660615315
 30
0.0
 10
5.5317153758
 20
5.065714725
 30
0.0
 10
5.5317669711
 20
5.0653627562
 30
0.0
 10
5.5317153758
 20
5.0650107873
 30
0.0
 10
5.5315636303
 20
5.0646639808
 30
0.0
 10
5.5313164299
 20
5.0643225696
 30
0.0
 10
5.5309757723
 20
5.0639846046
 30
0.0
 10
5.5305418878
 20
5.0636487185
 30
0.0
 10
5.5300146305
 20
5.0633142679
 30
0.0
 10
5.5293939106
 20
5.062981065
 30
0.0
 10
5.5286797804
 20
5.0626491894
 30
0.0
 10
5.5278724641
 20
5.0623187869
 30
0.0
 10
5.5269723087
 20
5.0619900445
 30
0.0
 10
5.5259797578
 20
5.0616631703
 30
0.0
 10
5.5244782623
 20
5.0612135833
 30
0.0
 10
5.5223718321
 20
5.0606642068
 30
0.0
 10
5.5195704532
 20
5.0600366407
 30
0.0
 10
5.5164170806
 20
5.0594209304
 30
0.0
 10
5.5129191533
 20
5.0588186951
 30
0.0
 10
5.5090849011
 20
5.0582315986
 30
0.0
 10
5.5049234697
 20
5.0576611752
 30
0.0
 10
5.5004448166
 20
5.0571088864
 30
0.0
 10
5.4956596871
 20
5.0565761436
 30
0.0
 10
5.4905795766
 20
5.0560642658
 30
0.0
 10
5.483254811
 20
5.0553954775
 30
0.0
 10
5.4734573029
 20
5.0546282931
 30
0.0
 10
5.4609966447
 20
5.0538286611
 30
0.0
 10
5.4476905676
 20
5.0531380404
 30
0.0
 10
5.4336671343
 20
5.0525633154
 30
0.0
 10
5.4190612975
 20
5.0521102702
 30
0.0
 10
5.4040137136
 20
5.0517834207
 30
0.0
 10
5.3886691962
 20
5.0515860019
 30
0.0
 10
5.3783565529
 20
5.0515420574
 30
0.0
 10
5.3731754658
 20
5.0515420574
 30
0.0
  0
SPLINE
  5
41B
100
AcDbEntity
  8
0
100
AcDbSpline
 62
7
  6
CONTINUOUS
 70
0
 71
3
 72
41
 73
37
 74
0
 42
0.0000001
 43
0.0000001
 44
0.0000000001
 40
0.0
 40
0.0
 40
0.0
 40
0.0
 40
0.0972524449
 40
0.1935640552
 40
0.2880063566
 40
0.3796671213
 40
0.4676625263
 40
0.5511456283
 40
0.6293151182
 40
0.6661716826
 40
0.7014244083
 40
0.7349898774
 40
0.7667890798
 40
0.7967477407
 40
0.824796843
 40
0.8508728506
 40
0.8749180947
 40
0.8968815252
 40
0.9167196533
 40
0.9343976507
 40
0.9424189244
 40
0.949892376
 40
0.9568172816
 40
0.9631943264
 40
0.9690260689
 40
0.9743170944
 40
0.9790753276
 40
0.9833132139
 40
0.9870496983
 40
0.9903142746
 40
0.9931524407
 40
0.9956344785
 40
0.9967754785
 40
0.9978703996
 40
0.9989383694
 40
1.0
 40
1.0
 40
1.0
 40
1.0
 10
5.3731754658
 20
5.4461822783
 30
0.0
 10
5.3800250347
 20
5.4461822783
 30
0.0
 10
5.3936579827
 20
5.446123868
 30
0.0
 10
5.4139410545
 20
5.4458614743
 30
0.0
 10
5.4338272845
 20
5.4454270761
 30
0.0
 10
5.4531231703
 20
5.4448250303
 30
0.0
 10
5.4716408903
 20
5.4440614256
 30
0.0
 10
5.4892002201
 20
5.4431439252
 30
0.0
 10
5.5031527444
 20
5.4422422944
 30
0.0
 10
5.5137069643
 20
5.4414442809
 30
0.0
 10
5.5211240053
 20
5.4408250638
 30
0.0
 10
5.5281807823
 20
5.4401749446
 30
0.0
 10
5.5348601292
 20
5.4394955309
 30
0.0
 10
5.5411458057
 20
5.4387885363
 30
0.0
 10
5.5470225476
 20
5.4380557597
 30
0.0
 10
5.5524761097
 20
5.4372990896
 30
0.0
 10
5.5574932897
 20
5.4365204885
 30
0.0
 10
5.5620620396
 20
5.435722057
 30
0.0
 10
5.5661713759
 20
5.4349058974
 30
0.0
 10
5.569298772
 20
5.4341918158
 30
0.0
 10
5.5715610422
 20
5.433607453
 30
0.0
 10
5.573081329
 20
5.4331802489
 30
0.0
 10
5.574480073
 20
5.4327500798
 30
0.0
 10
5.5757564849
 20
5.4323172016
 30
0.0
 10
5.5769098925
 20
5.4318819289
 30
0.0
 10
5.5779397345
 20
5.4314445138
 30
0.0
 10
5.5788455994
 20
5.4310052151
 30
0.0
 10
5.5796272715
 20
5.4305642168
 30
0.0
 10
5.5802847129
 20
5.4301215216
 30
0.0
 10
5.5808181505
 20
5.429676646
 30
0.0
 10
5.5812276698
 20
5.4292287978
 30
0.0
 10
5.5814714537
 20
5.4288401585
 30
0.0
 10
5.5815952143
 20
5.4285309194
 30
0.0
 10
5.5816534154
 20
5.4283048878
 30
0.0
 10
5.5816793617
 20
5.4280785494
 30
0.0
 10
5.5816750761
 20
5.4279280248
 30
0.0
 10
5.5816677125
 20
5.4278536168
 30
0.0
  0
SPLINE
  5
41C
100
AcDbEntity
  8
0
100
AcDbSpline
 62
7
  6
CONTINUOUS
 70
0
 71
3
 72
47
 73
43
 74
0
 42
0.0000001
 43
0.0000001
 44
0.0000000001
 40
0.0
 40
0.0
 40
0.0
 40
0.0
 40
0.0000190079
 40
0.0000427679
 40
0.0000760318
 40
0.0001710715
 40
0.0003041272
 40
0.0004751987
 40
0.0006842862
 40
0.0009313895
 40
0.0012164981
 40
0.0019006241
 40
0.0027364426
 40
0.0037237308
 40
0.0048622657
 40
0.0061518244
 40
0.0075921841
 40
0.0109241443
 40
0.0148549653
 40
0.0193811751
 40
0.0244992412
 40
0.0302047862
 40
0.036492836
 40
0.0433584073
 40
0.0587997677
 40
0.0764798113
 40
0.0963449311
 40
0.1183369813
 40
0.1423940883
 40
0.1684518475
 40
0.1964432137
 40
0.2262998633
 40
0.2579519863
 40
0.2913291384
 40
0.3629732862
 40
0.4406602771
 40
0.5238113554
 40
0.6118367291
 40
0.7041269737
 40
0.8000436193
 40
0.8989072605
 40
1.0
 40
1.0
 40
1.0
 40
1.0
 10
3.0944254771
 20
4.3931172477
 30
0.0
 10
3.094425098
 20
4.3931168676
 30
0.0
 10
3.0944263803
 20
4.3931194047
 30
0.0
 10
3.09442664
 20
4.393120706
 30
0.0
 10
3.0944283299
 20
4.3931251682
 30
0.0
 10
3.0944305945
 20
4.3931318212
 30
0.0
 10
3.0944344418
 20
4.3931425993
 30
0.0
 10
3.094439232
 20
4.3931562087
 30
0.0
 10
3.0944451442
 20
4.3931729338
 30
0.0
 10
3.0944521113
 20
4.3931926677
 30
0.0
 10
3.094463552
 20
4.3932250624
 30
0.0
 10
3.0944805217
 20
4.3932731314
 30
0.0
 10
3.0945040819
 20
4.3933399076
 30
0.0
 10
3.0945318929
 20
4.3934187916
 30
0.0
 10
3.0945639411
 20
4.39350977
 30
0.0
 10
3.0946002116
 20
4.3936128272
 30
0.0
 10
3.0946570005
 20
4.3937743348
 30
0.0
 10
3.0947384208
 20
4.3940062535
 30
0.0
 10
3.0948484457
 20
4.3943204958
 30
0.0
 10
3.0949747863
 20
4.3946824714
 30
0.0
 10
3.0951172113
 20
4.3950919202
 30
0.0
 10
3.0952754286
 20
4.395548558
 30
0.0
 10
3.095449107
 20
4.3960520701
 30
0.0
 10
3.0957113077
 20
4.3968159056
 30
0.0
 10
3.0960752624
 20
4.3978849732
 30
0.0
 10
3.0965521175
 20
4.3993034232
 30
0.0
 10
3.0970809796
 20
4.4008995552
 30
0.0
 10
3.0976578109
 20
4.402669503
 30
0.0
 10
3.0982782301
 20
4.4046091637
 30
0.0
 10
3.0989376306
 20
4.4067142077
 30
0.0
 10
3.0996310809
 20
4.4089801758
 30
0.0
 10
3.1003535095
 20
4.4114024428
 30
0.0
 10
3.1010995981
 20
4.4139763054
 30
0.0
 10
3.1021435789
 20
4.4176924399
 30
0.0
 10
3.1034717555
 20
4.422678999
 30
0.0
 10
3.1050350436
 20
4.4290564762
 30
0.0
 10
3.1065567145
 20
4.4359188795
 30
0.0
 10
3.1079900727
 20
4.4432212155
 30
0.0
 10
3.1092894903
 20
4.4509146367
 30
0.0
 10
3.1104117626
 20
4.4589452851
 30
0.0
 10
3.1113178913
 20
4.4672533871
 30
0.0
 10
3.1117522145
 20
4.472885037
 30
0.0
 10
3.1119254658
 20
4.4757348559
 30
0.0
  0
LINE
  5
41D
100
AcDbEntity
  8
0
100
AcDbLine
 62
7
  6
CONTINUOUS
 10
7.5334898124
 20
4.725362273
 11
7.5332273227
 21
4.7254074621
  0
LINE
  5
41E
100
AcDbEntity
  8
0
100
AcDbLine
 62
7
  6
CONTINUOUS
 10
7.5332273227
 20
4.7254074621
 11
7.5310154688
 21
4.7257501643
  0
LINE
  5
41F
100
AcDbEntity
  8
0
100
AcDbLine
 62
7
  6
CONTINUOUS
 10
7.2221599746
 20
4.727113428
 11
7.2388193485
 21
4.7298047216
  0
SPLINE
  5
420
100
AcDbEntity
  8
0
100
AcDbSpline
 62
7
  6
CONTINUOUS
 70
0
 71
3
 72
30
 73
26
 74
0
 42
0.0000001
 43
0.0000001
 44
0.0000000001
 40
0.0
 40
0.0
 40
0.0
 40
0.0
 40
0.2084420827
 40
0.307167051
 40
0.4013776158
 40
0.4904729394
 40
0.5738732753
 40
0.6510452125
 40
0.7214954266
 40
0.7847694761
 40
0.8404648934
 40
0.8882257859
 40
0.9090337455
 40
0.9277484964
 40
0.9443425784
 40
0.9587892228
 40
0.9710670777
 40
0.9811622698
 40
0.98906448
 40
0.9921929124
 40
0.9947757292
 40
0.9968185948
 40
0.998334039
 40
0.9993553961
 40
1.0
 40
1.0
 40
1.0
 40
1.0
 10
7.3781754658
 20
4.7415009671
 30
0.0
 10
7.3789234058
 20
4.7415048394
 30
0.0
 10
7.3800255866
 20
4.7415124645
 30
0.0
 10
7.3814657731
 20
4.7415268972
 30
0.0
 10
7.3824777058
 20
4.7415392925
 30
0.0
 10
7.3834346218
 20
4.7415533665
 30
0.0
 10
7.3843303652
 20
4.7415690279
 30
0.0
 10
7.3851591646
 20
4.7415861676
 30
0.0
 10
7.3859156966
 20
4.7416046652
 30
0.0
 10
7.3865951058
 20
4.7416243867
 30
0.0
 10
7.3871930239
 20
4.7416451892
 30
0.0
 10
7.3876385287
 20
4.7416640296
 30
0.0
 10
7.3879513284
 20
4.7416798663
 30
0.0
 10
7.3881523641
 20
4.7416913755
 30
0.0
 10
7.3883305224
 20
4.7417030379
 30
0.0
 10
7.3884855172
 20
4.7417148296
 30
0.0
 10
7.3886171095
 20
4.7417267057
 30
0.0
 10
7.3887250949
 20
4.7417386346
 30
0.0
 10
7.3888001899
 20
4.7417491746
 30
0.0
 10
7.3888482453
 20
4.7417579924
 30
0.0
 10
7.3888754009
 20
4.7417640968
 30
0.0
 10
7.3888966275
 20
4.7417700703
 30
0.0
 10
7.3889119447
 20
4.7417761875
 30
0.0
 10
7.3889218765
 20
4.7417818207
 30
0.0
 10
7.3889254658
 20
4.7417874177
 30
0.0
 10
7.3889254658
 20
4.7417897308
 30
0.0
  0
LINE
  5
421
100
AcDbEntity
  8
0
100
AcDbLine
 62
7
  6
CONTINUOUS
 10
7.4339254658
 20
4.7391070878
 11
7.4467580608
 21
4.7382481361
  0
SPLINE
  5
422
100
AcDbEntity
  8
0
100
AcDbSpline
 62
7
  6
CONTINUOUS
 70
0
 71
3
 72
28
 73
24
 74
0
 42
0.0000001
 43
0.0000001
 44
0.0000000001
 40
0.0
 40
0.0
 40
0.0
 40
0.0
 40
0.0006075553
 40
0.0016719453
 40
0.0054831272
 40
0.0116369297
 40
0.0201469793
 40
0.0310034768
 40
0.0441835206
 40
0.0596581574
 40
0.0773901811
 40
0.0973381392
 40
0.1194532183
 40
0.1699681263
 40
0.2284484186
 40
0.2943312346
 40
0.3669819483
 40
0.4457010355
 40
0.5297309242
 40
0.6182646031
 40
0.7104544399
 40
0.8054109208
 40
1.0
 40
1.0
 40
1.0
 40
1.0
 10
7.4069254658
 20
4.7412146843
 30
0.0
 10
7.4069254658
 20
4.7412116336
 30
0.0
 10
7.4069314539
 20
4.7412042334
 30
0.0
 10
7.4069555293
 20
4.7411918063
 30
0.0
 10
7.407009239
 20
4.7411754186
 30
0.0
 10
7.4070995177
 20
4.7411555696
 30
0.0
 10
7.4072258456
 20
4.7411330103
 30
0.0
 10
7.4073873338
 20
4.7411082552
 30
0.0
 10
7.4075839259
 20
4.7410813401
 30
0.0
 10
7.4078150414
 20
4.7410524166
 30
0.0
 10
7.4080801628
 20
4.7410215602
 30
0.0
 10
7.4083786281
 20
4.7409888649
 30
0.0
 10
7.4088409979
 20
4.7409407649
 30
0.0
 10
7.4094962728
 20
4.7408771768
 30
0.0
 10
7.4103708066
 20
4.7407978844
 30
0.0
 10
7.411356465
 20
4.7407134134
 30
0.0
 10
7.4124437387
 20
4.740624592
 30
0.0
 10
7.4136221472
 20
4.740532296
 30
0.0
 10
7.4148803458
 20
4.7404374221
 30
0.0
 10
7.4162062473
 20
4.7403408892
 30
0.0
 10
7.4175871031
 20
4.7402436289
 30
0.0
 10
7.419499472
 20
4.7401131655
 30
0.0
 10
7.4209503096
 20
4.7400187833
 30
0.0
 10
7.4219254658
 20
4.7399572981
 30
0.0
  0
LINE
  5
423
100
AcDbEntity
  8
0
100
AcDbLine
 62
7
  6
CONTINUOUS
 10
7.4692556323
 20
4.7355610951
 11
7.4731754658
 21
4.7353138945
  0
SPLINE
  5
424
100
AcDbEntity
  8
0
100
AcDbSpline
 62
7
  6
CONTINUOUS
 70
0
 71
3
 72
23
 73
19
 74
0
 42
0.0000001
 43
0.0000001
 44
0.0000000001
 40
0.0
 40
0.0
 40
0.0
 40
0.0
 40
0.0184084795
 40
0.0516135081
 40
0.1038396194
 40
0.1761840139
 40
0.2644748013
 40
0.3642344797
 40
0.4713293999
 40
0.5795902324
 40
0.682116942
 40
0.7744629636
 40
0.8530041613
 40
0.9136780368
 40
0.9556708341
 40
0.9816326811
 40
0.9952673129
 40
1.0
 40
1.0
 40
1.0
 40
1.0
 10
7.3117397333
 20
4.739631924
 30
0.0
 10
7.3119983194
 20
4.7396277816
 30
0.0
 10
7.3127235066
 20
4.7396283907
 30
0.0
 10
7.3141821429
 20
4.7396543601
 30
0.0
 10
7.3163977383
 20
4.7397220332
 30
0.0
 10
7.3193859347
 20
4.7398390226
 30
0.0
 10
7.3230407953
 20
4.7399970074
 30
0.0
 10
7.3271828552
 20
4.7401884158
 30
0.0
 10
7.3316044715
 20
4.7404076247
 30
0.0
 10
7.3360637539
 20
4.7406510868
 30
0.0
 10
7.3403151827
 20
4.7408999692
 30
0.0
 10
7.3441491106
 20
4.7411358335
 30
0.0
 10
7.3473955408
 20
4.7413454547
 30
0.0
 10
7.3499350585
 20
4.7415242463
 30
0.0
 10
7.3517365116
 20
4.7416671497
 30
0.0
 10
7.3528781526
 20
4.741770254
 30
0.0
 10
7.3534975256
 20
4.7418353233
 30
0.0
 10
7.3537537891
 20
4.7418657761
 30
0.0
 10
7.3538196465
 20
4.7418749202
 30
0.0
  0
LINE
  5
425
100
AcDbEntity
  8
0
100
AcDbLine
 62
7
  6
CONTINUOUS
 10
7.453856745
 20
4.7372923695
 11
7.4549277044
 21
4.7371681057
  0
LINE
  5
426
100
AcDbEntity
  8
0
100
AcDbLine
 62
7
  6
CONTINUOUS
 10
7.3538254658
 20
4.741375584
 11
7.3527984677
 21
4.7412645116
  0
SPLINE
  5
427
100
AcDbEntity
  8
0
100
AcDbSpline
 62
7
  6
CONTINUOUS
 70
0
 71
3
 72
22
 73
18
 74
0
 42
0.0000001
 43
0.0000001
 44
0.0000000001
 40
0.0
 40
0.0
 40
0.0
 40
0.0
 40
0.0240850502
 40
0.0592965512
 40
0.107149412
 40
0.1677389457
 40
0.239071144
 40
0.3189185929
 40
0.4053583803
 40
0.4959662604
 40
0.6746918042
 40
0.7562158632
 40
0.8294949063
 40
0.8920329235
 40
0.9411163984
 40
0.9765020041
 40
1.0
 40
1.0
 40
1.0
 40
1.0
 10
7.3527984677
 20
4.7412645116
 30
0.0
 10
7.3524743183
 20
4.7412335158
 30
0.0
 10
7.3516757647
 20
4.7411625437
 30
0.0
 10
7.3502316876
 20
4.7410473398
 30
0.0
 10
7.3482945488
 20
4.7409071662
 30
0.0
 10
7.3458693821
 20
4.7407455583
 30
0.0
 10
7.3430119997
 20
4.7405646332
 30
0.0
 10
7.3398053446
 20
4.7403693135
 30
0.0
 10
7.3363380501
 20
4.7401667826
 30
0.0
 10
7.3315353639
 20
4.7399009971
 30
0.0
 10
7.3267975013
 20
4.7396675977
 30
0.0
 10
7.3222928638
 20
4.7394630239
 30
0.0
 10
7.3193571242
 20
4.7393371298
 30
0.0
 10
7.3168592282
 20
4.73923836
 30
0.0
 10
7.3148727712
 20
4.7391725701
 30
0.0
 10
7.3134134643
 20
4.739137549
 30
0.0
 10
7.3126173883
 20
4.7391279304
 30
0.0
 10
7.3122996982
 20
4.7391271886
 30
0.0
  0
LINE
  5
428
100
AcDbEntity
  8
0
100
AcDbLine
 62
7
  6
CONTINUOUS
 10
7.3122996982
 20
4.7391271886
 11
7.3113254658
 21
4.7391447511
  0
SPLINE
  5
429
100
AcDbEntity
  8
0
100
AcDbSpline
 62
7
  6
CONTINUOUS
 70
0
 71
3
 72
19
 73
15
 74
0
 42
0.0000001
 43
0.0000001
 44
0.0000000001
 40
0.0
 40
0.0
 40
0.0
 40
0.0
 40
0.0388309526
 40
0.148086393
 40
0.2237842801
 40
0.3098413382
 40
0.4030763542
 40
0.4999999002
 40
0.5969234571
 40
0.6901585748
 40
0.7762156833
 40
0.8519135592
 40
0.9611690399
 40
1.0
 40
1.0
 40
1.0
 40
1.0
 10
3.7401496206
 20
2.9689456182
 30
0.0
 10
3.7395919133
 20
2.9736918843
 30
0.0
 10
3.7375393114
 20
2.9918014001
 30
0.0
 10
3.734874134
 20
3.0192166847
 30
0.0
 10
3.7323434992
 20
3.0524756698
 30
0.0
 10
3.730554891
 20
3.0838088871
 30
0.0
 10
3.7293509287
 20
3.1177847369
 30
0.0
 10
3.7289261544
 20
3.1531172005
 30
0.0
 10
3.7293509274
 20
3.1884496766
 30
0.0
 10
3.7305548889
 20
3.2224255465
 30
0.0
 10
3.7323434978
 20
3.2537587812
 30
0.0
 10
3.7348741329
 20
3.2870177761
 30
0.0
 10
3.7375393106
 20
3.3144330652
 30
0.0
 10
3.7395919132
 20
3.3325425869
 30
0.0
 10
3.7401496206
 20
3.3372888538
 30
0.0
  0
LINE
  5
42A
100
AcDbEntity
  8
0
100
AcDbLine
 62
7
  6
CONTINUOUS
 10
7.3889254658
 20
4.7412895193
 11
7.3887063034
 21
4.7412365741
  0
LINE
  5
42B
100
AcDbEntity
  8
0
100
AcDbLine
 62
7
  6
CONTINUOUS
 10
7.3887063034
 20
4.7412365741
 11
7.3787869919
 21
4.7410040356
  0
LINE
  5
42C
100
AcDbEntity
  8
0
100
AcDbLine
 62
7
  6
CONTINUOUS
 10
7.3787869919
 20
4.7410040356
 11
7.3781754658
 21
4.7410005691
  0
LINE
  5
42D
100
AcDbEntity
  8
0
100
AcDbLine
 62
7
  6
CONTINUOUS
 10
7.4467580608
 20
4.7377456268
 11
7.4339254658
 21
4.7386051377
  0
SPLINE
  5
42E
100
AcDbEntity
  8
0
100
AcDbSpline
 62
7
  6
CONTINUOUS
 70
0
 71
3
 72
28
 73
24
 74
0
 42
0.0000001
 43
0.0000001
 44
0.0000000001
 40
0.0
 40
0.0
 40
0.0
 40
0.0
 40
0.19458672
 40
0.2895421687
 40
0.3817307036
 40
0.4702633433
 40
0.5542928926
 40
0.6330124512
 40
0.7056643256
 40
0.77154863
 40
0.8300304358
 40
0.8805460478
 40
0.9026612336
 40
0.9226092174
 40
0.940341257
 40
0.9558158914
 40
0.9689959124
 40
0.9798523782
 40
0.9883624272
 40
0.994516272
 40
0.998327619
 40
0.9993921613
 40
1.0
 40
1.0
 40
1.0
 40
1.0
 10
7.4219254658
 20
4.7394559004
 30
0.0
 10
7.4209503187
 20
4.739517425
 30
0.0
 10
7.4194994943
 20
4.7396118674
 30
0.0
 10
7.4175871444
 20
4.739742414
 30
0.0
 10
7.4162063025
 20
4.7398397364
 30
0.0
 10
7.4148804117
 20
4.7399363309
 30
0.0
 10
7.4136222156
 20
4.7400312658
 30
0.0
 10
7.4124437989
 20
4.7401236221
 30
0.0
 10
7.4113565084
 20
4.7402125022
 30
0.0
 10
7.4103708284
 20
4.7402970296
 30
0.0
 10
7.409496276
 20
4.740376375
 30
0.0
 10
7.40884099
 20
4.7404400054
 30
0.0
 10
7.4083786167
 20
4.7404881369
 30
0.0
 10
7.4080801514
 20
4.7405208535
 30
0.0
 10
7.4078150307
 20
4.7405517298
 30
0.0
 10
7.4075839163
 20
4.7405806721
 30
0.0
 10
7.4073873257
 20
4.7406076043
 30
0.0
 10
7.4072258393
 20
4.7406323755
 30
0.0
 10
7.4070995134
 20
4.740654949
 30
0.0
 10
7.4070092355
 20
4.7406748114
 30
0.0
 10
7.4069555273
 20
4.7406912084
 30
0.0
 10
7.4069314516
 20
4.740703645
 30
0.0
 10
7.4069254658
 20
4.740711049
 30
0.0
 10
7.4069254658
 20
4.7407141012
 30
0.0
  0
LINE
  5
42F
100
AcDbEntity
  8
0
100
AcDbLine
 62
7
  6
CONTINUOUS
 10
7.4731754658
 20
4.7348094654
 11
7.4727090546
 21
4.7347811834
  0
LINE
  5
430
100
AcDbEntity
  8
0
100
AcDbLine
 62
7
  6
CONTINUOUS
 10
7.4727090546
 20
4.7347811834
 11
7.4692556713
 21
4.7350568245
  0
LINE
  5
431
100
AcDbEntity
  8
0
100
AcDbLine
 62
7
  6
CONTINUOUS
 10
7.5310154688
 20
4.7252393746
 11
7.5109836787
 21
4.728659813
  0
LINE
  5
432
100
AcDbEntity
  8
0
100
AcDbLine
 62
7
  6
CONTINUOUS
 10
7.5109836787
 20
4.728659813
 11
7.5100740052
 21
4.7288203301
  0
LINE
  5
433
100
AcDbEntity
  8
0
100
AcDbLine
 62
7
  6
CONTINUOUS
 10
7.5100740052
 20
4.7288203301
 11
7.5082478599
 21
4.729143355
  0
LINE
  5
434
100
AcDbEntity
  8
0
100
AcDbLine
 62
7
  6
CONTINUOUS
 10
7.494316406
 20
4.7314808041
 11
7.491316406
 21
4.7320637173
  0
LINE
  5
435
100
AcDbEntity
  8
0
100
AcDbLine
 62
7
  6
CONTINUOUS
 10
7.2388193485
 20
4.729296648
 11
7.2221599746
 21
4.7266035549
  0
SPLINE
  5
436
100
AcDbEntity
  8
0
100
AcDbSpline
 62
7
  6
CONTINUOUS
 70
0
 71
3
 72
55
 73
51
 74
0
 42
0.0000001
 43
0.0000001
 44
0.0000000001
 40
0.0
 40
0.0
 40
0.0
 40
0.0
 40
0.0155464076
 40
0.0311752776
 40
0.0469059098
 40
0.0627676419
 40
0.0787964462
 40
0.0950379023
 40
0.1115458967
 40
0.1283726142
 40
0.1369221976
 40
0.1455553753
 40
0.1542608732
 40
0.1630187719
 40
0.1718014801
 40
0.180577528
 40
0.1893164284
 40
0.1979935848
 40
0.2065927943
 40
0.2151061553
 40
0.2318626578
 40
0.2483105074
 40
0.2645033543
 40
0.2804937466
 40
0.296325513
 40
0.312033073
 40
0.3276425961
 40
0.3586378358
 40
0.3894349252
 40
0.4201024947
 40
0.4506840087
 40
0.4812078964
 40
0.5116931078
 40
0.5421521119
 40
0.5725938371
 40
0.6030244185
 40
0.6334482337
 40
0.6638688402
 40
0.6942892646
 40
0.7247124038
 40
0.7551418373
 40
0.7855816243
 40
0.8160378146
 40
0.8312748711
 40
0.8465196139
 40
0.8770370554
 40
0.9076090947
 40
0.9382624844
 40
0.9690380445
 40
1.0
 40
1.0
 40
1.0
 40
1.0
 10
7.1473290648
 20
3.5551275454
 30
0.0
 10
7.1461804238
 20
3.5546384956
 30
0.0
 10
7.1438982952
 20
3.5536067235
 30
0.0
 10
7.1405470999
 20
3.5518831948
 30
0.0
 10
7.1372790463
 20
3.5499550685
 30
0.0
 10
7.1341209818
 20
3.5477926144
 30
0.0
 10
7.1311111464
 20
3.545360184
 30
0.0
 10
7.1283052029
 20
3.542617027
 30
0.0
 10
7.1257856766
 20
3.5395220468
 30
0.0
 10
7.1240325035
 20
3.5366348769
 30
0.0
 10
7.1229114982
 20
3.534141194
 30
0.0
 10
7.1222311645
 20
3.5321735223
 30
0.0
 10
7.1217388836
 20
3.5301330323
 30
0.0
 10
7.1214539496
 20
3.5280409506
 30
0.0
 10
7.1213889095
 20
3.5259247297
 30
0.0
 10
7.1215467727
 20
3.5238149775
 30
0.0
 10
7.1219203258
 20
3.5217414198
 30
0.0
 10
7.1224937572
 20
3.5197291992
 30
0.0
 10
7.1232459266
 20
3.5177965497
 30
0.0
 10
7.1244493542
 20
3.5153543816
 30
0.0
 10
7.1262830171
 20
3.5125349267
 30
0.0
 10
7.1288708278
 20
3.5095167583
 30
0.0
 10
7.1317251285
 20
3.506841992
 30
0.0
 10
7.1347698006
 20
3.5044691154
 30
0.0
 10
7.1379535334
 20
3.5023583031
 30
0.0
 10
7.141240973
 20
3.5004753407
 30
0.0
 10
7.1457178366
 20
3.4982354598
 30
0.0
 10
7.1514727784
 20
3.4958643062
 30
0.0
 10
7.1585369242
 20
3.4935617738
 30
0.0
 10
7.1656939251
 20
3.4916996576
 30
0.0
 10
7.1729113008
 20
3.4901975766
 30
0.0
 10
7.1801689445
 20
3.4889945015
 30
0.0
 10
7.1874535217
 20
3.4880437617
 30
0.0
 10
7.1947560723
 20
3.4873087903
 30
0.0
 10
7.2020704984
 20
3.4867617026
 30
0.0
 10
7.2093926008
 20
3.4863829052
 30
0.0
 10
7.2167192299
 20
3.4861566104
 30
0.0
 10
7.2240480569
 20
3.4860762686
 30
0.0
 10
7.2313770202
 20
3.4861366826
 30
0.0
 10
7.2387040845
 20
3.4863423787
 30
0.0
 10
7.2460269994
 20
3.486698878
 30
0.0
 10
7.2533426773
 20
3.4872216226
 30
0.0
 10
7.2594287573
 20
3.4878105034
 30
0.0
 10
7.2642882463
 20
3.4883877777
 30
0.0
 10
7.2691430564
 20
3.4890409887
 30
0.0
 10
7.2751968863
 20
3.4900125586
 30
0.0
 10
7.2824208991
 20
3.4914693684
 30
0.0
 10
7.2895880066
 20
3.493276814
 30
0.0
 10
7.2966674773
 20
3.4955117929
 30
0.0
 10
7.3012795485
 20
3.4973493817
 30
0.0
 10
7.3035437693
 20
3.498376573
 30
0.0
  0
SPLINE
  5
437
100
AcDbEntity
  8
0
100
AcDbSpline
 62
7
  6
CONTINUOUS
 70
0
 71
3
 72
55
 73
51
 74
0
 42
0.0000001
 43
0.0000001
 44
0.0000000001
 40
0.0
 40
0.0
 40
0.0
 40
0.0
 40
0.0155466724
 40
0.0311754894
 40
0.0469056687
 40
0.0627664426
 40
0.0787936481
 40
0.0950326964
 40
0.1115372798
 40
0.1283594013
 40
0.1369062165
 40
0.1455363269
 40
0.1542385009
 40
0.1629928909
 40
0.1717720028
 40
0.180544478
 40
0.1892799366
 40
0.1979538695
 40
0.2065501334
 40
0.2150608574
 40
0.2318130236
 40
0.2482576887
 40
0.2644483126
 40
0.2804372529
 40
0.296268177
 40
0.311975376
 40
0.3275849187
 40
0.3585810511
 40
0.3893798218
 40
0.4200495895
 40
0.4506336452
 40
0.4811603051
 40
0.5116484442
 40
0.54211048
 40
0.5725553061
 40
0.6029890331
 40
0.6334160205
 40
0.6638398119
 40
0.6942634221
 40
0.724689736
 40
0.7551223197
 40
0.7855652151
 40
0.8160244486
 40
0.8312629919
 40
0.8465091917
 40
0.877029431
 40
0.9076040498
 40
0.9382596941
 40
0.9690370208
 40
1.0
 40
1.0
 40
1.0
 40
1.0
 10
7.4442892675
 20
3.5551275454
 30
0.0
 10
7.4431400452
 20
3.5546385
 30
0.0
 10
7.4408567661
 20
3.5536067401
 30
0.0
 10
7.437503853
 20
3.551883218
 30
0.0
 10
7.4342341258
 20
3.549955101
 30
0.0
 10
7.4310744454
 20
3.54779266
 30
0.0
 10
7.4280630706
 20
3.5453602474
 30
0.0
 10
7.42525569
 20
3.5426171133
 30
0.0
 10
7.4227348666
 20
3.5395221589
 30
0.0
 10
7.4209807472
 20
3.536634952
 30
0.0
 10
7.4198591411
 20
3.5341412275
 30
0.0
 10
7.4191784526
 20
3.5321735524
 30
0.0
 10
7.4186859136
 20
3.5301330556
 30
0.0
 10
7.4184008296
 20
3.5280409639
 30
0.0
 10
7.4183357549
 20
3.5259247312
 30
0.0
 10
7.4184937007
 20
3.5238149678
 30
0.0
 10
7.4188674492
 20
3.521741401
 30
0.0
 10
7.4194411799
 20
3.5197291748
 30
0.0
 10
7.4201937402
 20
3.5177965229
 30
0.0
 10
7.4213978112
 20
3.5153543145
 30
0.0
 10
7.4232324596
 20
3.5125348259
 30
0.0
 10
7.4258215997
 20
3.5095166826
 30
0.0
 10
7.4286773611
 20
3.5068419375
 30
0.0
 10
7.4317235901
 20
3.5044690771
 30
0.0
 10
7.4349089521
 20
3.5023582766
 30
0.0
 10
7.4381980753
 20
3.5004753224
 30
0.0
 10
7.4426772756
 20
3.4982354287
 30
0.0
 10
7.4484351972
 20
3.495864277
 30
0.0
 10
7.4555029504
 20
3.4935617588
 30
0.0
 10
7.4626636163
 20
3.4916996504
 30
0.0
 10
7.4698846945
 20
3.4901975733
 30
0.0
 10
7.4771460657
 20
3.4889945003
 30
0.0
 10
7.484434387
 20
3.4880437615
 30
0.0
 10
7.4917406929
 20
3.4873087906
 30
0.0
 10
7.4990588817
 20
3.486761703
 30
0.0
 10
7.5063847514
 20
3.4863829056
 30
0.0
 10
7.5137151507
 20
3.4861566106
 30
0.0
 10
7.5210477493
 20
3.4860762686
 30
0.0
 10
7.5283804843
 20
3.4861366823
 30
0.0
 10
7.5357113191
 20
3.486342378
 30
0.0
 10
7.5430380019
 20
3.4866988768
 30
0.0
 10
7.5503574433
 20
3.4872216206
 30
0.0
 10
7.5564466579
 20
3.4878105008
 30
0.0
 10
7.5613086517
 20
3.488387775
 30
0.0
 10
7.5661659538
 20
3.4890409845
 30
0.0
 10
7.5722228852
 20
3.4900125507
 30
0.0
 10
7.5794506048
 20
3.4914693556
 30
0.0
 10
7.5866213838
 20
3.4932767927
 30
0.0
 10
7.5937044721
 20
3.4955117567
 30
0.0
 10
7.5983189659
 20
3.4973493567
 30
0.0
 10
7.6005843893
 20
3.4983765639
 30
0.0
  0
LINE
  5
438
100
AcDbEntity
  8
0
100
AcDbLine
 62
7
  6
CONTINUOUS
 10
7.5325470529
 20
4.7250040453
 11
7.5334547811
 21
4.7248580004
  0
SPLINE
  5
439
100
AcDbEntity
  8
0
100
AcDbSpline
 62
7
  6
CONTINUOUS
 70
0
 71
3
 72
9
 73
5
 74
0
 42
0.0000001
 43
0.0000001
 44
0.0000000001
 40
0.0
 40
0.0
 40
0.0
 40
0.0
 40
0.3022491204
 40
1.0
 40
1.0
 40
1.0
 40
1.0
 10
7.5334547811
 20
4.7248580004
 30
0.0
 10
7.533458317
 20
4.7248573519
 30
0.0
 10
7.533470011
 20
4.7248551821
 30
0.0
 10
7.533481693
 20
4.7248529392
 30
0.0
 10
7.5334898124
 20
4.724851222
 30
0.0
  0
LINE
  5
43A
100
AcDbEntity
  8
0
100
AcDbLine
 62
7
  6
CONTINUOUS
 10
7.491316406
 20
4.7325699551
 11
7.494316406
 21
4.7319874275
  0
LINE
  5
43B
100
AcDbEntity
  8
0
100
AcDbLine
 62
7
  6
CONTINUOUS
 10
7.5082478599
 20
4.7296515307
 11
7.5100739815
 21
4.7293287252
  0
LINE
  5
43C
100
AcDbEntity
  8
0
100
AcDbLine
 62
7
  6
CONTINUOUS
 10
7.5100739815
 20
4.7293287252
 11
7.5109836441
 21
4.7291683171
  0
LINE
  5
43D
100
AcDbEntity
  8
0
100
AcDbLine
 62
7
  6
CONTINUOUS
 10
7.5109836441
 20
4.7291683171
 11
7.5310154688
 21
4.7257501643
  0
SPLINE
  5
43E
100
AcDbEntity
  8
0
100
AcDbSpline
 62
7
  6
CONTINUOUS
 70
0
 71
3
 72
23
 73
19
 74
0
 42
0.0000001
 43
0.0000001
 44
0.0000000001
 40
0.0
 40
0.0
 40
0.0
 40
0.0
 40
0.0631196287
 40
0.1260734351
 40
0.1888387157
 40
0.2514044383
 40
0.3137722235
 40
0.3759627207
 40
0.4380180779
 40
0.4999999892
 40
0.5619818916
 40
0.6240372397
 40
0.6862277592
 40
0.7485955656
 40
0.8111612974
 40
0.873926582
 40
0.9368803819
 40
1.0
 40
1.0
 40
1.0
 40
1.0
 10
7.4442892675
 20
3.5551275454
 30
0.0
 10
7.4473879269
 20
3.5564461634
 30
0.0
 10
7.4536088315
 20
3.5590065156
 30
0.0
 10
7.4630380899
 20
3.562560309
 30
0.0
 10
7.4725646388
 20
3.5657554953
 30
0.0
 10
7.4821938972
 20
3.568518831
 30
0.0
 10
7.4919243669
 20
3.5707746162
 30
0.0
 10
7.5017450505
 20
3.5724501757
 30
0.0
 10
7.5116343022
 20
3.5734837299
 30
0.0
 10
7.5215607809
 20
3.5738332389
 30
0.0
 10
7.5314872592
 20
3.5734837302
 30
0.0
 10
7.5413765112
 20
3.5724501765
 30
0.0
 10
7.5511971966
 20
3.5707746169
 30
0.0
 10
7.560927669
 20
3.5685188308
 30
0.0
 10
7.5705569292
 20
3.5657554947
 30
0.0
 10
7.5800834787
 20
3.5625603089
 30
0.0
 10
7.5895127358
 20
3.559006514
 30
0.0
 10
7.5957336399
 20
3.5564461632
 30
0.0
 10
7.5988322989
 20
3.5551275454
 30
0.0
  0
SPLINE
  5
43F
100
AcDbEntity
  8
0
100
AcDbSpline
 62
7
  6
CONTINUOUS
 70
0
 71
3
 72
23
 73
19
 74
0
 42
0.0000001
 43
0.0000001
 44
0.0000000001
 40
0.0
 40
0.0
 40
0.0
 40
0.0
 40
0.063122123
 40
0.1260777562
 40
0.1888441178
 40
0.2514101189
 40
0.313777393
 40
0.3759666608
 40
0.4380202082
 40
0.5000000108
 40
0.5619798222
 40
0.6240333786
 40
0.6862226242
 40
0.7485898771
 40
0.8111558692
 40
0.8739222267
 40
0.9368778665
 40
1.0
 40
1.0
 40
1.0
 40
1.0
 10
7.1473290648
 20
3.5551275454
 30
0.0
 10
7.1504261143
 20
3.5564461569
 30
0.0
 10
7.1566437819
 20
3.5590064943
 30
0.0
 10
7.1660681788
 20
3.5625602884
 30
0.0
 10
7.1755898204
 20
3.5657554753
 30
0.0
 10
7.1852141241
 20
3.5685188144
 30
0.0
 10
7.1949395941
 20
3.5707746053
 30
0.0
 10
7.2047552382
 20
3.5724501706
 30
0.0
 10
7.2146394207
 20
3.5734837289
 30
0.0
 10
7.2245608149
 20
3.5738332393
 30
0.0
 10
7.2344822095
 20
3.5734837286
 30
0.0
 10
7.2443663918
 20
3.5724501698
 30
0.0
 10
7.254182034
 20
3.5707746047
 30
0.0
 10
7.2639075013
 20
3.5685188146
 30
0.0
 10
7.2735318032
 20
3.5657554759
 30
0.0
 10
7.2830534443
 20
3.5625602886
 30
0.0
 10
7.2924778425
 20
3.5590064958
 30
0.0
 10
7.2986955105
 20
3.5564461572
 30
0.0
 10
7.3017925605
 20
3.5551275454
 30
0.0
  0
SPLINE
  5
440
100
AcDbEntity
  8
0
100
AcDbSpline
 62
7
  6
CONTINUOUS
 70
0
 71
3
 72
14
 73
10
 74
0
 42
0.0000001
 43
0.0000001
 44
0.0000000001
 40
0.0
 40
0.0
 40
0.0
 40
0.0
 40
0.0849836594
 40
0.1672511102
 40
0.2779315421
 40
0.417579076
 40
0.5856904031
 40
0.7806765996
 40
1.0
 40
1.0
 40
1.0
 40
1.0
 10
3.6518330513
 20
4.58541447
 30
0.0
 10
3.6514278874
 20
4.584572935
 30
0.0
 10
3.6506643056
 20
4.5829003974
 30
0.0
 10
3.6494782917
 20
4.5800852137
 30
0.0
 10
3.6481533474
 20
4.5766779028
 30
0.0
 10
3.6466146642
 20
4.5723434587
 30
0.0
 10
3.6449286074
 20
4.5670807157
 30
0.0
 10
3.6431720644
 20
4.5609243789
 30
0.0
 10
3.6420674549
 20
4.5565059925
 30
0.0
 10
3.6415203387
 20
4.5541584888
 30
0.0
  0
SPLINE
  5
441
100
AcDbEntity
  8
0
100
AcDbSpline
 62
7
  6
CONTINUOUS
 70
0
 71
3
 72
11
 73
7
 74
0
 42
0.0000001
 43
0.0000001
 44
0.0000000001
 40
0.0
 40
0.0
 40
0.0
 40
0.0
 40
0.2254579634
 40
0.4702663897
 40
0.7300481365
 40
1.0
 40
1.0
 40
1.0
 40
1.0
 10
3.6415203387
 20
4.5541584888
 30
0.0
 10
3.6406555479
 20
4.5504479432
 30
0.0
 10
3.6389956234
 20
4.5426739913
 30
0.0
 10
3.6369139194
 20
4.5305099841
 30
0.0
 10
3.6353000519
 20
4.5175160955
 30
0.0
 10
3.6346419166
 20
4.5085836575
 30
0.0
 10
3.6344254658
 20
4.5040269097
 30
0.0
  0
SPLINE
  5
442
100
AcDbEntity
  8
0
100
AcDbSpline
 62
7
  6
CONTINUOUS
 70
0
 71
3
 72
11
 73
7
 74
0
 42
0.0000001
 43
0.0000001
 44
0.0000000001
 40
0.0
 40
0.0
 40
0.0
 40
0.0
 40
0.2699518589
 40
0.5297336063
 40
0.7745420377
 40
1.0
 40
1.0
 40
1.0
 40
1.0
 10
3.6344254658
 20
4.4792075624
 30
0.0
 10
3.6346419166
 20
4.4746508147
 30
0.0
 10
3.6353000519
 20
4.4657183767
 30
0.0
 10
3.6369139194
 20
4.452724488
 30
0.0
 10
3.6389956234
 20
4.4405604808
 30
0.0
 10
3.6406555479
 20
4.4327865288
 30
0.0
 10
3.6415203387
 20
4.4290759833
 30
0.0
  0
SPLINE
  5
443
100
AcDbEntity
  8
0
100
AcDbSpline
 62
7
  6
CONTINUOUS
 70
0
 71
3
 72
14
 73
10
 74
0
 42
0.0000001
 43
0.0000001
 44
0.0000000001
 40
0.0
 40
0.0
 40
0.0
 40
0.0
 40
0.2193234181
 40
0.4143096235
 40
0.5824209507
 40
0.7220684794
 40
0.8327489154
 40
0.9150163567
 40
1.0
 40
1.0
 40
1.0
 40
1.0
 10
3.6415203387
 20
4.4290759833
 30
0.0
 10
3.6420674549
 20
4.4267284794
 30
0.0
 10
3.6431720645
 20
4.4223100927
 30
0.0
 10
3.6449286076
 20
4.4161537556
 30
0.0
 10
3.6466146645
 20
4.4108910126
 30
0.0
 10
3.6481533477
 20
4.4065565685
 30
0.0
 10
3.6494782919
 20
4.4031492577
 30
0.0
 10
3.6506643057
 20
4.4003340742
 30
0.0
 10
3.6514278874
 20
4.3986615369
 30
0.0
 10
3.6518330513
 20
4.397820002
 30
0.0
  0
SPLINE
  5
444
100
AcDbEntity
  8
0
100
AcDbSpline
 62
7
  6
CONTINUOUS
 70
0
 71
3
 72
55
 73
51
 74
0
 42
0.0000001
 43
0.0000001
 44
0.0000000001
 40
0.0
 40
0.0
 40
0.0
 40
0.0
 40
0.0155465401
 40
0.0311753835
 40
0.046905789
 40
0.0627670418
 40
0.0787950461
 40
0.0950352976
 40
0.1115415855
 40
0.1283660037
 40
0.1369142022
 40
0.1455458454
 40
0.1542496805
 40
0.1630058238
 40
0.1717867328
 40
0.1805609933
 40
0.1892981718
 40
0.1979737154
 40
0.2065714511
 40
0.2150834927
 40
0.2318378255
 40
0.2482840817
 40
0.2644758162
 40
0.2804654818
 40
0.2962968267
 40
0.3120042059
 40
0.3276137387
 40
0.3586094248
 40
0.3894073553
 40
0.4200760245
 40
0.4506588101
 40
0.4811840848
 40
0.5116707609
 40
0.5421312819
 40
0.5725745585
 40
0.6030067137
 40
0.633432116
 40
0.663854316
 40
0.6942763343
 40
0.7247010619
 40
0.7551320715
 40
0.7855734137
 40
0.8160311266
 40
0.831268927
 40
0.8465143988
 40
0.8770332401
 40
0.9076065701
 40
0.9382610879
 40
0.969037532
 40
1.0
 40
1.0
 40
1.0
 40
1.0
 10
3.1474238264
 20
3.5551275454
 30
0.0
 10
3.1462748946
 20
3.5546384978
 30
0.0
 10
3.1439921904
 20
3.5536067317
 30
0.0
 10
3.1406401357
 20
3.5518832062
 30
0.0
 10
3.1373712449
 20
3.5499550845
 30
0.0
 10
3.134212372
 20
3.5477926368
 30
0.0
 10
3.1312017664
 20
3.5453602151
 30
0.0
 10
3.1283951041
 20
3.5426170693
 30
0.0
 10
3.1258749289
 20
3.5395221018
 30
0.0
 10
3.1241212825
 20
3.5366349132
 30
0.0
 10
3.1229999769
 20
3.5341412092
 30
0.0
 10
3.1223194658
 20
3.5321735357
 30
0.0
 10
3.121827056
 20
3.5301330421
 30
0.0
 10
3.1215420471
 20
3.5280409553
 30
0.0
 10
3.1214769899
 20
3.5259247284
 30
0.0
 10
3.1216348947
 20
3.5238149705
 30
0.0
 10
3.1220085457
 20
3.5217414082
 30
0.0
 10
3.122582127
 20
3.5197291848
 30
0.0
 10
3.1233344922
 20
3.5177965341
 30
0.0
 10
3.1245382419
 20
3.5153543459
 30
0.0
 10
3.126372398
 20
3.5125348742
 30
0.0
 10
3.128960874
 20
3.5095167185
 30
0.0
 10
3.1318159057
 20
3.5068419629
 30
0.0
 10
3.1348613568
 20
3.5044690945
 30
0.0
 10
3.1380459047
 20
3.5023582882
 30
0.0
 10
3.1413341867
 20
3.50047533
 30
0.0
 10
3.1458122194
 20
3.4982354428
 30
0.0
 10
3.151568652
 20
3.4958642903
 30
0.0
 10
3.1586346026
 20
3.4935617651
 30
0.0
 10
3.1657934371
 20
3.491699653
 30
0.0
 10
3.1730126651
 20
3.4901975741
 30
0.0
 10
3.1802721737
 20
3.4889945001
 30
0.0
 10
3.187558624
 20
3.488043761
 30
0.0
 10
3.1948630533
 20
3.48730879
 30
0.0
 10
3.2021793618
 20
3.4867617025
 30
0.0
 10
3.2095033489
 20
3.4863829052
 30
0.0
 10
3.2168318641
 20
3.4861566104
 30
0.0
 10
3.2241625781
 20
3.4860762686
 30
0.0
 10
3.2314934283
 20
3.4861366826
 30
0.0
 10
3.2388223789
 20
3.4863423787
 30
0.0
 10
3.2461471788
 20
3.4866988779
 30
0.0
 10
3.2534647394
 20
3.4872216223
 30
0.0
 10
3.2595523877
 20
3.487810503
 30
0.0
 10
3.2644131298
 20
3.4883877774
 30
0.0
 10
3.2692691865
 20
3.489040988
 30
0.0
 10
3.275324568
 20
3.4900125563
 30
0.0
 10
3.2825504352
 20
3.4914693642
 30
0.0
 10
3.2897193794
 20
3.4932768061
 30
0.0
 10
3.2968006598
 20
3.4955117783
 30
0.0
 10
3.3014139428
 20
3.4973493734
 30
0.0
 10
3.3036787651
 20
3.498376573
 30
0.0
  0
SPLINE
  5
445
100
AcDbEntity
  8
0
100
AcDbSpline
 62
7
  6
CONTINUOUS
 70
0
 71
3
 72
46
 73
42
 74
0
 42
0.0000001
 43
0.0000001
 44
0.0000000001
 40
0.0
 40
0.0
 40
0.0
 40
0.0
 40
0.1010927953
 40
0.1999564887
 40
0.2958731903
 40
0.3881634859
 40
0.4761889097
 40
0.5593400334
 40
0.6370270689
 40
0.7086712554
 40
0.7737000126
 40
0.8035566783
 40
0.8315480597
 40
0.8576058336
 40
0.8816629552
 40
0.9036550181
 40
0.9235201476
 40
0.9412001993
 40
0.9566415671
 40
0.9635071415
 40
0.9697951948
 40
0.9755007429
 40
0.9806188114
 40
0.9851450242
 40
0.9890758482
 40
0.9924078105
 40
0.993848171
 40
0.9951377306
 40
0.9962762664
 40
0.9972635555
 40
0.9980993748
 40
0.9987835012
 40
0.99906861
 40
0.9993157133
 40
0.9995248009
 40
0.9996958725
 40
0.9998289283
 40
0.9999239681
 40
0.999957232
 40
0.999980992
 40
1.0
 40
1.0
 40
1.0
 40
1.0
 10
3.1119254658
 20
4.5074996162
 30
0.0
 10
3.1117522145
 20
4.510349435
 30
0.0
 10
3.1113178913
 20
4.5159810849
 30
0.0
 10
3.1104117626
 20
4.5242891868
 30
0.0
 10
3.1092894903
 20
4.5323198353
 30
0.0
 10
3.1079900728
 20
4.5400132563
 30
0.0
 10
3.1065567144
 20
4.5473155932
 30
0.0
 10
3.105035044
 20
4.5541779936
 30
0.0
 10
3.103471754
 20
4.5605554808
 30
0.0
 10
3.1019134962
 20
4.5664058562
 30
0.0
 10
3.1006229167
 20
4.5709287167
 30
0.0
 10
3.0996310813
 20
4.5742542955
 30
0.0
 10
3.0989376305
 20
4.5765202647
 30
0.0
 10
3.0982782301
 20
4.5786253085
 30
0.0
 10
3.0976578109
 20
4.5805649692
 30
0.0
 10
3.0970809796
 20
4.5823349171
 30
0.0
 10
3.0965521175
 20
4.5839310489
 30
0.0
 10
3.0960752624
 20
4.5853494988
 30
0.0
 10
3.0957113077
 20
4.5864185664
 30
0.0
 10
3.0954491071
 20
4.5871824018
 30
0.0
 10
3.0952754287
 20
4.5876859139
 30
0.0
 10
3.0951172114
 20
4.5881425516
 30
0.0
 10
3.0949747864
 20
4.5885520004
 30
0.0
 10
3.0948484458
 20
4.5889139761
 30
0.0
 10
3.0947384208
 20
4.5892282184
 30
0.0
 10
3.0946570005
 20
4.5894601371
 30
0.0
 10
3.0946002116
 20
4.5896216448
 30
0.0
 10
3.0945639411
 20
4.589724702
 30
0.0
 10
3.094531893
 20
4.5898156803
 30
0.0
 10
3.0945040818
 20
4.5898945646
 30
0.0
 10
3.0944805222
 20
4.5899613401
 30
0.0
 10
3.0944635509
 20
4.5900094108
 30
0.0
 10
3.0944521128
 20
4.5900418028
 30
0.0
 10
3.0944451396
 20
4.5900615429
 30
0.0
 10
3.0944392452
 20
4.5900782501
 30
0.0
 10
3.0944344057
 20
4.590091909
 30
0.0
 10
3.0944306851
 20
4.5901025599
 30
0.0
 10
3.0944281579
 20
4.5901094765
 30
0.0
 10
3.0944268209
 20
4.5901135845
 30
0.0
 10
3.0944259427
 20
4.5901155067
 30
0.0
 10
3.0944258558
 20
4.5901168438
 30
0.0
 10
3.0944254771
 20
4.5901172244
 30
0.0
  0
SPLINE
  5
446
100
AcDbEntity
  8
0
100
AcDbSpline
 62
7
  6
CONTINUOUS
 70
0
 71
3
 72
55
 73
51
 74
0
 42
0.0000001
 43
0.0000001
 44
0.0000000001
 40
0.0
 40
0.0
 40
0.0
 40
0.0
 40
0.0155465401
 40
0.0311753834
 40
0.046905789
 40
0.0627670416
 40
0.0787950459
 40
0.0950352973
 40
0.1115415849
 40
0.1283660029
 40
0.1369142013
 40
0.1455458444
 40
0.1542496793
 40
0.1630058226
 40
0.1717867316
 40
0.1805609921
 40
0.1892981707
 40
0.1979737145
 40
0.2065714504
 40
0.2150834922
 40
0.2318378254
 40
0.2482840819
 40
0.2644758167
 40
0.2804654826
 40
0.2962968277
 40
0.3120042071
 40
0.32761374
 40
0.3586094264
 40
0.389407357
 40
0.4200760263
 40
0.450658812
 40
0.4811840867
 40
0.5116707629
 40
0.5421312838
 40
0.5725745604
 40
0.6030067156
 40
0.633432118
 40
0.6638543179
 40
0.6942763362
 40
0.7247010638
 40
0.7551320734
 40
0.7855734155
 40
0.8160311284
 40
0.8312689287
 40
0.8465144005
 40
0.8770332417
 40
0.9076065714
 40
0.938261089
 40
0.9690375327
 40
1.0
 40
1.0
 40
1.0
 40
1.0
 10
3.4444238264
 20
3.5551275454
 30
0.0
 10
3.4432748947
 20
3.5546384978
 30
0.0
 10
3.4409921907
 20
3.5536067319
 30
0.0
 10
3.4376401363
 20
3.5518832066
 30
0.0
 10
3.4343712457
 20
3.549955085
 30
0.0
 10
3.4312123731
 20
3.5477926376
 30
0.0
 10
3.4282017678
 20
3.5453602163
 30
0.0
 10
3.4253951056
 20
3.5426170709
 30
0.0
 10
3.4228749305
 20
3.5395221039
 30
0.0
 10
3.421121284
 20
3.5366349158
 30
0.0
 10
3.4199999781
 20
3.5341412122
 30
0.0
 10
3.4193194668
 20
3.532173539
 30
0.0
 10
3.4188270567
 20
3.5301330458
 30
0.0
 10
3.4185420474
 20
3.5280409592
 30
0.0
 10
3.4184769898
 20
3.5259247325
 30
0.0
 10
3.4186348941
 20
3.5238149748
 30
0.0
 10
3.4190085447
 20
3.5217414126
 30
0.0
 10
3.4195821256
 20
3.5197291892
 30
0.0
 10
3.4203344903
 20
3.5177965385
 30
0.0
 10
3.4215382394
 20
3.5153543502
 30
0.0
 10
3.4233723949
 20
3.5125348783
 30
0.0
 10
3.4259608703
 20
3.5095167224
 30
0.0
 10
3.4288159013
 20
3.5068419666
 30
0.0
 10
3.4318613519
 20
3.504469098
 30
0.0
 10
3.4350458994
 20
3.5023582915
 30
0.0
 10
3.4383341809
 20
3.5004753331
 30
0.0
 10
3.442812213
 20
3.4982354457
 30
0.0
 10
3.4485686449
 20
3.4958642929
 30
0.0
 10
3.4556345948
 20
3.4935617674
 30
0.0
 10
3.4627934285
 20
3.491699655
 30
0.0
 10
3.4700126558
 20
3.4901975758
 30
0.0
 10
3.4772721636
 20
3.4889945016
 30
0.0
 10
3.4845586133
 20
3.4880437622
 30
0.0
 10
3.4918630419
 20
3.487308791
 30
0.0
 10
3.4991793497
 20
3.4867617032
 30
0.0
 10
3.5065033361
 20
3.4863829057
 30
0.0
 10
3.5138318507
 20
3.4861566107
 30
0.0
 10
3.5211625639
 20
3.4860762686
 30
0.0
 10
3.5284934134
 20
3.4861366823
 30
0.0
 10
3.5358223634
 20
3.4863423781
 30
0.0
 10
3.5431471626
 20
3.4866988769
 30
0.0
 10
3.5504647226
 20
3.4872216209
 30
0.0
 10
3.5565523703
 20
3.4878105011
 30
0.0
 10
3.561413112
 20
3.4883877752
 30
0.0
 10
3.5662691683
 20
3.4890409853
 30
0.0
 10
3.5723245493
 20
3.490012553
 30
0.0
 10
3.579550416
 20
3.4914693599
 30
0.0
 10
3.5867193597
 20
3.4932768006
 30
0.0
 10
3.5938006398
 20
3.4955117712
 30
0.0
 10
3.5984139227
 20
3.497349365
 30
0.0
 10
3.600678745
 20
3.4983765639
 30
0.0
  0
SPLINE
  5
447
100
AcDbEntity
  8
0
100
AcDbSpline
 62
7
  6
CONTINUOUS
 70
0
 71
3
 72
23
 73
19
 74
0
 42
0.0000001
 43
0.0000001
 44
0.0000000001
 40
0.0
 40
0.0
 40
0.0
 40
0.0
 40
0.0631208806
 40
0.1260756036
 40
0.1888414225
 40
0.2514072799
 40
0.3137747991
 40
0.3759646706
 40
0.4380191276
 40
0.4999999892
 40
0.5619808418
 40
0.6240352897
 40
0.6862251836
 40
0.7485927241
 40
0.8111585906
 40
0.8739244136
 40
0.93687913
 40
1.0
 40
1.0
 40
1.0
 40
1.0
 10
3.4444238264
 20
3.5551275454
 30
0.0
 10
3.4475216815
 20
3.5564461603
 30
0.0
 10
3.4537409684
 20
3.5590065057
 30
0.0
 10
3.4631677977
 20
3.5625602988
 30
0.0
 10
3.4726918937
 20
3.5657554857
 30
0.0
 10
3.4823186749
 20
3.5685188229
 30
0.0
 10
3.4920466443
 20
3.5707746105
 30
0.0
 10
3.5018648082
 20
3.5724501728
 30
0.0
 10
3.5117515261
 20
3.5734837293
 30
0.0
 10
3.5216754636
 20
3.5738332391
 30
0.0
 10
3.5315994007
 20
3.5734837296
 30
0.0
 10
3.5414861189
 20
3.5724501736
 30
0.0
 10
3.5513042846
 20
3.5707746111
 30
0.0
 10
3.5610322567
 20
3.5685188227
 30
0.0
 10
3.5706590397
 20
3.5657554851
 30
0.0
 10
3.5801831362
 20
3.5625602987
 30
0.0
 10
3.5896099643
 20
3.5590065042
 30
0.0
 10
3.5958292507
 20
3.5564461601
 30
0.0
 10
3.5989271053
 20
3.5551275454
 30
0.0
  0
SPLINE
  5
448
100
AcDbEntity
  8
0
100
AcDbSpline
 62
7
  6
CONTINUOUS
 70
0
 71
3
 72
23
 73
19
 74
0
 42
0.0000001
 43
0.0000001
 44
0.0000000001
 40
0.0
 40
0.0
 40
0.0
 40
0.0
 40
0.0631208692
 40
0.1260755846
 40
0.188841407
 40
0.2514072732
 40
0.3137748136
 40
0.375964708
 40
0.4380191569
 40
0.5000000108
 40
0.5619808735
 40
0.6240353315
 40
0.6862252036
 40
0.7485927229
 40
0.8111585799
 40
0.8739243984
 40
0.9368791203
 40
1.0
 40
1.0
 40
1.0
 40
1.0
 10
3.1474238264
 20
3.5551275454
 30
0.0
 10
3.1505216809
 20
3.5564461601
 30
0.0
 10
3.1567409673
 20
3.5590065041
 30
0.0
 10
3.1661677952
 20
3.5625602986
 30
0.0
 10
3.1756918917
 20
3.565755485
 30
0.0
 10
3.1853186745
 20
3.5685188225
 30
0.0
 10
3.1950466467
 20
3.570774611
 30
0.0
 10
3.2048648125
 20
3.5724501735
 30
0.0
 10
3.2147515308
 20
3.5734837295
 30
0.0
 10
3.224675468
 20
3.5738332391
 30
0.0
 10
3.2345994058
 20
3.5734837292
 30
0.0
 10
3.2444861238
 20
3.5724501727
 30
0.0
 10
3.2543042878
 20
3.5707746104
 30
0.0
 10
3.2640322572
 20
3.5685188227
 30
0.0
 10
3.2736590383
 20
3.5657554855
 30
0.0
 10
3.2831831343
 20
3.5625602988
 30
0.0
 10
3.2926099634
 20
3.5590065056
 30
0.0
 10
3.2988292503
 20
3.5564461603
 30
0.0
 10
3.3019271053
 20
3.5551275454
 30
0.0
  0
LINE
  5
449
100
AcDbEntity
  8
0
100
AcDbLine
 62
7
  6
CONTINUOUS
 10
3.3139254658
 20
4.7396140162
 11
3.3212363713
 21
4.7397879702
  0
LINE
  5
44A
100
AcDbEntity
  8
0
100
AcDbLine
 62
7
  6
CONTINUOUS
 10
3.2856754658
 20
4.7365600488
 11
3.2939254658
 21
4.7378198269
  0
LINE
  5
44B
100
AcDbEntity
  8
0
100
AcDbLine
 62
7
  6
CONTINUOUS
 10
3.3513254658
 20
4.7418092941
 11
3.3517516051
 21
4.7417727225
  0
SPLINE
  5
44C
100
AcDbEntity
  8
0
100
AcDbSpline
 62
7
  6
CONTINUOUS
 70
0
 71
3
 72
23
 73
19
 74
0
 42
0.0000001
 43
0.0000001
 44
0.0000000001
 40
0.0
 40
0.0
 40
0.0
 40
0.0
 40
0.0186225381
 40
0.0519921263
 40
0.1042494039
 40
0.1764405447
 40
0.2644373258
 40
0.3638346095
 40
0.4705527993
 40
0.5785006242
 40
0.6808037919
 40
0.7730271298
 40
0.8515964258
 40
0.912484445
 40
0.9547760167
 40
0.9810551031
 40
0.9949922152
 40
1.0
 40
1.0
 40
1.0
 40
1.0
 10
3.3517516051
 20
4.7417727225
 30
0.0
 10
3.3520121865
 20
4.7417552567
 30
0.0
 10
3.3527404804
 20
4.7417185416
 30
0.0
 10
3.3542016978
 20
4.7416693369
 30
0.0
 10
3.356414528
 20
4.7416227235
 30
0.0
 10
3.3593936791
 20
4.7415853515
 30
0.0
 10
3.3630340265
 20
4.7415544231
 30
0.0
 10
3.3671586556
 20
4.74153168
 30
0.0
 10
3.3715631432
 20
4.7415221327
 30
0.0
 10
3.376008379
 20
4.7415347804
 30
0.0
 10
3.3802502461
 20
4.741563655
 30
0.0
 10
3.384080015
 20
4.7416011793
 30
0.0
 10
3.3873288877
 20
4.7416429002
 30
0.0
 10
3.3898773567
 20
4.741690233
 30
0.0
 10
3.3916922495
 20
4.7417399693
 30
0.0
 10
3.3928485504
 20
4.7417842749
 30
0.0
 10
3.3934819038
 20
4.7418177193
 30
0.0
 10
3.3937470261
 20
4.7418354201
 30
0.0
 10
3.3938169973
 20
4.7418414458
 30
0.0
  0
LINE
  5
44D
100
AcDbEntity
  8
0
100
AcDbLine
 62
7
  6
CONTINUOUS
 10
3.2689254658
 20
4.7348391849
 11
3.2762335644
 21
4.7354420366
  0
LINE
  5
44E
100
AcDbEntity
  8
0
100
AcDbLine
 62
7
  6
CONTINUOUS
 10
3.2406754658
 20
4.7301025508
 11
3.2489254658
 21
4.7318583674
  0
SPLINE
  5
44F
100
AcDbEntity
  8
0
100
AcDbSpline
 62
7
  6
CONTINUOUS
 70
0
 71
3
 72
51
 73
47
 74
0
 42
0.0000001
 43
0.0000001
 44
0.0000000001
 40
0.0
 40
0.0
 40
0.0
 40
0.0
 40
0.0000047578
 40
0.0000190299
 40
0.0000428145
 40
0.0000761099
 40
0.0001189141
 40
0.0001712256
 40
0.0003043626
 40
0.0004755065
 40
0.0006846429
 40
0.0009317574
 40
0.0012168356
 40
0.0019008255
 40
0.0027364973
 40
0.0037237359
 40
0.0048623713
 40
0.0061520879
 40
0.0075925459
 40
0.0091834058
 40
0.0109243279
 40
0.0148550009
 40
0.0193814617
 40
0.0244995326
 40
0.0302048553
 40
0.0364930066
 40
0.0433587435
 40
0.050796291
 40
0.0587998733
 40
0.0764800884
 40
0.0963451433
 40
0.1183371917
 40
0.1423943447
 40
0.1684520261
 40
0.1964434645
 40
0.2263000364
 40
0.2579521933
 40
0.2913293096
 40
0.3629734412
 40
0.4406604205
 40
0.5238114545
 40
0.6118367896
 40
0.7041269709
 40
0.8000436119
 40
0.8989072723
 40
1.0
 40
1.0
 40
1.0
 40
1.0
 10
7.6519254658
 20
4.590117236
 30
0.0
 10
7.651925338
 20
4.5901171946
 30
0.0
 10
7.6519253609
 20
4.5901164804
 30
0.0
 10
7.6519247624
 20
4.5901155409
 30
0.0
 10
7.6519242018
 20
4.5901135268
 30
0.0
 10
7.6519232121
 20
4.5901109178
 30
0.0
 10
7.6519220221
 20
4.590107479
 30
0.0
 10
7.6519198643
 20
4.5901014106
 30
0.0
 10
7.6519165141
 20
4.5900919093
 30
0.0
 10
7.6519116804
 20
4.5900782404
 30
0.0
 10
7.6519057793
 20
4.5900615323
 30
0.0
 10
7.6518988067
 20
4.5900417909
 30
0.0
 10
7.6518873715
 20
4.5900094025
 30
0.0
 10
7.6518704086
 20
4.5899613382
 30
0.0
 10
7.6518468578
 20
4.5898945696
 30
0.0
 10
7.6518190493
 20
4.5898156872
 30
0.0
 10
7.6517869944
 20
4.5897247051
 30
0.0
 10
7.651750714
 20
4.5896216406
 30
0.0
 10
7.6517102298
 20
4.589506516
 30
0.0
 10
7.6516655639
 20
4.5893793538
 30
0.0
 10
7.6515976661
 20
4.5891858104
 30
0.0
 10
7.6515024957
 20
4.5889139731
 30
0.0
 10
7.6513761364
 20
4.5885520007
 30
0.0
 10
7.6512337134
 20
4.5881425501
 30
0.0
 10
7.6510755121
 20
4.5876859102
 30
0.0
 10
7.6509018242
 20
4.5871823999
 30
0.0
 10
7.6507130025
 20
4.5866323599
 30
0.0
 10
7.6505094354
 20
4.58603616
 30
0.0
 10
7.6502087424
 20
4.5851503868
 30
0.0
 10
7.6497988048
 20
4.583931049
 30
0.0
 10
7.6492699524
 20
4.5823349105
 30
0.0
 10
7.6486931213
 20
4.5805649628
 30
0.0
 10
7.6480726929
 20
4.5786253057
 30
0.0
 10
7.647413307
 20
4.5765202555
 30
0.0
 10
7.6467198409
 20
4.5742542942
 30
0.0
 10
7.6459974275
 20
4.5718320214
 30
0.0
 10
7.6452513273
 20
4.569258164
 30
0.0
 10
7.6442073567
 20
4.5655420264
 30
0.0
 10
7.6428791738
 20
4.5605554701
 30
0.0
 10
7.6413158888
 20
4.5541779928
 30
0.0
 10
7.6397942183
 20
4.5473155909
 30
0.0
 10
7.6383608607
 20
4.5400132576
 30
0.0
 10
7.6370614418
 20
4.5323198384
 30
0.0
 10
7.6359391684
 20
4.52428919
 30
0.0
 10
7.6350330396
 20
4.5159810864
 30
0.0
 10
7.6345987172
 20
4.5103494352
 30
0.0
 10
7.6344254658
 20
4.5074996162
 30
0.0
  0
LINE
  5
450
100
AcDbEntity
  8
0
100
AcDbLine
 62
7
  6
CONTINUOUS
 10
3.4694254658
 20
4.7359780316
 11
3.4786754658
 21
4.7343002415
  0
LINE
  5
451
100
AcDbEntity
  8
0
100
AcDbLine
 62
7
  6
CONTINUOUS
 10
3.4421754658
 20
4.7384383283
 11
3.4427889131
 21
4.7383972684
  0
LINE
  5
452
100
AcDbEntity
  8
0
100
AcDbLine
 62
7
  6
CONTINUOUS
 10
3.4427889131
 20
4.7383972684
 11
3.4514254658
 21
4.7380170674
  0
LINE
  5
453
100
AcDbEntity
  8
0
100
AcDbLine
 62
7
  6
CONTINUOUS
 10
3.4785957532
 20
4.7338078782
 11
3.4780664682
 21
4.7338926798
  0
LINE
  5
454
100
AcDbEntity
  8
0
100
AcDbLine
 62
7
  6
CONTINUOUS
 10
3.4780664682
 20
4.7338926798
 11
3.4694254658
 21
4.7354740384
  0
LINE
  5
455
100
AcDbEntity
  8
0
100
AcDbLine
 62
7
  6
CONTINUOUS
 10
3.4514254658
 20
4.7375144074
 11
3.4509261088
 21
4.7374727567
  0
LINE
  5
456
100
AcDbEntity
  8
0
100
AcDbLine
 62
7
  6
CONTINUOUS
 10
3.4509261088
 20
4.7374727567
 11
3.442788915
 21
4.7378948562
  0
LINE
  5
457
100
AcDbEntity
  8
0
100
AcDbLine
 62
7
  6
CONTINUOUS
 10
3.442788915
 20
4.7378948562
 11
3.4421754658
 21
4.737935943
  0
LINE
  5
458
100
AcDbEntity
  8
0
100
AcDbLine
 62
7
  6
CONTINUOUS
 10
3.3938254658
 20
4.7413420179
 11
3.3928018512
 21
4.7412841321
  0
SPLINE
  5
459
100
AcDbEntity
  8
0
100
AcDbSpline
 62
7
  6
CONTINUOUS
 70
0
 71
3
 72
27
 73
23
 74
0
 42
0.0000001
 43
0.0000001
 44
0.0000000001
 40
0.0
 40
0.0
 40
0.0
 40
0.0
 40
0.0295100915
 40
0.0752938775
 40
0.1393238676
 40
0.2198910908
 40
0.3131112511
 40
0.4156218126
 40
0.5229562087
 40
0.6284203751
 40
0.7264398221
 40
0.8132029763
 40
0.8844810646
 40
0.9363754989
 40
0.9552152604
 40
0.9698883073
 40
0.9809414821
 40
0.9889311046
 40
0.9943763718
 40
0.9977566938
 40
0.9995004813
 40
1.0
 40
1.0
 40
1.0
 40
1.0
 10
3.3928018512
 20
4.7412841321
 30
0.0
 10
3.3923941846
 20
4.7412661876
 30
0.0
 10
3.3913536632
 20
4.7412290461
 30
0.0
 10
3.3894277081
 20
4.7411802352
 30
0.0
 10
3.386795516
 20
4.741134885
 30
0.0
 10
3.3835072521
 20
4.7410946061
 30
0.0
 10
3.3796868065
 20
4.7410587792
 30
0.0
 10
3.3754961424
 20
4.7410319962
 30
0.0
 10
3.3711360873
 20
4.7410219695
 30
0.0
 10
3.3668381409
 20
4.7410327284
 30
0.0
 10
3.3628247103
 20
4.74105563
 30
0.0
 10
3.3592840647
 20
4.741086203
 30
0.0
 10
3.3563813269
 20
4.7411231265
 30
0.0
 10
3.354417991
 20
4.7411645047
 30
0.0
 10
3.3532375644
 20
4.7412015896
 30
0.0
 10
3.3526217745
 20
4.7412256187
 30
0.0
 10
3.3521560813
 20
4.7412478991
 30
0.0
 10
3.3518180318
 20
4.7412675891
 30
0.0
 10
3.3515860748
 20
4.7412838929
 30
0.0
 10
3.3514404589
 20
4.7412963996
 30
0.0
 10
3.3513630785
 20
4.741304216
 30
0.0
 10
3.3513323108
 20
4.7413081657
 30
0.0
 10
3.3513254658
 20
4.7413090953
 30
0.0
  0
LINE
  5
45A
100
AcDbEntity
  8
0
100
AcDbLine
 62
7
  6
CONTINUOUS
 10
3.2489254658
 20
4.7313516585
 11
3.2488342963
 21
4.7312985255
  0
LINE
  5
45B
100
AcDbEntity
  8
0
100
AcDbLine
 62
7
  6
CONTINUOUS
 10
3.2488342963
 20
4.7312985255
 11
3.2416681353
 21
4.7297813736
  0
SPLINE
  5
45C
100
AcDbEntity
  8
0
100
AcDbSpline
 62
7
  6
CONTINUOUS
 70
0
 71
3
 72
8
 73
4
 74
0
 42
0.0000001
 43
0.0000001
 44
0.0000000001
 40
0.0
 40
0.0
 40
0.0
 40
0.0
 40
1.0
 40
1.0
 40
1.0
 40
1.0
 10
3.2407682398
 20
4.729612021
 30
0.0
 10
3.2407373158
 20
4.7296062359
 30
0.0
 10
3.2407063911
 20
4.7296004541
 30
0.0
 10
3.2406754658
 20
4.7295946756
 30
0.0
  0
LINE
  5
45D
100
AcDbEntity
  8
0
100
AcDbLine
 62
7
  6
CONTINUOUS
 10
3.2771754658
 20
4.73504199
 11
3.2767007027
 21
4.7349891402
  0
LINE
  5
45E
100
AcDbEntity
  8
0
100
AcDbLine
 62
7
  6
CONTINUOUS
 10
3.2767007027
 20
4.7349891402
 11
3.2762335779
 21
4.7349376931
  0
LINE
  5
45F
100
AcDbEntity
  8
0
100
AcDbLine
 62
7
  6
CONTINUOUS
 10
3.2762335779
 20
4.7349376931
 11
3.2689254658
 21
4.7343344438
  0
LINE
  5
460
100
AcDbEntity
  8
0
100
AcDbLine
 62
7
  6
CONTINUOUS
 10
3.3221754658
 20
4.7393351695
 11
3.3217023175
 21
4.7393103527
  0
LINE
  5
461
100
AcDbEntity
  8
0
100
AcDbLine
 62
7
  6
CONTINUOUS
 10
3.3217023175
 20
4.7393103527
 11
3.3212366088
 21
4.7392864747
  0
LINE
  5
462
100
AcDbEntity
  8
0
100
AcDbLine
 62
7
  6
CONTINUOUS
 10
3.3212366088
 20
4.7392864747
 11
3.3139254658
 21
4.7391123957
  0
LINE
  5
463
100
AcDbEntity
  8
0
100
AcDbLine
 62
7
  6
CONTINUOUS
 10
3.2939254658
 20
4.7373170384
 11
3.2938357883
 21
4.7372701178
  0
LINE
  5
464
100
AcDbEntity
  8
0
100
AcDbLine
 62
7
  6
CONTINUOUS
 10
3.2938357883
 20
4.7372701178
 11
3.2866874288
 21
4.7361860059
  0
SPLINE
  5
465
100
AcDbEntity
  8
0
100
AcDbSpline
 62
7
  6
CONTINUOUS
 70
0
 71
3
 72
30
 73
26
 74
0
 42
0.0000001
 43
0.0000001
 44
0.0000000001
 40
0.0
 40
0.0
 40
0.0
 40
0.0
 40
0.0595472952
 40
0.1195664185
 40
0.1802245347
 40
0.241752712
 40
0.272954586
 40
0.3044964124
 40
0.3364196211
 40
0.3687559725
 40
0.4015111928
 40
0.4346450163
 40
0.4680551594
 40
0.5015789901
 40
0.5350254331
 40
0.5682226819
 40
0.6010559034
 40
0.6334741034
 40
0.6654754423
 40
0.6970872126
 40
0.7592740958
 40
0.8204187403
 40
0.8807948601
 40
0.9406076853
 40
1.0
 40
1.0
 40
1.0
 40
1.0
 10
7.3035437693
 20
3.498376573
 30
0.0
 10
7.3049894229
 20
3.4990324114
 30
0.0
 10
7.3078537526
 20
3.5004367347
 30
0.0
 10
7.3120106993
 20
3.5028553903
 30
0.0
 10
7.3159895694
 20
3.5056534602
 30
0.0
 10
7.3190752631
 20
3.5083531614
 30
0.0
 10
7.3213419929
 20
3.510772684
 30
0.0
 10
7.3229261618
 20
3.5127407397
 30
0.0
 10
7.3243555256
 20
3.5148613698
 30
0.0
 10
7.3255923153
 20
3.5171377907
 30
0.0
 10
7.3265921152
 20
3.519563961
 30
0.0
 10
7.327307568
 20
3.5221195917
 30
0.0
 10
7.3276961361
 20
3.5247665358
 30
0.0
 10
7.3277309078
 20
3.5274503658
 30
0.0
 10
7.3274092797
 20
3.5301090848
 30
0.0
 10
7.3267539794
 20
3.532685899
 30
0.0
 10
7.3258054323
 20
3.5351391949
 30
0.0
 10
7.3246108142
 20
3.5374453843
 30
0.0
 10
7.3232154088
 20
3.539596125
 30
0.0
 10
7.3211513585
 20
3.5422436804
 30
0.0
 10
7.3182463677
 20
3.5452004883
 30
0.0
 10
7.3144106467
 20
3.5482596367
 30
0.0
 10
7.310351676
 20
3.5508968152
 30
0.0
 10
7.3061392648
 20
3.5531800441
 30
0.0
 10
7.3032493484
 20
3.5545072978
 30
0.0
 10
7.3017925605
 20
3.5551275454
 30
0.0
  0
SPLINE
  5
466
100
AcDbEntity
  8
0
100
AcDbSpline
 62
7
  6
CONTINUOUS
 70
0
 71
3
 72
30
 73
26
 74
0
 42
0.0000001
 43
0.0000001
 44
0.0000000001
 40
0.0
 40
0.0
 40
0.0
 40
0.0
 40
0.0595578859
 40
0.1195858385
 40
0.180250414
 40
0.2417818535
 40
0.2729838367
 40
0.3045245658
 40
0.3364453349
 40
0.3687778097
 40
0.4015277127
 40
0.4346549287
 40
0.4680575308
 40
0.5015734385
 40
0.5350122203
 40
0.5682026498
 40
0.6010302908
 40
0.6334443364
 40
0.6654429674
 40
0.6970533944
 40
0.759241145
 40
0.8203904607
 40
0.8807740849
 40
0.9405965151
 40
1.0
 40
1.0
 40
1.0
 40
1.0
 10
7.6005843893
 20
3.4983765639
 30
0.0
 10
7.6020307696
 20
3.4990323938
 30
0.0
 10
7.6048965287
 20
3.5004366907
 30
0.0
 10
7.6090555999
 20
3.5028553276
 30
0.0
 10
7.6130364997
 20
3.5056533692
 30
0.0
 10
7.6161238207
 20
3.5083530818
 30
0.0
 10
7.6183917548
 20
3.5107726351
 30
0.0
 10
7.6199767409
 20
3.5127406841
 30
0.0
 10
7.6214068446
 20
3.5148613085
 30
0.0
 10
7.622644278
 20
3.5171377268
 30
0.0
 10
7.6236446025
 20
3.5195639005
 30
0.0
 10
7.6243604346
 20
3.5221195433
 30
0.0
 10
7.6247492111
 20
3.5247665081
 30
0.0
 10
7.6247840031
 20
3.5274503633
 30
0.0
 10
7.6244622052
 20
3.5301091049
 30
0.0
 10
7.6238065599
 20
3.532685934
 30
0.0
 10
7.6228575167
 20
3.5351392361
 30
0.0
 10
7.6216622781
 20
3.5374454253
 30
0.0
 10
7.6202661515
 20
3.5395961622
 30
0.0
 10
7.6182009991
 20
3.5422437596
 30
0.0
 10
7.6152944665
 20
3.5452005867
 30
0.0
 10
7.6114567908
 20
3.5482597013
 30
0.0
 10
7.6073957488
 20
3.5508968577
 30
0.0
 10
7.6031811839
 20
3.5531800724
 30
0.0
 10
7.6002898208
 20
3.5545073047
 30
0.0
 10
7.5988322989
 20
3.5551275454
 30
0.0
  0
SPLINE
  5
467
100
AcDbEntity
  8
0
100
AcDbSpline
 62
7
  6
CONTINUOUS
 70
0
 71
3
 72
30
 73
26
 74
0
 42
0.0000001
 43
0.0000001
 44
0.0000000001
 40
0.0
 40
0.0
 40
0.0
 40
0.0
 40
0.0595525937
 40
0.1195761346
 40
0.1802374829
 40
0.2417672934
 40
0.2729692228
 40
0.3045105011
 40
0.3364324904
 40
0.3687669035
 40
0.4015194648
 40
0.4346499836
 40
0.4680563548
 40
0.501576222
 40
0.535018832
 40
0.5682126686
 40
0.6010430976
 40
0.6334592184
 40
0.6654592017
 40
0.6970702991
 40
0.7592576148
 40
0.8204045951
 40
0.8807844682
 40
0.9406020977
 40
1.0
 40
1.0
 40
1.0
 40
1.0
 10
3.3036787651
 20
3.498376573
 30
0.0
 10
3.3051247819
 20
3.4990324072
 30
0.0
 10
3.307989826
 20
3.5004367176
 30
0.0
 10
3.3121478345
 20
3.5028553642
 30
0.0
 10
3.3161277188
 20
3.5056534203
 30
0.0
 10
3.3192142256
 20
3.5083531276
 30
0.0
 10
3.3214815569
 20
3.5107726658
 30
0.0
 10
3.3230661339
 20
3.5127407184
 30
0.0
 10
3.324495867
 20
3.5148613458
 30
0.0
 10
3.3257329778
 20
3.5171377656
 30
0.0
 10
3.3267330393
 20
3.5195639376
 30
0.0
 10
3.3274486809
 20
3.5221195743
 30
0.0
 10
3.3278373522
 20
3.5247665285
 30
0.0
 10
3.3278721333
 20
3.5274503708
 30
0.0
 10
3.3275504195
 20
3.5301091006
 30
0.0
 10
3.326894946
 20
3.5326859216
 30
0.0
 10
3.3259461504
 20
3.53513922
 30
0.0
 10
3.3247512217
 20
3.5374454087
 30
0.0
 10
3.3233554555
 20
3.5395961469
 30
0.0
 10
3.321290854
 20
3.5422437227
 30
0.0
 10
3.3183850921
 20
3.5452005394
 30
0.0
 10
3.3145483938
 20
3.5482596703
 30
0.0
 10
3.3104883876
 20
3.5508968371
 30
0.0
 10
3.3062748997
 20
3.5531800585
 30
0.0
 10
3.3033842601
 20
3.5545073014
 30
0.0
 10
3.3019271053
 20
3.5551275454
 30
0.0
  0
SPLINE
  5
468
100
AcDbEntity
  8
0
100
AcDbSpline
 62
7
  6
CONTINUOUS
 70
0
 71
3
 72
30
 73
26
 74
0
 42
0.0000001
 43
0.0000001
 44
0.0000000001
 40
0.0
 40
0.0
 40
0.0
 40
0.0
 40
0.0595525928
 40
0.1195761323
 40
0.1802374786
 40
0.2417672863
 40
0.272969214
 40
0.3045104905
 40
0.3364324777
 40
0.3687668888
 40
0.4015194482
 40
0.4346499657
 40
0.4680563364
 40
0.5015762039
 40
0.5350188152
 40
0.5682126536
 40
0.6010430846
 40
0.6334592074
 40
0.6654591925
 40
0.6970702915
 40
0.7592576097
 40
0.8204045917
 40
0.8807844662
 40
0.9406020968
 40
1.0
 40
1.0
 40
1.0
 40
1.0
 10
3.600678745
 20
3.4983765639
 30
0.0
 10
3.6021247624
 20
3.4990323979
 30
0.0
 10
3.6049898077
 20
3.5004367078
 30
0.0
 10
3.6091478179
 20
3.5028553537
 30
0.0
 10
3.6131277043
 20
3.5056534089
 30
0.0
 10
3.6162142129
 20
3.5083531155
 30
0.0
 10
3.6184815459
 20
3.5107726532
 30
0.0
 10
3.6200661243
 20
3.5127407053
 30
0.0
 10
3.6214958589
 20
3.5148613324
 30
0.0
 10
3.6227329713
 20
3.5171377519
 30
0.0
 10
3.6237330346
 20
3.5195639239
 30
0.0
 10
3.624448678
 20
3.5221195607
 30
0.0
 10
3.6248373512
 20
3.5247665153
 30
0.0
 10
3.624872134
 20
3.5274503584
 30
0.0
 10
3.6245504217
 20
3.5301090892
 30
0.0
 10
3.6238949494
 20
3.5326859114
 30
0.0
 10
3.6229461545
 20
3.535139211
 30
0.0
 10
3.6217512263
 20
3.5374454009
 30
0.0
 10
3.6203554602
 20
3.5395961403
 30
0.0
 10
3.6182908587
 20
3.5422437174
 30
0.0
 10
3.6153850965
 20
3.5452005356
 30
0.0
 10
3.6115483973
 20
3.5482596678
 30
0.0
 10
3.6074883901
 20
3.5508968358
 30
0.0
 10
3.603274901
 20
3.5531800579
 30
0.0
 10
3.6003842606
 20
3.5545073012
 30
0.0
 10
3.5989271053
 20
3.5551275454
 30
0.0
  0
ENDSEC
  0
SECTION
  2
OBJECTS
  0
DICTIONARY
  5
C
100
AcDbDictionary
280
0
281
1
  3
ACAD_GROUP
350
D
  3
ACAD_MLINESTYLE
350
17
  3
ACAD_LAYOUT
350
1A
  3
ACAD_PLOTSETTINGS
350
19
  3
ACAD_PLOTSTYLENAME
350
E
  0
DICTIONARY
  5
D
102
{ACAD_REACTORS
330
C
102
}
100
AcDbDictionary
280
0
281
1
  0
ACDBDICTIONARYWDFLT
  5
E
102
{ACAD_REACTORS
330
C
102
}
100
AcDbDictionary
281
1
  3
Normal
350
F
100
AcDbDictionaryWithDefault
340
F
  0
DICTIONARY
  5
17
102
{ACAD_REACTORS
330
C
102
}
100
AcDbDictionary
280
0
281
1
  3
Standard
350
18
  0
DICTIONARY
  5
19
102
{ACAD_REACTORS
330
C
102
}
100
AcDbDictionary
281
1
  0
DICTIONARY
  5
1A
102
{ACAD_REACTORS
330
C
102
}
100
AcDbDictionary
281
1
  3
Model
350
469
  3
Layout1
350
46A
  0
ACDBPLACEHOLDER
  5
F
102
{ACAD_REACTORS
330
E
102
}
  0
MLINESTYLE
  5
18
102
{ACAD_REACTORS
330
17
102
}
100
AcDbMlineStyle
  2
STANDARD
 70
0
  3

 62
256
 51
90.0
 52
90.0
 71
2
 49
0.5
 62
256
  6
BYLAYER
 49
-0.5
 62
256
  6
BYLAYER
  0
LAYOUT
  5
469
102
{ACAD_REACTORS
330
1A
102
}
100
AcDbPlotSettings
  1

  2
none_device
  4
ANSI_A_(11.00_x_8.50_Inches)
  6

 40
0.0
 41
0.0
 42
0.0
 43
0.0
 44
279.4
 45
215.9
 46
0.0
 47
0.0
 48
0.0
 49
0.0
140
0.0
141
0.0
142
1.0
143
1.0
 70
1024
 72
0
 73
0
 74
0
  7

 75
0
147
1.0
148
0.0
149
0.0
100
AcDbLayout
  1
Model
 70
0
 71
0
 10
0.0
 20
0.0
 11
11.0
 21
8.5
 12
0.0
 22
0.0
 32
0.0
 14
0.0
 24
0.0
 34
0.0
 15
0.0
 25
0.0
 35
0.0
146
0.0
 13
0.0
 23
0.0
 33
0.0
 16
1.0
 26
0.0
 36
0.0
 17
0.0
 27
1.0
 37
0.0
 76
0
330
202
345
0
346
0
  0
LAYOUT
  5
46A
102
{ACAD_REACTORS
330
1A
102
}
100
AcDbPlotSettings
  1

  2
none_device
  4
ANSI_A_(11.00_x_8.50_Inches)
  6

 40
0.0
 41
0.0
 42
0.0
 43
0.0
 44
279.4
 45
215.9
 46
0.0
 47
0.0
 48
0.0
 49
0.0
140
0.0
141
0.0
142
1.0
143
1.0
 70
0
 72
0
 73
0
 74
0
  7

 75
0
147
1.0
148
0.0
149
0.0
100
AcDbLayout
  1
Layout1
 70
0
 71
1
 10
0.0
 20
0.0
 11
11.0
 21
8.5
 12
0.0
 22
0.0
 32
0.0
 14
0.0
 24
0.0
 34
0.0
 15
0.0
 25
0.0
 35
0.0
146
0.0
 13
0.0
 23
0.0
 33
0.0
 16
1.0
 26
0.0
 36
0.0
 17
0.0
 27
1.0
 37
0.0
 76
0
330
203
345
0
346
0
  0
ENDSEC
  0
EOF
