999
DXF file: 9461_right.dxf
999
Pro/ENGINEER 2018400 by Parametric Technology Corporation
  0
SECTION
  2
HEADER
  9
$ACADVER
  1
AC1027
  9
$DWGCODEPAGE
  3
ANSI_1252
  9
$EXTMAX
 10
11.0
 20
8.5
 30
0.0
  9
$EXTMIN
 10
0.0
 20
0.0
 30
0.0
  9
$LIMMIN
 10
0.0
 20
0.0
  9
$LIMMAX
 10
11.0
 20
8.5
  9
$VIEWCTR
 10
5.5
 20
4.25
  9
$VIEWSIZE
 40
8.5
  9
$CLAYER
  8
0
  9
$LTSCALE
 40
0.605
  9
$CELTYPE
  6
BYLAYER
  9
$DIMSCALE
 40
1.0
  9
$DIMASZ
 40
0.1
  9
$DIMEXO
 40
0.0625
  9
$DIMDLI
 40
0.418
  9
$DIMEXE
 40
0.125
  9
$DIMCEN
 40
0.099
  9
$DIMLFAC
 40
1.0
  9
$DIMBLK
  1
_FILLED
  9
$DIMALT
 70
1
  9
$DIMALTD
 70
1
  9
$DIMALTTD
 70
2
  9
$DIMALTF
 40
25.4
  9
$DIMTXT
 40
0.08
  9
$DIMTOL
 70
1
  9
$DIMLIM
 70
0
  9
$DIMTFAC
 40
1.0
  9
$DIMTP
 40
0.01
  9
$DIMTM
 40
0.01
  9
$DIMGAP
 40
0.09
  9
$DIMDSEP
 70
46
  9
$AUNITS
 70
0
  9
$PDMODE
 70
3
  9
$PDSIZE
 40
0.3125
  9
$HANDSEED
  5
330
  9
$TILEMODE
 70
1
  9
$MEASUREMENT
 70
0
  9
$INSUNITS
 70
1
  0
ENDSEC
  0
SECTION
  2
CLASSES
  0
CLASS
  1
ACDBDICTIONARYWDFLT
  2
AcDbDictionaryWithDefault
  3
AutoCAD 2000
 90
0
 91
1
280
0
281
0
  0
CLASS
  1
ACDBPLACEHOLDER
  2
AcDbPlaceHolder
  3
AutoCAD 2000
 90
0
 91
1
280
0
281
0
  0
CLASS
  1
LAYOUT
  2
AcDbLayout
  3
AutoCAD 2000
 90
0
 91
0
280
0
281
0
  0
ENDSEC
  0
SECTION
  2
TABLES
  0
TABLE
  2
VPORT
  5
8
100
AcDbSymbolTable
 70
2
  0
VPORT
  5
1F4
100
AcDbSymbolTableRecord
100
AcDbViewportTableRecord
  2
*ACTIVE
 70
0
 10
0.0
 20
0.0
 11
1.0
 21
1.0
 12
5.5
 22
4.25
 13
0.0
 23
0.0
 14
1.0
 24
1.0
 15
0.0
 25
0.0
 16
0.0
 26
0.0
 36
1.0
 17
0.0
 27
0.0
 37
0.0
 40
8.5
 41
1.2941176471
 42
50.0
 43
0.0
 44
0.0
 50
0.0
 51
0.0
 71
0
 72
100
 73
1
 74
1
 75
0
 76
0
 77
0
 78
0
  0
ENDTAB
  0
TABLE
  2
LTYPE
  5
5
100
AcDbSymbolTable
 70
6
  0
LTYPE
  5
14
100
AcDbSymbolTableRecord
100
AcDbLinetypeTableRecord
  2
BYBLOCK
 70
0
  3

 72
65
 73
0
 40
0.0
  0
LTYPE
  5
15
100
AcDbSymbolTableRecord
100
AcDbLinetypeTableRecord
  2
BYLAYER
 70
0
  3

 72
65
 73
0
 40
0.0
  0
LTYPE
  5
16
100
AcDbSymbolTableRecord
100
AcDbLinetypeTableRecord
  2
CONTINUOUS
 70
64
  3
Solid line
 72
65
 73
0
 40
0.0
  0
LTYPE
  5
1F5
100
AcDbSymbolTableRecord
100
AcDbLinetypeTableRecord
  2
CENTER
 70
64
  3
____ _ ____ _ ____ _ ____ _ ____ _ ____ _ ____
 72
65
 73
4
 40
0.6
 49
0.375
 74
0
 49
-0.075
 74
0
 49
0.075
 74
0
 49
-0.075
 74
0
  0
LTYPE
  5
1F6
100
AcDbSymbolTableRecord
100
AcDbLinetypeTableRecord
  2
HIDDEN
 70
64
  3
- - - - - - - - - - - - - - - - - - - -
 72
65
 73
2
 40
0.2
 49
0.1
 74
0
 49
-0.1
 74
0
  0
LTYPE
  5
1F7
100
AcDbSymbolTableRecord
100
AcDbLinetypeTableRecord
  2
PHANTOM
 70
64
  3
_____ _ _ _____ _ _ _____ _ _ _____
 72
65
 73
6
 40
0.8
 49
0.45
 74
0
 49
-0.05
 74
0
 49
0.1
 74
0
 49
-0.05
 74
0
 49
0.1
 74
0
 49
-0.05
 74
0
  0
LTYPE
  5
1F8
100
AcDbSymbolTableRecord
100
AcDbLinetypeTableRecord
  2
DOT
 70
64
  3
. . . . . . . . . . . . . . . . . . . .
 72
65
 73
2
 40
0.2
 49
0.1
 74
0
 49
-0.1
 74
0
  0
LTYPE
  5
1F9
100
AcDbSymbolTableRecord
100
AcDbLinetypeTableRecord
  2
DASHED
 70
64
  3
- - - - - - - - - - - - - - - - - - - -
 72
65
 73
2
 40
0.2
 49
0.1
 74
0
 49
-0.1
 74
0
  0
ENDTAB
  0
TABLE
  2
LAYER
  5
2
100
AcDbSymbolTable
 70
36
  0
LAYER
  5
10
100
AcDbSymbolTableRecord
100
AcDbLayerTableRecord
  2
0
 70
0
 62
7
  6
CONTINUOUS
370
-3
390
F
  0
LAYER
  5
1FA
100
AcDbSymbolTableRecord
100
AcDbLayerTableRecord
  2
DEFAULT_1
 70
0
 62
7
  6
CENTER
370
-3
390
F
  0
LAYER
  5
1FB
100
AcDbSymbolTableRecord
100
AcDbLayerTableRecord
  2
DEFAULT_2
 70
0
 62
8
  6
HIDDEN
370
-3
390
F
  0
LAYER
  5
1FC
100
AcDbSymbolTableRecord
100
AcDbLayerTableRecord
  2
DEFAULT_3
 70
0
 62
7
  6
PHANTOM
370
-3
390
F
  0
LAYER
  5
1FD
100
AcDbSymbolTableRecord
100
AcDbLayerTableRecord
  2
DEFAULT_COORDINATE_SYSTEM
 70
0
 62
7
  6
CONTINUOUS
370
-3
390
F
  0
LAYER
  5
1FE
100
AcDbSymbolTableRecord
100
AcDbLayerTableRecord
  2
DEFAULT_DATUM_AXES
 70
0
 62
7
  6
CONTINUOUS
370
-3
390
F
  0
LAYER
  5
1FF
100
AcDbSymbolTableRecord
100
AcDbLayerTableRecord
  2
DEFAULT_DATUM_PLANES
 70
0
 62
7
  6
CONTINUOUS
370
-3
390
F
  0
ENDTAB
  0
TABLE
  2
STYLE
  5
3
100
AcDbSymbolTable
 70
1
  0
STYLE
  5
11
100
AcDbSymbolTableRecord
100
AcDbTextStyleTableRecord
  2
STANDARD
 70
0
 40
0.0
 41
0.8
 50
0.0
 71
0
 42
0.2
  3
txt
  4

  0
STYLE
  5
200
100
AcDbSymbolTableRecord
100
AcDbTextStyleTableRecord
  2
TEXTSTYLE_1
 70
0
 40
0.0
 41
0.8
 50
0.0
 71
0
 42
0.2
  3
gdt
  4

  0
ENDTAB
  0
TABLE
  2
VIEW
  5
6
100
AcDbSymbolTable
 70
0
  0
ENDTAB
  0
TABLE
  2
UCS
  5
7
100
AcDbSymbolTable
 70
0
  0
ENDTAB
  0
TABLE
  2
APPID
  5
9
100
AcDbSymbolTable
 70
1
  0
APPID
  5
201
100
AcDbSymbolTableRecord
100
AcDbRegAppTableRecord
  2
ACAD
 70
0
  0
ENDTAB
  0
TABLE
  2
BLOCK_RECORD
  5
1
100
AcDbSymbolTable
 70
0
  0
BLOCK_RECORD
  5
202
100
AcDbSymbolTableRecord
100
AcDbBlockTableRecord
  2
*Model_Space
  0
BLOCK_RECORD
  5
203
100
AcDbSymbolTableRecord
100
AcDbBlockTableRecord
  2
*Paper_Space
  0
BLOCK_RECORD
  5
204
100
AcDbSymbolTableRecord
100
AcDbBlockTableRecord
  2
_FILLED
  0
ENDTAB
  0
TABLE
  2
DIMSTYLE
  5
A
100
AcDbSymbolTable
 70
1
100
AcDbDimStyleTable
 71
0
  0
DIMSTYLE
105
205
100
AcDbSymbolTableRecord
100
AcDbDimStyleTableRecord
  2
STANDARD
 70
0
  3

  4

 40
1.0
 41
0.1
 42
0.0625
 43
0.38
 44
0.125
 45
0.0
 46
0.0
 47
0.01
 48
0.01
140
0.08
141
0.09
142
0.0
143
25.4
144
1.0
145
0.0
146
1.0
147
0.09
 71
1.0
 72
0.0
 73
1
 74
1
 75
0
 76
0
 77
0
 78
4
 79
1
170
1
171
1
172
0
173
0
174
0
175
0
176
0
177
0
178
0
270
2
179
2
271
2
272
2
273
2
274
2
275
0
280
0
281
0
282
0
283
1
284
4
285
0
286
0
287
3
288
0
340
11
278
46
341
204
342
204
343
204
344
204
  0
ENDTAB
  0
ENDSEC
  0
SECTION
  2
BLOCKS
  0
BLOCK
  5
20
100
AcDbEntity
  8
0
100
AcDbBlockBegin
  2
*Model_Space
 70
0
 10
0.0
 20
0.0
 30
0.0
  3
*Model_Space
  1

  0
ENDBLK
  5
21
100
AcDbEntity
  8
0
100
AcDbBlockEnd
  0
BLOCK
  5
1C
100
AcDbEntity
  8
0
100
AcDbBlockBegin
  2
*Paper_Space
 70
0
 10
0.0
 20
0.0
 30
0.0
  3
*Paper_Space
  1

  0
ENDBLK
  5
1D
100
AcDbEntity
  8
0
100
AcDbBlockEnd
  0
BLOCK
  5
206
100
AcDbEntity
  8
0
100
AcDbBlockBegin
  2
_FILLED
 70
64
 10
0.0
 20
0.0
  3
_FILLED
  1

  0
SOLID
  5
207
100
AcDbEntity
  8
0
  6
BYBLOCK
 62
0
100
AcDbTrace
 10
0.0
 20
0.0
 11
-1.0
 21
0.2
 12
-1.0
 22
-0.2
 13
-1.0
 23
-0.2
  0
ENDBLK
  5
208
100
AcDbEntity
  8
0
  6
BYBLOCK
 62
0
100
AcDbBlockEnd
  0
ENDSEC
  0
SECTION
  2
ENTITIES
  0
MTEXT
  5
209
100
AcDbEntity
  8
0
100
AcDbMText
 62
2
  6
CONTINUOUS
  7
STANDARD
 71
3
 72
1
 10
5.3731754658
 20
1.779617236
 30
0.0
 11
1.0
 21
0.0
 31
0.0
 73
2
 44
0.9
  1
SCALE  .500
 40
0.08
 41
0.704
  0
LINE
  5
20A
100
AcDbEntity
  8
0
100
AcDbLine
 62
7
  6
CONTINUOUS
 10
0.0
 20
0.0
 11
0.0
 21
8.5
  0
LINE
  5
20B
100
AcDbEntity
  8
0
100
AcDbLine
 62
7
  6
CONTINUOUS
 10
0.0
 20
0.0
 11
11.0
 21
0.0
  0
LINE
  5
20C
100
AcDbEntity
  8
0
100
AcDbLine
 62
7
  6
CONTINUOUS
 10
0.0
 20
8.5
 11
11.0
 21
8.5
  0
LINE
  5
20D
100
AcDbEntity
  8
0
100
AcDbLine
 62
7
  6
CONTINUOUS
 10
11.0
 20
0.0
 11
11.0
 21
8.5
  0
LINE
  5
20E
100
AcDbEntity
  8
0
100
AcDbLine
 62
7
  6
CONTINUOUS
 10
2.6008113442
 20
5.0944543983
 11
2.596951762
 21
5.4461822783
  0
LINE
  5
20F
100
AcDbEntity
  8
0
100
AcDbLine
 62
7
  6
CONTINUOUS
 10
2.9474870991
 20
5.0641241998
 11
3.0123649511
 21
5.4098383336
  0
LINE
  5
210
100
AcDbEntity
  8
0
100
AcDbLine
 62
7
  6
CONTINUOUS
 10
6.9174778149
 20
1.874617236
 11
8.0924773255
 21
1.874617236
  0
LINE
  5
211
100
AcDbEntity
  8
0
100
AcDbLine
 62
7
  6
CONTINUOUS
 10
6.9174775702
 20
1.929617236
 11
8.0924775702
 21
1.929617236
  0
LINE
  5
212
100
AcDbEntity
  8
0
100
AcDbLine
 62
7
  6
CONTINUOUS
 10
6.9324777358
 20
1.944617236
 11
8.0774774046
 21
1.944617236
  0
LINE
  5
213
100
AcDbEntity
  8
0
100
AcDbLine
 62
7
  6
CONTINUOUS
 10
3.7575778091
 20
5.9514353484
 11
3.8644591039
 21
6.2450892924
  0
LINE
  5
214
100
AcDbEntity
  8
0
100
AcDbLine
 62
7
  6
CONTINUOUS
 10
7.0699776347
 20
2.064617236
 11
7.9399775057
 21
2.064617236
  0
LINE
  5
215
100
AcDbEntity
  8
0
100
AcDbLine
 62
7
  6
CONTINUOUS
 10
7.2399778898
 20
2.229617236
 11
7.7699772507
 21
2.229617236
  0
LINE
  5
216
100
AcDbEntity
  8
0
100
AcDbLine
 62
7
  6
CONTINUOUS
 10
7.2296281954
 20
2.2462863549
 11
7.780326945
 21
2.2462863549
  0
LINE
  5
217
100
AcDbEntity
  8
0
100
AcDbLine
 62
7
  6
CONTINUOUS
 10
7.1603146898
 20
2.8275647527
 11
7.8496404506
 21
2.8275647527
  0
LINE
  5
218
100
AcDbEntity
  8
0
100
AcDbLine
 62
7
  6
CONTINUOUS
 10
7.8349775702
 20
2.854617236
 11
7.1749775702
 21
2.854617236
  0
LINE
  5
219
100
AcDbEntity
  8
0
100
AcDbLine
 62
7
  6
CONTINUOUS
 10
7.1869509365
 20
2.8699594549
 11
7.823004204
 21
2.8699594549
  0
LINE
  5
21A
100
AcDbEntity
  8
0
100
AcDbLine
 62
7
  6
CONTINUOUS
 10
4.8827767749
 20
5.5418964173
 11
4.9896580697
 21
5.8355503612
  0
LINE
  5
21B
100
AcDbEntity
  8
0
100
AcDbLine
 62
7
  6
CONTINUOUS
 10
7.2017347602
 20
3.4584170527
 11
7.8082203803
 21
3.4584170527
  0
LINE
  5
21C
100
AcDbEntity
  8
0
100
AcDbLine
 62
7
  6
CONTINUOUS
 10
7.2317275703
 20
3.479617236
 11
7.7782275702
 21
3.479617236
  0
LINE
  5
21D
100
AcDbEntity
  8
0
100
AcDbLine
 62
7
  6
CONTINUOUS
 10
7.815084145
 20
3.5551275454
 11
7.8067565764
 21
3.5551275454
  0
LINE
  5
21E
100
AcDbEntity
  8
0
100
AcDbLine
 62
7
  6
CONTINUOUS
 10
7.7174851957
 20
3.5551275454
 11
7.5940476639
 21
3.5551275454
  0
LINE
  5
21F
100
AcDbEntity
  8
0
100
AcDbLine
 62
7
  6
CONTINUOUS
 10
7.1948709954
 20
3.5551275454
 11
7.2031350369
 21
3.5551275454
  0
LINE
  5
220
100
AcDbEntity
  8
0
100
AcDbLine
 62
7
  6
CONTINUOUS
 10
7.2922686578
 20
3.5551275454
 11
7.4156426623
 21
3.5551275454
  0
LINE
  5
221
100
AcDbEntity
  8
0
100
AcDbLine
 62
7
  6
CONTINUOUS
 10
7.2427861718
 20
3.671117236
 11
7.7671689686
 21
3.671117236
  0
LINE
  5
222
100
AcDbEntity
  8
0
100
AcDbLine
 62
7
  6
CONTINUOUS
 10
5.1927325298
 20
5.4872428548
 11
5.1927325298
 21
5.7997428548
  0
LINE
  5
223
100
AcDbEntity
  8
0
100
AcDbLine
 62
7
  6
CONTINUOUS
 10
7.2964099442
 20
4.1126314419
 11
7.7135451963
 21
4.1126314419
  0
LINE
  5
224
100
AcDbEntity
  8
0
100
AcDbLine
 62
7
  6
CONTINUOUS
 10
7.3212276723
 20
4.134617236
 11
7.6887274681
 21
4.134617236
  0
LINE
  5
225
100
AcDbEntity
  8
0
100
AcDbLine
 62
7
  6
CONTINUOUS
 10
7.3332275702
 20
4.144617236
 11
7.6767275702
 21
4.144617236
  0
LINE
  5
226
100
AcDbEntity
  8
0
100
AcDbLine
 62
7
  6
CONTINUOUS
 10
7.2523373596
 20
4.696369074
 11
7.2777225922
 21
4.704617236
  0
LINE
  5
227
100
AcDbEntity
  8
0
100
AcDbLine
 62
7
  6
CONTINUOUS
 10
7.3197275702
 20
4.324117236
 11
7.340868343
 21
4.324117236
  0
LINE
  5
228
100
AcDbEntity
  8
0
100
AcDbLine
 62
7
  6
CONTINUOUS
 10
7.6690855633
 20
4.324117236
 11
7.6902275702
 21
4.324117236
  0
LINE
  5
229
100
AcDbEntity
  8
0
100
AcDbLine
 62
7
  6
CONTINUOUS
 10
7.2412275702
 20
4.349617236
 11
7.3183697037
 21
4.349617236
  0
LINE
  5
22A
100
AcDbEntity
  8
0
100
AcDbLine
 62
7
  6
CONTINUOUS
 10
7.691584611
 20
4.349617236
 11
7.7687275702
 21
4.349617236
  0
LINE
  5
22B
100
AcDbEntity
  8
0
100
AcDbLine
 62
7
  6
CONTINUOUS
 10
7.2262275702
 20
4.389117236
 11
7.2940756383
 21
4.389117236
  0
LINE
  5
22C
100
AcDbEntity
  8
0
100
AcDbLine
 62
7
  6
CONTINUOUS
 10
7.7158801703
 20
4.389117236
 11
7.7837275702
 21
4.389117236
  0
LINE
  5
22D
100
AcDbEntity
  8
0
100
AcDbLine
 62
7
  6
CONTINUOUS
 10
7.4814953655
 20
4.7411380859
 11
7.4798833931
 21
4.741105557
  0
LINE
  5
22E
100
AcDbEntity
  8
0
100
AcDbLine
 62
7
  6
CONTINUOUS
 10
7.4888628926
 20
4.7412895193
 11
7.4744775702
 21
4.7410005691
  0
LWPOLYLINE
  5
22F
100
AcDbEntity
  8
0
100
AcDbPolyline
 62
7
  6
CONTINUOUS
 90
3
 70
0
 10
7.4798833838
 20
4.741605887
 10
7.4804055981
 20
4.7416163812
 10
7.4814953604
 20
4.741638395
  0
LINE
  5
230
100
AcDbEntity
  8
0
100
AcDbLine
 62
7
  6
CONTINUOUS
 10
7.4744775702
 20
4.7415009671
 11
7.4888628926
 21
4.7417897308
  0
LINE
  5
231
100
AcDbEntity
  8
0
100
AcDbLine
 62
7
  6
CONTINUOUS
 10
7.2262275702
 20
4.594117236
 11
7.2940749702
 21
4.594117236
  0
LINE
  5
232
100
AcDbEntity
  8
0
100
AcDbLine
 62
7
  6
CONTINUOUS
 10
7.7158795021
 20
4.594117236
 11
7.7837275702
 21
4.594117236
  0
LINE
  5
233
100
AcDbEntity
  8
0
100
AcDbLine
 62
7
  6
CONTINUOUS
 10
7.2403814126
 20
4.634117236
 11
7.3187558018
 21
4.634117236
  0
LINE
  5
234
100
AcDbEntity
  8
0
100
AcDbLine
 62
7
  6
CONTINUOUS
 10
7.6911998097
 20
4.634117236
 11
7.7695737279
 21
4.634117236
  0
LINE
  5
235
100
AcDbEntity
  8
0
100
AcDbLine
 62
7
  6
CONTINUOUS
 10
7.2542275702
 20
4.642117236
 11
7.3251607673
 21
4.642117236
  0
LINE
  5
236
100
AcDbEntity
  8
0
100
AcDbLine
 62
7
  6
CONTINUOUS
 10
7.684794631
 20
4.642117236
 11
7.7557275702
 21
4.642117236
  0
LINE
  5
237
100
AcDbEntity
  8
0
100
AcDbLine
 62
7
  6
CONTINUOUS
 10
7.2412275702
 20
4.649617236
 11
7.3317140113
 21
4.649617236
  0
LINE
  5
238
100
AcDbEntity
  8
0
100
AcDbLine
 62
7
  6
CONTINUOUS
 10
7.6782413328
 20
4.649617236
 11
7.7687275702
 21
4.649617236
  0
LINE
  5
239
100
AcDbEntity
  8
0
100
AcDbLine
 62
7
  6
CONTINUOUS
 10
7.2412275702
 20
4.6852592846
 11
7.3727393886
 21
4.6852592846
  0
LINE
  5
23A
100
AcDbEntity
  8
0
100
AcDbLine
 62
7
  6
CONTINUOUS
 10
7.6372158064
 20
4.6852592846
 11
7.7687275702
 21
4.6852592846
  0
LINE
  5
23B
100
AcDbEntity
  8
0
100
AcDbLine
 62
7
  6
CONTINUOUS
 10
7.2523373596
 20
4.696369074
 11
7.3906850107
 21
4.696369074
  0
LINE
  5
23C
100
AcDbEntity
  8
0
100
AcDbLine
 62
7
  6
CONTINUOUS
 10
7.6192689225
 20
4.696369074
 11
7.7576177808
 21
4.696369074
  0
LINE
  5
23D
100
AcDbEntity
  8
0
100
AcDbLine
 62
7
  6
CONTINUOUS
 10
7.2777225922
 20
4.704617236
 11
7.4069204915
 21
4.704617236
  0
LINE
  5
23E
100
AcDbEntity
  8
0
100
AcDbLine
 62
7
  6
CONTINUOUS
 10
7.6030348182
 20
4.704617236
 11
7.7322325483
 21
4.704617236
  0
LINE
  5
23F
100
AcDbEntity
  8
0
100
AcDbLine
 62
7
  6
CONTINUOUS
 10
7.2403814126
 20
4.634117236
 11
7.2542275702
 21
4.642117236
  0
LINE
  5
240
100
AcDbEntity
  8
0
100
AcDbLine
 62
7
  6
CONTINUOUS
 10
7.6902275702
 20
4.324117236
 11
7.7687275702
 21
4.349617236
  0
LINE
  5
241
100
AcDbEntity
  8
0
100
AcDbLine
 62
7
  6
CONTINUOUS
 10
7.4386256997
 20
4.7165218826
 11
7.307405242
 21
4.7165218826
  0
LINE
  5
242
100
AcDbEntity
  8
0
100
AcDbLine
 62
7
  6
CONTINUOUS
 10
7.5713306392
 20
4.7165218826
 11
7.7025498985
 21
4.7165218826
  0
LINE
  5
243
100
AcDbEntity
  8
0
100
AcDbLine
 62
7
  6
CONTINUOUS
 10
7.5379775702
 20
4.7408980395
 11
7.5235922479
 21
4.7412334666
  0
LINE
  5
244
100
AcDbEntity
  8
0
100
AcDbLine
 62
7
  6
CONTINUOUS
 10
7.5242341133
 20
4.7412180054
 11
7.5235922479
 21
4.7412334666
  0
LINE
  5
245
100
AcDbEntity
  8
0
100
AcDbLine
 62
7
  6
CONTINUOUS
 10
7.5235922479
 20
4.7417337142
 11
7.5379775702
 21
4.7413985038
  0
LINE
  5
246
100
AcDbEntity
  8
0
100
AcDbLine
 62
7
  6
CONTINUOUS
 10
7.5235922479
 20
4.7417337142
 11
7.5242341159
 21
4.7417182629
  0
LINE
  5
247
100
AcDbEntity
  8
0
100
AcDbLine
 62
7
  6
CONTINUOUS
 10
7.4884165043
 20
4.7375019861
 11
7.4899549172
 21
4.7374386936
  0
LINE
  5
248
100
AcDbEntity
  8
0
100
AcDbLine
 62
7
  6
CONTINUOUS
 10
2.6149594971
 20
5.0791834549
 11
2.930902117
 21
5.0515420574
  0
LINE
  5
249
100
AcDbEntity
  8
0
100
AcDbLine
 62
7
  6
CONTINUOUS
 10
2.6008113442
 20
5.0944543983
 11
2.9474870991
 21
5.0641241998
  0
LINE
  5
24A
100
AcDbEntity
  8
0
100
AcDbLine
 62
7
  6
CONTINUOUS
 10
7.3197275702
 20
4.324117236
 11
7.2412275702
 21
4.349617236
  0
LINE
  5
24B
100
AcDbEntity
  8
0
100
AcDbLine
 62
7
  6
CONTINUOUS
 10
7.2412275702
 20
4.6852592846
 11
7.2523373596
 21
4.696369074
  0
LINE
  5
24C
100
AcDbEntity
  8
0
100
AcDbLine
 62
7
  6
CONTINUOUS
 10
7.7557275702
 20
4.642117236
 11
7.7687275702
 21
4.649617236
  0
LINE
  5
24D
100
AcDbEntity
  8
0
100
AcDbLine
 62
7
  6
CONTINUOUS
 10
2.596951762
 20
5.4461822783
 11
3.0123649511
 21
5.4098383336
  0
LINE
  5
24E
100
AcDbEntity
  8
0
100
AcDbLine
 62
7
  6
CONTINUOUS
 10
7.2784775702
 20
5.289617236
 11
7.7314775702
 21
5.289617236
  0
LINE
  5
24F
100
AcDbEntity
  8
0
100
AcDbLine
 62
7
  6
CONTINUOUS
 10
7.7226081478
 20
5.353117236
 11
7.2873471378
 21
5.353117236
  0
LINE
  5
250
100
AcDbEntity
  8
0
100
AcDbLine
 62
7
  6
CONTINUOUS
 10
7.2938241753
 20
5.358117236
 11
7.7161309652
 21
5.358117236
  0
LINE
  5
251
100
AcDbEntity
  8
0
100
AcDbLine
 62
7
  6
CONTINUOUS
 10
6.9302325298
 20
5.4399928548
 11
7.1255528387
 21
5.4399928548
  0
LINE
  5
252
100
AcDbEntity
  8
0
100
AcDbLine
 62
7
  6
CONTINUOUS
 10
2.6103221165
 20
5.507216424
 11
3.0097961904
 21
5.4722669711
  0
LINE
  5
253
100
AcDbEntity
  8
0
100
AcDbLine
 62
7
  6
CONTINUOUS
 10
7.7576177808
 20
4.696369074
 11
7.7322325483
 21
4.704617236
  0
LINE
  5
254
100
AcDbEntity
  8
0
100
AcDbLine
 62
7
  6
CONTINUOUS
 10
4.8827767749
 20
5.5418964173
 11
3.7575778091
 21
5.9514353484
  0
LINE
  5
255
100
AcDbEntity
  8
0
100
AcDbLine
 62
7
  6
CONTINUOUS
 10
6.8677325298
 20
5.4872428548
 11
5.1927325298
 21
5.4872428548
  0
LINE
  5
256
100
AcDbEntity
  8
0
100
AcDbLine
 62
7
  6
CONTINUOUS
 10
8.0967325298
 20
5.5029928548
 11
8.0787325298
 21
5.5029928548
  0
LINE
  5
257
100
AcDbEntity
  8
0
100
AcDbLine
 62
7
  6
CONTINUOUS
 10
7.9222325298
 20
5.5422428548
 11
7.8452325298
 21
5.5422428548
  0
LINE
  5
258
100
AcDbEntity
  8
0
100
AcDbLine
 62
7
  6
CONTINUOUS
 10
8.0487325298
 20
5.5542428548
 11
8.0332325298
 21
5.5542428548
  0
LINE
  5
259
100
AcDbEntity
  8
0
100
AcDbLine
 62
7
  6
CONTINUOUS
 10
4.9896580697
 20
5.8355503612
 11
3.8644591039
 21
6.2450892924
  0
LINE
  5
25A
100
AcDbEntity
  8
0
100
AcDbLine
 62
7
  6
CONTINUOUS
 10
7.2542275702
 20
4.642117236
 11
7.2412275702
 21
4.649617236
  0
LINE
  5
25B
100
AcDbEntity
  8
0
100
AcDbLine
 62
7
  6
CONTINUOUS
 10
6.8677325298
 20
5.8469928548
 11
6.8677325298
 21
5.4399928548
  0
LINE
  5
25C
100
AcDbEntity
  8
0
100
AcDbLine
 62
7
  6
CONTINUOUS
 10
6.9174775702
 20
1.929617236
 11
6.9174775702
 21
1.874617236
  0
LINE
  5
25D
100
AcDbEntity
  8
0
100
AcDbLine
 62
7
  6
CONTINUOUS
 10
6.9302325298
 20
5.8469928548
 11
6.9302325298
 21
5.4399928548
  0
LINE
  5
25E
100
AcDbEntity
  8
0
100
AcDbLine
 62
7
  6
CONTINUOUS
 10
8.0487325298
 20
5.7327428548
 11
8.0332325298
 21
5.7327428548
  0
LINE
  5
25F
100
AcDbEntity
  8
0
100
AcDbLine
 62
7
  6
CONTINUOUS
 10
7.9222325298
 20
5.7447428548
 11
7.8452325298
 21
5.7447428548
  0
LINE
  5
260
100
AcDbEntity
  8
0
100
AcDbLine
 62
7
  6
CONTINUOUS
 10
8.0967325298
 20
5.7839928548
 11
8.0787325298
 21
5.7839928548
  0
LINE
  5
261
100
AcDbEntity
  8
0
100
AcDbLine
 62
7
  6
CONTINUOUS
 10
6.8677325298
 20
5.7997428548
 11
5.1927325298
 21
5.7997428548
  0
LINE
  5
262
100
AcDbEntity
  8
0
100
AcDbLine
 62
7
  6
CONTINUOUS
 10
6.9302325298
 20
5.8469928548
 11
7.1255528387
 21
5.8469928548
  0
LINE
  5
263
100
AcDbEntity
  8
0
100
AcDbLine
 62
7
  6
CONTINUOUS
 10
7.7695737279
 20
4.634117236
 11
7.7557275702
 21
4.642117236
  0
LINE
  5
264
100
AcDbEntity
  8
0
100
AcDbLine
 62
7
  6
CONTINUOUS
 10
7.1255528387
 20
5.8469928548
 11
7.1255528387
 21
5.4399928548
  0
LINE
  5
265
100
AcDbEntity
  8
0
100
AcDbLine
 62
7
  6
CONTINUOUS
 10
7.1519097638
 20
5.8327428548
 11
7.1519097638
 21
5.4542428548
  0
LINE
  5
266
100
AcDbEntity
  8
0
100
AcDbLine
 62
7
  6
CONTINUOUS
 10
7.204893837
 20
5.8331629713
 11
7.204893837
 21
5.4538227384
  0
LINE
  5
267
100
AcDbEntity
  8
0
100
AcDbLine
 62
7
  6
CONTINUOUS
 10
7.2262275702
 20
4.389117236
 11
7.2262275702
 21
4.594117236
  0
LINE
  5
268
100
AcDbEntity
  8
0
100
AcDbLine
 62
7
  6
CONTINUOUS
 10
7.2412275702
 20
4.649617236
 11
7.2412275702
 21
4.6852592846
  0
LINE
  5
269
100
AcDbEntity
  8
0
100
AcDbLine
 62
7
  6
CONTINUOUS
 10
7.2732275702
 20
6.382617236
 11
7.2732275702
 21
6.355617236
  0
LINE
  5
26A
100
AcDbEntity
  8
0
100
AcDbLine
 62
7
  6
CONTINUOUS
 10
7.3332275702
 20
4.144617236
 11
7.3332275702
 21
4.324117236
  0
LINE
  5
26B
100
AcDbEntity
  8
0
100
AcDbLine
 62
7
  6
CONTINUOUS
 10
7.3337275702
 20
6.091617236
 11
7.3337275702
 21
5.959117236
  0
LINE
  5
26C
100
AcDbEntity
  8
0
100
AcDbLine
 62
7
  6
CONTINUOUS
 10
7.2964099442
 20
4.1126314419
 11
7.2427861718
 21
3.671117236
  0
LINE
  5
26D
100
AcDbEntity
  8
0
100
AcDbLine
 62
7
  6
CONTINUOUS
 10
7.3337275702
 20
5.959117236
 11
7.6762275702
 21
5.959117236
  0
LINE
  5
26E
100
AcDbEntity
  8
0
100
AcDbLine
 62
7
  6
CONTINUOUS
 10
7.4348883414
 20
6.091617236
 11
7.3337275702
 21
6.091617236
  0
LINE
  5
26F
100
AcDbEntity
  8
0
100
AcDbLine
 62
7
  6
CONTINUOUS
 10
7.5750667991
 20
6.091617236
 11
7.6762275702
 21
6.091617236
  0
LINE
  5
270
100
AcDbEntity
  8
0
100
AcDbLine
 62
7
  6
CONTINUOUS
 10
7.4501301161
 20
6.1033491163
 11
7.3393807534
 21
6.1033491163
  0
LINE
  5
271
100
AcDbEntity
  8
0
100
AcDbLine
 62
7
  6
CONTINUOUS
 10
7.5598250244
 20
6.1033491163
 11
7.670574387
 21
6.1033491163
  0
LINE
  5
272
100
AcDbEntity
  8
0
100
AcDbLine
 62
7
  6
CONTINUOUS
 10
7.3487275702
 20
6.459117236
 11
7.3487275702
 21
6.443117236
  0
LINE
  5
273
100
AcDbEntity
  8
0
100
AcDbLine
 62
7
  6
CONTINUOUS
 10
7.3487275702
 20
6.310617236
 11
7.3487275702
 21
6.279117236
  0
LINE
  5
274
100
AcDbEntity
  8
0
100
AcDbLine
 62
7
  6
CONTINUOUS
 10
7.4348883414
 20
6.091617236
 11
7.4348883414
 21
5.959117236
  0
LINE
  5
275
100
AcDbEntity
  8
0
100
AcDbLine
 62
7
  6
CONTINUOUS
 10
7.4624775702
 20
4.7286881029
 11
7.4624775702
 21
4.7351006025
  0
LINE
  5
276
100
AcDbEntity
  8
0
100
AcDbLine
 62
7
  6
CONTINUOUS
 10
7.4624775702
 20
4.7368340374
 11
7.4624775702
 21
4.7409353942
  0
LINE
  5
277
100
AcDbEntity
  8
0
100
AcDbLine
 62
7
  6
CONTINUOUS
 10
7.4738628926
 20
4.7386051377
 11
7.4738628926
 21
4.7399572981
  0
LINE
  5
278
100
AcDbEntity
  8
0
100
AcDbLine
 62
7
  6
CONTINUOUS
 10
7.4744775702
 20
4.729143355
 11
7.4744775702
 21
4.7319874275
  0
LINE
  5
279
100
AcDbEntity
  8
0
100
AcDbLine
 62
7
  6
CONTINUOUS
 10
7.4744775702
 20
4.7410005691
 11
7.4744775702
 21
4.7415009671
  0
LINE
  5
27A
100
AcDbEntity
  8
0
100
AcDbLine
 62
7
  6
CONTINUOUS
 10
7.4744775702
 20
4.7351662724
 11
7.4744775702
 21
4.7356704674
  0
LINE
  5
27B
100
AcDbEntity
  8
0
100
AcDbLine
 62
7
  6
CONTINUOUS
 10
7.4810960074
 20
4.7377456268
 11
7.4810960074
 21
4.7382481361
  0
LINE
  5
27C
100
AcDbEntity
  8
0
100
AcDbLine
 62
7
  6
CONTINUOUS
 10
7.482539828
 20
4.7348094654
 11
7.482539828
 21
4.7353138945
  0
LINE
  5
27D
100
AcDbEntity
  8
0
100
AcDbLine
 62
7
  6
CONTINUOUS
 10
7.4888628926
 20
4.7412895193
 11
7.4888628926
 21
4.7417897308
  0
LINE
  5
27E
100
AcDbEntity
  8
0
100
AcDbLine
 62
7
  6
CONTINUOUS
 10
7.4908857335
 20
4.7256868659
 11
7.4908857335
 21
4.7257501643
  0
LINE
  5
27F
100
AcDbEntity
  8
0
100
AcDbLine
 62
7
  6
CONTINUOUS
 10
7.521569407
 20
4.7255172902
 11
7.521569407
 21
4.7256996274
  0
LINE
  5
280
100
AcDbEntity
  8
0
100
AcDbLine
 62
7
  6
CONTINUOUS
 10
7.5235922479
 20
4.7412334666
 11
7.5235922479
 21
4.7417337142
  0
LINE
  5
281
100
AcDbEntity
  8
0
100
AcDbLine
 62
7
  6
CONTINUOUS
 10
7.5299153125
 20
4.7347323557
 11
7.5299153125
 21
4.7352368354
  0
LINE
  5
282
100
AcDbEntity
  8
0
100
AcDbLine
 62
7
  6
CONTINUOUS
 10
7.5379775702
 20
4.7290392306
 11
7.5379775702
 21
4.7318836901
  0
LINE
  5
283
100
AcDbEntity
  8
0
100
AcDbLine
 62
7
  6
CONTINUOUS
 10
7.5379775702
 20
4.7408980395
 11
7.5379775702
 21
4.7413985038
  0
LINE
  5
284
100
AcDbEntity
  8
0
100
AcDbLine
 62
7
  6
CONTINUOUS
 10
7.5379775702
 20
4.7350629642
 11
7.5379775702
 21
4.735567227
  0
LINE
  5
285
100
AcDbEntity
  8
0
100
AcDbLine
 62
7
  6
CONTINUOUS
 10
7.5469775702
 20
4.7409626816
 11
7.5469775702
 21
4.739698863
  0
LINE
  5
286
100
AcDbEntity
  8
0
100
AcDbLine
 62
7
  6
CONTINUOUS
 10
7.5469775702
 20
4.7351280972
 11
7.5469775702
 21
4.7287158289
  0
LINE
  5
287
100
AcDbEntity
  8
0
100
AcDbLine
 62
7
  6
CONTINUOUS
 10
7.5750667991
 20
6.091617236
 11
7.5750667991
 21
5.959117236
  0
LINE
  5
288
100
AcDbEntity
  8
0
100
AcDbLine
 62
7
  6
CONTINUOUS
 10
7.3487275702
 20
6.279117236
 11
7.6612275702
 21
6.279117236
  0
LINE
  5
289
100
AcDbEntity
  8
0
100
AcDbLine
 62
7
  6
CONTINUOUS
 10
7.6917275702
 20
6.310617236
 11
7.3182276746
 21
6.310617236
  0
LINE
  5
28A
100
AcDbEntity
  8
0
100
AcDbLine
 62
7
  6
CONTINUOUS
 10
7.2732275702
 20
6.355617236
 11
7.7367275702
 21
6.355617236
  0
LINE
  5
28B
100
AcDbEntity
  8
0
100
AcDbLine
 62
7
  6
CONTINUOUS
 10
7.2732275702
 20
6.382617236
 11
7.7367275702
 21
6.382617236
  0
LINE
  5
28C
100
AcDbEntity
  8
0
100
AcDbLine
 62
7
  6
CONTINUOUS
 10
7.7687275702
 20
4.6852592846
 11
7.7576177808
 21
4.696369074
  0
LINE
  5
28D
100
AcDbEntity
  8
0
100
AcDbLine
 62
7
  6
CONTINUOUS
 10
7.6612275702
 20
6.459117236
 11
7.6612275702
 21
6.443117236
  0
LINE
  5
28E
100
AcDbEntity
  8
0
100
AcDbLine
 62
7
  6
CONTINUOUS
 10
7.6612275702
 20
6.310617236
 11
7.6612275702
 21
6.279117236
  0
LINE
  5
28F
100
AcDbEntity
  8
0
100
AcDbLine
 62
7
  6
CONTINUOUS
 10
7.6762275702
 20
6.091617236
 11
7.6762275702
 21
5.959117236
  0
LINE
  5
290
100
AcDbEntity
  8
0
100
AcDbLine
 62
7
  6
CONTINUOUS
 10
7.6767275702
 20
4.144617236
 11
7.6767275702
 21
4.324117236
  0
LINE
  5
291
100
AcDbEntity
  8
0
100
AcDbLine
 62
7
  6
CONTINUOUS
 10
7.7367275702
 20
6.382617236
 11
7.7367275702
 21
6.355617236
  0
LINE
  5
292
100
AcDbEntity
  8
0
100
AcDbLine
 62
7
  6
CONTINUOUS
 10
7.7687275702
 20
4.649617236
 11
7.7687275702
 21
4.6852592846
  0
LINE
  5
293
100
AcDbEntity
  8
0
100
AcDbLine
 62
7
  6
CONTINUOUS
 10
7.7837275702
 20
4.389117236
 11
7.7837275702
 21
4.594117236
  0
LINE
  5
294
100
AcDbEntity
  8
0
100
AcDbLine
 62
7
  6
CONTINUOUS
 10
7.6917275702
 20
6.427617236
 11
7.3182276746
 21
6.427617236
  0
LINE
  5
295
100
AcDbEntity
  8
0
100
AcDbLine
 62
7
  6
CONTINUOUS
 10
7.3487275702
 20
6.443117236
 11
7.6612275702
 21
6.443117236
  0
LINE
  5
296
100
AcDbEntity
  8
0
100
AcDbLine
 62
7
  6
CONTINUOUS
 10
7.3487275702
 20
6.459117236
 11
7.6612275702
 21
6.459117236
  0
LINE
  5
297
100
AcDbEntity
  8
0
100
AcDbLine
 62
7
  6
CONTINUOUS
 10
7.5987275702
 20
6.521617236
 11
7.4112275702
 21
6.521617236
  0
LINE
  5
298
100
AcDbEntity
  8
0
100
AcDbLine
 62
7
  6
CONTINUOUS
 10
7.7135451963
 20
4.1126314419
 11
7.7671689686
 21
3.671117236
  0
LINE
  5
299
100
AcDbEntity
  8
0
100
AcDbLine
 62
7
  6
CONTINUOUS
 10
7.8452325298
 20
5.5422428548
 11
7.8452325298
 21
5.7447428548
  0
LINE
  5
29A
100
AcDbEntity
  8
0
100
AcDbLine
 62
7
  6
CONTINUOUS
 10
7.9222325298
 20
5.5422428548
 11
7.9222325298
 21
5.7447428548
  0
LINE
  5
29B
100
AcDbEntity
  8
0
100
AcDbLine
 62
7
  6
CONTINUOUS
 10
7.9413343608
 20
5.5524319199
 11
7.9413343608
 21
5.7345537898
  0
LINE
  5
29C
100
AcDbEntity
  8
0
100
AcDbLine
 62
7
  6
CONTINUOUS
 10
8.0256827191
 20
5.557685389
 11
8.0256827191
 21
5.7293003207
  0
LINE
  5
29D
100
AcDbEntity
  8
0
100
AcDbLine
 62
7
  6
CONTINUOUS
 10
8.0332325298
 20
5.5542428548
 11
8.0332325298
 21
5.7327428548
  0
LINE
  5
29E
100
AcDbEntity
  8
0
100
AcDbLine
 62
7
  6
CONTINUOUS
 10
8.0487325298
 20
5.5329928548
 11
8.0487325298
 21
5.7539928548
  0
LINE
  5
29F
100
AcDbEntity
  8
0
100
AcDbLine
 62
7
  6
CONTINUOUS
 10
8.0787325298
 20
5.5029928548
 11
8.0787325298
 21
5.7839928548
  0
LINE
  5
2A0
100
AcDbEntity
  8
0
100
AcDbLine
 62
7
  6
CONTINUOUS
 10
8.0924775702
 20
1.929617236
 11
8.0924775702
 21
1.874617236
  0
LINE
  5
2A1
100
AcDbEntity
  8
0
100
AcDbLine
 62
7
  6
CONTINUOUS
 10
8.0967325298
 20
5.5029928548
 11
8.0967325298
 21
5.7839928548
  0
LINE
  5
2A2
100
AcDbEntity
  8
0
100
AcDbLine
 62
7
  6
CONTINUOUS
 10
8.1267325298
 20
5.5329928548
 11
8.1267325298
 21
5.7539928548
  0
LINE
  5
2A3
100
AcDbEntity
  8
0
100
AcDbLine
 62
7
  6
CONTINUOUS
 10
8.1702325298
 20
5.5869713443
 11
8.1702325298
 21
5.7000143654
  0
ARC
  5
2A4
100
AcDbEntity
  8
0
100
AcDbCircle
 62
7
  6
CONTINUOUS
 10
5.4288015593
 20
4.070995673
 40
1.875
100
AcDbArc
 50
1.7022201484
 51
8.1061112974
  0
ARC
  5
2A5
100
AcDbEntity
  8
0
100
AcDbCircle
 62
7
  6
CONTINUOUS
 10
5.1927325298
 20
6.3934928548
 40
0.90625
100
AcDbArc
 50
250.0
 51
270.0
  0
ARC
  5
2A6
100
AcDbEntity
  8
0
100
AcDbCircle
 62
7
  6
CONTINUOUS
 10
3.554503349
 20
5.3934928548
 40
0.90625
100
AcDbArc
 50
70.0
 51
173.0397067768
  0
ARC
  5
2A7
100
AcDbEntity
  8
0
100
AcDbCircle
 62
7
  6
CONTINUOUS
 10
5.1927325298
 20
6.3934928548
 40
0.59375
100
AcDbArc
 50
250.0
 51
270.0
  0
ARC
  5
2A8
100
AcDbEntity
  8
0
100
AcDbCircle
 62
7
  6
CONTINUOUS
 10
3.554503349
 20
5.3934928548
 40
0.59375
100
AcDbArc
 50
70.0
 51
172.0071964443
  0
ARC
  5
2A9
100
AcDbEntity
  8
0
100
AcDbCircle
 62
7
  6
CONTINUOUS
 10
2.6075767106
 20
5.475836291
 40
0.0315
100
AcDbArc
 50
85.0
 51
250.2875420391
  0
ARC
  5
2AA
100
AcDbEntity
  8
0
100
AcDbCircle
 62
7
  6
CONTINUOUS
 10
3.0070507845
 20
5.4408868381
 40
0.0315
100
AcDbArc
 50
279.7124579609
 51
85.0
  0
ARC
  5
2AB
100
AcDbEntity
  8
0
100
AcDbCircle
 62
7
  6
CONTINUOUS
 10
2.6163104111
 20
5.0946244728
 40
0.0155
100
AcDbArc
 50
180.6286931203
 51
265.0
  0
ARC
  5
2AC
100
AcDbEntity
  8
0
100
AcDbCircle
 62
7
  6
CONTINUOUS
 10
2.932253031
 20
5.0669830752
 40
0.0155
100
AcDbArc
 50
265.0
 51
349.3713068797
  0
ARC
  5
2AD
100
AcDbEntity
  8
0
100
AcDbCircle
 62
7
  6
CONTINUOUS
 10
6.6064725123
 20
2.4667510487
 40
0.6610050579
100
AcDbArc
 50
340.5168569435
 51
33.0831922526
  0
ARC
  5
2AE
100
AcDbEntity
  8
0
100
AcDbCircle
 62
7
  6
CONTINUOUS
 10
7.7306510889
 20
2.0488454797
 40
0.185
100
AcDbArc
 50
4.890558368
 51
77.7266696591
  0
ARC
  5
2AF
100
AcDbEntity
  8
0
100
AcDbCircle
 62
7
  6
CONTINUOUS
 10
7.2793040515
 20
2.0488454797
 40
0.185
100
AcDbArc
 50
102.2733303409
 51
175.109441632
  0
ARC
  5
2B0
100
AcDbEntity
  8
0
100
AcDbCircle
 62
7
  6
CONTINUOUS
 10
8.0648775302
 20
2.069617236
 40
0.125
100
AcDbArc
 50
182.292442776
 51
270.0
  0
ARC
  5
2B1
100
AcDbEntity
  8
0
100
AcDbCircle
 62
7
  6
CONTINUOUS
 10
6.9450776103
 20
2.069617236
 40
0.125
100
AcDbArc
 50
270.0
 51
357.707557224
  0
ARC
  5
2B2
100
AcDbEntity
  8
0
100
AcDbCircle
 62
7
  6
CONTINUOUS
 10
7.1749775702
 20
2.837117236
 40
0.0175
100
AcDbArc
 50
90.0
 51
213.0831922526
  0
ARC
  5
2B3
100
AcDbEntity
  8
0
100
AcDbCircle
 62
7
  6
CONTINUOUS
 10
7.8349775702
 20
2.837117236
 40
0.0175
100
AcDbArc
 50
326.9168077474
 51
90.0
  0
ARC
  5
2B4
100
AcDbEntity
  8
0
100
AcDbCircle
 62
7
  6
CONTINUOUS
 10
8.0774775702
 20
1.929617236
 40
0.015
100
AcDbArc
 50
0.0
 51
90.0
  0
ARC
  5
2B5
100
AcDbEntity
  8
0
100
AcDbCircle
 62
7
  6
CONTINUOUS
 10
6.9324775702
 20
1.929617236
 40
0.015
100
AcDbArc
 50
90.0
 51
180.0
  0
ARC
  5
2B6
100
AcDbEntity
  8
0
100
AcDbCircle
 62
7
  6
CONTINUOUS
 10
7.2414124412
 20
2.242117236
 40
0.0125
100
AcDbArc
 50
160.5168569435
 51
267.5670412654
  0
ARC
  5
2B7
100
AcDbEntity
  8
0
100
AcDbCircle
 62
7
  6
CONTINUOUS
 10
7.7685426993
 20
2.242117236
 40
0.0125
100
AcDbArc
 50
272.4329587346
 51
19.4831430565
  0
ARC
  5
2B8
100
AcDbEntity
  8
0
100
AcDbCircle
 62
7
  6
CONTINUOUS
 10
7.1784974936
 20
2.864617236
 40
0.01
100
AcDbArc
 50
270.0
 51
32.2911569963
  0
ARC
  5
2B9
100
AcDbEntity
  8
0
100
AcDbCircle
 62
7
  6
CONTINUOUS
 10
7.8314576469
 20
2.864617236
 40
0.01
100
AcDbArc
 50
147.7088430037
 51
270.0
  0
ARC
  5
2BA
100
AcDbEntity
  8
0
100
AcDbCircle
 62
7
  6
CONTINUOUS
 10
7.3749397925
 20
3.153117236
 40
0.5300377778
100
AcDbArc
 50
327.7088430037
 51
35.1694359445
  0
ARC
  5
2BB
100
AcDbEntity
  8
0
100
AcDbCircle
 62
7
  6
CONTINUOUS
 10
7.242607374
 20
3.429617236
 40
0.05
100
AcDbArc
 50
90.0
 51
144.8305640555
  0
ARC
  5
2BC
100
AcDbEntity
  8
0
100
AcDbCircle
 62
7
  6
CONTINUOUS
 10
7.2317275702
 20
3.526367236
 40
0.04675
100
AcDbArc
 50
142.0339977482
 51
270.0
  0
ARC
  5
2BD
100
AcDbEntity
  8
0
100
AcDbCircle
 62
7
  6
CONTINUOUS
 10
7.2112275702
 20
3.457367236
 40
0.03175
100
AcDbArc
 50
102.2891381877
 51
220.7741815461
  0
ARC
  5
2BE
100
AcDbEntity
  8
0
100
AcDbCircle
 62
7
  6
CONTINUOUS
 10
7.4900600341
 20
3.9899993477
 40
0.7473438606
100
AcDbArc
 50
90.0446551133
 51
92.1151144109
  0
ARC
  5
2BF
100
AcDbEntity
  8
0
100
AcDbCircle
 62
7
  6
CONTINUOUS
 10
7.4659732094
 20
4.173393431
 40
0.5650571094
100
AcDbArc
 50
87.3532425516
 51
88.4663922313
  0
ARC
  5
2C0
100
AcDbEntity
  8
0
100
AcDbCircle
 62
7
  6
CONTINUOUS
 10
7.4659737227
 20
4.1732785267
 40
0.5646696296
100
AcDbArc
 50
87.7221805793
 51
88.4653917189
  0
ARC
  5
2C1
100
AcDbEntity
  8
0
100
AcDbCircle
 62
7
  6
CONTINUOUS
 10
7.0099968395
 20
3.6993904875
 40
0.2345
100
AcDbArc
 50
322.0339977482
 51
353.0751017558
  0
ARC
  5
2C2
100
AcDbEntity
  8
0
100
AcDbCircle
 62
7
  6
CONTINUOUS
 10
7.3212275702
 20
4.109617236
 40
0.025
100
AcDbArc
 50
90.0
 51
173.0751017558
  0
ARC
  5
2C3
100
AcDbEntity
  8
0
100
AcDbCircle
 62
7
  6
CONTINUOUS
 10
7.635015348
 20
3.153117236
 40
0.5300377778
100
AcDbArc
 50
144.8305640555
 51
212.2911569963
  0
ARC
  5
2C4
100
AcDbEntity
  8
0
100
AcDbCircle
 62
7
  6
CONTINUOUS
 10
7.7673477665
 20
3.429617236
 40
0.05
100
AcDbArc
 50
35.1694359445
 51
90.0
  0
ARC
  5
2C5
100
AcDbEntity
  8
0
100
AcDbCircle
 62
7
  6
CONTINUOUS
 10
7.7782275702
 20
3.526367236
 40
0.04675
100
AcDbArc
 50
270.0
 51
37.9660022518
  0
ARC
  5
2C6
100
AcDbEntity
  8
0
100
AcDbCircle
 62
7
  6
CONTINUOUS
 10
7.7987275702
 20
3.457367236
 40
0.03175
100
AcDbArc
 50
319.2258184539
 51
77.7108618123
  0
ARC
  5
2C7
100
AcDbEntity
  8
0
100
AcDbCircle
 62
7
  6
CONTINUOUS
 10
7.5049775702
 20
3.9667822283
 40
0.7753350077
100
AcDbArc
 50
88.6231111619
 51
91.1920956682
  0
ARC
  5
2C8
100
AcDbEntity
  8
0
100
AcDbCircle
 62
7
  6
CONTINUOUS
 10
7.5049775702
 20
3.9667822283
 40
0.7753188855
100
AcDbArc
 50
92.2545204889
 51
104.7630312681
  0
ARC
  5
2C9
100
AcDbEntity
  8
0
100
AcDbCircle
 62
7
  6
CONTINUOUS
 10
7.5049775702
 20
3.9667822283
 40
0.7753188855
100
AcDbArc
 50
75.2369687319
 51
87.5605752481
  0
ARC
  5
2CA
100
AcDbEntity
  8
0
100
AcDbCircle
 62
7
  6
CONTINUOUS
 10
7.5049775702
 20
3.9667822283
 40
0.7751750201
100
AcDbArc
 50
88.6239946244
 51
91.1911755502
  0
ARC
  5
2CB
100
AcDbEntity
  8
0
100
AcDbCircle
 62
7
  6
CONTINUOUS
 10
7.5049775702
 20
3.9667822283
 40
0.7748188751
100
AcDbArc
 50
86.8926895707
 51
87.5590000722
  0
ARC
  5
2CC
100
AcDbEntity
  8
0
100
AcDbCircle
 62
7
  6
CONTINUOUS
 10
7.5049775702
 20
3.9667822283
 40
0.7748188751
100
AcDbArc
 50
92.2559761406
 51
93.1443391817
  0
ARC
  5
2CD
100
AcDbEntity
  8
0
100
AcDbCircle
 62
7
  6
CONTINUOUS
 10
7.5049775702
 20
3.9667822283
 40
0.7746749168
100
AcDbArc
 50
88.6231061521
 51
91.1919446428
  0
ARC
  5
2CE
100
AcDbEntity
  8
0
100
AcDbCircle
 62
7
  6
CONTINUOUS
 10
7.5049775702
 20
3.9667822283
 40
0.7746000979
100
AcDbArc
 50
88.6229731319
 51
91.1920597897
  0
ARC
  5
2CF
100
AcDbEntity
  8
0
100
AcDbCircle
 62
7
  6
CONTINUOUS
 10
7.5049775702
 20
3.9667822283
 40
0.7740569257
100
AcDbArc
 50
86.889627857
 51
87.5565957966
  0
ARC
  5
2D0
100
AcDbEntity
  8
0
100
AcDbCircle
 62
7
  6
CONTINUOUS
 10
7.5049775702
 20
3.9667822283
 40
0.7694929332
100
AcDbArc
 50
92.2715987345
 51
93.1661244052
  0
ARC
  5
2D1
100
AcDbEntity
  8
0
100
AcDbCircle
 62
7
  6
CONTINUOUS
 10
7.5049775702
 20
3.9667822283
 40
0.7694929332
100
AcDbArc
 50
86.871161409
 51
87.5420946835
  0
ARC
  5
2D2
100
AcDbEntity
  8
0
100
AcDbCircle
 62
7
  6
CONTINUOUS
 10
7.5049775702
 20
3.9667822283
 40
0.7689891346
100
AcDbArc
 50
92.2730877396
 51
93.1682007883
  0
ARC
  5
2D3
100
AcDbEntity
  8
0
100
AcDbCircle
 62
7
  6
CONTINUOUS
 10
7.5049775702
 20
3.9667822283
 40
0.7689891346
100
AcDbArc
 50
86.8691095275
 51
87.5404834123
  0
ARC
  5
2D4
100
AcDbEntity
  8
0
100
AcDbCircle
 62
7
  6
CONTINUOUS
 10
7.5049775702
 20
3.9667822283
 40
0.7688591381
100
AcDbArc
 50
88.1413005927
 51
91.6723095547
  0
ARC
  5
2D5
100
AcDbEntity
  8
0
100
AcDbCircle
 62
7
  6
CONTINUOUS
 10
7.5049775702
 20
3.9667822283
 40
0.768354924
100
AcDbArc
 50
88.1400804383
 51
91.6734072789
  0
ARC
  5
2D6
100
AcDbEntity
  8
0
100
AcDbCircle
 62
7
  6
CONTINUOUS
 10
7.5049775702
 20
3.9667822283
 40
0.7662813403
100
AcDbArc
 50
87.7562904206
 51
92.0566497773
  0
ARC
  5
2D7
100
AcDbEntity
  8
0
100
AcDbCircle
 62
7
  6
CONTINUOUS
 10
7.999958301
 20
3.6993904875
 40
0.2345
100
AcDbArc
 50
186.9248982442
 51
217.9660022518
  0
ARC
  5
2D8
100
AcDbEntity
  8
0
100
AcDbCircle
 62
7
  6
CONTINUOUS
 10
7.6887275702
 20
4.109617236
 40
0.025
100
AcDbArc
 50
6.9248982442
 51
90.0
  0
ARC
  5
2D9
100
AcDbEntity
  8
0
100
AcDbCircle
 62
7
  6
CONTINUOUS
 10
8.4034826281
 20
2.4667510487
 40
0.6610050579
100
AcDbArc
 50
146.9168077474
 51
199.4831430565
  0
ARC
  5
2DA
100
AcDbEntity
  8
0
100
AcDbCircle
 62
7
  6
CONTINUOUS
 10
9.5811535812
 20
4.070995673
 40
1.875
100
AcDbArc
 50
171.8938887026
 51
178.2977798516
  0
ARC
  5
2DB
100
AcDbEntity
  8
0
100
AcDbCircle
 62
7
  6
CONTINUOUS
 10
6.2613691365
 20
4.996117236
 40
1.0586084337
100
AcDbArc
 50
344.0162440537
 51
16.0961901843
  0
ARC
  5
2DC
100
AcDbEntity
  8
0
100
AcDbCircle
 62
7
  6
CONTINUOUS
 10
7.1408281798
 20
4.6106581438
 40
0.68
100
AcDbArc
 50
337.4255442891
 51
340.9862257999
  0
ARC
  5
2DD
100
AcDbEntity
  8
0
100
AcDbCircle
 62
7
  6
CONTINUOUS
 10
7.1359115479
 20
4.3873942302
 40
0.68
100
AcDbArc
 50
17.6982774827
 51
21.2739720086
  0
ARC
  5
2DE
100
AcDbEntity
  8
0
100
AcDbCircle
 62
7
  6
CONTINUOUS
 10
7.458434508
 20
4.540367236
 40
0.2322069378
100
AcDbArc
 50
153.4533900346
 51
154.9963676068
  0
ARC
  5
2DF
100
AcDbEntity
  8
0
100
AcDbCircle
 62
7
  6
CONTINUOUS
 10
7.2873469927
 20
5.3207478135
 40
0.0323694225
100
AcDbArc
 50
90.0
 51
254.0972010097
  0
ARC
  5
2E0
100
AcDbEntity
  8
0
100
AcDbCircle
 62
7
  6
CONTINUOUS
 10
7.3112275702
 20
4.7020170625
 40
0.015
100
AcDbArc
 50
104.7630312681
 51
170.0167770169
  0
ARC
  5
2E1
100
AcDbEntity
  8
0
100
AcDbCircle
 62
7
  6
CONTINUOUS
 10
7.2660589529
 20
6.1953807254
 40
0.1176686173
100
AcDbArc
 50
308.5444150902
 51
45.36768663
  0
ARC
  5
2E2
100
AcDbEntity
  8
0
100
AcDbCircle
 62
7
  6
CONTINUOUS
 10
7.4112275702
 20
6.459117236
 40
0.0625
100
AcDbArc
 50
90.0
 51
180.0
  0
ARC
  5
2E3
100
AcDbEntity
  8
0
100
AcDbCircle
 62
7
  6
CONTINUOUS
 10
7.3182275702
 20
6.382617236
 40
0.045
100
AcDbArc
 50
90.0
 51
180.0
  0
ARC
  5
2E4
100
AcDbEntity
  8
0
100
AcDbCircle
 62
7
  6
CONTINUOUS
 10
7.3182275702
 20
6.355617236
 40
0.045
100
AcDbArc
 50
180.0
 51
270.0
  0
ARC
  5
2E5
100
AcDbEntity
  8
0
100
AcDbCircle
 62
7
  6
CONTINUOUS
 10
7.1255528387
 20
5.8154928548
 40
0.0315
100
AcDbArc
 50
33.20382253
 51
90.0
  0
ARC
  5
2E6
100
AcDbEntity
  8
0
100
AcDbCircle
 62
7
  6
CONTINUOUS
 10
7.1255528387
 20
5.4714928548
 40
0.0315
100
AcDbArc
 50
270.0
 51
326.79617747
  0
ARC
  5
2E7
100
AcDbEntity
  8
0
100
AcDbCircle
 62
7
  6
CONTINUOUS
 10
7.1782666889
 20
5.8499928548
 40
0.0315
100
AcDbArc
 50
213.20382253
 51
327.7047672559
  0
ARC
  5
2E8
100
AcDbEntity
  8
0
100
AcDbCircle
 62
7
  6
CONTINUOUS
 10
7.1782666889
 20
5.4369928548
 40
0.0315
100
AcDbArc
 50
32.2952327441
 51
146.79617747
  0
ARC
  5
2E9
100
AcDbEntity
  8
0
100
AcDbCircle
 62
7
  6
CONTINUOUS
 10
6.8989825298
 20
5.8469928548
 40
0.03125
100
AcDbArc
 50
0.0
 51
180.0
  0
ARC
  5
2EA
100
AcDbEntity
  8
0
100
AcDbCircle
 62
7
  6
CONTINUOUS
 10
6.8989825298
 20
5.4399928548
 40
0.03125
100
AcDbArc
 50
180.0
 51
360.0
  0
ARC
  5
2EB
100
AcDbEntity
  8
0
100
AcDbCircle
 62
7
  6
CONTINUOUS
 10
7.3332275702
 20
6.443117236
 40
0.0155
100
AcDbArc
 50
270.0
 51
360.0
  0
ARC
  5
2EC
100
AcDbEntity
  8
0
100
AcDbCircle
 62
7
  6
CONTINUOUS
 10
7.3487275702
 20
6.091617236
 40
0.015
100
AcDbArc
 50
128.5444150902
 51
180.0
  0
ARC
  5
2ED
100
AcDbEntity
  8
0
100
AcDbCircle
 62
7
  6
CONTINUOUS
 10
8.748586004
 20
4.996117236
 40
1.0586084337
100
AcDbArc
 50
163.9038098157
 51
195.9837559463
  0
ARC
  5
2EE
100
AcDbEntity
  8
0
100
AcDbCircle
 62
7
  6
CONTINUOUS
 10
7.8691269606
 20
4.6106581438
 40
0.68
100
AcDbArc
 50
199.0137742001
 51
202.5744557109
  0
ARC
  5
2EF
100
AcDbEntity
  8
0
100
AcDbCircle
 62
7
  6
CONTINUOUS
 10
7.8740435926
 20
4.3873942302
 40
0.68
100
AcDbArc
 50
158.7260279914
 51
162.3017225173
  0
ARC
  5
2F0
100
AcDbEntity
  8
0
100
AcDbCircle
 62
7
  6
CONTINUOUS
 10
7.5080161214
 20
5.0111475147
 40
0.2857694664
100
AcDbArc
 50
272.4086250074
 51
272.7184061514
  0
ARC
  5
2F1
100
AcDbEntity
  8
0
100
AcDbCircle
 62
7
  6
CONTINUOUS
 10
7.5053007798
 20
5.0096488511
 40
0.2842644155
100
AcDbArc
 50
267.0932847827
 51
267.2192321516
  0
CIRCLE
  5
2F2
100
AcDbEntity
  8
0
100
AcDbCircle
 62
7
  6
CONTINUOUS
 10
7.5049775702
 20
4.491617236
 40
0.2344999982
  0
ARC
  5
2F3
100
AcDbEntity
  8
0
100
AcDbCircle
 62
7
  6
CONTINUOUS
 10
7.5515206324
 20
4.540367236
 40
0.2322069378
100
AcDbArc
 50
25.0036323932
 51
26.5466099654
  0
ARC
  5
2F4
100
AcDbEntity
  8
0
100
AcDbCircle
 62
7
  6
CONTINUOUS
 10
7.5321562553
 20
4.5253344303
 40
0.2162616376
100
AcDbArc
 50
100.683056413
 51
101.381888457
  0
CIRCLE
  5
2F5
100
AcDbEntity
  8
0
100
AcDbCircle
 62
7
  6
CONTINUOUS
 10
7.5049775702
 20
4.491617236
 40
0.14075
  0
CIRCLE
  5
2F6
100
AcDbEntity
  8
0
100
AcDbCircle
 62
7
  6
CONTINUOUS
 10
7.5049775702
 20
4.491617236
 40
0.13075
  0
CIRCLE
  5
2F7
100
AcDbEntity
  8
0
100
AcDbCircle
 62
7
  6
CONTINUOUS
 10
7.5049775702
 20
4.491617236
 40
0.125
  0
ARC
  5
2F8
100
AcDbEntity
  8
0
100
AcDbCircle
 62
7
  6
CONTINUOUS
 10
7.7226081478
 20
5.3207478135
 40
0.0323694225
100
AcDbArc
 50
285.9027989903
 51
90.0
  0
ARC
  5
2F9
100
AcDbEntity
  8
0
100
AcDbCircle
 62
7
  6
CONTINUOUS
 10
7.6987275702
 20
4.7020170625
 40
0.015
100
AcDbArc
 50
9.9832229831
 51
75.2369687319
  0
ARC
  5
2FA
100
AcDbEntity
  8
0
100
AcDbCircle
 62
7
  6
CONTINUOUS
 10
7.5049775702
 20
5.6434928548
 40
0.355
100
AcDbArc
 50
16.5714774769
 51
62.7582127656
  0
ARC
  5
2FB
100
AcDbEntity
  8
0
100
AcDbCircle
 62
7
  6
CONTINUOUS
 10
7.5049775702
 20
5.6434928548
 40
0.355
100
AcDbArc
 50
306.4982543829
 51
343.4285225231
  0
ARC
  5
2FC
100
AcDbEntity
  8
0
100
AcDbCircle
 62
7
  6
CONTINUOUS
 10
7.5049775702
 20
5.6434928548
 40
0.355
100
AcDbArc
 50
212.2952327441
 51
233.5017456171
  0
ARC
  5
2FD
100
AcDbEntity
  8
0
100
AcDbCircle
 62
7
  6
CONTINUOUS
 10
7.5049775702
 20
5.6434928548
 40
0.355
100
AcDbArc
 50
117.2417872344
 51
147.7047672559
  0
ARC
  5
2FE
100
AcDbEntity
  8
0
100
AcDbCircle
 62
7
  6
CONTINUOUS
 10
7.7438961875
 20
6.1953807254
 40
0.1176686173
100
AcDbArc
 50
134.63231337
 51
231.4555849098
  0
ARC
  5
2FF
100
AcDbEntity
  8
0
100
AcDbCircle
 62
7
  6
CONTINUOUS
 10
7.5987275702
 20
6.459117236
 40
0.0625
100
AcDbArc
 50
0.0
 51
90.0
  0
ARC
  5
300
100
AcDbEntity
  8
0
100
AcDbCircle
 62
7
  6
CONTINUOUS
 10
7.9855177263
 20
5.5227996705
 40
0.0532
100
AcDbArc
 50
40.9762844863
 51
146.1516146287
  0
ARC
  5
301
100
AcDbEntity
  8
0
100
AcDbCircle
 62
7
  6
CONTINUOUS
 10
7.9855177263
 20
5.7641860392
 40
0.0532
100
AcDbArc
 50
213.8483853713
 51
319.0237155137
  0
ARC
  5
302
100
AcDbEntity
  8
0
100
AcDbCircle
 62
7
  6
CONTINUOUS
 10
7.6917275702
 20
6.382617236
 40
0.045
100
AcDbArc
 50
0.0
 51
90.0
  0
ARC
  5
303
100
AcDbEntity
  8
0
100
AcDbCircle
 62
7
  6
CONTINUOUS
 10
7.6917275702
 20
6.355617236
 40
0.045
100
AcDbArc
 50
270.0
 51
360.0
  0
ARC
  5
304
100
AcDbEntity
  8
0
100
AcDbCircle
 62
7
  6
CONTINUOUS
 10
8.1267325298
 20
5.5984928548
 40
0.045
100
AcDbArc
 50
270.0
 51
345.164888418
  0
ARC
  5
305
100
AcDbEntity
  8
0
100
AcDbCircle
 62
7
  6
CONTINUOUS
 10
8.1267325298
 20
5.6884928548
 40
0.045
100
AcDbArc
 50
14.835111582
 51
90.0
  0
ARC
  5
306
100
AcDbEntity
  8
0
100
AcDbCircle
 62
7
  6
CONTINUOUS
 10
8.0967325298
 20
5.5329928548
 40
0.03
100
AcDbArc
 50
270.0
 51
360.0
  0
ARC
  5
307
100
AcDbEntity
  8
0
100
AcDbCircle
 62
7
  6
CONTINUOUS
 10
8.0787325298
 20
5.5329928548
 40
0.03
100
AcDbArc
 50
180.0
 51
270.0
  0
ARC
  5
308
100
AcDbEntity
  8
0
100
AcDbCircle
 62
7
  6
CONTINUOUS
 10
8.0967325298
 20
5.7539928548
 40
0.03
100
AcDbArc
 50
0.0
 51
90.0
  0
ARC
  5
309
100
AcDbEntity
  8
0
100
AcDbCircle
 62
7
  6
CONTINUOUS
 10
8.0787325298
 20
5.7539928548
 40
0.03
100
AcDbArc
 50
90.0
 51
180.0
  0
ARC
  5
30A
100
AcDbEntity
  8
0
100
AcDbCircle
 62
7
  6
CONTINUOUS
 10
7.9222325298
 20
5.5652428548
 40
0.023
100
AcDbArc
 50
270.0
 51
326.1516146287
  0
ARC
  5
30B
100
AcDbEntity
  8
0
100
AcDbCircle
 62
7
  6
CONTINUOUS
 10
7.9222325298
 20
5.7217428548
 40
0.023
100
AcDbArc
 50
33.8483853713
 51
90.0
  0
ARC
  5
30C
100
AcDbEntity
  8
0
100
AcDbCircle
 62
7
  6
CONTINUOUS
 10
7.6767275702
 20
6.443117236
 40
0.0155
100
AcDbArc
 50
180.0
 51
270.0
  0
ARC
  5
30D
100
AcDbEntity
  8
0
100
AcDbCircle
 62
7
  6
CONTINUOUS
 10
7.6612275702
 20
6.091617236
 40
0.015
100
AcDbArc
 50
0.0
 51
51.4555849098
  0
ARC
  5
30E
100
AcDbEntity
  8
0
100
AcDbCircle
 62
7
  6
CONTINUOUS
 10
8.0332325298
 20
5.5642428548
 40
0.01
100
AcDbArc
 50
220.9762844863
 51
270.0
  0
ARC
  5
30F
100
AcDbEntity
  8
0
100
AcDbCircle
 62
7
  6
CONTINUOUS
 10
8.0332325298
 20
5.7227428548
 40
0.01
100
AcDbArc
 50
90.0
 51
139.0237155137
  0
SPLINE
  5
310
100
AcDbEntity
  8
0
100
AcDbSpline
 62
7
  6
CONTINUOUS
 70
0
 71
3
 72
27
 73
23
 74
0
 42
0.0000001
 43
0.0000001
 44
0.0000000001
 40
0.0
 40
0.0
 40
0.0
 40
0.0
 40
0.1936802204
 40
0.3799129566
 40
0.5515784071
 40
0.6298797467
 40
0.7021526111
 40
0.7677140212
 40
0.8259487192
 40
0.8763170272
 40
0.8984054296
 40
0.9183654125
 40
0.9361543601
 40
0.9517403384
 40
0.9651007956
 40
0.9762252136
 40
0.9851293386
 40
0.9918709947
 40
0.994482351
 40
0.9966414949
 40
0.9984322798
 40
1.0
 40
1.0
 40
1.0
 40
1.0
 10
7.4888628926
 20
4.7412146843
 30
0.0
 10
7.4878863118
 20
4.7411943632
 30
0.0
 10
7.4859709207
 20
4.7411428474
 30
0.0
 10
7.4831912344
 20
4.7410329069
 30
0.0
 10
7.480994395
 20
4.7409150156
 30
0.0
 10
7.4793728704
 20
4.7408060498
 30
0.0
 10
7.4782860628
 20
4.7407218568
 30
0.0
 10
7.4773011419
 20
4.7406335638
 30
0.0
 10
7.4764275186
 20
4.7405420567
 30
0.0
 10
7.4757733513
 20
4.7404608665
 30
0.0
 10
7.4753120935
 20
4.740393831
 30
0.0
 10
7.4750141852
 20
4.7403455456
 30
0.0
 10
7.4747495669
 20
4.7402971553
 30
0.0
 10
7.4745188384
 20
4.7402488088
 30
0.0
 10
7.4743225259
 20
4.7402006703
 30
0.0
 10
7.4741609141
 20
4.740152937
 30
0.0
 10
7.4740343447
 20
4.7401057644
 30
0.0
 10
7.4739515812
 20
4.7400643305
 30
0.0
 10
7.47390463
 20
4.7400299087
 30
0.0
 10
7.4738812098
 20
4.7400062608
 30
0.0
 10
7.4738664753
 20
4.7399822415
 30
0.0
 10
7.4738628926
 20
4.7399652046
 30
0.0
 10
7.4738628926
 20
4.7399572981
 30
0.0
  0
SPLINE
  5
311
100
AcDbEntity
  8
0
100
AcDbSpline
 62
7
  6
CONTINUOUS
 70
0
 71
3
 72
21
 73
17
 74
0
 42
0.0000001
 43
0.0000001
 44
0.0000000001
 40
0.0
 40
0.0
 40
0.0
 40
0.0
 40
0.2006702697
 40
0.3795524433
 40
0.460574737
 40
0.5358873967
 40
0.6054581399
 40
0.6692873001
 40
0.7274256557
 40
0.7799791714
 40
0.8271411106
 40
0.8692171966
 40
0.9066824027
 40
0.9402449143
 40
0.9709098403
 40
1.0
 40
1.0
 40
1.0
 40
1.0
 10
7.4722423316
 20
4.7238093229
 30
0.0
 10
7.4714974741
 20
4.7239714699
 30
0.0
 10
7.4700937346
 20
4.7243024647
 30
0.0
 10
7.4684094577
 20
4.7247792446
 30
0.0
 10
7.4672004604
 20
4.7251797423
 30
0.0
 10
7.466395007
 20
4.7254763944
 30
0.0
 10
7.4656618069
 20
4.7257787012
 30
0.0
 10
7.4650020249
 20
4.7260861536
 30
0.0
 10
7.4644166351
 20
4.7263981605
 30
0.0
 10
7.4639064697
 20
4.7267142742
 30
0.0
 10
7.4634721494
 20
4.7270340426
 30
0.0
 10
7.4631141776
 20
4.7273572805
 30
0.0
 10
7.4628330473
 20
4.7276840534
 30
0.0
 10
7.4626296159
 20
4.7280148744
 30
0.0
 10
7.4625057173
 20
4.7283497751
 30
0.0
 10
7.4624775702
 20
4.7285775958
 30
0.0
 10
7.4624775702
 20
4.7286881029
 30
0.0
  0
SPLINE
  5
312
100
AcDbEntity
  8
0
100
AcDbSpline
 62
7
  6
CONTINUOUS
 70
0
 71
3
 72
21
 73
17
 74
0
 42
0.0000001
 43
0.0000001
 44
0.0000000001
 40
0.0
 40
0.0
 40
0.0
 40
0.0
 40
0.1891835614
 40
0.3710438228
 40
0.538741742
 40
0.6861564317
 40
0.7506366925
 40
0.8082397545
 40
0.8585472541
 40
0.901254068
 40
0.9362195837
 40
0.9635874545
 40
0.9746336379
 40
0.9841432326
 40
0.9924364037
 40
1.0
 40
1.0
 40
1.0
 40
1.0
 10
7.4774775702
 20
4.7325699551
 30
0.0
 10
7.4772809917
 20
4.7325628958
 30
0.0
 10
7.4768956303
 20
4.7325431164
 30
0.0
 10
7.4763372969
 20
4.7324966277
 30
0.0
 10
7.4758240824
 20
4.7324354955
 30
0.0
 10
7.4754343157
 20
4.7323721545
 30
0.0
 10
7.4751600202
 20
4.7323146483
 30
0.0
 10
7.47498599
 20
4.7322715099
 30
0.0
 10
7.474835814
 20
4.7322268851
 30
0.0
 10
7.4747106731
 20
4.732181231
 30
0.0
 10
7.4746115932
 20
4.7321350097
 30
0.0
 10
7.4745467837
 20
4.732093805
 30
0.0
 10
7.4745102094
 20
4.7320597389
 30
0.0
 10
7.4744917163
 20
4.7320359018
 30
0.0
 10
7.4744802681
 20
4.7320118575
 30
0.0
 10
7.4744775702
 20
4.7319952918
 30
0.0
 10
7.4744775702
 20
4.7319874275
 30
0.0
  0
SPLINE
  5
313
100
AcDbEntity
  8
0
100
AcDbSpline
 62
7
  6
CONTINUOUS
 70
0
 71
3
 72
21
 73
17
 74
0
 42
0.0000001
 43
0.0000001
 44
0.0000000001
 40
0.0
 40
0.0
 40
0.0
 40
0.0
 40
0.0075657749
 40
0.015867349
 40
0.0253896087
 40
0.0364509321
 40
0.0638517744
 40
0.0988489813
 40
0.1415829171
 40
0.191911175
 40
0.2495275396
 40
0.3140131789
 40
0.4614153347
 40
0.6290743335
 40
0.8108788736
 40
1.0
 40
1.0
 40
1.0
 40
1.0
 10
7.5379775702
 20
4.7318836901
 30
0.0
 10
7.5379775702
 20
4.731891561
 30
0.0
 10
7.5379748681
 20
4.7319081461
 30
0.0
 10
7.5379634162
 20
4.7319322302
 30
0.0
 10
7.5379449189
 20
4.7319561315
 30
0.0
 10
7.537908338
 20
4.7319903221
 30
0.0
 10
7.5378435218
 20
4.7320317443
 30
0.0
 10
7.5377444263
 20
4.7320782985
 30
0.0
 10
7.5376192723
 20
4.7321243684
 30
0.0
 10
7.5374690883
 20
4.7321694887
 30
0.0
 10
7.5372950571
 20
4.7322131987
 30
0.0
 10
7.5370207871
 20
4.7322716001
 30
0.0
 10
7.5366310588
 20
4.7323362155
 30
0.0
 10
7.5361178739
 20
4.7323990285
 30
0.0
 10
7.5355595513
 20
4.7324473469
 30
0.0
 10
7.5351741677
 20
4.732468389
 30
0.0
 10
7.5349775702
 20
4.7324760917
 30
0.0
  0
SPLINE
  5
314
100
AcDbEntity
  8
0
100
AcDbSpline
 62
7
  6
CONTINUOUS
 70
0
 71
3
 72
17
 73
13
 74
0
 42
0.0000001
 43
0.0000001
 44
0.0000000001
 40
0.0
 40
0.0
 40
0.0
 40
0.0
 40
0.0273598645
 40
0.0608467826
 40
0.1002707343
 40
0.1454068397
 40
0.2516709361
 40
0.3769997356
 40
0.5182320044
 40
0.6717878328
 40
0.8337571109
 40
1.0
 40
1.0
 40
1.0
 40
1.0
 10
7.5379775702
 20
4.7401353974
 30
0.0
 10
7.5378494902
 20
4.7401658084
 30
0.0
 10
7.5375625228
 20
4.7402244316
 30
0.0
 10
7.5370866445
 20
4.7403040745
 30
0.0
 10
7.5365241947
 20
4.7403835052
 30
0.0
 10
7.5356127391
 20
4.7404944354
 30
0.0
 10
7.5342874902
 20
4.7406246511
 30
0.0
 10
7.5324990744
 20
4.7407648507
 30
0.0
 10
7.530481629
 20
4.7408919454
 30
0.0
 10
7.5282866945
 20
4.7410025276
 30
0.0
 10
7.5259704335
 20
4.7410935597
 30
0.0
 10
7.5243918878
 20
4.7411394041
 30
0.0
 10
7.5235922479
 20
4.7411586261
 30
0.0
  0
SPLINE
  5
315
100
AcDbEntity
  8
0
100
AcDbSpline
 62
7
  6
CONTINUOUS
 70
0
 71
3
 72
21
 73
17
 74
0
 42
0.0000001
 43
0.0000001
 44
0.0000000001
 40
0.0
 40
0.0
 40
0.0
 40
0.0
 40
0.029226543
 40
0.0600178832
 40
0.0936867965
 40
0.1312336483
 40
0.1733656551
 40
0.220558797
 40
0.2731207636
 40
0.3312470249
 40
0.395046004
 40
0.4645708956
 40
0.5398245448
 40
0.6207772382
 40
0.7994990551
 40
1.0
 40
1.0
 40
1.0
 40
1.0
 10
7.5469775702
 20
4.7287158289
 30
0.0
 10
7.5469775702
 20
4.728606109
 30
0.0
 10
7.546949839
 20
4.7283799869
 30
0.0
 10
7.5468277438
 20
4.7280474401
 30
0.0
 10
7.5466272193
 20
4.727718819
 30
0.0
 10
7.5463500577
 20
4.7273941151
 30
0.0
 10
7.5459971076
 20
4.7270728354
 30
0.0
 10
7.5455688576
 20
4.7267549147
 30
0.0
 10
7.545065801
 20
4.7264405318
 30
0.0
 10
7.5444885417
 20
4.726130126
 30
0.0
 10
7.5438378881
 20
4.7258241338
 30
0.0
 10
7.5431147863
 20
4.7255231332
 30
0.0
 10
7.5423203677
 20
4.7252276221
 30
0.0
 10
7.5411278493
 20
4.724828459
 30
0.0
 10
7.5394662043
 20
4.7243527937
 30
0.0
 10
7.5380810836
 20
4.7240221217
 30
0.0
 10
7.5373460425
 20
4.723860015
 30
0.0
  0
SPLINE
  5
316
100
AcDbEntity
  8
0
100
AcDbSpline
 62
7
  6
CONTINUOUS
 70
0
 71
3
 72
25
 73
21
 74
0
 42
0.0000001
 43
0.0000001
 44
0.0000000001
 40
0.0
 40
0.0
 40
0.0
 40
0.0
 40
0.0052086976
 40
0.0111566891
 40
0.0183844945
 40
0.0271976446
 40
0.0377617656
 40
0.0501652714
 40
0.0644565949
 40
0.0806626626
 40
0.1188539717
 40
0.1647276214
 40
0.2181837185
 40
0.2790511808
 40
0.3471226315
 40
0.4221424421
 40
0.50382856
 40
0.5918521319
 40
0.785507606
 40
1.0
 40
1.0
 40
1.0
 40
1.0
 10
7.4738628926
 20
4.7391070878
 30
0.0
 10
7.4738628926
 20
4.7390942891
 30
0.0
 10
7.4738689845
 20
4.7390666831
 30
0.0
 10
7.4738942481
 20
4.7390284497
 30
0.0
 10
7.4739342297
 20
4.7389916147
 30
0.0
 10
7.4739889619
 20
4.7389555242
 30
0.0
 10
7.4740585983
 20
4.7389199449
 30
0.0
 10
7.474143223
 20
4.7388848323
 30
0.0
 10
7.4742428352
 20
4.7388502017
 30
0.0
 10
7.474404652
 20
4.7388020696
 30
0.0
 10
7.4746444984
 20
4.738744979
 30
0.0
 10
7.4749765507
 20
4.7386819652
 30
0.0
 10
7.4753656085
 20
4.7386217328
 30
0.0
 10
7.475810155
 20
4.7385645414
 30
0.0
 10
7.4763084455
 20
4.7385107231
 30
0.0
 10
7.4768584941
 20
4.7384605143
 30
0.0
 10
7.4774580624
 20
4.7384141665
 30
0.0
 10
7.4783490255
 20
4.7383559228
 30
0.0
 10
7.4795667853
 20
4.7382956487
 30
0.0
 10
7.4805691532
 20
4.7382622413
 30
0.0
 10
7.4810960074
 20
4.7382481361
 30
0.0
  0
SPLINE
  5
317
100
AcDbEntity
  8
0
100
AcDbSpline
 62
7
  6
CONTINUOUS
 70
0
 71
3
 72
14
 73
10
 74
0
 42
0.0000001
 43
0.0000001
 44
0.0000000001
 40
0.0
 40
0.0
 40
0.0
 40
0.0
 40
0.0789837062
 40
0.1752056595
 40
0.2870387149
 40
0.4124689379
 40
0.5491632676
 40
0.6945307485
 40
1.0
 40
1.0
 40
1.0
 40
1.0
 10
7.4744775702
 20
4.7356704674
 30
0.0
 10
7.4746858603
 20
4.7356268586
 30
0.0
 10
7.4751519262
 20
4.7355495453
 30
0.0
 10
7.4759201641
 20
4.7354593744
 30
0.0
 10
7.4768158123
 20
4.735385747
 30
0.0
 10
7.4778219358
 20
4.7353303558
 30
0.0
 10
7.4789193438
 20
4.7352945221
 30
0.0
 10
7.4805022597
 20
4.7352736581
 30
0.0
 10
7.4817171511
 20
4.7352898759
 30
0.0
 10
7.482539828
 20
4.7353138945
 30
0.0
  0
SPLINE
  5
318
100
AcDbEntity
  8
0
100
AcDbSpline
 62
7
  6
CONTINUOUS
 70
0
 71
3
 72
25
 73
21
 74
0
 42
0.0000001
 43
0.0000001
 44
0.0000000001
 40
0.0
 40
0.0
 40
0.0
 40
0.0
 40
0.2144884731
 40
0.4081404673
 40
0.496162512
 40
0.5778472724
 40
0.652865922
 40
0.7209364403
 40
0.7818032381
 40
0.8352589889
 40
0.8811326792
 40
0.9193245167
 40
0.9355310827
 40
0.9498230974
 40
0.9622275297
 40
0.9727928724
 40
0.9816076234
 40
0.988837516
 40
0.9947881682
 40
1.0
 40
1.0
 40
1.0
 40
1.0
 10
7.4810960074
 20
4.7377456268
 30
0.0
 10
7.4805691522
 20
4.7377597412
 30
0.0
 10
7.4795667825
 20
4.7377931705
 30
0.0
 10
7.4783490213
 20
4.737853484
 30
0.0
 10
7.4774580578
 20
4.7379117657
 30
0.0
 10
7.4768584894
 20
4.7379581438
 30
0.0
 10
7.4763084408
 20
4.7380083854
 30
0.0
 10
7.4758101505
 20
4.7380622388
 30
0.0
 10
7.4753656043
 20
4.7381194676
 30
0.0
 10
7.4749765467
 20
4.7381797392
 30
0.0
 10
7.4746444944
 20
4.7382427942
 30
0.0
 10
7.4744046488
 20
4.738299922
 30
0.0
 10
7.4742428331
 20
4.7383480852
 30
0.0
 10
7.474143221
 20
4.7383827385
 30
0.0
 10
7.4740585962
 20
4.7384178741
 30
0.0
 10
7.4739889595
 20
4.738453477
 30
0.0
 10
7.473934227
 20
4.7384895916
 30
0.0
 10
7.4738942453
 20
4.7385264516
 30
0.0
 10
7.4738689832
 20
4.7385647102
 30
0.0
 10
7.4738628926
 20
4.7385923311
 30
0.0
 10
7.4738628926
 20
4.7386051377
 30
0.0
  0
SPLINE
  5
319
100
AcDbEntity
  8
0
100
AcDbSpline
 62
7
  6
CONTINUOUS
 70
0
 71
3
 72
14
 73
10
 74
0
 42
0.0000001
 43
0.0000001
 44
0.0000000001
 40
0.0
 40
0.0
 40
0.0
 40
0.0
 40
0.3054687096
 40
0.4508359198
 40
0.587529992
 40
0.7129600157
 40
0.8247930528
 40
0.9210153372
 40
1.0
 40
1.0
 40
1.0
 40
1.0
 10
7.482539828
 20
4.7348094654
 30
0.0
 10
7.4817171503
 20
4.7347854311
 30
0.0
 10
7.4805022567
 20
4.7347692026
 30
0.0
 10
7.4789193385
 20
4.7347900804
 30
0.0
 10
7.4778219295
 20
4.7348259378
 30
0.0
 10
7.4768158057
 20
4.7348813655
 30
0.0
 10
7.475920158
 20
4.7349550415
 30
0.0
 10
7.4751519208
 20
4.7350452717
 30
0.0
 10
7.4746858578
 20
4.7351226355
 30
0.0
 10
7.4744775702
 20
4.7351662724
 30
0.0
  0
SPLINE
  5
31A
100
AcDbEntity
  8
0
100
AcDbSpline
 62
7
  6
CONTINUOUS
 70
0
 71
3
 72
14
 73
10
 74
0
 42
0.0000001
 43
0.0000001
 44
0.0000000001
 40
0.0
 40
0.0
 40
0.0
 40
0.0
 40
0.0789590485
 40
0.1751669535
 40
0.2869957394
 40
0.4124293602
 40
0.5491319776
 40
0.6945099399
 40
1.0
 40
1.0
 40
1.0
 40
1.0
 10
7.5379775702
 20
4.7350629642
 30
0.0
 10
7.5377692448
 20
4.7350199915
 30
0.0
 10
7.5373031091
 20
4.7349441263
 30
0.0
 10
7.5365348102
 20
4.7348563833
 30
0.0
 10
7.5356390918
 20
4.7347856143
 30
0.0
 10
7.5346329096
 20
4.7347334589
 30
0.0
 10
7.5335354781
 20
4.734701176
 30
0.0
 10
7.5319526072
 20
4.7346854577
 30
0.0
 10
7.5307378526
 20
4.7347056453
 30
0.0
 10
7.5299153125
 20
4.7347323557
 30
0.0
  0
SPLINE
  5
31B
100
AcDbEntity
  8
0
100
AcDbSpline
 62
7
  6
CONTINUOUS
 70
0
 71
3
 72
23
 73
19
 74
0
 42
0.0000001
 43
0.0000001
 44
0.0000000001
 40
0.0
 40
0.0
 40
0.0
 40
0.0
 40
0.0101422223
 40
0.0206486138
 40
0.0318602736
 40
0.0440577341
 40
0.0721783205
 40
0.1061821674
 40
0.146614325
 40
0.193709135
 40
0.2475144889
 40
0.3079594259
 40
0.3748893106
 40
0.4480799163
 40
0.5272540978
 40
0.6120851882
 40
0.797192106
 40
1.0
 40
1.0
 40
1.0
 40
1.0
 10
7.5379775702
 20
4.7290392306
 30
0.0
 10
7.5379775702
 20
4.7289889554
 30
0.0
 10
7.5379671367
 20
4.7288863249
 30
0.0
 10
7.5379206803
 20
4.7287344757
 30
0.0
 10
7.5378439224
 20
4.728584054
 30
0.0
 10
7.5376946026
 20
4.7283758486
 30
0.0
 10
7.5374243295
 20
4.7281210422
 30
0.0
 10
7.5370012723
 20
4.7278368863
 30
0.0
 10
7.5364651836
 20
4.7275598336
 30
0.0
 10
7.5358175958
 20
4.7272910386
 30
0.0
 10
7.5350606105
 20
4.7270315991
 30
0.0
 10
7.5341973105
 20
4.7267829128
 30
0.0
 10
7.533231433
 20
4.7265463381
 30
0.0
 10
7.5321673669
 20
4.7263231653
 30
0.0
 10
7.5310100825
 20
4.7261146273
 30
0.0
 10
7.5292997386
 20
4.7258499532
 30
0.0
 10
7.5269725705
 20
4.7255689222
 30
0.0
 10
7.5250562641
 20
4.7254054597
 30
0.0
 10
7.5240534302
 20
4.7253347611
 30
0.0
  0
SPLINE
  5
31C
100
AcDbEntity
  8
0
100
AcDbSpline
 62
7
  6
CONTINUOUS
 70
0
 71
3
 72
26
 73
22
 74
0
 42
0.0000001
 43
0.0000001
 44
0.0000000001
 40
0.0
 40
0.0
 40
0.0
 40
0.0
 40
0.2033323633
 40
0.2983417638
 40
0.3883495621
 40
0.4729820124
 40
0.5519027887
 40
0.6248130062
 40
0.6914646708
 40
0.7516601922
 40
0.8052676396
 40
0.829586069
 40
0.8522490181
 40
0.8732684735
 40
0.8926697159
 40
0.9267677304
 40
0.9551195378
 40
0.9674852151
 40
0.9788963794
 40
0.9896253327
 40
1.0
 40
1.0
 40
1.0
 40
1.0
 10
7.4875769762
 20
4.7254578012
 30
0.0
 10
7.4866276056
 20
4.7255358381
 30
0.0
 10
7.4852361073
 20
4.7256707145
 30
0.0
 10
7.4834306486
 20
4.7258957343
 30
0.0
 10
7.4821803369
 20
4.7260767809
 30
0.0
 10
7.4810086559
 20
4.7262729615
 30
0.0
 10
7.4799208769
 20
4.72648325
 30
0.0
 10
7.4789218222
 20
4.7267065801
 30
0.0
 10
7.4780158042
 20
4.7269417743
 30
0.0
 10
7.4772066863
 20
4.7271876657
 30
0.0
 10
7.4765974794
 20
4.7274069847
 30
0.0
 10
7.476162583
 20
4.7275886934
 30
0.0
 10
7.4758733766
 20
4.727722481
 30
0.0
 10
7.4756106488
 20
4.7278580758
 30
0.0
 10
7.4753088336
 20
4.7280337562
 30
0.0
 10
7.4749938475
 20
4.7282542217
 30
0.0
 10
7.4747415756
 20
4.7285016195
 30
0.0
 10
7.4746023343
 20
4.7287031285
 30
0.0
 10
7.4745306561
 20
4.7288487926
 30
0.0
 10
7.4744873047
 20
4.7289956368
 30
0.0
 10
7.4744775702
 20
4.7290947517
 30
0.0
 10
7.4744775702
 20
4.729143355
 30
0.0
  0
SPLINE
  5
31D
100
AcDbEntity
  8
0
100
AcDbSpline
 62
7
  6
CONTINUOUS
 70
0
 71
3
 72
18
 73
14
 74
0
 42
0.0000001
 43
0.0000001
 44
0.0000000001
 40
0.0
 40
0.0
 40
0.0
 40
0.0
 40
0.0624683114
 40
0.124945246
 40
0.1874446493
 40
0.2499574421
 40
0.343685085
 40
0.4374383296
 40
0.5312012309
 40
0.6249684222
 40
0.7187364095
 40
0.8125021007
 40
1.0
 40
1.0
 40
1.0
 40
1.0
 10
7.4348883414
 20
6.091617236
 30
0.0
 10
7.4348883414
 20
6.0920437851
 30
0.0
 10
7.4349786734
 20
6.0928994527
 30
0.0
 10
7.4353660229
 20
6.0941269238
 30
0.0
 10
7.4359604103
 20
6.0952671288
 30
0.0
 10
7.4368386982
 20
6.0964803434
 30
0.0
 10
7.438039226
 20
6.097704372
 30
0.0
 10
7.4395572853
 20
6.098887038
 30
0.0
 10
7.4411869798
 20
6.0999084281
 30
0.0
 10
7.442892799
 20
6.1007948844
 30
0.0
 10
7.4446524367
 20
6.1015678959
 30
0.0
 10
7.4470501064
 20
6.102469792
 30
0.0
 10
7.448892207
 20
6.1030224613
 30
0.0
 10
7.4501301161
 20
6.1033491163
 30
0.0
  0
SPLINE
  5
31E
100
AcDbEntity
  8
0
100
AcDbSpline
 62
7
  6
CONTINUOUS
 70
0
 71
3
 72
14
 73
10
 74
0
 42
0.0000001
 43
0.0000001
 44
0.0000000001
 40
0.0
 40
0.0
 40
0.0
 40
0.0
 40
0.2499887426
 40
0.3749891793
 40
0.4999909801
 40
0.624993562
 40
0.749994822
 40
0.8749986533
 40
1.0
 40
1.0
 40
1.0
 40
1.0
 10
7.4501301161
 20
6.1033491163
 30
0.0
 10
7.454612341
 20
6.1045318698
 30
0.0
 10
7.4613633057
 20
6.1062081997
 30
0.0
 10
7.4704376032
 20
6.1081153056
 30
0.0
 10
7.4772826362
 20
6.1093474271
 30
0.0
 10
7.4841656375
 20
6.1103481518
 30
0.0
 10
7.4910819914
 20
6.1110877194
 30
0.0
 10
7.4980230277
 20
6.1115420173
 30
0.0
 10
7.5026596162
 20
6.1116442148
 30
0.0
 10
7.5049775702
 20
6.1116442148
 30
0.0
  0
SPLINE
  5
31F
100
AcDbEntity
  8
0
100
AcDbSpline
 62
7
  6
CONTINUOUS
 70
0
 71
3
 72
21
 73
17
 74
0
 42
0.0000001
 43
0.0000001
 44
0.0000000001
 40
0.0
 40
0.0
 40
0.0
 40
0.0
 40
0.0625028802
 40
0.1250110644
 40
0.1875209909
 40
0.2500288681
 40
0.3437862006
 40
0.4375426845
 40
0.5312961575
 40
0.6250431092
 40
0.7187729704
 40
0.8124575714
 40
0.8593493766
 40
0.9062345468
 40
0.9531202803
 40
1.0
 40
1.0
 40
1.0
 40
1.0
 10
7.5598250244
 20
6.1033491163
 30
0.0
 10
7.5602377285
 20
6.1032402135
 30
0.0
 10
7.5610607625
 20
6.1030131107
 30
0.0
 10
7.5622864339
 20
6.1026416824
 30
0.0
 10
7.5635015515
 20
6.1022367939
 30
0.0
 10
7.5649040507
 20
6.1017213133
 30
0.0
 10
7.5664809438
 20
6.1010642654
 30
0.0
 10
7.5682066958
 20
6.1002177031
 30
0.0
 10
7.5698648373
 20
6.0992440472
 30
0.0
 10
7.5714252997
 20
6.0981182036
 30
0.0
 10
7.5728391065
 20
6.0968108252
 30
0.0
 10
7.5738301505
 20
6.0955407687
 30
0.0
 10
7.5744438066
 20
6.0944141405
 30
0.0
 10
7.5747949453
 20
6.0935168667
 30
0.0
 10
7.5750162525
 20
6.0925787934
 30
0.0
 10
7.5750667991
 20
6.0919373766
 30
0.0
 10
7.5750667991
 20
6.091617236
 30
0.0
  0
SPLINE
  5
320
100
AcDbEntity
  8
0
100
AcDbSpline
 62
7
  6
CONTINUOUS
 70
0
 71
3
 72
14
 73
10
 74
0
 42
0.0000001
 43
0.0000001
 44
0.0000000001
 40
0.0
 40
0.0
 40
0.0
 40
0.0
 40
0.1250013675
 40
0.2500052406
 40
0.3750065135
 40
0.5000091035
 40
0.6250108874
 40
0.7500113054
 40
1.0
 40
1.0
 40
1.0
 40
1.0
 10
7.5049775702
 20
6.1116442148
 30
0.0
 10
7.5072955247
 20
6.1116442148
 30
0.0
 10
7.5119321143
 20
6.1115420167
 30
0.0
 10
7.518873152
 20
6.1110877186
 30
0.0
 10
7.5257895071
 20
6.1103481516
 30
0.0
 10
7.5326725085
 20
6.1093474269
 30
0.0
 10
7.5395175407
 20
6.1081153044
 30
0.0
 10
7.548591837
 20
6.1062081997
 30
0.0
 10
7.5553428004
 20
6.1045318696
 30
0.0
 10
7.5598250244
 20
6.1033491163
 30
0.0
  0
SPLINE
  5
321
100
AcDbEntity
  8
0
100
AcDbSpline
 62
7
  6
CONTINUOUS
 70
0
 71
3
 72
47
 73
43
 74
0
 42
0.0000001
 43
0.0000001
 44
0.0000000001
 40
0.0
 40
0.0
 40
0.0
 40
0.0
 40
0.0624975234
 40
0.0937475759
 40
0.1249975093
 40
0.1874950678
 40
0.2499926349
 40
0.3124896887
 40
0.3749854621
 40
0.4062361185
 40
0.4374864259
 40
0.4687370462
 40
0.4999877197
 40
0.5312378923
 40
0.5624872465
 40
0.5937349874
 40
0.6093622765
 40
0.6249900802
 40
0.640617279
 40
0.6562445234
 40
0.6718713689
 40
0.6874970555
 40
0.7031211126
 40
0.7187431741
 40
0.7343630479
 40
0.7499814644
 40
0.7577967649
 40
0.7656119666
 40
0.7734273594
 40
0.7812425754
 40
0.7968637401
 40
0.8124870199
 40
0.820302447
 40
0.8281176096
 40
0.8437438035
 40
0.859370998
 40
0.8749985665
 40
0.8906257532
 40
0.9062535659
 40
0.9375005224
 40
0.9687502101
 40
1.0
 40
1.0
 40
1.0
 40
1.0
 10
7.5048451631
 20
3.4860993828
 30
0.0
 10
7.5085605972
 20
3.4860993828
 30
0.0
 10
7.5141341069
 20
3.4861602986
 30
0.0
 10
7.5215623053
 20
3.4863694402
 30
0.0
 10
7.5289875534
 20
3.4866659575
 30
0.0
 10
7.5382613385
 20
3.4872115204
 30
0.0
 10
7.5493667832
 20
3.4881860332
 30
0.0
 10
7.5604323477
 20
3.4895449861
 30
0.0
 10
7.5695985955
 20
3.4910729355
 30
0.0
 10
7.5768727896
 20
3.4925961095
 30
0.0
 10
7.5822900704
 20
3.4939108842
 30
0.0
 10
7.5876562137
 20
3.4954221529
 30
0.0
 10
7.592953665
 20
3.4971606012
 30
0.0
 10
7.5981577055
 20
3.4991637147
 30
0.0
 10
7.6032319224
 20
3.501477907
 30
0.0
 10
7.6073088977
 20
3.5037151788
 30
0.0
 10
7.6104348268
 20
3.5057265614
 30
0.0
 10
7.612696902
 20
3.5073573358
 30
0.0
 10
7.6148567219
 20
3.5091219673
 30
0.0
 10
7.6168896121
 20
3.5110322994
 30
0.0
 10
7.6187634159
 20
3.5130999825
 30
0.0
 10
7.6204372939
 20
3.5153338891
 30
0.0
 10
7.6218607006
 20
3.5177366819
 30
0.0
 10
7.6229744809
 20
3.5202995862
 30
0.0
 10
7.6237169379
 20
3.5229950212
 30
0.0
 10
7.6239827329
 20
3.525312199
 30
0.0
 10
7.6239711051
 20
3.5271715574
 30
0.0
 10
7.6238510741
 20
3.5285617503
 30
0.0
 10
7.6236219591
 20
3.529938084
 30
0.0
 10
7.6231771434
 20
3.5317435312
 30
0.0
 10
7.622373818
 20
3.5339310744
 30
0.0
 10
7.6212903319
 20
3.5359917285
 30
0.0
 10
7.6202866778
 20
3.5375562497
 30
0.0
 10
7.6192005427
 20
3.5390649292
 30
0.0
 10
7.6177046527
 20
3.5408464384
 30
0.0
 10
7.6157348389
 20
3.5428220323
 30
0.0
 10
7.6136252547
 20
3.5446468119
 30
0.0
 10
7.6114039012
 20
3.5463329418
 30
0.0
 10
7.6083218941
 20
3.5484111956
 30
0.0
 10
7.6042850555
 20
3.5507214178
 30
0.0
 10
7.5992445034
 20
3.5531084206
 30
0.0
 10
7.5957907806
 20
3.5544849849
 30
0.0
 10
7.5940476639
 20
3.5551275454
 30
0.0
  0
SPLINE
  5
322
100
AcDbEntity
  8
0
100
AcDbSpline
 62
7
  6
CONTINUOUS
 70
0
 71
3
 72
53
 73
49
 74
0
 42
0.0000001
 43
0.0000001
 44
0.0000000001
 40
0.0
 40
0.0
 40
0.0
 40
0.0
 40
0.0154418428
 40
0.0314173923
 40
0.0480450811
 40
0.0654749492
 40
0.0838886282
 40
0.1035001545
 40
0.1245408463
 40
0.1472051802
 40
0.1715170983
 40
0.197117983
 40
0.2231477923
 40
0.2485346447
 40
0.2725162146
 40
0.2948306185
 40
0.3155543651
 40
0.334896789
 40
0.3530883314
 40
0.3703369196
 40
0.3868171144
 40
0.4026715788
 40
0.4180158409
 40
0.4329428975
 40
0.447528288
 40
0.4618330087
 40
0.4759069636
 40
0.48979071
 40
0.5171108051
 40
0.5440009852
 40
0.5705986704
 40
0.5969984522
 40
0.6232663384
 40
0.6494488237
 40
0.6755801791
 40
0.7016869436
 40
0.7277921699
 40
0.7539185834
 40
0.7800920906
 40
0.8063455575
 40
0.8327234414
 40
0.8592885457
 40
0.8861306754
 40
0.9133802181
 40
0.9412280715
 40
0.9699564963
 40
0.9847810343
 40
1.0
 40
1.0
 40
1.0
 40
1.0
 10
7.7174851957
 20
3.5551275454
 30
0.0
 10
7.7168127741
 20
3.5546321819
 30
0.0
 10
7.7154742695
 20
3.5535833761
 30
0.0
 10
7.7135334464
 20
3.5518527191
 30
0.0
 10
7.7116406543
 20
3.5499155049
 30
0.0
 10
7.7098118387
 20
3.5477417001
 30
0.0
 10
7.7080699345
 20
3.5452957148
 30
0.0
 10
7.7064484699
 20
3.5425380826
 30
0.0
 10
7.7049968514
 20
3.5394303466
 30
0.0
 10
7.7037862539
 20
3.5359491529
 30
0.0
 10
7.7029101225
 20
3.5321140576
 30
0.0
 10
7.702466852
 20
3.5280207312
 30
0.0
 10
7.7025196496
 20
3.5238452044
 30
0.0
 10
7.7030604332
 20
3.5197935496
 30
0.0
 10
7.7040148345
 20
3.5160273962
 30
0.0
 10
7.705282848
 20
3.5126245383
 30
0.0
 10
7.7067750339
 20
3.5095926862
 30
0.0
 10
7.7084251258
 20
3.506903477
 30
0.0
 10
7.710187507
 20
3.5045174741
 30
0.0
 10
7.7120312773
 20
3.5023958061
 30
0.0
 10
7.7139353255
 20
3.500504179
 30
0.0
 10
7.7158846977
 20
3.4988132452
 30
0.0
 10
7.7178687613
 20
3.4972983912
 30
0.0
 10
7.7198800107
 20
3.495939376
 30
0.0
 10
7.7219122372
 20
3.4947181643
 30
0.0
 10
7.7239615219
 20
3.4936207817
 30
0.0
 10
7.7260240521
 20
3.4926337327
 30
0.0
 10
7.7287736363
 20
3.4914578543
 30
0.0
 10
7.732241288
 20
3.4902066934
 30
0.0
 10
7.7364445974
 20
3.488999568
 30
0.0
 10
7.7406610798
 20
3.4880464471
 30
0.0
 10
7.7448860714
 20
3.4873101599
 30
0.0
 10
7.7491166517
 20
3.4867623385
 30
0.0
 10
7.7533508599
 20
3.4863831467
 30
0.0
 10
7.7575871243
 20
3.4861566609
 30
0.0
 10
7.7618244303
 20
3.4860762566
 30
0.0
 10
7.7660617978
 20
3.4861367184
 30
0.0
 10
7.7702982631
 20
3.4863425802
 30
0.0
 10
7.7745328515
 20
3.4866994544
 30
0.0
 10
7.7787640187
 20
3.4872228181
 30
0.0
 10
7.7829899807
 20
3.4879310217
 30
0.0
 10
7.7872078449
 20
3.4888518757
 30
0.0
 10
7.7914133913
 20
3.4900209555
 30
0.0
 10
7.7956004084
 20
3.4914845731
 30
0.0
 10
7.7997586716
 20
3.4933034053
 30
0.0
 10
7.8031507431
 20
3.4951632504
 30
0.0
 10
7.8058125734
 20
3.4969031124
 30
0.0
 10
7.8071211971
 20
3.4978683276
 30
0.0
 10
7.8077686785
 20
3.498376573
 30
0.0
  0
SPLINE
  5
323
100
AcDbEntity
  8
0
100
AcDbSpline
 62
7
  6
CONTINUOUS
 70
0
 71
3
 72
23
 73
19
 74
0
 42
0.0000001
 43
0.0000001
 44
0.0000000001
 40
0.0
 40
0.0
 40
0.0
 40
0.0
 40
0.0673314694
 40
0.1334101669
 40
0.1980526952
 40
0.2611378631
 40
0.3226471904
 40
0.3827156267
 40
0.4416656652
 40
0.5000000101
 40
0.5583343634
 40
0.617284411
 40
0.6773528263
 40
0.7388621325
 40
0.8019472915
 40
0.8665898161
 40
0.9326685176
 40
1.0
 40
1.0
 40
1.0
 40
1.0
 10
7.7174851957
 20
3.5551275454
 30
0.0
 10
7.7192624894
 20
3.5564368525
 30
0.0
 10
7.7228249143
 20
3.5589764849
 30
0.0
 10
7.7282634638
 20
3.5625280412
 30
0.0
 10
7.7337596109
 20
3.5657235858
 30
0.0
 10
7.7393185017
 20
3.5684907319
 30
0.0
 10
7.7449420239
 20
3.5707539358
 30
0.0
 10
7.7506263971
 20
3.5724390875
 30
0.0
 10
7.7563597398
 20
3.5734810887
 30
0.0
 10
7.7621208873
 20
3.5738340101
 30
0.0
 10
7.7678820351
 20
3.5734810884
 30
0.0
 10
7.7736153776
 20
3.5724390867
 30
0.0
 10
7.7792997497
 20
3.5707539352
 30
0.0
 10
7.7849232705
 20
3.5684907321
 30
0.0
 10
7.7904821603
 20
3.5657235864
 30
0.0
 10
7.7959783068
 20
3.5625280415
 30
0.0
 10
7.8014168575
 20
3.5589764862
 30
0.0
 10
7.8049792823
 20
3.5564368528
 30
0.0
 10
7.8067565764
 20
3.5551275454
 30
0.0
  0
SPLINE
  5
324
100
AcDbEntity
  8
0
100
AcDbSpline
 62
7
  6
CONTINUOUS
 70
0
 71
3
 72
14
 73
10
 74
0
 42
0.0000001
 43
0.0000001
 44
0.0000000001
 40
0.0
 40
0.0
 40
0.0
 40
0.0
 40
0.1250033861
 40
0.2500073159
 40
0.3750124642
 40
0.5000186916
 40
0.7499847019
 40
0.8749933806
 40
1.0
 40
1.0
 40
1.0
 40
1.0
 10
7.5048451631
 20
3.573716782
 30
0.0
 10
7.5086620223
 20
3.573716782
 30
0.0
 10
7.5162977538
 20
3.5734840588
 30
0.0
 10
7.5277079328
 20
3.572451616
 30
0.0
 10
7.5390414603
 20
3.5707773953
 30
0.0
 10
7.5540145258
 20
3.5677717256
 30
0.0
 10
7.5687610991
 20
3.5637492697
 30
0.0
 10
7.5832745325
 20
3.559011513
 30
0.0
 10
7.5904662875
 20
3.5564477387
 30
0.0
 10
7.5940476639
 20
3.5551275454
 30
0.0
  0
SPLINE
  5
325
100
AcDbEntity
  8
0
100
AcDbSpline
 62
7
  6
CONTINUOUS
 70
0
 71
3
 72
53
 73
49
 74
0
 42
0.0000001
 43
0.0000001
 44
0.0000000001
 40
0.0
 40
0.0
 40
0.0
 40
0.0
 40
0.0154422566
 40
0.0314197763
 40
0.048051278
 40
0.0654871327
 40
0.0839093501
 40
0.1035323772
 40
0.1245879323
 40
0.1472707658
 40
0.1716047148
 40
0.1972303011
 40
0.2232856863
 40
0.2486968041
 40
0.2726997109
 40
0.2950318487
 40
0.3157697298
 40
0.3351230038
 40
0.3533225206
 40
0.3705766134
 40
0.3870602109
 40
0.4029162995
 40
0.4182606845
 40
0.433186598
 40
0.4477697834
 40
0.4620714045
 40
0.4761415126
 40
0.4900207842
 40
0.517330437
 40
0.5442087069
 40
0.5707934677
 40
0.5971796327
 40
0.6234334368
 40
0.6496015373
 40
0.6757183266
 40
0.7018104374
 40
0.7279010044
 40
0.7540128341
 40
0.7801719244
 40
0.806411258
 40
0.8327754471
 40
0.8593275126
 40
0.8861575654
 40
0.9133964246
 40
0.9412355998
 40
0.9699582149
 40
0.9847812907
 40
1.0
 40
1.0
 40
1.0
 40
1.0
 10
7.2031350369
 20
3.5551275454
 30
0.0
 10
7.2024636228
 20
3.5546321597
 30
0.0
 10
7.2011271194
 20
3.5535832974
 30
0.0
 10
7.1991892844
 20
3.5518526226
 30
0.0
 10
7.1972994088
 20
3.5499153885
 30
0.0
 10
7.1954734143
 20
3.5477415625
 30
0.0
 10
7.1937342023
 20
3.5452955567
 30
0.0
 10
7.1921152509
 20
3.5425379084
 30
0.0
 10
7.1906658917
 20
3.5394301674
 30
0.0
 10
7.1894571889
 20
3.5359489898
 30
0.0
 10
7.188582438
 20
3.5321139428
 30
0.0
 10
7.1881398698
 20
3.5280206978
 30
0.0
 10
7.188192583
 20
3.5238452648
 30
0.0
 10
7.1887325096
 20
3.519793685
 30
0.0
 10
7.1896854086
 20
3.5160275718
 30
0.0
 10
7.1909514396
 20
3.512624724
 30
0.0
 10
7.192441305
 20
3.5095928631
 30
0.0
 10
7.1940888408
 20
3.5069036359
 30
0.0
 10
7.1958484993
 20
3.5045176116
 30
0.0
 10
7.197689426
 20
3.5023959221
 30
0.0
 10
7.1995905411
 20
3.5005042749
 30
0.0
 10
7.2015369123
 20
3.4988133236
 30
0.0
 10
7.2035179223
 20
3.4972984545
 30
0.0
 10
7.2055260769
 20
3.4959394265
 30
0.0
 10
7.2075551756
 20
3.4947182045
 30
0.0
 10
7.2096013064
 20
3.4936208133
 30
0.0
 10
7.2116606612
 20
3.4926337577
 30
0.0
 10
7.2144059567
 20
3.4914578954
 30
0.0
 10
7.2178682262
 20
3.4902067352
 30
0.0
 10
7.2220650854
 20
3.4889995921
 30
0.0
 10
7.2262750881
 20
3.4880464606
 30
0.0
 10
7.2304935795
 20
3.4873101672
 30
0.0
 10
7.2347176456
 20
3.4867623422
 30
0.0
 10
7.2389453305
 20
3.4863831483
 30
0.0
 10
7.2431750659
 20
3.4861566614
 30
0.0
 10
7.2474058404
 20
3.4860762566
 30
0.0
 10
7.2516366761
 20
3.4861367183
 30
0.0
 10
7.2558666119
 20
3.4863425806
 30
0.0
 10
7.2600946761
 20
3.4866994561
 30
0.0
 10
7.2643193275
 20
3.4872228223
 30
0.0
 10
7.2685387871
 20
3.487931031
 30
0.0
 10
7.2727501683
 20
3.4888518939
 30
0.0
 10
7.2769492597
 20
3.4900209892
 30
0.0
 10
7.2811298617
 20
3.4914846332
 30
0.0
 10
7.2852817665
 20
3.4933035086
 30
0.0
 10
7.2886685382
 20
3.4951633437
 30
0.0
 10
7.2913261818
 20
3.4969031611
 30
0.0
 10
7.2926327327
 20
3.4978683413
 30
0.0
 10
7.2932791864
 20
3.4983765639
 30
0.0
  0
SPLINE
  5
326
100
AcDbEntity
  8
0
100
AcDbSpline
 62
7
  6
CONTINUOUS
 70
0
 71
3
 72
47
 73
43
 74
0
 42
0.0000001
 43
0.0000001
 44
0.0000000001
 40
0.0
 40
0.0
 40
0.0
 40
0.0
 40
0.0312497889
 40
0.0624994749
 40
0.0937464317
 40
0.109374245
 40
0.1250014328
 40
0.1406290034
 40
0.1562561993
 40
0.1718823935
 40
0.1796975559
 40
0.1875129822
 40
0.203136262
 40
0.2187574233
 40
0.2265726363
 40
0.2343880284
 40
0.2422032284
 40
0.2500185254
 40
0.265636938
 40
0.2812568096
 40
0.2968788695
 40
0.3125029259
 40
0.3281286106
 40
0.3437554562
 40
0.3593827032
 40
0.3750099011
 40
0.390637704
 40
0.4062649957
 40
0.4375127366
 40
0.4687620906
 40
0.5000122627
 40
0.5312629367
 40
0.5625135603
 40
0.5937638684
 40
0.6250145267
 40
0.6875103046
 40
0.750007363
 40
0.8125049347
 40
0.8750024991
 40
0.9062524322
 40
0.9375024822
 40
1.0
 40
1.0
 40
1.0
 40
1.0
 10
7.4156426623
 20
3.5551275454
 30
0.0
 10
7.4138995457
 20
3.5544849849
 30
0.0
 10
7.410445823
 20
3.5531084207
 30
0.0
 10
7.4054052711
 20
3.550721418
 30
0.0
 10
7.4013684326
 20
3.5484111958
 30
0.0
 10
7.3982864252
 20
3.546332942
 30
0.0
 10
7.3960650716
 20
3.544646812
 30
0.0
 10
7.3939554871
 20
3.5428220322
 30
0.0
 10
7.3919856732
 20
3.5408464381
 30
0.0
 10
7.3904897832
 20
3.5390649288
 30
0.0
 10
7.3894036482
 20
3.5375562493
 30
0.0
 10
7.3883999941
 20
3.5359917282
 30
0.0
 10
7.3873165084
 20
3.5339310741
 30
0.0
 10
7.3865131827
 20
3.5317435314
 30
0.0
 10
7.3860683674
 20
3.5299380846
 30
0.0
 10
7.3858392522
 20
3.5285617512
 30
0.0
 10
7.3857192212
 20
3.5271715587
 30
0.0
 10
7.3857075931
 20
3.5253122009
 30
0.0
 10
7.3859733881
 20
3.5229950236
 30
0.0
 10
7.3867158444
 20
3.520299589
 30
0.0
 10
7.3878296243
 20
3.5177366847
 30
0.0
 10
7.3892530305
 20
3.5153338919
 30
0.0
 10
7.3909269081
 20
3.5130999853
 30
0.0
 10
7.3928007115
 20
3.5110323017
 30
0.0
 10
7.3948336019
 20
3.5091219697
 30
0.0
 10
7.3969934218
 20
3.507357338
 30
0.0
 10
7.3992554964
 20
3.5057265628
 30
0.0
 10
7.4023814262
 20
3.503715181
 30
0.0
 10
7.4064584012
 20
3.5014779085
 30
0.0
 10
7.4115326181
 20
3.4991637162
 30
0.0
 10
7.4167366584
 20
3.4971606022
 30
0.0
 10
7.4220341097
 20
3.4954221531
 30
0.0
 10
7.4274002535
 20
3.4939108854
 30
0.0
 10
7.4328175344
 20
3.4925961098
 30
0.0
 10
7.4400917289
 20
3.4910729355
 30
0.0
 10
7.4492579774
 20
3.4895449861
 30
0.0
 10
7.4603235427
 20
3.4881860331
 30
0.0
 10
7.4714289883
 20
3.4872115209
 30
0.0
 10
7.4807027738
 20
3.4866659553
 30
0.0
 10
7.4881280222
 20
3.4863694401
 30
0.0
 10
7.4955562203
 20
3.4861603015
 30
0.0
 10
7.5011297294
 20
3.4860993828
 30
0.0
 10
7.5048451631
 20
3.4860993828
 30
0.0
  0
SPLINE
  5
327
100
AcDbEntity
  8
0
100
AcDbSpline
 62
7
  6
CONTINUOUS
 70
0
 71
3
 72
14
 73
10
 74
0
 42
0.0000001
 43
0.0000001
 44
0.0000000001
 40
0.0
 40
0.0
 40
0.0
 40
0.0
 40
0.1250066193
 40
0.2500152981
 40
0.4999813083
 40
0.6249875357
 40
0.749992684
 40
0.8749966138
 40
1.0
 40
1.0
 40
1.0
 40
1.0
 10
7.4156426623
 20
3.5551275454
 30
0.0
 10
7.4192240387
 20
3.5564477387
 30
0.0
 10
7.4264157938
 20
3.559011513
 30
0.0
 10
7.4409292271
 20
3.5637492697
 30
0.0
 10
7.4556758004
 20
3.5677717256
 30
0.0
 10
7.470648866
 20
3.5707773953
 30
0.0
 10
7.4819823934
 20
3.572451616
 30
0.0
 10
7.4933925725
 20
3.5734840588
 30
0.0
 10
7.501028304
 20
3.573716782
 30
0.0
 10
7.5048451631
 20
3.573716782
 30
0.0
  0
SPLINE
  5
328
100
AcDbEntity
  8
0
100
AcDbSpline
 62
7
  6
CONTINUOUS
 70
0
 71
3
 72
23
 73
19
 74
0
 42
0.0000001
 43
0.0000001
 44
0.0000000001
 40
0.0
 40
0.0
 40
0.0
 40
0.0
 40
0.067348473
 40
0.1334399417
 40
0.1980903038
 40
0.2611778305
 40
0.3226838323
 40
0.3827436265
 40
0.4416808346
 40
0.4999999899
 40
0.5583191366
 40
0.6172563356
 40
0.677316151
 40
0.738822174
 40
0.8019097096
 40
0.8665600754
 40
0.9326515401
 40
1.0
 40
1.0
 40
1.0
 40
1.0
 10
7.2031350369
 20
3.5551275454
 30
0.0
 10
7.2049095433
 20
3.5564368196
 30
0.0
 10
7.2084663564
 20
3.5589763766
 30
0.0
 10
7.213896478
 20
3.5625279193
 30
0.0
 10
7.219384108
 20
3.5657234605
 30
0.0
 10
7.2249343949
 20
3.568490616
 30
0.0
 10
7.2305492376
 20
3.5707538457
 30
0.0
 10
7.2362248788
 20
3.5724390367
 30
0.0
 10
7.2419494636
 20
3.5734810761
 30
0.0
 10
7.247701846
 20
3.5738340136
 30
0.0
 10
7.2534542282
 20
3.5734810764
 30
0.0
 10
7.2591788132
 20
3.5724390375
 30
0.0
 10
7.2648544555
 20
3.5707538464
 30
0.0
 10
7.2704692997
 20
3.5684906159
 30
0.0
 10
7.2760195876
 20
3.5657234599
 30
0.0
 10
7.2815072182
 20
3.562527919
 30
0.0
 10
7.2869373385
 20
3.5589763752
 30
0.0
 10
7.2904941516
 20
3.5564368194
 30
0.0
 10
7.2922686578
 20
3.5551275454
 30
0.0
  0
SPLINE
  5
329
100
AcDbEntity
  8
0
100
AcDbSpline
 62
7
  6
CONTINUOUS
 70
0
 71
3
 72
25
 73
21
 74
0
 42
0.0000001
 43
0.0000001
 44
0.0000000001
 40
0.0
 40
0.0
 40
0.0
 40
0.0
 40
0.0095329598
 40
0.019483929
 40
0.0302284978
 40
0.0420647151
 40
0.0552120589
 40
0.0698261514
 40
0.0860144633
 40
0.1038467064
 40
0.1445952803
 40
0.1922502295
 40
0.2467885404
 40
0.308064699
 40
0.3758450199
 40
0.4498262429
 40
0.5296426948
 40
0.614876401
 40
0.7996704573
 40
1.0
 40
1.0
 40
1.0
 40
1.0
 10
7.4744775702
 20
4.7296515307
 30
0.0
 10
7.4744775702
 20
4.7295963368
 30
0.0
 10
7.4744902585
 20
4.7294831731
 30
0.0
 10
7.4745465023
 20
4.7293162599
 30
0.0
 10
7.474639186
 20
4.7291512208
 30
0.0
 10
7.4747676191
 20
4.7289882122
 30
0.0
 10
7.4749313527
 20
4.7288270435
 30
0.0
 10
7.4751301724
 20
4.7286676707
 30
0.0
 10
7.4753638843
 20
4.7285101389
 30
0.0
 10
7.4757386843
 20
4.7282929863
 30
0.0
 10
7.4762966386
 20
4.7280315595
 30
0.0
 10
7.4770718456
 20
4.7277402288
 30
0.0
 10
7.4779765539
 20
4.7274606648
 30
0.0
 10
7.4790060137
 20
4.7271946403
 30
0.0
 10
7.4801547584
 20
4.7269439342
 30
0.0
 10
7.481416369
 20
4.7267102383
 30
0.0
 10
7.4827836406
 20
4.7264951058
 30
0.0
 10
7.4847916098
 20
4.726227788
 30
0.0
 10
7.4875019505
 20
4.7259553024
 30
0.0
 10
7.4897273579
 20
4.7258089856
 30
0.0
 10
7.4908857335
 20
4.7257501643
 30
0.0
  0
SPLINE
  5
32A
100
AcDbEntity
  8
0
100
AcDbSpline
 62
7
  6
CONTINUOUS
 70
0
 71
3
 72
25
 73
21
 74
0
 42
0.0000001
 43
0.0000001
 44
0.0000000001
 40
0.0
 40
0.0
 40
0.0
 40
0.0
 40
0.200405433
 40
0.3852583556
 40
0.4705125776
 40
0.5503424439
 40
0.624329365
 40
0.6921073105
 40
0.7533730191
 40
0.8078931998
 40
0.8555231996
 40
0.8962415544
 40
0.9140575052
 40
0.9302292887
 40
0.9448272238
 40
0.9579596015
 40
0.9697830832
 40
0.9805184493
 40
0.9904651687
 40
1.0
 40
1.0
 40
1.0
 40
1.0
 10
7.521569407
 20
4.7256996274
 30
0.0
 10
7.5227277086
 20
4.7257546332
 30
0.0
 10
7.5249530185
 20
4.7258936204
 30
0.0
 10
7.5276634905
 20
4.7261572123
 30
0.0
 10
7.5296716305
 20
4.7264179718
 30
0.0
 10
7.5310389833
 20
4.7266286446
 30
0.0
 10
7.5323006591
 20
4.7268582352
 30
0.0
 10
7.5334494438
 20
4.727105212
 30
0.0
 10
7.5344789135
 20
4.7273679012
 30
0.0
 10
7.5353836012
 20
4.7276445389
 30
0.0
 10
7.5361587609
 20
4.7279333651
 30
0.0
 10
7.5367166889
 20
4.7281930043
 30
0.0
 10
7.5370914575
 20
4.7284089624
 30
0.0
 10
7.5373251304
 20
4.7285657418
 30
0.0
 10
7.5375239134
 20
4.7287244762
 30
0.0
 10
7.5376876145
 20
4.7288851218
 30
0.0
 10
7.5378160199
 20
4.7290477255
 30
0.0
 10
7.5379086791
 20
4.7292124784
 30
0.0
 10
7.5379648992
 20
4.7293792209
 30
0.0
 10
7.5379775702
 20
4.7294923042
 30
0.0
 10
7.5379775702
 20
4.7295474756
 30
0.0
  0
SPLINE
  5
32B
100
AcDbEntity
  8
0
100
AcDbSpline
 62
7
  6
CONTINUOUS
 70
0
 71
3
 72
14
 73
10
 74
0
 42
0.0000001
 43
0.0000001
 44
0.0000000001
 40
0.0
 40
0.0
 40
0.0
 40
0.0
 40
0.3054905564
 40
0.4508687676
 40
0.5875716371
 40
0.7130054409
 40
0.8248342701
 40
0.9210418701
 40
1.0
 40
1.0
 40
1.0
 40
1.0
 10
7.5299153125
 20
4.7352368354
 30
0.0
 10
7.5307378519
 20
4.7352101425
 30
0.0
 10
7.5319526045
 20
4.7351899683
 30
0.0
 10
7.5335354731
 20
4.735205676
 30
0.0
 10
7.5346329035
 20
4.7352379377
 30
0.0
 10
7.5356390854
 20
4.7352900586
 30
0.0
 10
7.5365348042
 20
4.735360781
 30
0.0
 10
7.5373031039
 20
4.7354484663
 30
0.0
 10
7.5377692423
 20
4.7355242819
 30
0.0
 10
7.5379775702
 20
4.735567227
 30
0.0
  0
SPLINE
  5
32C
100
AcDbEntity
  8
0
100
AcDbSpline
 62
7
  6
CONTINUOUS
 70
0
 71
3
 72
23
 73
19
 74
0
 42
0.0000001
 43
0.0000001
 44
0.0000000001
 40
0.0
 40
0.0
 40
0.0
 40
0.0
 40
0.0491352503
 40
0.1007385597
 40
0.1555433195
 40
0.2144881797
 40
0.2786897831
 40
0.349177569
 40
0.4260130027
 40
0.506746219
 40
0.5864081207
 40
0.6608019915
 40
0.7286611781
 40
0.790602359
 40
0.8477506984
 40
0.9011628329
 40
0.9516938078
 40
1.0
 40
1.0
 40
1.0
 40
1.0
 10
7.8077686785
 20
3.498376573
 30
0.0
 10
7.8086193102
 20
3.4990442828
 30
0.0
 10
7.8103100178
 20
3.500482922
 30
0.0
 10
7.8127207379
 20
3.5029196623
 30
0.0
 10
7.8150276034
 20
3.5057420696
 30
0.0
 10
7.8171793201
 20
3.5090239083
 30
0.0
 10
7.8190922307
 20
3.5128438595
 30
0.0
 10
7.820631542
 20
3.5172522409
 30
0.0
 10
7.8216097211
 20
3.5221935315
 30
0.0
 10
7.8218485508
 20
3.5274298081
 30
0.0
 10
7.8212956459
 20
3.5325875041
 30
0.0
 10
7.8200666756
 20
3.5373313485
 30
0.0
 10
7.8183566022
 20
3.5415008362
 30
0.0
 10
7.8163344351
 20
3.5450948457
 30
0.0
 10
7.8141123105
 20
3.5481817774
 30
0.0
 10
7.81175865
 20
3.5508404533
 30
0.0
 10
7.8093157641
 20
3.5531397888
 30
0.0
 10
7.8076125327
 20
3.5544969745
 30
0.0
 10
7.8067565764
 20
3.5551275454
 30
0.0
  0
SPLINE
  5
32D
100
AcDbEntity
  8
0
100
AcDbSpline
 62
7
  6
CONTINUOUS
 70
0
 71
3
 72
23
 73
19
 74
0
 42
0.0000001
 43
0.0000001
 44
0.0000000001
 40
0.0
 40
0.0
 40
0.0
 40
0.0
 40
0.0491100133
 40
0.1006936138
 40
0.1554853938
 40
0.2144253594
 40
0.2786315333
 40
0.3491343067
 40
0.4259944904
 40
0.5067581649
 40
0.5864489904
 40
0.6608639623
 40
0.7287339151
 40
0.790675719
 40
0.8478157528
 40
0.9012120532
 40
0.9517209663
 40
1.0
 40
1.0
 40
1.0
 40
1.0
 10
7.2932791864
 20
3.4983765639
 30
0.0
 10
7.2941285576
 20
3.4990443142
 30
0.0
 10
7.2958167667
 20
3.5004830612
 30
0.0
 10
7.2982237778
 20
3.5029198416
 30
0.0
 10
7.3005270852
 20
3.5057422921
 30
0.0
 10
7.3026754682
 20
3.5090241695
 30
0.0
 10
7.3045853935
 20
3.5128441388
 30
0.0
 10
7.3061222762
 20
3.5172524872
 30
0.0
 10
7.3070988921
 20
3.5221936622
 30
0.0
 10
7.3073373379
 20
3.5274297574
 30
0.0
 10
7.3067853253
 20
3.5325872923
 30
0.0
 10
7.3055583119
 20
3.5373310592
 30
0.0
 10
7.3038509253
 20
3.5415005417
 30
0.0
 10
7.3018319046
 20
3.545094583
 30
0.0
 10
7.2996132164
 20
3.5481815588
 30
0.0
 10
7.2972631824
 20
3.550840279
 30
0.0
 10
7.2948240528
 20
3.553139654
 30
0.0
 10
7.2931233427
 20
3.5544969379
 30
0.0
 10
7.2922686578
 20
3.5551275454
 30
0.0
  0
ENDSEC
  0
SECTION
  2
OBJECTS
  0
DICTIONARY
  5
C
100
AcDbDictionary
280
0
281
1
  3
ACAD_GROUP
350
D
  3
ACAD_MLINESTYLE
350
17
  3
ACAD_LAYOUT
350
1A
  3
ACAD_PLOTSETTINGS
350
19
  3
ACAD_PLOTSTYLENAME
350
E
  0
DICTIONARY
  5
D
102
{ACAD_REACTORS
330
C
102
}
100
AcDbDictionary
280
0
281
1
  0
ACDBDICTIONARYWDFLT
  5
E
102
{ACAD_REACTORS
330
C
102
}
100
AcDbDictionary
281
1
  3
Normal
350
F
100
AcDbDictionaryWithDefault
340
F
  0
DICTIONARY
  5
17
102
{ACAD_REACTORS
330
C
102
}
100
AcDbDictionary
280
0
281
1
  3
Standard
350
18
  0
DICTIONARY
  5
19
102
{ACAD_REACTORS
330
C
102
}
100
AcDbDictionary
281
1
  0
DICTIONARY
  5
1A
102
{ACAD_REACTORS
330
C
102
}
100
AcDbDictionary
281
1
  3
Model
350
32E
  3
Layout1
350
32F
  0
ACDBPLACEHOLDER
  5
F
102
{ACAD_REACTORS
330
E
102
}
  0
MLINESTYLE
  5
18
102
{ACAD_REACTORS
330
17
102
}
100
AcDbMlineStyle
  2
STANDARD
 70
0
  3

 62
256
 51
90.0
 52
90.0
 71
2
 49
0.5
 62
256
  6
BYLAYER
 49
-0.5
 62
256
  6
BYLAYER
  0
LAYOUT
  5
32E
102
{ACAD_REACTORS
330
1A
102
}
100
AcDbPlotSettings
  1

  2
none_device
  4
ANSI_A_(11.00_x_8.50_Inches)
  6

 40
0.0
 41
0.0
 42
0.0
 43
0.0
 44
279.4
 45
215.9
 46
0.0
 47
0.0
 48
0.0
 49
0.0
140
0.0
141
0.0
142
1.0
143
1.0
 70
1024
 72
0
 73
0
 74
0
  7

 75
0
147
1.0
148
0.0
149
0.0
100
AcDbLayout
  1
Model
 70
0
 71
0
 10
0.0
 20
0.0
 11
11.0
 21
8.5
 12
0.0
 22
0.0
 32
0.0
 14
0.0
 24
0.0
 34
0.0
 15
0.0
 25
0.0
 35
0.0
146
0.0
 13
0.0
 23
0.0
 33
0.0
 16
1.0
 26
0.0
 36
0.0
 17
0.0
 27
1.0
 37
0.0
 76
0
330
202
345
0
346
0
  0
LAYOUT
  5
32F
102
{ACAD_REACTORS
330
1A
102
}
100
AcDbPlotSettings
  1

  2
none_device
  4
ANSI_A_(11.00_x_8.50_Inches)
  6

 40
0.0
 41
0.0
 42
0.0
 43
0.0
 44
279.4
 45
215.9
 46
0.0
 47
0.0
 48
0.0
 49
0.0
140
0.0
141
0.0
142
1.0
143
1.0
 70
0
 72
0
 73
0
 74
0
  7

 75
0
147
1.0
148
0.0
149
0.0
100
AcDbLayout
  1
Layout1
 70
0
 71
1
 10
0.0
 20
0.0
 11
11.0
 21
8.5
 12
0.0
 22
0.0
 32
0.0
 14
0.0
 24
0.0
 34
0.0
 15
0.0
 25
0.0
 35
0.0
146
0.0
 13
0.0
 23
0.0
 33
0.0
 16
1.0
 26
0.0
 36
0.0
 17
0.0
 27
1.0
 37
0.0
 76
0
330
203
345
0
346
0
  0
ENDSEC
  0
EOF
