999
DXF file: 9462_right.dxf
999
Pro/ENGINEER 2018400 by Parametric Technology Corporation
  0
SECTION
  2
HEADER
  9
$ACADVER
  1
AC1027
  9
$DWGCODEPAGE
  3
ANSI_1252
  9
$EXTMAX
 10
11.0
 20
8.5
 30
0.0
  9
$EXTMIN
 10
0.0
 20
0.0
 30
0.0
  9
$LIMMIN
 10
0.0
 20
0.0
  9
$LIMMAX
 10
11.0
 20
8.5
  9
$VIEWCTR
 10
5.5
 20
4.25
  9
$VIEWSIZE
 40
8.5
  9
$CLAYER
  8
0
  9
$LTSCALE
 40
0.605
  9
$CELTYPE
  6
BYLAYER
  9
$DIMSCALE
 40
1.0
  9
$DIMASZ
 40
0.1
  9
$DIMEXO
 40
0.0625
  9
$DIMDLI
 40
0.418
  9
$DIMEXE
 40
0.125
  9
$DIMCEN
 40
0.099
  9
$DIMLFAC
 40
1.0
  9
$DIMBLK
  1
_FILLED
  9
$DIMALT
 70
1
  9
$DIMALTD
 70
1
  9
$DIMALTTD
 70
2
  9
$DIMALTF
 40
25.4
  9
$DIMTXT
 40
0.08
  9
$DIMTOL
 70
1
  9
$DIMLIM
 70
0
  9
$DIMTFAC
 40
1.0
  9
$DIMTP
 40
0.01
  9
$DIMTM
 40
0.01
  9
$DIMGAP
 40
0.09
  9
$DIMDSEP
 70
46
  9
$AUNITS
 70
0
  9
$PDMODE
 70
3
  9
$PDSIZE
 40
0.3125
  9
$HANDSEED
  5
527
  9
$TILEMODE
 70
1
  9
$MEASUREMENT
 70
0
  9
$INSUNITS
 70
1
  0
ENDSEC
  0
SECTION
  2
CLASSES
  0
CLASS
  1
ACDBDICTIONARYWDFLT
  2
AcDbDictionaryWithDefault
  3
AutoCAD 2000
 90
0
 91
1
280
0
281
0
  0
CLASS
  1
ACDBPLACEHOLDER
  2
AcDbPlaceHolder
  3
AutoCAD 2000
 90
0
 91
1
280
0
281
0
  0
CLASS
  1
LAYOUT
  2
AcDbLayout
  3
AutoCAD 2000
 90
0
 91
0
280
0
281
0
  0
ENDSEC
  0
SECTION
  2
TABLES
  0
TABLE
  2
VPORT
  5
8
100
AcDbSymbolTable
 70
2
  0
VPORT
  5
1F4
100
AcDbSymbolTableRecord
100
AcDbViewportTableRecord
  2
*ACTIVE
 70
0
 10
0.0
 20
0.0
 11
1.0
 21
1.0
 12
5.5
 22
4.25
 13
0.0
 23
0.0
 14
1.0
 24
1.0
 15
0.0
 25
0.0
 16
0.0
 26
0.0
 36
1.0
 17
0.0
 27
0.0
 37
0.0
 40
8.5
 41
1.2941176471
 42
50.0
 43
0.0
 44
0.0
 50
0.0
 51
0.0
 71
0
 72
100
 73
1
 74
1
 75
0
 76
0
 77
0
 78
0
  0
ENDTAB
  0
TABLE
  2
LTYPE
  5
5
100
AcDbSymbolTable
 70
6
  0
LTYPE
  5
14
100
AcDbSymbolTableRecord
100
AcDbLinetypeTableRecord
  2
BYBLOCK
 70
0
  3

 72
65
 73
0
 40
0.0
  0
LTYPE
  5
15
100
AcDbSymbolTableRecord
100
AcDbLinetypeTableRecord
  2
BYLAYER
 70
0
  3

 72
65
 73
0
 40
0.0
  0
LTYPE
  5
16
100
AcDbSymbolTableRecord
100
AcDbLinetypeTableRecord
  2
CONTINUOUS
 70
64
  3
Solid line
 72
65
 73
0
 40
0.0
  0
LTYPE
  5
1F5
100
AcDbSymbolTableRecord
100
AcDbLinetypeTableRecord
  2
CENTER
 70
64
  3
____ _ ____ _ ____ _ ____ _ ____ _ ____ _ ____
 72
65
 73
4
 40
0.6
 49
0.375
 74
0
 49
-0.075
 74
0
 49
0.075
 74
0
 49
-0.075
 74
0
  0
LTYPE
  5
1F6
100
AcDbSymbolTableRecord
100
AcDbLinetypeTableRecord
  2
HIDDEN
 70
64
  3
- - - - - - - - - - - - - - - - - - - -
 72
65
 73
2
 40
0.2
 49
0.1
 74
0
 49
-0.1
 74
0
  0
LTYPE
  5
1F7
100
AcDbSymbolTableRecord
100
AcDbLinetypeTableRecord
  2
PHANTOM
 70
64
  3
_____ _ _ _____ _ _ _____ _ _ _____
 72
65
 73
6
 40
0.8
 49
0.45
 74
0
 49
-0.05
 74
0
 49
0.1
 74
0
 49
-0.05
 74
0
 49
0.1
 74
0
 49
-0.05
 74
0
  0
LTYPE
  5
1F8
100
AcDbSymbolTableRecord
100
AcDbLinetypeTableRecord
  2
DOT
 70
64
  3
. . . . . . . . . . . . . . . . . . . .
 72
65
 73
2
 40
0.2
 49
0.1
 74
0
 49
-0.1
 74
0
  0
LTYPE
  5
1F9
100
AcDbSymbolTableRecord
100
AcDbLinetypeTableRecord
  2
DASHED
 70
64
  3
- - - - - - - - - - - - - - - - - - - -
 72
65
 73
2
 40
0.2
 49
0.1
 74
0
 49
-0.1
 74
0
  0
ENDTAB
  0
TABLE
  2
LAYER
  5
2
100
AcDbSymbolTable
 70
36
  0
LAYER
  5
10
100
AcDbSymbolTableRecord
100
AcDbLayerTableRecord
  2
0
 70
0
 62
7
  6
CONTINUOUS
370
-3
390
F
  0
LAYER
  5
1FA
100
AcDbSymbolTableRecord
100
AcDbLayerTableRecord
  2
DEFAULT_1
 70
0
 62
7
  6
CENTER
370
-3
390
F
  0
LAYER
  5
1FB
100
AcDbSymbolTableRecord
100
AcDbLayerTableRecord
  2
DEFAULT_2
 70
0
 62
8
  6
HIDDEN
370
-3
390
F
  0
LAYER
  5
1FC
100
AcDbSymbolTableRecord
100
AcDbLayerTableRecord
  2
DEFAULT_3
 70
0
 62
7
  6
PHANTOM
370
-3
390
F
  0
LAYER
  5
1FD
100
AcDbSymbolTableRecord
100
AcDbLayerTableRecord
  2
DEFAULT_COORDINATE_SYSTEM
 70
0
 62
7
  6
CONTINUOUS
370
-3
390
F
  0
LAYER
  5
1FE
100
AcDbSymbolTableRecord
100
AcDbLayerTableRecord
  2
DEFAULT_DATUM_AXES
 70
0
 62
7
  6
CONTINUOUS
370
-3
390
F
  0
LAYER
  5
1FF
100
AcDbSymbolTableRecord
100
AcDbLayerTableRecord
  2
DEFAULT_DATUM_PLANES
 70
0
 62
7
  6
CONTINUOUS
370
-3
390
F
  0
ENDTAB
  0
TABLE
  2
STYLE
  5
3
100
AcDbSymbolTable
 70
1
  0
STYLE
  5
11
100
AcDbSymbolTableRecord
100
AcDbTextStyleTableRecord
  2
STANDARD
 70
0
 40
0.0
 41
0.8
 50
0.0
 71
0
 42
0.2
  3
txt
  4

  0
STYLE
  5
200
100
AcDbSymbolTableRecord
100
AcDbTextStyleTableRecord
  2
TEXTSTYLE_1
 70
0
 40
0.0
 41
0.8
 50
0.0
 71
0
 42
0.2
  3
gdt
  4

  0
ENDTAB
  0
TABLE
  2
VIEW
  5
6
100
AcDbSymbolTable
 70
0
  0
ENDTAB
  0
TABLE
  2
UCS
  5
7
100
AcDbSymbolTable
 70
0
  0
ENDTAB
  0
TABLE
  2
APPID
  5
9
100
AcDbSymbolTable
 70
1
  0
APPID
  5
201
100
AcDbSymbolTableRecord
100
AcDbRegAppTableRecord
  2
ACAD
 70
0
  0
ENDTAB
  0
TABLE
  2
BLOCK_RECORD
  5
1
100
AcDbSymbolTable
 70
0
  0
BLOCK_RECORD
  5
202
100
AcDbSymbolTableRecord
100
AcDbBlockTableRecord
  2
*Model_Space
  0
BLOCK_RECORD
  5
203
100
AcDbSymbolTableRecord
100
AcDbBlockTableRecord
  2
*Paper_Space
  0
BLOCK_RECORD
  5
204
100
AcDbSymbolTableRecord
100
AcDbBlockTableRecord
  2
_FILLED
  0
ENDTAB
  0
TABLE
  2
DIMSTYLE
  5
A
100
AcDbSymbolTable
 70
1
100
AcDbDimStyleTable
 71
0
  0
DIMSTYLE
105
205
100
AcDbSymbolTableRecord
100
AcDbDimStyleTableRecord
  2
STANDARD
 70
0
  3

  4

 40
1.0
 41
0.1
 42
0.0625
 43
0.38
 44
0.125
 45
0.0
 46
0.0
 47
0.01
 48
0.01
140
0.08
141
0.09
142
0.0
143
25.4
144
1.0
145
0.0
146
1.0
147
0.09
 71
1.0
 72
0.0
 73
1
 74
1
 75
0
 76
0
 77
0
 78
4
 79
1
170
1
171
1
172
0
173
0
174
0
175
0
176
0
177
0
178
0
270
2
179
2
271
2
272
2
273
2
274
2
275
0
280
0
281
0
282
0
283
1
284
4
285
0
286
0
287
3
288
0
340
11
278
46
341
204
342
204
343
204
344
204
  0
ENDTAB
  0
ENDSEC
  0
SECTION
  2
BLOCKS
  0
BLOCK
  5
20
100
AcDbEntity
  8
0
100
AcDbBlockBegin
  2
*Model_Space
 70
0
 10
0.0
 20
0.0
 30
0.0
  3
*Model_Space
  1

  0
ENDBLK
  5
21
100
AcDbEntity
  8
0
100
AcDbBlockEnd
  0
BLOCK
  5
1C
100
AcDbEntity
  8
0
100
AcDbBlockBegin
  2
*Paper_Space
 70
0
 10
0.0
 20
0.0
 30
0.0
  3
*Paper_Space
  1

  0
ENDBLK
  5
1D
100
AcDbEntity
  8
0
100
AcDbBlockEnd
  0
BLOCK
  5
206
100
AcDbEntity
  8
0
100
AcDbBlockBegin
  2
_FILLED
 70
64
 10
0.0
 20
0.0
  3
_FILLED
  1

  0
SOLID
  5
207
100
AcDbEntity
  8
0
  6
BYBLOCK
 62
0
100
AcDbTrace
 10
0.0
 20
0.0
 11
-1.0
 21
0.2
 12
-1.0
 22
-0.2
 13
-1.0
 23
-0.2
  0
ENDBLK
  5
208
100
AcDbEntity
  8
0
  6
BYBLOCK
 62
0
100
AcDbBlockEnd
  0
ENDSEC
  0
SECTION
  2
ENTITIES
  0
MTEXT
  5
209
100
AcDbEntity
  8
0
100
AcDbMText
 62
2
  6
CONTINUOUS
  7
STANDARD
 71
3
 72
1
 10
4.9927018634
 20
2.0901638199
 30
0.0
 11
1.0
 21
0.0
 31
0.0
 73
2
 44
0.9
  1
SCALE  .500
 40
0.08
 41
0.704
  0
LINE
  5
20A
100
AcDbEntity
  8
0
100
AcDbLine
 62
7
  6
CONTINUOUS
 10
0.0
 20
0.0
 11
0.0
 21
8.5
  0
LINE
  5
20B
100
AcDbEntity
  8
0
100
AcDbLine
 62
7
  6
CONTINUOUS
 10
0.0
 20
0.0
 11
11.0
 21
0.0
  0
LINE
  5
20C
100
AcDbEntity
  8
0
100
AcDbLine
 62
7
  6
CONTINUOUS
 10
0.0
 20
8.5
 11
11.0
 21
8.5
  0
LINE
  5
20D
100
AcDbEntity
  8
0
100
AcDbLine
 62
7
  6
CONTINUOUS
 10
11.0
 20
0.0
 11
11.0
 21
8.5
  0
LINE
  5
20E
100
AcDbEntity
  8
0
100
AcDbLine
 62
7
  6
CONTINUOUS
 10
2.2055025331
 20
5.4065009822
 11
2.2016429509
 21
5.7582288622
  0
LINE
  5
20F
100
AcDbEntity
  8
0
100
AcDbLine
 62
7
  6
CONTINUOUS
 10
2.5521782881
 20
5.3761707837
 11
2.61705614
 21
5.7218849174
  0
LINE
  5
210
100
AcDbEntity
  8
0
100
AcDbLine
 62
7
  6
CONTINUOUS
 10
6.5221690039
 20
2.1851638199
 11
7.6971685145
 21
2.1851638199
  0
LINE
  5
211
100
AcDbEntity
  8
0
100
AcDbLine
 62
7
  6
CONTINUOUS
 10
6.5221687592
 20
2.1951638199
 11
7.6971687592
 21
2.1951638199
  0
LINE
  5
212
100
AcDbEntity
  8
0
100
AcDbLine
 62
7
  6
CONTINUOUS
 10
6.5221687592
 20
2.2376638199
 11
7.6971687592
 21
2.2376638199
  0
LINE
  5
213
100
AcDbEntity
  8
0
100
AcDbLine
 62
7
  6
CONTINUOUS
 10
6.5223802004
 20
2.2401638199
 11
6.5221687592
 21
2.2401638199
  0
LINE
  5
214
100
AcDbEntity
  8
0
100
AcDbLine
 62
7
  6
CONTINUOUS
 10
7.696957318
 20
2.2401638199
 11
7.6971687592
 21
2.2401638199
  0
LINE
  5
215
100
AcDbEntity
  8
0
100
AcDbLine
 62
7
  6
CONTINUOUS
 10
7.6821687592
 20
2.2526638199
 11
6.5371688421
 21
2.2526638199
  0
LINE
  5
216
100
AcDbEntity
  8
0
100
AcDbLine
 62
7
  6
CONTINUOUS
 10
7.6821687592
 20
2.2551638199
 11
7.6447273031
 21
2.2551638199
  0
LINE
  5
217
100
AcDbEntity
  8
0
100
AcDbLine
 62
7
  6
CONTINUOUS
 10
6.5746102153
 20
2.2551638199
 11
6.5371689248
 21
2.2551638199
  0
LINE
  5
218
100
AcDbEntity
  8
0
100
AcDbLine
 62
7
  6
CONTINUOUS
 10
3.362268998
 20
6.2634819323
 11
3.4691502928
 21
6.5571358763
  0
LINE
  5
219
100
AcDbEntity
  8
0
100
AcDbLine
 62
7
  6
CONTINUOUS
 10
6.6746687459
 20
2.3726638199
 11
7.5446687724
 21
2.3726638199
  0
LINE
  5
21A
100
AcDbEntity
  8
0
100
AcDbLine
 62
7
  6
CONTINUOUS
 10
6.6998733121
 20
2.3751638199
 11
6.6746688237
 21
2.3751638199
  0
LINE
  5
21B
100
AcDbEntity
  8
0
100
AcDbLine
 62
7
  6
CONTINUOUS
 10
7.5194642063
 20
2.3751638199
 11
7.5446686947
 21
2.3751638199
  0
LINE
  5
21C
100
AcDbEntity
  8
0
100
AcDbLine
 62
7
  6
CONTINUOUS
 10
6.8441687592
 20
2.5401638199
 11
7.3751687592
 21
2.5401638199
  0
LINE
  5
21D
100
AcDbEntity
  8
0
100
AcDbLine
 62
7
  6
CONTINUOUS
 10
6.8490785892
 20
2.5506638199
 11
7.3702589291
 21
2.5506638199
  0
LINE
  5
21E
100
AcDbEntity
  8
0
100
AcDbLine
 62
7
  6
CONTINUOUS
 10
6.8343193844
 20
2.5568329388
 11
6.8352914182
 21
2.5568329388
  0
LINE
  5
21F
100
AcDbEntity
  8
0
100
AcDbLine
 62
7
  6
CONTINUOUS
 10
7.3840461001
 20
2.5568329388
 11
7.385018134
 21
2.5568329388
  0
LINE
  5
220
100
AcDbEntity
  8
0
100
AcDbLine
 62
7
  6
CONTINUOUS
 10
6.8546687592
 20
2.6131638199
 11
7.3646687592
 21
2.6131638199
  0
LINE
  5
221
100
AcDbEntity
  8
0
100
AcDbLine
 62
7
  6
CONTINUOUS
 10
6.8546687592
 20
2.6756638199
 11
7.3646687592
 21
2.6756638199
  0
LINE
  5
222
100
AcDbEntity
  8
0
100
AcDbLine
 62
7
  6
CONTINUOUS
 10
6.8490785892
 20
2.7381638199
 11
7.3702589291
 21
2.7381638199
  0
LINE
  5
223
100
AcDbEntity
  8
0
100
AcDbLine
 62
7
  6
CONTINUOUS
 10
6.8767172122
 20
2.8481638199
 11
7.3426203062
 21
2.8481638199
  0
LINE
  5
224
100
AcDbEntity
  8
0
100
AcDbLine
 62
7
  6
CONTINUOUS
 10
7.4543316396
 20
3.1381113365
 11
7.3820030469
 21
3.1381113365
  0
LINE
  5
225
100
AcDbEntity
  8
0
100
AcDbLine
 62
7
  6
CONTINUOUS
 10
6.7650058788
 20
3.1381113365
 11
6.8373344715
 21
3.1381113365
  0
LINE
  5
226
100
AcDbEntity
  8
0
100
AcDbLine
 62
7
  6
CONTINUOUS
 10
7.4396687592
 20
3.1651638199
 11
7.3827940818
 21
3.1651638199
  0
LINE
  5
227
100
AcDbEntity
  8
0
100
AcDbLine
 62
7
  6
CONTINUOUS
 10
6.8365434366
 20
3.1651638199
 11
6.7796687592
 21
3.1651638199
  0
LINE
  5
228
100
AcDbEntity
  8
0
100
AcDbLine
 62
7
  6
CONTINUOUS
 10
7.4276953929
 20
3.1805060387
 11
7.3830575218
 21
3.1805060387
  0
LINE
  5
229
100
AcDbEntity
  8
0
100
AcDbLine
 62
7
  6
CONTINUOUS
 10
6.7916421255
 20
3.1805060387
 11
6.8362799966
 21
3.1805060387
  0
LINE
  5
22A
100
AcDbEntity
  8
0
100
AcDbLine
 62
7
  6
CONTINUOUS
 10
6.8765996995
 20
3.5466638199
 11
7.3427378188
 21
3.5466638199
  0
LINE
  5
22B
100
AcDbEntity
  8
0
100
AcDbLine
 62
7
  6
CONTINUOUS
 10
7.7842858443
 20
3.3149659008
 11
7.7576854519
 21
3.3154302124
  0
LINE
  5
22C
100
AcDbEntity
  8
0
100
AcDbLine
 62
7
  6
CONTINUOUS
 10
7.7638459852
 20
3.3953382249
 11
7.7372455932
 21
3.3958025356
  0
LINE
  5
22D
100
AcDbEntity
  8
0
100
AcDbLine
 62
7
  6
CONTINUOUS
 10
4.4874679638
 20
5.8539430011
 11
4.5943492586
 21
6.1475969451
  0
LINE
  5
22E
100
AcDbEntity
  8
0
100
AcDbLine
 62
7
  6
CONTINUOUS
 10
7.4356687592
 20
4.1927650601
 11
7.4577186725
 21
4.1970511291
  0
LINE
  5
22F
100
AcDbEntity
  8
0
100
AcDbLine
 62
7
  6
CONTINUOUS
 10
7.4356687592
 20
4.2284201444
 11
7.4552588609
 21
4.2322280744
  0
LINE
  5
230
100
AcDbEntity
  8
0
100
AcDbLine
 62
7
  6
CONTINUOUS
 10
6.8064259491
 20
3.7689636366
 11
6.8710063958
 21
3.7689636366
  0
LINE
  5
231
100
AcDbEntity
  8
0
100
AcDbLine
 62
7
  6
CONTINUOUS
 10
7.3483311226
 20
3.7689636366
 11
7.4129115692
 21
3.7689636366
  0
LINE
  5
232
100
AcDbEntity
  8
0
100
AcDbLine
 62
7
  6
CONTINUOUS
 10
7.3829187592
 20
3.7901638199
 11
7.3550360274
 21
3.7901638199
  0
LINE
  5
233
100
AcDbEntity
  8
0
100
AcDbLine
 62
7
  6
CONTINUOUS
 10
6.864301491
 20
3.7901638199
 11
6.8364187592
 21
3.7901638199
  0
LINE
  5
234
100
AcDbEntity
  8
0
100
AcDbLine
 62
7
  6
CONTINUOUS
 10
6.8544187592
 20
3.8006638199
 11
7.3649187592
 21
3.8006638199
  0
LINE
  5
235
100
AcDbEntity
  8
0
100
AcDbLine
 62
7
  6
CONTINUOUS
 10
7.4356687592
 20
4.290816542
 11
7.4509541905
 21
4.2937877289
  0
LINE
  5
236
100
AcDbEntity
  8
0
100
AcDbLine
 62
7
  6
CONTINUOUS
 10
7.4356687592
 20
4.4601781925
 11
7.4392700852
 21
4.4608782194
  0
LINE
  5
237
100
AcDbEntity
  8
0
100
AcDbLine
 62
7
  6
CONTINUOUS
 10
7.4786901652
 20
4.1838565519
 11
7.4587388842
 21
4.1824614224
  0
LINE
  5
238
100
AcDbEntity
  8
0
100
AcDbLine
 62
7
  6
CONTINUOUS
 10
6.8544187592
 20
3.8631638199
 11
7.3649187592
 21
3.8631638199
  0
LINE
  5
239
100
AcDbEntity
  8
0
100
AcDbLine
 62
7
  6
CONTINUOUS
 10
6.8078579594
 20
3.8656741292
 11
6.7995621844
 21
3.8656741292
  0
LINE
  5
23A
100
AcDbEntity
  8
0
100
AcDbLine
 62
7
  6
CONTINUOUS
 10
7.4114795589
 20
3.8656741292
 11
7.419775334
 21
3.8656741292
  0
LINE
  5
23B
100
AcDbEntity
  8
0
100
AcDbLine
 62
7
  6
CONTINUOUS
 10
6.8585514695
 20
3.9816638199
 11
6.8474773608
 21
3.9816638199
  0
LINE
  5
23C
100
AcDbEntity
  8
0
100
AcDbLine
 62
7
  6
CONTINUOUS
 10
7.3607866736
 20
3.9816638199
 11
7.3718601576
 21
3.9816638199
  0
LINE
  5
23D
100
AcDbEntity
  8
0
100
AcDbLine
 62
7
  6
CONTINUOUS
 10
6.5977593104
 20
3.9944803168
 11
6.7252593104
 21
3.9944803168
  0
LINE
  5
23E
100
AcDbEntity
  8
0
100
AcDbLine
 62
7
  6
CONTINUOUS
 10
6.5977593104
 20
3.9945554336
 11
6.7252593104
 21
3.9945554336
  0
LINE
  5
23F
100
AcDbEntity
  8
0
100
AcDbLine
 62
7
  6
CONTINUOUS
 10
6.5977593104
 20
3.9952105308
 11
6.7252593104
 21
3.9952105308
  0
LINE
  5
240
100
AcDbEntity
  8
0
100
AcDbLine
 62
7
  6
CONTINUOUS
 10
6.5977593104
 20
3.9954351279
 11
6.7252593104
 21
3.9954351279
  0
LINE
  5
241
100
AcDbEntity
  8
0
100
AcDbLine
 62
7
  6
CONTINUOUS
 10
6.5977593104
 20
3.9967435268
 11
6.7252593104
 21
3.9967435268
  0
LINE
  5
242
100
AcDbEntity
  8
0
100
AcDbLine
 62
7
  6
CONTINUOUS
 10
6.5977593104
 20
3.9971171713
 11
6.7252593104
 21
3.9971171713
  0
LINE
  5
243
100
AcDbEntity
  8
0
100
AcDbLine
 62
7
  6
CONTINUOUS
 10
6.5977593104
 20
3.9990752856
 11
6.7252593104
 21
3.9990752856
  0
LINE
  5
244
100
AcDbEntity
  8
0
100
AcDbLine
 62
7
  6
CONTINUOUS
 10
6.5977593104
 20
3.9995969532
 11
6.7252593104
 21
3.9995969532
  0
LINE
  5
245
100
AcDbEntity
  8
0
100
AcDbLine
 62
7
  6
CONTINUOUS
 10
6.5977593104
 20
4.002199416
 11
6.7252593104
 21
4.002199416
  0
LINE
  5
246
100
AcDbEntity
  8
0
100
AcDbLine
 62
7
  6
CONTINUOUS
 10
6.5977593104
 20
4.0028676769
 11
6.7252593104
 21
4.0028676769
  0
LINE
  5
247
100
AcDbEntity
  8
0
100
AcDbLine
 62
7
  6
CONTINUOUS
 10
6.5977593104
 20
4.0061073549
 11
6.7252593104
 21
4.0061073549
  0
LINE
  5
248
100
AcDbEntity
  8
0
100
AcDbLine
 62
7
  6
CONTINUOUS
 10
6.5977593104
 20
4.0069228543
 11
6.7252593104
 21
4.0069228543
  0
LINE
  5
249
100
AcDbEntity
  8
0
100
AcDbLine
 62
7
  6
CONTINUOUS
 10
6.5977593104
 20
4.0106638199
 11
6.5542934271
 21
4.0106638199
  0
LINE
  5
24A
100
AcDbEntity
  8
0
100
AcDbLine
 62
7
  6
CONTINUOUS
 10
6.5977593104
 20
4.0107855667
 11
6.7252593104
 21
4.0107855667
  0
LINE
  5
24B
100
AcDbEntity
  8
0
100
AcDbLine
 62
7
  6
CONTINUOUS
 10
6.5977593104
 20
4.0117439468
 11
6.7252593104
 21
4.0117439468
  0
LINE
  5
24C
100
AcDbEntity
  8
0
100
AcDbLine
 62
7
  6
CONTINUOUS
 10
6.5977593104
 20
4.0162296938
 11
6.7252593104
 21
4.0162296938
  0
LINE
  5
24D
100
AcDbEntity
  8
0
100
AcDbLine
 62
7
  6
CONTINUOUS
 10
6.5977593104
 20
4.0173251638
 11
6.7252593104
 21
4.0173251638
  0
LINE
  5
24E
100
AcDbEntity
  8
0
100
AcDbLine
 62
7
  6
CONTINUOUS
 10
6.5977593104
 20
4.0224163492
 11
6.7252593104
 21
4.0224163492
  0
LINE
  5
24F
100
AcDbEntity
  8
0
100
AcDbLine
 62
7
  6
CONTINUOUS
 10
6.5977593104
 20
4.0236487307
 11
6.7252593104
 21
4.0236487307
  0
LINE
  5
250
100
AcDbEntity
  8
0
100
AcDbLine
 62
7
  6
CONTINUOUS
 10
6.5977593104
 20
4.0293313999
 11
6.7252593104
 21
4.0293313999
  0
LINE
  5
251
100
AcDbEntity
  8
0
100
AcDbLine
 62
7
  6
CONTINUOUS
 10
6.5977593104
 20
4.0306973151
 11
6.7252593104
 21
4.0306973151
  0
LINE
  5
252
100
AcDbEntity
  8
0
100
AcDbLine
 62
7
  6
CONTINUOUS
 10
6.7971687592
 20
4.0324138199
 11
6.7352593104
 21
4.0324138199
  0
LINE
  5
253
100
AcDbEntity
  8
0
100
AcDbLine
 62
7
  6
CONTINUOUS
 10
6.5977593104
 20
4.0369558923
 11
6.7252593104
 21
4.0369558923
  0
LINE
  5
254
100
AcDbEntity
  8
0
100
AcDbLine
 62
7
  6
CONTINUOUS
 10
6.5977593104
 20
4.0384515973
 11
6.7252593104
 21
4.0384515973
  0
LINE
  5
255
100
AcDbEntity
  8
0
100
AcDbLine
 62
7
  6
CONTINUOUS
 10
6.5977593104
 20
4.0452689281
 11
6.7252593104
 21
4.0452689281
  0
LINE
  5
256
100
AcDbEntity
  8
0
100
AcDbLine
 62
7
  6
CONTINUOUS
 10
6.5977593104
 20
4.0468952171
 11
6.7252593104
 21
4.0468952171
  0
LINE
  5
257
100
AcDbEntity
  8
0
100
AcDbLine
 62
7
  6
CONTINUOUS
 10
6.5977593104
 20
4.0542425327
 11
6.7252593104
 21
4.0542425327
  0
LINE
  5
258
100
AcDbEntity
  8
0
100
AcDbLine
 62
7
  6
CONTINUOUS
 10
6.5221687592
 20
2.1951638199
 11
6.5321687592
 21
2.1851638199
  0
LINE
  5
259
100
AcDbEntity
  8
0
100
AcDbLine
 62
7
  6
CONTINUOUS
 10
7.4969814383
 20
4.2771230051
 11
7.5169327193
 21
4.2785181345
  0
LINE
  5
25A
100
AcDbEntity
  8
0
100
AcDbLine
 62
7
  6
CONTINUOUS
 10
7.4945023751
 20
4.3125752604
 11
7.5144536561
 21
4.3139703899
  0
LINE
  5
25B
100
AcDbEntity
  8
0
100
AcDbLine
 62
7
  6
CONTINUOUS
 10
7.469658953
 20
4.3130089039
 11
7.4497076719
 21
4.3116137745
  0
LINE
  5
25C
100
AcDbEntity
  8
0
100
AcDbLine
 62
7
  6
CONTINUOUS
 10
6.5977593104
 20
4.0559903632
 11
6.7252593104
 21
4.0559903632
  0
LINE
  5
25D
100
AcDbEntity
  8
0
100
AcDbLine
 62
7
  6
CONTINUOUS
 10
7.4206687592
 20
4.0574138199
 11
7.4006687592
 21
4.0574138199
  0
LINE
  5
25E
100
AcDbEntity
  8
0
100
AcDbLine
 62
7
  6
CONTINUOUS
 10
6.5977593104
 20
4.0638676637
 11
6.7252593104
 21
4.0638676637
  0
LINE
  5
25F
100
AcDbEntity
  8
0
100
AcDbLine
 62
7
  6
CONTINUOUS
 10
6.5977593104
 20
4.0657267744
 11
6.7252593104
 21
4.0657267744
  0
LINE
  5
260
100
AcDbEntity
  8
0
100
AcDbLine
 62
7
  6
CONTINUOUS
 10
6.5977593104
 20
4.0741023855
 11
6.7252593104
 21
4.0741023855
  0
LINE
  5
261
100
AcDbEntity
  8
0
100
AcDbLine
 62
7
  6
CONTINUOUS
 10
6.5977593104
 20
4.0760728701
 11
6.7252593104
 21
4.0760728701
  0
LINE
  5
262
100
AcDbEntity
  8
0
100
AcDbLine
 62
7
  6
CONTINUOUS
 10
6.5977593104
 20
4.0849238348
 11
6.7252593104
 21
4.0849238348
  0
LINE
  5
263
100
AcDbEntity
  8
0
100
AcDbLine
 62
7
  6
CONTINUOUS
 10
6.5977593104
 20
4.0870002924
 11
6.7252593104
 21
4.0870002924
  0
LINE
  5
264
100
AcDbEntity
  8
0
100
AcDbLine
 62
7
  6
CONTINUOUS
 10
6.5977593104
 20
4.0963023508
 11
6.7252593104
 21
4.0963023508
  0
LINE
  5
265
100
AcDbEntity
  8
0
100
AcDbLine
 62
7
  6
CONTINUOUS
 10
6.5977593104
 20
4.0984790898
 11
6.7252593104
 21
4.0984790898
  0
LINE
  5
266
100
AcDbEntity
  8
0
100
AcDbLine
 62
7
  6
CONTINUOUS
 10
6.7349482816
 20
4.1080368184
 11
6.5977593104
 21
4.1080368184
  0
LINE
  5
267
100
AcDbEntity
  8
0
100
AcDbLine
 62
7
  6
CONTINUOUS
 10
6.5977593104
 20
4.1082067458
 11
6.7252593104
 21
4.1082067458
  0
LINE
  5
268
100
AcDbEntity
  8
0
100
AcDbLine
 62
7
  6
CONTINUOUS
 10
6.5977593104
 20
4.1104846317
 11
6.7252593104
 21
4.1104846317
  0
LINE
  5
269
100
AcDbEntity
  8
0
100
AcDbLine
 62
7
  6
CONTINUOUS
 10
6.7349456182
 20
4.1199190828
 11
6.5977593104
 21
4.1199190828
  0
LINE
  5
26A
100
AcDbEntity
  8
0
100
AcDbLine
 62
7
  6
CONTINUOUS
 10
6.5977593104
 20
4.1205973441
 11
6.7252593104
 21
4.1205973441
  0
LINE
  5
26B
100
AcDbEntity
  8
0
100
AcDbLine
 62
7
  6
CONTINUOUS
 10
6.5977593104
 20
4.1229635352
 11
6.7252593104
 21
4.1229635352
  0
LINE
  5
26C
100
AcDbEntity
  8
0
100
AcDbLine
 62
7
  6
CONTINUOUS
 10
6.7349482816
 20
4.1322747089
 11
6.5977593104
 21
4.1322747089
  0
LINE
  5
26D
100
AcDbEntity
  8
0
100
AcDbLine
 62
7
  6
CONTINUOUS
 10
6.5977593104
 20
4.1334613041
 11
6.7252593104
 21
4.1334613041
  0
LINE
  5
26E
100
AcDbEntity
  8
0
100
AcDbLine
 62
7
  6
CONTINUOUS
 10
6.5977593104
 20
4.1359020728
 11
6.7252593104
 21
4.1359020728
  0
LINE
  5
26F
100
AcDbEntity
  8
0
100
AcDbLine
 62
7
  6
CONTINUOUS
 10
6.7349482816
 20
4.1450515006
 11
6.5977593104
 21
4.1450515006
  0
LINE
  5
270
100
AcDbEntity
  8
0
100
AcDbLine
 62
7
  6
CONTINUOUS
 10
6.5977593104
 20
4.1467422465
 11
6.7252593104
 21
4.1467422465
  0
LINE
  5
271
100
AcDbEntity
  8
0
100
AcDbLine
 62
7
  6
CONTINUOUS
 10
6.5977593104
 20
4.1492579494
 11
6.7252593104
 21
4.1492579494
  0
LINE
  5
272
100
AcDbEntity
  8
0
100
AcDbLine
 62
7
  6
CONTINUOUS
 10
6.7349482816
 20
4.1582205531
 11
6.5977593104
 21
4.1582205531
  0
LINE
  5
273
100
AcDbEntity
  8
0
100
AcDbLine
 62
7
  6
CONTINUOUS
 10
6.5977593104
 20
4.1604108155
 11
6.7252593104
 21
4.1604108155
  0
LINE
  5
274
100
AcDbEntity
  8
0
100
AcDbLine
 62
7
  6
CONTINUOUS
 10
6.5977593104
 20
4.1629945572
 11
6.7252593104
 21
4.1629945572
  0
LINE
  5
275
100
AcDbEntity
  8
0
100
AcDbLine
 62
7
  6
CONTINUOUS
 10
6.7349482816
 20
4.1717457712
 11
6.5977593104
 21
4.1717457712
  0
LINE
  5
276
100
AcDbEntity
  8
0
100
AcDbLine
 62
7
  6
CONTINUOUS
 10
6.5977593104
 20
4.1744295467
 11
6.7252593104
 21
4.1744295467
  0
LINE
  5
277
100
AcDbEntity
  8
0
100
AcDbLine
 62
7
  6
CONTINUOUS
 10
6.5977593104
 20
4.1770742454
 11
6.7252593104
 21
4.1770742454
  0
LINE
  5
278
100
AcDbEntity
  8
0
100
AcDbLine
 62
7
  6
CONTINUOUS
 10
6.7349482816
 20
4.185590083
 11
6.5977593104
 21
4.185590083
  0
LINE
  5
279
100
AcDbEntity
  8
0
100
AcDbLine
 62
7
  6
CONTINUOUS
 10
6.5977593104
 20
4.1887600156
 11
6.7252593104
 21
4.1887600156
  0
LINE
  5
27A
100
AcDbEntity
  8
0
100
AcDbLine
 62
7
  6
CONTINUOUS
 10
6.5977593104
 20
4.1914665232
 11
6.7252593104
 21
4.1914665232
  0
LINE
  5
27B
100
AcDbEntity
  8
0
100
AcDbLine
 62
7
  6
CONTINUOUS
 10
6.7349456182
 20
4.1997123272
 11
6.5977593104
 21
4.1997123272
  0
LINE
  5
27C
100
AcDbEntity
  8
0
100
AcDbLine
 62
7
  6
CONTINUOUS
 10
6.5977593104
 20
4.2033547297
 11
6.7252593104
 21
4.2033547297
  0
LINE
  5
27D
100
AcDbEntity
  8
0
100
AcDbLine
 62
7
  6
CONTINUOUS
 10
6.5977593104
 20
4.206107662
 11
6.7252593104
 21
4.206107662
  0
LINE
  5
27E
100
AcDbEntity
  8
0
100
AcDbLine
 62
7
  6
CONTINUOUS
 10
6.7349482816
 20
4.2140834322
 11
6.5977593104
 21
4.2140834322
  0
LINE
  5
27F
100
AcDbEntity
  8
0
100
AcDbLine
 62
7
  6
CONTINUOUS
 10
6.5977593104
 20
4.2181983046
 11
6.7252593104
 21
4.2181983046
  0
LINE
  5
280
100
AcDbEntity
  8
0
100
AcDbLine
 62
7
  6
CONTINUOUS
 10
6.5977593104
 20
4.2209818119
 11
6.7252593104
 21
4.2209818119
  0
LINE
  5
281
100
AcDbEntity
  8
0
100
AcDbLine
 62
7
  6
CONTINUOUS
 10
6.7349482816
 20
4.2286543713
 11
6.5977593104
 21
4.2286543713
  0
LINE
  5
282
100
AcDbEntity
  8
0
100
AcDbLine
 62
7
  6
CONTINUOUS
 10
6.5977593104
 20
4.2332254364
 11
6.7252593104
 21
4.2332254364
  0
LINE
  5
283
100
AcDbEntity
  8
0
100
AcDbLine
 62
7
  6
CONTINUOUS
 10
6.5977593104
 20
4.2360401031
 11
6.7252593104
 21
4.2360401031
  0
LINE
  5
284
100
AcDbEntity
  8
0
100
AcDbLine
 62
7
  6
CONTINUOUS
 10
6.7349482816
 20
4.2433884216
 11
6.5977593104
 21
4.2433884216
  0
LINE
  5
285
100
AcDbEntity
  8
0
100
AcDbLine
 62
7
  6
CONTINUOUS
 10
6.5977593104
 20
4.2484031504
 11
6.7252593104
 21
4.2484031504
  0
LINE
  5
286
100
AcDbEntity
  8
0
100
AcDbLine
 62
7
  6
CONTINUOUS
 10
6.5977593104
 20
4.2512412617
 11
6.7252593104
 21
4.2512412617
  0
LINE
  5
287
100
AcDbEntity
  8
0
100
AcDbLine
 62
7
  6
CONTINUOUS
 10
6.7349482816
 20
4.2582451982
 11
6.5977593104
 21
4.2582451982
  0
LINE
  5
288
100
AcDbEntity
  8
0
100
AcDbLine
 62
7
  6
CONTINUOUS
 10
6.5977593104
 20
4.2636898457
 11
6.7252593104
 21
4.2636898457
  0
LINE
  5
289
100
AcDbEntity
  8
0
100
AcDbLine
 62
7
  6
CONTINUOUS
 10
6.5977593104
 20
4.2665436225
 11
6.7252593104
 21
4.2665436225
  0
LINE
  5
28A
100
AcDbEntity
  8
0
100
AcDbLine
 62
7
  6
CONTINUOUS
 10
6.7349482816
 20
4.2731839797
 11
6.5977593104
 21
4.2731839797
  0
LINE
  5
28B
100
AcDbEntity
  8
0
100
AcDbLine
 62
7
  6
CONTINUOUS
 10
6.5977593104
 20
4.2790436225
 11
6.7252593104
 21
4.2790436225
  0
LINE
  5
28C
100
AcDbEntity
  8
0
100
AcDbLine
 62
7
  6
CONTINUOUS
 10
6.5977593104
 20
4.2819138199
 11
6.7252593104
 21
4.2819138199
  0
LINE
  5
28D
100
AcDbEntity
  8
0
100
AcDbLine
 62
7
  6
CONTINUOUS
 10
6.7349456182
 20
4.2881638199
 11
6.5977593104
 21
4.2881638199
  0
LINE
  5
28E
100
AcDbEntity
  8
0
100
AcDbLine
 62
7
  6
CONTINUOUS
 10
6.5977593104
 20
4.2944138199
 11
6.7252593104
 21
4.2944138199
  0
LINE
  5
28F
100
AcDbEntity
  8
0
100
AcDbLine
 62
7
  6
CONTINUOUS
 10
6.5977593104
 20
4.2972840173
 11
6.7252593104
 21
4.2972840173
  0
LINE
  5
290
100
AcDbEntity
  8
0
100
AcDbLine
 62
7
  6
CONTINUOUS
 10
4.7974237187
 20
5.7992894387
 11
4.7974237187
 21
6.1117894387
  0
LINE
  5
291
100
AcDbEntity
  8
0
100
AcDbLine
 62
7
  6
CONTINUOUS
 10
6.7349482816
 20
4.30314366
 11
6.5977593104
 21
4.30314366
  0
LINE
  5
292
100
AcDbEntity
  8
0
100
AcDbLine
 62
7
  6
CONTINUOUS
 10
6.5977593104
 20
4.3097840173
 11
6.7252593104
 21
4.3097840173
  0
LINE
  5
293
100
AcDbEntity
  8
0
100
AcDbLine
 62
7
  6
CONTINUOUS
 10
6.5977593104
 20
4.312637794
 11
6.7252593104
 21
4.312637794
  0
LINE
  5
294
100
AcDbEntity
  8
0
100
AcDbLine
 62
7
  6
CONTINUOUS
 10
6.7349482816
 20
4.3180824415
 11
6.5977593104
 21
4.3180824415
  0
LINE
  5
295
100
AcDbEntity
  8
0
100
AcDbLine
 62
7
  6
CONTINUOUS
 10
6.5977593104
 20
4.3250863781
 11
6.7252593104
 21
4.3250863781
  0
LINE
  5
296
100
AcDbEntity
  8
0
100
AcDbLine
 62
7
  6
CONTINUOUS
 10
6.5977593104
 20
4.3279244893
 11
6.7252593104
 21
4.3279244893
  0
LINE
  5
297
100
AcDbEntity
  8
0
100
AcDbLine
 62
7
  6
CONTINUOUS
 10
6.7349482816
 20
4.3329392181
 11
6.5977593104
 21
4.3329392181
  0
LINE
  5
298
100
AcDbEntity
  8
0
100
AcDbLine
 62
7
  6
CONTINUOUS
 10
6.5977593104
 20
4.3402875367
 11
6.7252593104
 21
4.3402875367
  0
LINE
  5
299
100
AcDbEntity
  8
0
100
AcDbLine
 62
7
  6
CONTINUOUS
 10
6.5977593104
 20
4.3431022034
 11
6.7252593104
 21
4.3431022034
  0
LINE
  5
29A
100
AcDbEntity
  8
0
100
AcDbLine
 62
7
  6
CONTINUOUS
 10
6.7349482816
 20
4.3476732684
 11
6.5977593104
 21
4.3476732684
  0
LINE
  5
29B
100
AcDbEntity
  8
0
100
AcDbLine
 62
7
  6
CONTINUOUS
 10
6.5977593104
 20
4.3553458278
 11
6.7252593104
 21
4.3553458278
  0
LINE
  5
29C
100
AcDbEntity
  8
0
100
AcDbLine
 62
7
  6
CONTINUOUS
 10
6.5977593104
 20
4.3581293351
 11
6.7252593104
 21
4.3581293351
  0
LINE
  5
29D
100
AcDbEntity
  8
0
100
AcDbLine
 62
7
  6
CONTINUOUS
 10
6.7349482816
 20
4.3622442075
 11
6.5977593104
 21
4.3622442075
  0
LINE
  5
29E
100
AcDbEntity
  8
0
100
AcDbLine
 62
7
  6
CONTINUOUS
 10
6.5977593104
 20
4.3702199778
 11
6.7252593104
 21
4.3702199778
  0
LINE
  5
29F
100
AcDbEntity
  8
0
100
AcDbLine
 62
7
  6
CONTINUOUS
 10
6.5977593104
 20
4.3729729101
 11
6.7252593104
 21
4.3729729101
  0
LINE
  5
2A0
100
AcDbEntity
  8
0
100
AcDbLine
 62
7
  6
CONTINUOUS
 10
6.7349456182
 20
4.3766153126
 11
6.5977593104
 21
4.3766153126
  0
LINE
  5
2A1
100
AcDbEntity
  8
0
100
AcDbLine
 62
7
  6
CONTINUOUS
 10
6.5977593104
 20
4.3848611165
 11
6.7252593104
 21
4.3848611165
  0
LINE
  5
2A2
100
AcDbEntity
  8
0
100
AcDbLine
 62
7
  6
CONTINUOUS
 10
6.5977593104
 20
4.3875676241
 11
6.7252593104
 21
4.3875676241
  0
LINE
  5
2A3
100
AcDbEntity
  8
0
100
AcDbLine
 62
7
  6
CONTINUOUS
 10
6.7349482816
 20
4.3907375567
 11
6.5977593104
 21
4.3907375567
  0
LINE
  5
2A4
100
AcDbEntity
  8
0
100
AcDbLine
 62
7
  6
CONTINUOUS
 10
6.5977593104
 20
4.3992533944
 11
6.7252593104
 21
4.3992533944
  0
LINE
  5
2A5
100
AcDbEntity
  8
0
100
AcDbLine
 62
7
  6
CONTINUOUS
 10
6.5977593104
 20
4.401898093
 11
6.7252593104
 21
4.401898093
  0
LINE
  5
2A6
100
AcDbEntity
  8
0
100
AcDbLine
 62
7
  6
CONTINUOUS
 10
6.7349482816
 20
4.4045818686
 11
6.5977593104
 21
4.4045818686
  0
LINE
  5
2A7
100
AcDbEntity
  8
0
100
AcDbLine
 62
7
  6
CONTINUOUS
 10
6.5977593104
 20
4.4133330825
 11
6.7252593104
 21
4.4133330825
  0
LINE
  5
2A8
100
AcDbEntity
  8
0
100
AcDbLine
 62
7
  6
CONTINUOUS
 10
6.5977593104
 20
4.4159168242
 11
6.7252593104
 21
4.4159168242
  0
LINE
  5
2A9
100
AcDbEntity
  8
0
100
AcDbLine
 62
7
  6
CONTINUOUS
 10
6.7349482816
 20
4.4181070866
 11
6.5977593104
 21
4.4181070866
  0
LINE
  5
2AA
100
AcDbEntity
  8
0
100
AcDbLine
 62
7
  6
CONTINUOUS
 10
6.5977593104
 20
4.4270696904
 11
6.7252593104
 21
4.4270696904
  0
LINE
  5
2AB
100
AcDbEntity
  8
0
100
AcDbLine
 62
7
  6
CONTINUOUS
 10
6.5977593104
 20
4.4295853933
 11
6.7252593104
 21
4.4295853933
  0
LINE
  5
2AC
100
AcDbEntity
  8
0
100
AcDbLine
 62
7
  6
CONTINUOUS
 10
6.7349482816
 20
4.4312761392
 11
6.5977593104
 21
4.4312761392
  0
LINE
  5
2AD
100
AcDbEntity
  8
0
100
AcDbLine
 62
7
  6
CONTINUOUS
 10
6.5977593104
 20
4.4404255669
 11
6.7252593104
 21
4.4404255669
  0
LINE
  5
2AE
100
AcDbEntity
  8
0
100
AcDbLine
 62
7
  6
CONTINUOUS
 10
6.5977593104
 20
4.4428663357
 11
6.7252593104
 21
4.4428663357
  0
LINE
  5
2AF
100
AcDbEntity
  8
0
100
AcDbLine
 62
7
  6
CONTINUOUS
 10
6.7349482816
 20
4.4440529309
 11
6.5977593104
 21
4.4440529309
  0
LINE
  5
2B0
100
AcDbEntity
  8
0
100
AcDbLine
 62
7
  6
CONTINUOUS
 10
6.5977593104
 20
4.4533641046
 11
6.7252593104
 21
4.4533641046
  0
LINE
  5
2B1
100
AcDbEntity
  8
0
100
AcDbLine
 62
7
  6
CONTINUOUS
 10
6.5977593104
 20
4.4557302956
 11
6.7252593104
 21
4.4557302956
  0
LINE
  5
2B2
100
AcDbEntity
  8
0
100
AcDbLine
 62
7
  6
CONTINUOUS
 10
6.7349456182
 20
4.4564085569
 11
6.5977593104
 21
4.4564085569
  0
LINE
  5
2B3
100
AcDbEntity
  8
0
100
AcDbLine
 62
7
  6
CONTINUOUS
 10
6.5977593104
 20
4.4658430081
 11
6.7252593104
 21
4.4658430081
  0
LINE
  5
2B4
100
AcDbEntity
  8
0
100
AcDbLine
 62
7
  6
CONTINUOUS
 10
6.5977593104
 20
4.468120894
 11
6.7252593104
 21
4.468120894
  0
LINE
  5
2B5
100
AcDbEntity
  8
0
100
AcDbLine
 62
7
  6
CONTINUOUS
 10
6.7349482816
 20
4.4682908214
 11
6.5977593104
 21
4.4682908214
  0
LINE
  5
2B6
100
AcDbEntity
  8
0
100
AcDbLine
 62
7
  6
CONTINUOUS
 10
6.5977593104
 20
4.4778485499
 11
6.7252593104
 21
4.4778485499
  0
LINE
  5
2B7
100
AcDbEntity
  8
0
100
AcDbLine
 62
7
  6
CONTINUOUS
 10
6.5977593104
 20
4.4800252889
 11
6.7252593104
 21
4.4800252889
  0
LINE
  5
2B8
100
AcDbEntity
  8
0
100
AcDbLine
 62
7
  6
CONTINUOUS
 10
6.5977593104
 20
4.4893273474
 11
6.7252593104
 21
4.4893273474
  0
LINE
  5
2B9
100
AcDbEntity
  8
0
100
AcDbLine
 62
7
  6
CONTINUOUS
 10
6.5977593104
 20
4.4914038049
 11
6.7252593104
 21
4.4914038049
  0
LINE
  5
2BA
100
AcDbEntity
  8
0
100
AcDbLine
 62
7
  6
CONTINUOUS
 10
6.5977593104
 20
4.5002547696
 11
6.7252593104
 21
4.5002547696
  0
LINE
  5
2BB
100
AcDbEntity
  8
0
100
AcDbLine
 62
7
  6
CONTINUOUS
 10
6.5977593104
 20
4.5022252543
 11
6.7252593104
 21
4.5022252543
  0
LINE
  5
2BC
100
AcDbEntity
  8
0
100
AcDbLine
 62
7
  6
CONTINUOUS
 10
6.5977593104
 20
4.5106008653
 11
6.7252593104
 21
4.5106008653
  0
LINE
  5
2BD
100
AcDbEntity
  8
0
100
AcDbLine
 62
7
  6
CONTINUOUS
 10
6.5977593104
 20
4.5124599761
 11
6.7252593104
 21
4.5124599761
  0
LINE
  5
2BE
100
AcDbEntity
  8
0
100
AcDbLine
 62
7
  6
CONTINUOUS
 10
7.4206687592
 20
4.5189138199
 11
7.4006687592
 21
4.5189138199
  0
LINE
  5
2BF
100
AcDbEntity
  8
0
100
AcDbLine
 62
7
  6
CONTINUOUS
 10
6.5977593104
 20
4.5203372765
 11
6.7252593104
 21
4.5203372765
  0
LINE
  5
2C0
100
AcDbEntity
  8
0
100
AcDbLine
 62
7
  6
CONTINUOUS
 10
6.5977593104
 20
4.522085107
 11
6.7252593104
 21
4.522085107
  0
LINE
  5
2C1
100
AcDbEntity
  8
0
100
AcDbLine
 62
7
  6
CONTINUOUS
 10
6.5977593104
 20
4.5294324227
 11
6.7252593104
 21
4.5294324227
  0
LINE
  5
2C2
100
AcDbEntity
  8
0
100
AcDbLine
 62
7
  6
CONTINUOUS
 10
6.5977593104
 20
4.5310587116
 11
6.7252593104
 21
4.5310587116
  0
LINE
  5
2C3
100
AcDbEntity
  8
0
100
AcDbLine
 62
7
  6
CONTINUOUS
 10
6.5977593104
 20
4.5378760425
 11
6.7252593104
 21
4.5378760425
  0
LINE
  5
2C4
100
AcDbEntity
  8
0
100
AcDbLine
 62
7
  6
CONTINUOUS
 10
6.5977593104
 20
4.5393717475
 11
6.7252593104
 21
4.5393717475
  0
LINE
  5
2C5
100
AcDbEntity
  8
0
100
AcDbLine
 62
7
  6
CONTINUOUS
 10
7.4696590792
 20
4.3130070979
 11
7.4945025024
 21
4.3125734403
  0
LINE
  5
2C6
100
AcDbEntity
  8
0
100
AcDbLine
 62
7
  6
CONTINUOUS
 10
6.8570285486
 20
5.0069156578
 11
6.8824137811
 21
5.0151638199
  0
LINE
  5
2C7
100
AcDbEntity
  8
0
100
AcDbLine
 62
7
  6
CONTINUOUS
 10
7.3856687592
 20
4.5439138199
 11
6.7352593104
 21
4.5439138199
  0
LINE
  5
2C8
100
AcDbEntity
  8
0
100
AcDbLine
 62
7
  6
CONTINUOUS
 10
6.5977593104
 20
4.5456303246
 11
6.7252593104
 21
4.5456303246
  0
LINE
  5
2C9
100
AcDbEntity
  8
0
100
AcDbLine
 62
7
  6
CONTINUOUS
 10
6.5977593104
 20
4.5469962399
 11
6.7252593104
 21
4.5469962399
  0
LINE
  5
2CA
100
AcDbEntity
  8
0
100
AcDbLine
 62
7
  6
CONTINUOUS
 10
6.5977593104
 20
4.552678909
 11
6.7252593104
 21
4.552678909
  0
LINE
  5
2CB
100
AcDbEntity
  8
0
100
AcDbLine
 62
7
  6
CONTINUOUS
 10
6.5977593104
 20
4.5539112906
 11
6.7252593104
 21
4.5539112906
  0
LINE
  5
2CC
100
AcDbEntity
  8
0
100
AcDbLine
 62
7
  6
CONTINUOUS
 10
6.5977593104
 20
4.5590024759
 11
6.7252593104
 21
4.5590024759
  0
LINE
  5
2CD
100
AcDbEntity
  8
0
100
AcDbLine
 62
7
  6
CONTINUOUS
 10
6.5977593104
 20
4.560097946
 11
6.7252593104
 21
4.560097946
  0
LINE
  5
2CE
100
AcDbEntity
  8
0
100
AcDbLine
 62
7
  6
CONTINUOUS
 10
6.5977593104
 20
4.5645836929
 11
6.7252593104
 21
4.5645836929
  0
LINE
  5
2CF
100
AcDbEntity
  8
0
100
AcDbLine
 62
7
  6
CONTINUOUS
 10
6.5977593104
 20
4.565542073
 11
6.7252593104
 21
4.565542073
  0
LINE
  5
2D0
100
AcDbEntity
  8
0
100
AcDbLine
 62
7
  6
CONTINUOUS
 10
6.5977593104
 20
4.5656638199
 11
6.5542934271
 21
4.5656638199
  0
LINE
  5
2D1
100
AcDbEntity
  8
0
100
AcDbLine
 62
7
  6
CONTINUOUS
 10
6.5977593104
 20
4.5694047855
 11
6.7252593104
 21
4.5694047855
  0
LINE
  5
2D2
100
AcDbEntity
  8
0
100
AcDbLine
 62
7
  6
CONTINUOUS
 10
6.5977593104
 20
4.5702202849
 11
6.7252593104
 21
4.5702202849
  0
LINE
  5
2D3
100
AcDbEntity
  8
0
100
AcDbLine
 62
7
  6
CONTINUOUS
 10
6.5977593104
 20
4.5734599628
 11
6.7252593104
 21
4.5734599628
  0
LINE
  5
2D4
100
AcDbEntity
  8
0
100
AcDbLine
 62
7
  6
CONTINUOUS
 10
6.5977593104
 20
4.5741282238
 11
6.7252593104
 21
4.5741282238
  0
LINE
  5
2D5
100
AcDbEntity
  8
0
100
AcDbLine
 62
7
  6
CONTINUOUS
 10
6.5977593104
 20
4.5767306865
 11
6.7252593104
 21
4.5767306865
  0
LINE
  5
2D6
100
AcDbEntity
  8
0
100
AcDbLine
 62
7
  6
CONTINUOUS
 10
6.5977593104
 20
4.5772523541
 11
6.7252593104
 21
4.5772523541
  0
LINE
  5
2D7
100
AcDbEntity
  8
0
100
AcDbLine
 62
7
  6
CONTINUOUS
 10
6.5977593104
 20
4.5792104685
 11
6.7252593104
 21
4.5792104685
  0
LINE
  5
2D8
100
AcDbEntity
  8
0
100
AcDbLine
 62
7
  6
CONTINUOUS
 10
6.5977593104
 20
4.5795841129
 11
6.7252593104
 21
4.5795841129
  0
LINE
  5
2D9
100
AcDbEntity
  8
0
100
AcDbLine
 62
7
  6
CONTINUOUS
 10
6.5977593104
 20
4.5808925118
 11
6.7252593104
 21
4.5808925118
  0
LINE
  5
2DA
100
AcDbEntity
  8
0
100
AcDbLine
 62
7
  6
CONTINUOUS
 10
6.5977593104
 20
4.5811171089
 11
6.7252593104
 21
4.5811171089
  0
LINE
  5
2DB
100
AcDbEntity
  8
0
100
AcDbLine
 62
7
  6
CONTINUOUS
 10
6.5977593104
 20
4.5817722062
 11
6.7252593104
 21
4.5817722062
  0
LINE
  5
2DC
100
AcDbEntity
  8
0
100
AcDbLine
 62
7
  6
CONTINUOUS
 10
6.5977593104
 20
4.581847323
 11
6.7252593303
 21
4.581847323
  0
LINE
  5
2DD
100
AcDbEntity
  8
0
100
AcDbLine
 62
7
  6
CONTINUOUS
 10
6.9244187592
 20
4.6346638199
 11
6.9455614585
 21
4.6346638199
  0
LINE
  5
2DE
100
AcDbEntity
  8
0
100
AcDbLine
 62
7
  6
CONTINUOUS
 10
7.2737771929
 20
4.6346638199
 11
7.2949187592
 21
4.6346638199
  0
LINE
  5
2DF
100
AcDbEntity
  8
0
100
AcDbLine
 62
7
  6
CONTINUOUS
 10
6.8459187592
 20
4.6601638199
 11
6.9230602698
 21
4.6601638199
  0
LINE
  5
2E0
100
AcDbEntity
  8
0
100
AcDbLine
 62
7
  6
CONTINUOUS
 10
7.2962781236
 20
4.6601638199
 11
7.3734187592
 21
4.6601638199
  0
LINE
  5
2E1
100
AcDbEntity
  8
0
100
AcDbLine
 62
7
  6
CONTINUOUS
 10
6.8309187592
 20
4.6996638199
 11
6.8987652897
 21
4.6996638199
  0
LINE
  5
2E2
100
AcDbEntity
  8
0
100
AcDbLine
 62
7
  6
CONTINUOUS
 10
7.3205715341
 20
4.6996638199
 11
7.3884187592
 21
4.6996638199
  0
LINE
  5
2E3
100
AcDbEntity
  8
0
100
AcDbLine
 62
7
  6
CONTINUOUS
 10
7.4579290492
 20
4.5057429733
 11
7.4827724714
 21
4.5053093298
  0
LINE
  5
2E4
100
AcDbEntity
  8
0
100
AcDbLine
 62
7
  6
CONTINUOUS
 10
7.0861865544
 20
5.0516846698
 11
7.084574582
 21
5.0516521408
  0
LINE
  5
2E5
100
AcDbEntity
  8
0
100
AcDbLine
 62
7
  6
CONTINUOUS
 10
7.0935540816
 20
5.0518361032
 11
7.0791687592
 21
5.0515471529
  0
LWPOLYLINE
  5
2E6
100
AcDbEntity
  8
0
100
AcDbPolyline
 62
7
  6
CONTINUOUS
 90
3
 70
0
 10
7.0845745727
 20
5.0521524708
 10
7.085096787
 20
5.052162965
 10
7.0861865494
 20
5.0521849789
  0
LINE
  5
2E7
100
AcDbEntity
  8
0
100
AcDbLine
 62
7
  6
CONTINUOUS
 10
7.0791687592
 20
5.0520475509
 11
7.0935540816
 21
5.0523363146
  0
LINE
  5
2E8
100
AcDbEntity
  8
0
100
AcDbLine
 62
7
  6
CONTINUOUS
 10
6.8309187592
 20
4.9046638199
 11
6.8987659843
 21
4.9046638199
  0
LINE
  5
2E9
100
AcDbEntity
  8
0
100
AcDbLine
 62
7
  6
CONTINUOUS
 10
7.3205722286
 20
4.9046638199
 11
7.3884187592
 21
4.9046638199
  0
LINE
  5
2EA
100
AcDbEntity
  8
0
100
AcDbLine
 62
7
  6
CONTINUOUS
 10
6.8450726015
 20
4.9446638199
 11
6.9234344268
 21
4.9446638199
  0
LINE
  5
2EB
100
AcDbEntity
  8
0
100
AcDbLine
 62
7
  6
CONTINUOUS
 10
7.2959018687
 20
4.9446638199
 11
7.3742649168
 21
4.9446638199
  0
LINE
  5
2EC
100
AcDbEntity
  8
0
100
AcDbLine
 62
7
  6
CONTINUOUS
 10
6.8589187592
 20
4.9526638199
 11
6.9298406843
 21
4.9526638199
  0
LINE
  5
2ED
100
AcDbEntity
  8
0
100
AcDbLine
 62
7
  6
CONTINUOUS
 10
7.2894980298
 20
4.9526638199
 11
7.3604187592
 21
4.9526638199
  0
LINE
  5
2EE
100
AcDbEntity
  8
0
100
AcDbLine
 62
7
  6
CONTINUOUS
 10
6.8459187592
 20
4.9601638199
 11
6.9363964914
 21
4.9601638199
  0
LINE
  5
2EF
100
AcDbEntity
  8
0
100
AcDbLine
 62
7
  6
CONTINUOUS
 10
7.282942085
 20
4.9601638199
 11
7.3734187592
 21
4.9601638199
  0
LINE
  5
2F0
100
AcDbEntity
  8
0
100
AcDbLine
 62
7
  6
CONTINUOUS
 10
6.8459187592
 20
4.9958058684
 11
6.9774292078
 21
4.9958058684
  0
LINE
  5
2F1
100
AcDbEntity
  8
0
100
AcDbLine
 62
7
  6
CONTINUOUS
 10
7.2419086337
 20
4.9958058684
 11
7.3734187592
 21
4.9958058684
  0
LINE
  5
2F2
100
AcDbEntity
  8
0
100
AcDbLine
 62
7
  6
CONTINUOUS
 10
6.8570285486
 20
5.0069156578
 11
6.9953745895
 21
5.0069156578
  0
LINE
  5
2F3
100
AcDbEntity
  8
0
100
AcDbLine
 62
7
  6
CONTINUOUS
 10
7.2239616796
 20
5.0069156578
 11
7.3623089698
 21
5.0069156578
  0
LINE
  5
2F4
100
AcDbEntity
  8
0
100
AcDbLine
 62
7
  6
CONTINUOUS
 10
6.8824137811
 20
5.0151638199
 11
7.0116099921
 21
5.0151638199
  0
LINE
  5
2F5
100
AcDbEntity
  8
0
100
AcDbLine
 62
7
  6
CONTINUOUS
 10
7.2077272347
 20
5.0151638199
 11
7.3369237372
 21
5.0151638199
  0
LINE
  5
2F6
100
AcDbEntity
  8
0
100
AcDbLine
 62
7
  6
CONTINUOUS
 10
7.0433175452
 20
5.0270684665
 11
6.9120964309
 21
5.0270684665
  0
LINE
  5
2F7
100
AcDbEntity
  8
0
100
AcDbLine
 62
7
  6
CONTINUOUS
 10
7.1760194119
 20
5.0270684665
 11
7.3072410875
 21
5.0270684665
  0
LINE
  5
2F8
100
AcDbEntity
  8
0
100
AcDbLine
 62
7
  6
CONTINUOUS
 10
6.5514891864
 20
4.0115242264
 11
6.4774550696
 21
4.06167637
  0
LINE
  5
2F9
100
AcDbEntity
  8
0
100
AcDbLine
 62
7
  6
CONTINUOUS
 10
6.8450726015
 20
4.9446638199
 11
6.8589187592
 21
4.9526638199
  0
LINE
  5
2FA
100
AcDbEntity
  8
0
100
AcDbLine
 62
7
  6
CONTINUOUS
 10
7.2949187592
 20
4.6346638199
 11
7.3734187592
 21
4.6601638199
  0
LINE
  5
2FB
100
AcDbEntity
  8
0
100
AcDbLine
 62
7
  6
CONTINUOUS
 10
7.1426687592
 20
5.0514446234
 11
7.1282834368
 21
5.0517800504
  0
LINE
  5
2FC
100
AcDbEntity
  8
0
100
AcDbLine
 62
7
  6
CONTINUOUS
 10
7.1289253023
 20
5.0517645893
 11
7.1282834368
 21
5.0517800504
  0
LINE
  5
2FD
100
AcDbEntity
  8
0
100
AcDbLine
 62
7
  6
CONTINUOUS
 10
7.1282834368
 20
5.052280298
 11
7.1426687592
 21
5.0519450876
  0
LINE
  5
2FE
100
AcDbEntity
  8
0
100
AcDbLine
 62
7
  6
CONTINUOUS
 10
7.1282834368
 20
5.052280298
 11
7.1289253048
 21
5.0522648468
  0
LINE
  5
2FF
100
AcDbEntity
  8
0
100
AcDbLine
 62
7
  6
CONTINUOUS
 10
7.0931076933
 20
5.04804857
 11
7.0946461029
 21
5.0479852776
  0
LINE
  5
300
100
AcDbEntity
  8
0
100
AcDbLine
 62
7
  6
CONTINUOUS
 10
2.219650686
 20
5.3912300388
 11
2.5355933059
 21
5.3635886412
  0
LINE
  5
301
100
AcDbEntity
  8
0
100
AcDbLine
 62
7
  6
CONTINUOUS
 10
2.2055025331
 20
5.4065009822
 11
2.5521782881
 21
5.3761707837
  0
LINE
  5
302
100
AcDbEntity
  8
0
100
AcDbLine
 62
7
  6
CONTINUOUS
 10
6.9244187592
 20
4.6346638199
 11
6.8459187592
 21
4.6601638199
  0
LINE
  5
303
100
AcDbEntity
  8
0
100
AcDbLine
 62
7
  6
CONTINUOUS
 10
6.8459187592
 20
4.9958058684
 11
6.8570285486
 21
5.0069156578
  0
LINE
  5
304
100
AcDbEntity
  8
0
100
AcDbLine
 62
7
  6
CONTINUOUS
 10
6.5514891864
 20
4.5648034133
 11
6.4774550696
 21
4.5146512697
  0
LINE
  5
305
100
AcDbEntity
  8
0
100
AcDbLine
 62
7
  6
CONTINUOUS
 10
7.3604187592
 20
4.9526638199
 11
7.3734187592
 21
4.9601638199
  0
LINE
  5
306
100
AcDbEntity
  8
0
100
AcDbLine
 62
7
  6
CONTINUOUS
 10
2.2016429509
 20
5.7582288622
 11
2.61705614
 21
5.7218849174
  0
LINE
  5
307
100
AcDbEntity
  8
0
100
AcDbLine
 62
7
  6
CONTINUOUS
 10
7.4971663087
 20
4.0930434053
 11
7.4782559372
 21
4.0865320422
  0
LINE
  5
308
100
AcDbEntity
  8
0
100
AcDbLine
 62
7
  6
CONTINUOUS
 10
6.8831687592
 20
5.6001638199
 11
7.3361687592
 21
5.6001638199
  0
LINE
  5
309
100
AcDbEntity
  8
0
100
AcDbLine
 62
7
  6
CONTINUOUS
 10
6.8920383267
 20
5.6636638199
 11
7.3272991916
 21
5.6636638199
  0
LINE
  5
30A
100
AcDbEntity
  8
0
100
AcDbLine
 62
7
  6
CONTINUOUS
 10
6.8985153643
 20
5.6701638199
 11
7.3208221541
 21
5.6701638199
  0
LINE
  5
30B
100
AcDbEntity
  8
0
100
AcDbLine
 62
7
  6
CONTINUOUS
 10
6.5349237187
 20
5.7520394387
 11
6.7302440276
 21
5.7520394387
  0
LINE
  5
30C
100
AcDbEntity
  8
0
100
AcDbLine
 62
7
  6
CONTINUOUS
 10
2.2150133054
 20
5.8192630078
 11
2.6144873794
 21
5.784313555
  0
LINE
  5
30D
100
AcDbEntity
  8
0
100
AcDbLine
 62
7
  6
CONTINUOUS
 10
7.3623089698
 20
5.0069156578
 11
7.3369237372
 21
5.0151638199
  0
LINE
  5
30E
100
AcDbEntity
  8
0
100
AcDbLine
 62
7
  6
CONTINUOUS
 10
4.4874679638
 20
5.8539430011
 11
3.362268998
 21
6.2634819323
  0
LINE
  5
30F
100
AcDbEntity
  8
0
100
AcDbLine
 62
7
  6
CONTINUOUS
 10
6.4724237187
 20
6.1590394387
 11
6.4724237187
 21
5.7520394387
  0
LINE
  5
310
100
AcDbEntity
  8
0
100
AcDbLine
 62
7
  6
CONTINUOUS
 10
6.4724403471
 20
4.0844483052
 11
6.4724403471
 21
4.4918793345
  0
LINE
  5
311
100
AcDbEntity
  8
0
100
AcDbLine
 62
7
  6
CONTINUOUS
 10
6.4752593104
 20
4.0658159635
 11
6.4752593104
 21
4.5105116763
  0
LINE
  5
312
100
AcDbEntity
  8
0
100
AcDbLine
 62
7
  6
CONTINUOUS
 10
6.4774550696
 20
4.06167637
 11
6.4774550696
 21
4.5146512697
  0
LINE
  5
313
100
AcDbEntity
  8
0
100
AcDbLine
 62
7
  6
CONTINUOUS
 10
6.449215825
 20
4.3955472228
 11
6.4463117531
 21
4.375958553
  0
LINE
  5
314
100
AcDbEntity
  8
0
100
AcDbLine
 62
7
  6
CONTINUOUS
 10
6.4622497316
 20
4.4569326305
 11
6.4571698745
 21
4.4362056053
  0
LINE
  5
315
100
AcDbEntity
  8
0
100
AcDbLine
 62
7
  6
CONTINUOUS
 10
7.5500678224
 20
4.0161950907
 11
7.568978194
 21
4.0227064538
  0
LINE
  5
316
100
AcDbEntity
  8
0
100
AcDbLine
 62
7
  6
CONTINUOUS
 10
6.4724237187
 20
5.7992894387
 11
4.7974237187
 21
5.7992894387
  0
LINE
  5
317
100
AcDbEntity
  8
0
100
AcDbLine
 62
7
  6
CONTINUOUS
 10
7.7014237187
 20
5.8150394387
 11
7.6834237187
 21
5.8150394387
  0
LINE
  5
318
100
AcDbEntity
  8
0
100
AcDbLine
 62
7
  6
CONTINUOUS
 10
7.5269237187
 20
5.8542894387
 11
7.4499237187
 21
5.8542894387
  0
LINE
  5
319
100
AcDbEntity
  8
0
100
AcDbLine
 62
7
  6
CONTINUOUS
 10
7.6534237187
 20
5.8662894387
 11
7.6379237187
 21
5.8662894387
  0
LINE
  5
31A
100
AcDbEntity
  8
0
100
AcDbLine
 62
7
  6
CONTINUOUS
 10
4.5943492586
 20
6.1475969451
 11
3.4691502928
 21
6.5571358763
  0
LINE
  5
31B
100
AcDbEntity
  8
0
100
AcDbLine
 62
7
  6
CONTINUOUS
 10
6.8589187592
 20
4.9526638199
 11
6.8459187592
 21
4.9601638199
  0
LINE
  5
31C
100
AcDbEntity
  8
0
100
AcDbLine
 62
7
  6
CONTINUOUS
 10
6.4571698745
 20
4.1401220345
 11
6.4622496526
 21
4.119395331
  0
LINE
  5
31D
100
AcDbEntity
  8
0
100
AcDbLine
 62
7
  6
CONTINUOUS
 10
6.4463117531
 20
4.2003690867
 11
6.449215825
 21
4.1807804169
  0
LINE
  5
31E
100
AcDbEntity
  8
0
100
AcDbLine
 62
7
  6
CONTINUOUS
 10
6.5221687592
 20
2.2401638199
 11
6.5221687592
 21
2.1851638199
  0
LINE
  5
31F
100
AcDbEntity
  8
0
100
AcDbLine
 62
7
  6
CONTINUOUS
 10
6.5349237187
 20
6.1590394387
 11
6.5349237187
 21
5.7520394387
  0
LINE
  5
320
100
AcDbEntity
  8
0
100
AcDbLine
 62
7
  6
CONTINUOUS
 10
6.5514891864
 20
4.0115242264
 11
6.5514891864
 21
4.5648034133
  0
LINE
  5
321
100
AcDbEntity
  8
0
100
AcDbLine
 62
7
  6
CONTINUOUS
 10
6.5542934271
 20
4.0106638199
 11
6.5542934271
 21
4.5656638199
  0
LINE
  5
322
100
AcDbEntity
  8
0
100
AcDbLine
 62
7
  6
CONTINUOUS
 10
6.5977593104
 20
3.9944803168
 11
6.5977593104
 21
4.5817722062
  0
LINE
  5
323
100
AcDbEntity
  8
0
100
AcDbLine
 62
7
  6
CONTINUOUS
 10
6.7252593104
 20
3.9944803168
 11
6.7252593104
 21
3.9945554336
  0
LINE
  5
324
100
AcDbEntity
  8
0
100
AcDbLine
 62
7
  6
CONTINUOUS
 10
6.7252593104
 20
3.9952105308
 11
6.7252593104
 21
3.9954351279
  0
LINE
  5
325
100
AcDbEntity
  8
0
100
AcDbLine
 62
7
  6
CONTINUOUS
 10
6.7252593104
 20
3.9967435268
 11
6.7252593104
 21
3.9971171713
  0
LINE
  5
326
100
AcDbEntity
  8
0
100
AcDbLine
 62
7
  6
CONTINUOUS
 10
6.7252593104
 20
3.9990752856
 11
6.7252593104
 21
3.9995969532
  0
LINE
  5
327
100
AcDbEntity
  8
0
100
AcDbLine
 62
7
  6
CONTINUOUS
 10
6.7252593104
 20
4.002199416
 11
6.7252593104
 21
4.0028676769
  0
LINE
  5
328
100
AcDbEntity
  8
0
100
AcDbLine
 62
7
  6
CONTINUOUS
 10
6.7252593104
 20
4.0061073549
 11
6.7252593104
 21
4.0069228543
  0
LINE
  5
329
100
AcDbEntity
  8
0
100
AcDbLine
 62
7
  6
CONTINUOUS
 10
6.7252593104
 20
4.0107855667
 11
6.7252593104
 21
4.0117439468
  0
LINE
  5
32A
100
AcDbEntity
  8
0
100
AcDbLine
 62
7
  6
CONTINUOUS
 10
6.7252593104
 20
4.0162296938
 11
6.7252593104
 21
4.0173251638
  0
LINE
  5
32B
100
AcDbEntity
  8
0
100
AcDbLine
 62
7
  6
CONTINUOUS
 10
6.7252593104
 20
4.0224163492
 11
6.7252593104
 21
4.0236487307
  0
LINE
  5
32C
100
AcDbEntity
  8
0
100
AcDbLine
 62
7
  6
CONTINUOUS
 10
6.7252593104
 20
4.0293313999
 11
6.7252593104
 21
4.0306973151
  0
LINE
  5
32D
100
AcDbEntity
  8
0
100
AcDbLine
 62
7
  6
CONTINUOUS
 10
6.7252593104
 20
4.0369558923
 11
6.7252593104
 21
4.0384515973
  0
LINE
  5
32E
100
AcDbEntity
  8
0
100
AcDbLine
 62
7
  6
CONTINUOUS
 10
6.7252593104
 20
4.0452689281
 11
6.7252593104
 21
4.0468952171
  0
LINE
  5
32F
100
AcDbEntity
  8
0
100
AcDbLine
 62
7
  6
CONTINUOUS
 10
6.7252593104
 20
4.0542425327
 11
6.7252593104
 21
4.0559903632
  0
LINE
  5
330
100
AcDbEntity
  8
0
100
AcDbLine
 62
7
  6
CONTINUOUS
 10
6.7252593104
 20
4.0638676637
 11
6.7252593104
 21
4.0657267744
  0
LINE
  5
331
100
AcDbEntity
  8
0
100
AcDbLine
 62
7
  6
CONTINUOUS
 10
6.7252593104
 20
4.0741023855
 11
6.7252593104
 21
4.0760728701
  0
LINE
  5
332
100
AcDbEntity
  8
0
100
AcDbLine
 62
7
  6
CONTINUOUS
 10
6.7252593104
 20
4.0849238348
 11
6.7252593104
 21
4.0870002924
  0
LINE
  5
333
100
AcDbEntity
  8
0
100
AcDbLine
 62
7
  6
CONTINUOUS
 10
6.7252593104
 20
4.0963023508
 11
6.7252593104
 21
4.0984790898
  0
LINE
  5
334
100
AcDbEntity
  8
0
100
AcDbLine
 62
7
  6
CONTINUOUS
 10
6.7252593104
 20
4.1082067458
 11
6.7252593104
 21
4.1104846317
  0
LINE
  5
335
100
AcDbEntity
  8
0
100
AcDbLine
 62
7
  6
CONTINUOUS
 10
6.7252593104
 20
4.1205973441
 11
6.7252593104
 21
4.1229635352
  0
LINE
  5
336
100
AcDbEntity
  8
0
100
AcDbLine
 62
7
  6
CONTINUOUS
 10
6.7252593104
 20
4.1334613041
 11
6.7252593104
 21
4.1359020728
  0
LINE
  5
337
100
AcDbEntity
  8
0
100
AcDbLine
 62
7
  6
CONTINUOUS
 10
6.7252593104
 20
4.1467422465
 11
6.7252593104
 21
4.1492579494
  0
LINE
  5
338
100
AcDbEntity
  8
0
100
AcDbLine
 62
7
  6
CONTINUOUS
 10
6.7252593104
 20
4.1604108155
 11
6.7252593104
 21
4.1629945572
  0
LINE
  5
339
100
AcDbEntity
  8
0
100
AcDbLine
 62
7
  6
CONTINUOUS
 10
6.7252593104
 20
4.1744295467
 11
6.7252593104
 21
4.1770742454
  0
LINE
  5
33A
100
AcDbEntity
  8
0
100
AcDbLine
 62
7
  6
CONTINUOUS
 10
6.7252593104
 20
4.1887600156
 11
6.7252593104
 21
4.1914665232
  0
LINE
  5
33B
100
AcDbEntity
  8
0
100
AcDbLine
 62
7
  6
CONTINUOUS
 10
6.7252593104
 20
4.2033547297
 11
6.7252593104
 21
4.206107662
  0
LINE
  5
33C
100
AcDbEntity
  8
0
100
AcDbLine
 62
7
  6
CONTINUOUS
 10
6.7252593104
 20
4.2181983046
 11
6.7252593104
 21
4.2209818119
  0
LINE
  5
33D
100
AcDbEntity
  8
0
100
AcDbLine
 62
7
  6
CONTINUOUS
 10
6.7252593104
 20
4.2332254364
 11
6.7252593104
 21
4.2360401031
  0
LINE
  5
33E
100
AcDbEntity
  8
0
100
AcDbLine
 62
7
  6
CONTINUOUS
 10
6.7252593104
 20
4.2484031504
 11
6.7252593104
 21
4.2512412617
  0
LINE
  5
33F
100
AcDbEntity
  8
0
100
AcDbLine
 62
7
  6
CONTINUOUS
 10
6.7252593104
 20
4.2636898457
 11
6.7252593104
 21
4.2665436225
  0
LINE
  5
340
100
AcDbEntity
  8
0
100
AcDbLine
 62
7
  6
CONTINUOUS
 10
6.7252593104
 20
4.2790436225
 11
6.7252593104
 21
4.2819138199
  0
LINE
  5
341
100
AcDbEntity
  8
0
100
AcDbLine
 62
7
  6
CONTINUOUS
 10
6.7252593104
 20
4.2944138199
 11
6.7252593104
 21
4.2972840173
  0
LINE
  5
342
100
AcDbEntity
  8
0
100
AcDbLine
 62
7
  6
CONTINUOUS
 10
6.7252593104
 20
4.3097840173
 11
6.7252593104
 21
4.312637794
  0
LINE
  5
343
100
AcDbEntity
  8
0
100
AcDbLine
 62
7
  6
CONTINUOUS
 10
6.7252593104
 20
4.3250863781
 11
6.7252593104
 21
4.3279244893
  0
LINE
  5
344
100
AcDbEntity
  8
0
100
AcDbLine
 62
7
  6
CONTINUOUS
 10
6.7252593104
 20
4.3402875367
 11
6.7252593104
 21
4.3431022034
  0
LINE
  5
345
100
AcDbEntity
  8
0
100
AcDbLine
 62
7
  6
CONTINUOUS
 10
6.7252593104
 20
4.3553458278
 11
6.7252593104
 21
4.3581293351
  0
LINE
  5
346
100
AcDbEntity
  8
0
100
AcDbLine
 62
7
  6
CONTINUOUS
 10
6.7252593104
 20
4.3702199778
 11
6.7252593104
 21
4.3729729101
  0
LINE
  5
347
100
AcDbEntity
  8
0
100
AcDbLine
 62
7
  6
CONTINUOUS
 10
6.7252593104
 20
4.3848611165
 11
6.7252593104
 21
4.3875676241
  0
LINE
  5
348
100
AcDbEntity
  8
0
100
AcDbLine
 62
7
  6
CONTINUOUS
 10
6.7252593104
 20
4.3992533944
 11
6.7252593104
 21
4.401898093
  0
LINE
  5
349
100
AcDbEntity
  8
0
100
AcDbLine
 62
7
  6
CONTINUOUS
 10
6.7252593104
 20
4.4133330825
 11
6.7252593104
 21
4.4159168242
  0
LINE
  5
34A
100
AcDbEntity
  8
0
100
AcDbLine
 62
7
  6
CONTINUOUS
 10
6.7252593104
 20
4.4270696904
 11
6.7252593104
 21
4.4295853933
  0
LINE
  5
34B
100
AcDbEntity
  8
0
100
AcDbLine
 62
7
  6
CONTINUOUS
 10
6.7252593104
 20
4.4404255669
 11
6.7252593104
 21
4.4428663357
  0
LINE
  5
34C
100
AcDbEntity
  8
0
100
AcDbLine
 62
7
  6
CONTINUOUS
 10
6.7252593104
 20
4.4533641046
 11
6.7252593104
 21
4.4557302956
  0
LINE
  5
34D
100
AcDbEntity
  8
0
100
AcDbLine
 62
7
  6
CONTINUOUS
 10
6.7252593104
 20
4.4658430081
 11
6.7252593104
 21
4.468120894
  0
LINE
  5
34E
100
AcDbEntity
  8
0
100
AcDbLine
 62
7
  6
CONTINUOUS
 10
6.7252593104
 20
4.4778485499
 11
6.7252593104
 21
4.4800252889
  0
LINE
  5
34F
100
AcDbEntity
  8
0
100
AcDbLine
 62
7
  6
CONTINUOUS
 10
6.7252593104
 20
4.4893273474
 11
6.7252593104
 21
4.4914038049
  0
LINE
  5
350
100
AcDbEntity
  8
0
100
AcDbLine
 62
7
  6
CONTINUOUS
 10
6.7252593104
 20
4.5002547696
 11
6.7252593104
 21
4.5022252543
  0
LINE
  5
351
100
AcDbEntity
  8
0
100
AcDbLine
 62
7
  6
CONTINUOUS
 10
6.7252593104
 20
4.5106008653
 11
6.7252593104
 21
4.5124599761
  0
LINE
  5
352
100
AcDbEntity
  8
0
100
AcDbLine
 62
7
  6
CONTINUOUS
 10
6.7252593104
 20
4.5203372765
 11
6.7252593104
 21
4.522085107
  0
LINE
  5
353
100
AcDbEntity
  8
0
100
AcDbLine
 62
7
  6
CONTINUOUS
 10
6.7252593104
 20
4.5294324227
 11
6.7252593104
 21
4.5310587116
  0
LINE
  5
354
100
AcDbEntity
  8
0
100
AcDbLine
 62
7
  6
CONTINUOUS
 10
6.7252593104
 20
4.5378760425
 11
6.7252593104
 21
4.5393717475
  0
LINE
  5
355
100
AcDbEntity
  8
0
100
AcDbLine
 62
7
  6
CONTINUOUS
 10
6.7252593104
 20
4.5456303246
 11
6.7252593104
 21
4.5469962399
  0
LINE
  5
356
100
AcDbEntity
  8
0
100
AcDbLine
 62
7
  6
CONTINUOUS
 10
6.7252593104
 20
4.552678909
 11
6.7252593104
 21
4.5539112906
  0
LINE
  5
357
100
AcDbEntity
  8
0
100
AcDbLine
 62
7
  6
CONTINUOUS
 10
6.7252593104
 20
4.5590024759
 11
6.7252593104
 21
4.560097946
  0
LINE
  5
358
100
AcDbEntity
  8
0
100
AcDbLine
 62
7
  6
CONTINUOUS
 10
6.7252593104
 20
4.5645836929
 11
6.7252593104
 21
4.565542073
  0
LINE
  5
359
100
AcDbEntity
  8
0
100
AcDbLine
 62
7
  6
CONTINUOUS
 10
6.7252593104
 20
4.5694047855
 11
6.7252593104
 21
4.5702202849
  0
LINE
  5
35A
100
AcDbEntity
  8
0
100
AcDbLine
 62
7
  6
CONTINUOUS
 10
6.7252593104
 20
4.5734599628
 11
6.7252593104
 21
4.5741282238
  0
LINE
  5
35B
100
AcDbEntity
  8
0
100
AcDbLine
 62
7
  6
CONTINUOUS
 10
6.7252593104
 20
4.5767306865
 11
6.7252593104
 21
4.5772523541
  0
LINE
  5
35C
100
AcDbEntity
  8
0
100
AcDbLine
 62
7
  6
CONTINUOUS
 10
6.7252593104
 20
4.5792104685
 11
6.7252593104
 21
4.5795841129
  0
LINE
  5
35D
100
AcDbEntity
  8
0
100
AcDbLine
 62
7
  6
CONTINUOUS
 10
6.7252593104
 20
4.5808925118
 11
6.7252593104
 21
4.5811171089
  0
LINE
  5
35E
100
AcDbEntity
  8
0
100
AcDbLine
 62
7
  6
CONTINUOUS
 10
7.6534237187
 20
6.0447894387
 11
7.6379237187
 21
6.0447894387
  0
LINE
  5
35F
100
AcDbEntity
  8
0
100
AcDbLine
 62
7
  6
CONTINUOUS
 10
7.5269237187
 20
6.0567894387
 11
7.4499237187
 21
6.0567894387
  0
LINE
  5
360
100
AcDbEntity
  8
0
100
AcDbLine
 62
7
  6
CONTINUOUS
 10
7.7014237187
 20
6.0960394387
 11
7.6834237187
 21
6.0960394387
  0
LINE
  5
361
100
AcDbEntity
  8
0
100
AcDbLine
 62
7
  6
CONTINUOUS
 10
6.4724237187
 20
6.1117894387
 11
4.7974237187
 21
6.1117894387
  0
LINE
  5
362
100
AcDbEntity
  8
0
100
AcDbLine
 62
7
  6
CONTINUOUS
 10
6.5349237187
 20
6.1590394387
 11
6.7302440276
 21
6.1590394387
  0
LINE
  5
363
100
AcDbEntity
  8
0
100
AcDbLine
 62
7
  6
CONTINUOUS
 10
7.3742649168
 20
4.9446638199
 11
7.3604187592
 21
4.9526638199
  0
LINE
  5
364
100
AcDbEntity
  8
0
100
AcDbLine
 62
7
  6
CONTINUOUS
 10
6.7302440276
 20
6.1590394387
 11
6.7302440276
 21
5.7520394387
  0
LINE
  5
365
100
AcDbEntity
  8
0
100
AcDbLine
 62
7
  6
CONTINUOUS
 10
6.7352593104
 20
4.0044138199
 11
6.7352593104
 21
4.5719138199
  0
LINE
  5
366
100
AcDbEntity
  8
0
100
AcDbLine
 62
7
  6
CONTINUOUS
 10
6.7566009527
 20
6.1447894387
 11
6.7566009527
 21
5.7662894387
  0
LINE
  5
367
100
AcDbEntity
  8
0
100
AcDbLine
 62
7
  6
CONTINUOUS
 10
6.809585026
 20
6.1452095551
 11
6.809585026
 21
5.7658693223
  0
LINE
  5
368
100
AcDbEntity
  8
0
100
AcDbLine
 62
7
  6
CONTINUOUS
 10
6.8309187592
 20
4.6996638199
 11
6.8309187592
 21
4.9046638199
  0
LINE
  5
369
100
AcDbEntity
  8
0
100
AcDbLine
 62
7
  6
CONTINUOUS
 10
6.8459187592
 20
4.9601638199
 11
6.8459187592
 21
4.9958058684
  0
LINE
  5
36A
100
AcDbEntity
  8
0
100
AcDbLine
 62
7
  6
CONTINUOUS
 10
6.8546687592
 20
2.6131638199
 11
6.8546687592
 21
2.6756638199
  0
LINE
  5
36B
100
AcDbEntity
  8
0
100
AcDbLine
 62
7
  6
CONTINUOUS
 10
6.8596687592
 20
3.9699138199
 11
6.8596687592
 21
3.8631638199
  0
LINE
  5
36C
100
AcDbEntity
  8
0
100
AcDbLine
 62
7
  6
CONTINUOUS
 10
6.8779187592
 20
6.6946638199
 11
6.8779187592
 21
6.6676638199
  0
LINE
  5
36D
100
AcDbEntity
  8
0
100
AcDbLine
 62
7
  6
CONTINUOUS
 10
6.9256687592
 20
2.5401638199
 11
6.9256687592
 21
2.5506638199
  0
LINE
  5
36E
100
AcDbEntity
  8
0
100
AcDbLine
 62
7
  6
CONTINUOUS
 10
6.9379187592
 20
4.5439138199
 11
6.9379187592
 21
4.6346638199
  0
LINE
  5
36F
100
AcDbEntity
  8
0
100
AcDbLine
 62
7
  6
CONTINUOUS
 10
6.9384187592
 20
6.4036638199
 11
6.9384187592
 21
6.2711638199
  0
LINE
  5
370
100
AcDbEntity
  8
0
100
AcDbLine
 62
7
  6
CONTINUOUS
 10
6.9534187592
 20
6.7711638199
 11
6.9534187592
 21
6.7551638199
  0
LINE
  5
371
100
AcDbEntity
  8
0
100
AcDbLine
 62
7
  6
CONTINUOUS
 10
6.9534187592
 20
6.6226638199
 11
6.9534187592
 21
6.5911638199
  0
LINE
  5
372
100
AcDbEntity
  8
0
100
AcDbLine
 62
7
  6
CONTINUOUS
 10
6.8500878574
 20
4.0031574839
 11
6.8474773608
 21
3.9816638199
  0
LINE
  5
373
100
AcDbEntity
  8
0
100
AcDbLine
 62
7
  6
CONTINUOUS
 10
7.7372467565
 20
3.3957991574
 11
7.7183363849
 21
3.3892877943
  0
LINE
  5
374
100
AcDbEntity
  8
0
100
AcDbLine
 62
7
  6
CONTINUOUS
 10
7.7638471488
 20
3.3953348458
 11
7.7827575203
 21
3.4018462089
  0
LINE
  5
375
100
AcDbEntity
  8
0
100
AcDbLine
 62
7
  6
CONTINUOUS
 10
6.9384187592
 20
6.2711638199
 11
7.2809187592
 21
6.2711638199
  0
LINE
  5
376
100
AcDbEntity
  8
0
100
AcDbLine
 62
7
  6
CONTINUOUS
 10
7.0395795303
 20
6.4036638199
 11
6.9384187592
 21
6.4036638199
  0
LINE
  5
377
100
AcDbEntity
  8
0
100
AcDbLine
 62
7
  6
CONTINUOUS
 10
7.179757988
 20
6.4036638199
 11
7.2809187592
 21
6.4036638199
  0
LINE
  5
378
100
AcDbEntity
  8
0
100
AcDbLine
 62
7
  6
CONTINUOUS
 10
7.054821305
 20
6.4153957002
 11
6.9440719424
 21
6.4153957002
  0
LINE
  5
379
100
AcDbEntity
  8
0
100
AcDbLine
 62
7
  6
CONTINUOUS
 10
7.1645162134
 20
6.4153957002
 11
7.275265576
 21
6.4153957002
  0
LINE
  5
37A
100
AcDbEntity
  8
0
100
AcDbLine
 62
7
  6
CONTINUOUS
 10
7.0395795303
 20
6.4036638199
 11
7.0395795303
 21
6.2711638199
  0
LINE
  5
37B
100
AcDbEntity
  8
0
100
AcDbLine
 62
7
  6
CONTINUOUS
 10
7.0671687592
 20
5.0473806213
 11
7.0671687592
 21
5.051481978
  0
LINE
  5
37C
100
AcDbEntity
  8
0
100
AcDbLine
 62
7
  6
CONTINUOUS
 10
7.0671687592
 20
5.0392346867
 11
7.0671687592
 21
5.0456471864
  0
LINE
  5
37D
100
AcDbEntity
  8
0
100
AcDbLine
 62
7
  6
CONTINUOUS
 10
7.0785540816
 20
5.0491517216
 11
7.0785540816
 21
5.0505038819
  0
LINE
  5
37E
100
AcDbEntity
  8
0
100
AcDbLine
 62
7
  6
CONTINUOUS
 10
7.0791687592
 20
5.0396899389
 11
7.0791687592
 21
5.0425340113
  0
LINE
  5
37F
100
AcDbEntity
  8
0
100
AcDbLine
 62
7
  6
CONTINUOUS
 10
7.0791687592
 20
5.0515471529
 11
7.0791687592
 21
5.0520475509
  0
LINE
  5
380
100
AcDbEntity
  8
0
100
AcDbLine
 62
7
  6
CONTINUOUS
 10
7.0791687592
 20
5.0457128562
 11
7.0791687592
 21
5.0462170512
  0
LINE
  5
381
100
AcDbEntity
  8
0
100
AcDbLine
 62
7
  6
CONTINUOUS
 10
7.0857871963
 20
5.0482922107
 11
7.0857871963
 21
5.0487947199
  0
LINE
  5
382
100
AcDbEntity
  8
0
100
AcDbLine
 62
7
  6
CONTINUOUS
 10
7.0872310169
 20
5.0453560492
 11
7.0872310169
 21
5.0458604783
  0
LINE
  5
383
100
AcDbEntity
  8
0
100
AcDbLine
 62
7
  6
CONTINUOUS
 10
7.0935540816
 20
5.0518361032
 11
7.0935540816
 21
5.0523363146
  0
LINE
  5
384
100
AcDbEntity
  8
0
100
AcDbLine
 62
7
  6
CONTINUOUS
 10
7.0955769224
 20
5.0362279821
 11
7.0955769224
 21
5.0362967481
  0
LINE
  5
385
100
AcDbEntity
  8
0
100
AcDbLine
 62
7
  6
CONTINUOUS
 10
7.1262605959
 20
5.0360736636
 11
7.1262605959
 21
5.0362462112
  0
LINE
  5
386
100
AcDbEntity
  8
0
100
AcDbLine
 62
7
  6
CONTINUOUS
 10
7.1282834368
 20
5.0517800504
 11
7.1282834368
 21
5.052280298
  0
LINE
  5
387
100
AcDbEntity
  8
0
100
AcDbLine
 62
7
  6
CONTINUOUS
 10
7.1346065014
 20
5.0452789396
 11
7.1346065014
 21
5.0457834193
  0
LINE
  5
388
100
AcDbEntity
  8
0
100
AcDbLine
 62
7
  6
CONTINUOUS
 10
7.1426687592
 20
5.0395858145
 11
7.1426687592
 21
5.0424302739
  0
LINE
  5
389
100
AcDbEntity
  8
0
100
AcDbLine
 62
7
  6
CONTINUOUS
 10
7.1426687592
 20
5.0514446234
 11
7.1426687592
 21
5.0519450876
  0
LINE
  5
38A
100
AcDbEntity
  8
0
100
AcDbLine
 62
7
  6
CONTINUOUS
 10
7.1426687592
 20
5.0456095481
 11
7.1426687592
 21
5.0461138108
  0
LINE
  5
38B
100
AcDbEntity
  8
0
100
AcDbLine
 62
7
  6
CONTINUOUS
 10
7.1516687592
 20
5.0515092654
 11
7.1516687592
 21
5.0502454469
  0
LINE
  5
38C
100
AcDbEntity
  8
0
100
AcDbLine
 62
7
  6
CONTINUOUS
 10
7.1516687592
 20
5.045674681
 11
7.1516687592
 21
5.0392624127
  0
LINE
  5
38D
100
AcDbEntity
  8
0
100
AcDbLine
 62
7
  6
CONTINUOUS
 10
7.179757988
 20
6.4036638199
 11
7.179757988
 21
6.2711638199
  0
LINE
  5
38E
100
AcDbEntity
  8
0
100
AcDbLine
 62
7
  6
CONTINUOUS
 10
6.9534187592
 20
6.5911638199
 11
7.2659187592
 21
6.5911638199
  0
LINE
  5
38F
100
AcDbEntity
  8
0
100
AcDbLine
 62
7
  6
CONTINUOUS
 10
6.9229188469
 20
6.6226638199
 11
7.2964186714
 21
6.6226638199
  0
LINE
  5
390
100
AcDbEntity
  8
0
100
AcDbLine
 62
7
  6
CONTINUOUS
 10
6.8779187592
 20
6.6676638199
 11
7.3414187592
 21
6.6676638199
  0
LINE
  5
391
100
AcDbEntity
  8
0
100
AcDbLine
 62
7
  6
CONTINUOUS
 10
6.8779187592
 20
6.6946638199
 11
7.3414187592
 21
6.6946638199
  0
LINE
  5
392
100
AcDbEntity
  8
0
100
AcDbLine
 62
7
  6
CONTINUOUS
 10
7.3734187592
 20
4.9958058684
 11
7.3623089698
 21
5.0069156578
  0
LINE
  5
393
100
AcDbEntity
  8
0
100
AcDbLine
 62
7
  6
CONTINUOUS
 10
7.4782559372
 20
4.0865320422
 11
7.7391241285
 21
3.3289158032
  0
LINE
  5
394
100
AcDbEntity
  8
0
100
AcDbLine
 62
7
  6
CONTINUOUS
 10
7.4376287219
 20
4.4843508073
 11
7.4587388842
 21
4.1824614224
  0
LINE
  5
395
100
AcDbEntity
  8
0
100
AcDbLine
 62
7
  6
CONTINUOUS
 10
7.4696590792
 20
4.3130070979
 11
7.4786901652
 21
4.1838565519
  0
LINE
  5
396
100
AcDbEntity
  8
0
100
AcDbLine
 62
7
  6
CONTINUOUS
 10
7.4579290492
 20
4.5057429733
 11
7.4696590626
 21
4.3130070982
  0
LINE
  5
397
100
AcDbEntity
  8
0
100
AcDbLine
 62
7
  6
CONTINUOUS
 10
7.2659187592
 20
6.7711638199
 11
7.2659187592
 21
6.7551638199
  0
LINE
  5
398
100
AcDbEntity
  8
0
100
AcDbLine
 62
7
  6
CONTINUOUS
 10
7.2659187592
 20
6.6226638199
 11
7.2659187592
 21
6.5911638199
  0
LINE
  5
399
100
AcDbEntity
  8
0
100
AcDbLine
 62
7
  6
CONTINUOUS
 10
7.2809187592
 20
6.4036638199
 11
7.2809187592
 21
6.2711638199
  0
LINE
  5
39A
100
AcDbEntity
  8
0
100
AcDbLine
 62
7
  6
CONTINUOUS
 10
7.2814187592
 20
4.5439138199
 11
7.2814187592
 21
4.6346638199
  0
LINE
  5
39B
100
AcDbEntity
  8
0
100
AcDbLine
 62
7
  6
CONTINUOUS
 10
7.2936687592
 20
2.5401638199
 11
7.2936687592
 21
2.5506638199
  0
LINE
  5
39C
100
AcDbEntity
  8
0
100
AcDbLine
 62
7
  6
CONTINUOUS
 10
7.3414187592
 20
6.6946638199
 11
7.3414187592
 21
6.6676638199
  0
LINE
  5
39D
100
AcDbEntity
  8
0
100
AcDbLine
 62
7
  6
CONTINUOUS
 10
7.3596687592
 20
3.9699131441
 11
7.3596687592
 21
3.8631638199
  0
LINE
  5
39E
100
AcDbEntity
  8
0
100
AcDbLine
 62
7
  6
CONTINUOUS
 10
7.3646687592
 20
2.6131638199
 11
7.3646687592
 21
2.6756638199
  0
LINE
  5
39F
100
AcDbEntity
  8
0
100
AcDbLine
 62
7
  6
CONTINUOUS
 10
7.3734187592
 20
4.9601638199
 11
7.3734187592
 21
4.9958058684
  0
LINE
  5
3A0
100
AcDbEntity
  8
0
100
AcDbLine
 62
7
  6
CONTINUOUS
 10
7.3856687429
 20
4.0611479826
 11
7.3856687592
 21
4.5439138199
  0
LINE
  5
3A1
100
AcDbEntity
  8
0
100
AcDbLine
 62
7
  6
CONTINUOUS
 10
7.3884187592
 20
4.6996638199
 11
7.3884187592
 21
4.9046638199
  0
LINE
  5
3A2
100
AcDbEntity
  8
0
100
AcDbLine
 62
7
  6
CONTINUOUS
 10
7.4006687592
 20
4.0382804817
 11
7.4006687592
 21
4.5289138199
  0
LINE
  5
3A3
100
AcDbEntity
  8
0
100
AcDbLine
 62
7
  6
CONTINUOUS
 10
7.4206687592
 20
4.5189138199
 11
7.4206687592
 21
4.0574138199
  0
LINE
  5
3A4
100
AcDbEntity
  8
0
100
AcDbLine
 62
7
  6
CONTINUOUS
 10
7.4356687592
 20
4.5039138199
 11
7.4356687592
 21
4.0724138199
  0
LINE
  5
3A5
100
AcDbEntity
  8
0
100
AcDbLine
 62
7
  6
CONTINUOUS
 10
7.4499237187
 20
5.8542894387
 11
7.4499237187
 21
6.0567894387
  0
LINE
  5
3A6
100
AcDbEntity
  8
0
100
AcDbLine
 62
7
  6
CONTINUOUS
 10
6.9229188469
 20
6.7396638199
 11
7.2964186714
 21
6.7396638199
  0
LINE
  5
3A7
100
AcDbEntity
  8
0
100
AcDbLine
 62
7
  6
CONTINUOUS
 10
6.9534187592
 20
6.7551638199
 11
7.2659187592
 21
6.7551638199
  0
LINE
  5
3A8
100
AcDbEntity
  8
0
100
AcDbLine
 62
7
  6
CONTINUOUS
 10
6.9534187592
 20
6.7711638199
 11
7.2659187592
 21
6.7711638199
  0
LINE
  5
3A9
100
AcDbEntity
  8
0
100
AcDbLine
 62
7
  6
CONTINUOUS
 10
7.0159187592
 20
6.8336638199
 11
7.2034187592
 21
6.8336638199
  0
LINE
  5
3AA
100
AcDbEntity
  8
0
100
AcDbLine
 62
7
  6
CONTINUOUS
 10
7.4971663087
 20
4.0930434053
 11
7.7372455932
 21
3.3958025356
  0
LINE
  5
3AB
100
AcDbEntity
  8
0
100
AcDbLine
 62
7
  6
CONTINUOUS
 10
7.7638459852
 20
3.3953382249
 11
7.5500678224
 21
4.0161950907
  0
LINE
  5
3AC
100
AcDbEntity
  8
0
100
AcDbLine
 62
7
  6
CONTINUOUS
 10
7.8035452639
 20
3.3414742178
 11
7.568978194
 21
4.0227064538
  0
LINE
  5
3AD
100
AcDbEntity
  8
0
100
AcDbLine
 62
7
  6
CONTINUOUS
 10
7.7372459048
 20
3.3958025301
 11
7.7576854524
 21
3.3154302121
  0
LINE
  5
3AE
100
AcDbEntity
  8
0
100
AcDbLine
 62
7
  6
CONTINUOUS
 10
7.7842858443
 20
3.3149659008
 11
7.7638462969
 21
3.3953382195
  0
LINE
  5
3AF
100
AcDbEntity
  8
0
100
AcDbLine
 62
7
  6
CONTINUOUS
 10
7.3692494779
 20
4.003158991
 11
7.3718601576
 21
3.9816638199
  0
LINE
  5
3B0
100
AcDbEntity
  8
0
100
AcDbLine
 62
7
  6
CONTINUOUS
 10
7.4969814383
 20
4.2771230051
 11
7.4945025024
 21
4.3125734403
  0
LINE
  5
3B1
100
AcDbEntity
  8
0
100
AcDbLine
 62
7
  6
CONTINUOUS
 10
7.5169327193
 20
4.2785181345
 11
7.5023747061
 21
4.4867074227
  0
LINE
  5
3B2
100
AcDbEntity
  8
0
100
AcDbLine
 62
7
  6
CONTINUOUS
 10
7.4945024856
 20
4.3125734406
 11
7.4827724714
 21
4.5053093298
  0
LINE
  5
3B3
100
AcDbEntity
  8
0
100
AcDbLine
 62
7
  6
CONTINUOUS
 10
7.5269237187
 20
5.8542894387
 11
7.5269237187
 21
6.0567894387
  0
LINE
  5
3B4
100
AcDbEntity
  8
0
100
AcDbLine
 62
7
  6
CONTINUOUS
 10
7.5460255497
 20
5.8644785038
 11
7.5460255497
 21
6.0466003736
  0
LINE
  5
3B5
100
AcDbEntity
  8
0
100
AcDbLine
 62
7
  6
CONTINUOUS
 10
7.6303739081
 20
5.8697319728
 11
7.6303739081
 21
6.0413469046
  0
LINE
  5
3B6
100
AcDbEntity
  8
0
100
AcDbLine
 62
7
  6
CONTINUOUS
 10
7.6379237187
 20
5.8662894387
 11
7.6379237187
 21
6.0447894387
  0
LINE
  5
3B7
100
AcDbEntity
  8
0
100
AcDbLine
 62
7
  6
CONTINUOUS
 10
7.6534237187
 20
5.8450395279
 11
7.6534237187
 21
6.0660393495
  0
LINE
  5
3B8
100
AcDbEntity
  8
0
100
AcDbLine
 62
7
  6
CONTINUOUS
 10
7.6834237187
 20
5.8150394387
 11
7.6834237187
 21
6.0960394387
  0
LINE
  5
3B9
100
AcDbEntity
  8
0
100
AcDbLine
 62
7
  6
CONTINUOUS
 10
7.6971687592
 20
2.2401638199
 11
7.6971687592
 21
2.1851638199
  0
LINE
  5
3BA
100
AcDbEntity
  8
0
100
AcDbLine
 62
7
  6
CONTINUOUS
 10
7.7014237187
 20
5.8150394387
 11
7.7014237187
 21
6.0960394387
  0
LINE
  5
3BB
100
AcDbEntity
  8
0
100
AcDbLine
 62
7
  6
CONTINUOUS
 10
7.7314237187
 20
5.8450395279
 11
7.7314237187
 21
6.0660393495
  0
LINE
  5
3BC
100
AcDbEntity
  8
0
100
AcDbLine
 62
7
  6
CONTINUOUS
 10
7.7749237187
 20
5.8990178997
 11
7.7749237187
 21
6.0120609777
  0
LINE
  5
3BD
100
AcDbEntity
  8
0
100
AcDbLine
 62
7
  6
CONTINUOUS
 10
7.6971687592
 20
2.1951638199
 11
7.6871687592
 21
2.1851638199
  0
ARC
  5
3BE
100
AcDbEntity
  8
0
100
AcDbCircle
 62
7
  6
CONTINUOUS
 10
5.0334927482
 20
4.3815422569
 40
1.875
100
AcDbArc
 50
4.9680131043
 51
8.1061112974
  0
ARC
  5
3BF
100
AcDbEntity
  8
0
100
AcDbCircle
 62
7
  6
CONTINUOUS
 10
4.7974237187
 20
6.7055394387
 40
0.90625
100
AcDbArc
 50
250.0
 51
270.0
  0
ARC
  5
3C0
100
AcDbEntity
  8
0
100
AcDbCircle
 62
7
  6
CONTINUOUS
 10
3.1591945379
 20
5.7055394387
 40
0.90625
100
AcDbArc
 50
70.0
 51
173.0397067768
  0
ARC
  5
3C1
100
AcDbEntity
  8
0
100
AcDbCircle
 62
7
  6
CONTINUOUS
 10
4.7974237187
 20
6.7055394387
 40
0.59375
100
AcDbArc
 50
250.0
 51
270.0
  0
ARC
  5
3C2
100
AcDbEntity
  8
0
100
AcDbCircle
 62
7
  6
CONTINUOUS
 10
3.1591945379
 20
5.7055394387
 40
0.59375
100
AcDbArc
 50
70.0
 51
172.0071964443
  0
ARC
  5
3C3
100
AcDbEntity
  8
0
100
AcDbCircle
 62
7
  6
CONTINUOUS
 10
2.2122678995
 20
5.7878828748
 40
0.0315
100
AcDbArc
 50
85.0
 51
250.2875420391
  0
ARC
  5
3C4
100
AcDbEntity
  8
0
100
AcDbCircle
 62
7
  6
CONTINUOUS
 10
2.6117419735
 20
5.752933422
 40
0.0315
100
AcDbArc
 50
279.7124579609
 51
85.0
  0
ARC
  5
3C5
100
AcDbEntity
  8
0
100
AcDbCircle
 62
7
  6
CONTINUOUS
 10
2.2210016
 20
5.4066710566
 40
0.0155
100
AcDbArc
 50
180.6286931203
 51
265.0
  0
ARC
  5
3C6
100
AcDbEntity
  8
0
100
AcDbCircle
 62
7
  6
CONTINUOUS
 10
2.53694422
 20
5.379029659
 40
0.0155
100
AcDbArc
 50
265.0
 51
349.3713068797
  0
ARC
  5
3C7
100
AcDbEntity
  8
0
100
AcDbCircle
 62
7
  6
CONTINUOUS
 10
5.8566687592
 20
3.1976638199
 40
1.5265
100
AcDbArc
 50
346.7644365334
 51
13.2162850744
  0
ARC
  5
3C8
100
AcDbEntity
  8
0
100
AcDbCircle
 62
7
  6
CONTINUOUS
 10
6.2111637013
 20
2.7772976325
 40
0.6610050579
100
AcDbArc
 50
340.5168569435
 51
340.5729417985
  0
ARC
  5
3C9
100
AcDbEntity
  8
0
100
AcDbCircle
 62
7
  6
CONTINUOUS
 10
6.2111637013
 20
2.7772976325
 40
0.6610050579
100
AcDbArc
 50
345.6070509723
 51
346.7903744081
  0
ARC
  5
3CA
100
AcDbEntity
  8
0
100
AcDbCircle
 62
7
  6
CONTINUOUS
 10
6.2111637013
 20
2.7772976325
 40
0.6610050579
100
AcDbArc
 50
356.6058147837
 51
33.0831922526
  0
ARC
  5
3CB
100
AcDbEntity
  8
0
100
AcDbCircle
 62
7
  6
CONTINUOUS
 10
6.6737556023
 20
2.8004266761
 40
0.2085
100
AcDbArc
 50
342.6250952378
 51
13.2355634666
  0
ARC
  5
3CC
100
AcDbEntity
  8
0
100
AcDbCircle
 62
7
  6
CONTINUOUS
 10
7.3351343097
 20
2.3595475336
 40
0.185
100
AcDbArc
 50
4.0656154981
 51
77.5021822312
  0
ARC
  5
3CD
100
AcDbEntity
  8
0
100
AcDbCircle
 62
7
  6
CONTINUOUS
 10
6.8842032086
 20
2.3595475336
 40
0.185
100
AcDbArc
 50
102.4978177688
 51
175.9343845019
  0
ARC
  5
3CE
100
AcDbEntity
  8
0
100
AcDbCircle
 62
7
  6
CONTINUOUS
 10
7.3353422779
 20
2.3593920636
 40
0.185
100
AcDbArc
 50
4.890558368
 51
51.9324535245
  0
ARC
  5
3CF
100
AcDbEntity
  8
0
100
AcDbCircle
 62
7
  6
CONTINUOUS
 10
6.8839952405
 20
2.3593920636
 40
0.185
100
AcDbArc
 50
128.0675464757
 51
175.109441632
  0
ARC
  5
3D0
100
AcDbEntity
  8
0
100
AcDbCircle
 62
7
  6
CONTINUOUS
 10
6.5497687992
 20
2.3776638199
 40
0.125
100
AcDbArc
 50
270.0
 51
357.707557224
  0
ARC
  5
3D1
100
AcDbEntity
  8
0
100
AcDbCircle
 62
7
  6
CONTINUOUS
 10
6.5497687992
 20
2.3801638199
 40
0.125
100
AcDbArc
 50
270.0
 51
357.707557224
  0
ARC
  5
3D2
100
AcDbEntity
  8
0
100
AcDbCircle
 62
7
  6
CONTINUOUS
 10
6.8546687592
 20
2.5816638199
 40
0.0315
100
AcDbArc
 50
90.0
 51
259.7778206094
  0
ARC
  5
3D3
100
AcDbEntity
  8
0
100
AcDbCircle
 62
7
  6
CONTINUOUS
 10
7.3646687592
 20
2.5816638199
 40
0.0315
100
AcDbArc
 50
280.2221793906
 51
90.0
  0
ARC
  5
3D4
100
AcDbEntity
  8
0
100
AcDbCircle
 62
7
  6
CONTINUOUS
 10
6.8546687592
 20
2.7071638199
 40
0.0315
100
AcDbArc
 50
100.2221793906
 51
270.0
  0
ARC
  5
3D5
100
AcDbEntity
  8
0
100
AcDbCircle
 62
7
  6
CONTINUOUS
 10
7.3646687592
 20
2.7071638199
 40
0.0315
100
AcDbArc
 50
270.0
 51
79.7778206094
  0
ARC
  5
3D6
100
AcDbEntity
  8
0
100
AcDbCircle
 62
7
  6
CONTINUOUS
 10
6.7796687592
 20
3.1476638199
 40
0.0175
100
AcDbArc
 50
90.0
 51
213.0831922526
  0
ARC
  5
3D7
100
AcDbEntity
  8
0
100
AcDbCircle
 62
7
  6
CONTINUOUS
 10
7.4396687592
 20
3.1476638199
 40
0.0175
100
AcDbArc
 50
326.9168077474
 51
90.0
  0
ARC
  5
3D8
100
AcDbEntity
  8
0
100
AcDbCircle
 62
7
  6
CONTINUOUS
 10
6.5371687592
 20
2.2376638199
 40
0.015
100
AcDbArc
 50
90.0
 51
180.0
  0
ARC
  5
3D9
100
AcDbEntity
  8
0
100
AcDbCircle
 62
7
  6
CONTINUOUS
 10
6.5371687592
 20
2.2401638199
 40
0.015
100
AcDbArc
 50
90.0
 51
180.0
  0
ARC
  5
3DA
100
AcDbEntity
  8
0
100
AcDbCircle
 62
7
  6
CONTINUOUS
 10
6.8461036301
 20
2.5526638199
 40
0.0125
100
AcDbArc
 50
160.5168569435
 51
267.5670412654
  0
ARC
  5
3DB
100
AcDbEntity
  8
0
100
AcDbCircle
 62
7
  6
CONTINUOUS
 10
7.3732338882
 20
2.5526638199
 40
0.0125
100
AcDbArc
 50
272.4329587346
 51
19.4831430565
  0
ARC
  5
3DC
100
AcDbEntity
  8
0
100
AcDbCircle
 62
7
  6
CONTINUOUS
 10
6.7831886825
 20
3.1751638199
 40
0.01
100
AcDbArc
 50
270.0
 51
32.2911569963
  0
ARC
  5
3DD
100
AcDbEntity
  8
0
100
AcDbCircle
 62
7
  6
CONTINUOUS
 10
7.4361488358
 20
3.1751638199
 40
0.01
100
AcDbArc
 50
147.7088430037
 51
270.0
  0
ARC
  5
3DE
100
AcDbEntity
  8
0
100
AcDbCircle
 62
7
  6
CONTINUOUS
 10
6.4487403142
 20
3.647145641
 40
0.4395
100
AcDbArc
 50
346.7837149256
 51
20.4446212878
  0
ARC
  5
3DF
100
AcDbEntity
  8
0
100
AcDbCircle
 62
7
  6
CONTINUOUS
 10
6.7971687592
 20
3.9699138199
 40
0.0625
100
AcDbArc
 50
0.0
 51
90.0
  0
ARC
  5
3E0
100
AcDbEntity
  8
0
100
AcDbCircle
 62
7
  6
CONTINUOUS
 10
6.8472985629
 20
3.7401638199
 40
0.05
100
AcDbArc
 50
90.0
 51
144.8305640555
  0
ARC
  5
3E1
100
AcDbEntity
  8
0
100
AcDbCircle
 62
7
  6
CONTINUOUS
 10
6.8364187592
 20
3.8369138199
 40
0.04675
100
AcDbArc
 50
142.0339977482
 51
270.0
  0
ARC
  5
3E2
100
AcDbEntity
  8
0
100
AcDbCircle
 62
7
  6
CONTINUOUS
 10
6.8159187592
 20
3.7679138199
 40
0.03175
100
AcDbArc
 50
102.2864059997
 51
220.7635883317
  0
ARC
  5
3E3
100
AcDbEntity
  8
0
100
AcDbCircle
 62
7
  6
CONTINUOUS
 10
6.8544187592
 20
3.8319138199
 40
0.03125
100
AcDbArc
 50
90.0
 51
270.0
  0
ARC
  5
3E4
100
AcDbEntity
  8
0
100
AcDbCircle
 62
7
  6
CONTINUOUS
 10
6.6146880284
 20
4.0099370713
 40
0.2345
100
AcDbArc
 50
322.0339977482
 51
353.0751017558
  0
ARC
  5
3E5
100
AcDbEntity
  8
0
100
AcDbCircle
 62
7
  6
CONTINUOUS
 10
6.4991778253
 20
4.2881661783
 40
0.0420098048
100
AcDbArc
 50
177.4129385258
 51
180.0032165325
  0
ARC
  5
3E6
100
AcDbEntity
  8
0
100
AcDbCircle
 62
7
  6
CONTINUOUS
 10
6.4206876826
 20
4.2881604471
 40
0.041562075
100
AcDbArc
 50
357.049004343
 51
0.004649529
  0
ARC
  5
3E7
100
AcDbEntity
  8
0
100
AcDbCircle
 62
7
  6
CONTINUOUS
 10
6.7231245269
 20
4.0081612143
 40
0.0121276995
100
AcDbArc
 50
342.8092733238
 51
347.1454460185
  0
ARC
  5
3E8
100
AcDbEntity
  8
0
100
AcDbCircle
 62
7
  6
CONTINUOUS
 10
6.7252593104
 20
4.0044138199
 40
0.01
100
AcDbArc
 50
345.610977056
 51
360.0
  0
ARC
  5
3E9
100
AcDbEntity
  8
0
100
AcDbCircle
 62
7
  6
CONTINUOUS
 10
6.7253308046
 20
4.0043953071
 40
0.009926148
100
AcDbArc
 50
342.8875815781
 51
345.6119320226
  0
ARC
  5
3EA
100
AcDbEntity
  8
0
100
AcDbCircle
 62
7
  6
CONTINUOUS
 10
6.7276832322
 20
4.0076302528
 40
0.0075813966
100
AcDbArc
 50
340.2922520391
 51
343.3901070213
  0
ARC
  5
3EB
100
AcDbEntity
  8
0
100
AcDbCircle
 62
7
  6
CONTINUOUS
 10
6.4772003518
 20
4.0859787805
 40
0.005
100
AcDbArc
 50
197.8240571942
 51
247.1569399385
  0
ARC
  5
3EC
100
AcDbEntity
  8
0
100
AcDbCircle
 62
7
  6
CONTINUOUS
 10
6.4772003518
 20
4.4903488592
 40
0.005
100
AcDbArc
 50
112.8430600615
 51
162.1759428058
  0
ARC
  5
3ED
100
AcDbEntity
  8
0
100
AcDbCircle
 62
7
  6
CONTINUOUS
 10
6.4802593104
 20
4.0658159635
 40
0.005
100
AcDbArc
 50
180.0
 51
235.8855270543
  0
ARC
  5
3EE
100
AcDbEntity
  8
0
100
AcDbCircle
 62
7
  6
CONTINUOUS
 10
6.5542934271
 20
4.0156638199
 40
0.005
100
AcDbArc
 50
235.8855270539
 51
270.0
  0
ARC
  5
3EF
100
AcDbEntity
  8
0
100
AcDbCircle
 62
7
  6
CONTINUOUS
 10
7.239706537
 20
3.4636638199
 40
0.5300377778
100
AcDbArc
 50
144.8305640555
 51
212.2911569963
  0
ARC
  5
3F0
100
AcDbEntity
  8
0
100
AcDbCircle
 62
7
  6
CONTINUOUS
 10
6.9796309814
 20
3.4636638199
 40
0.5300377778
100
AcDbArc
 50
327.7088430037
 51
35.1694359445
  0
ARC
  5
3F1
100
AcDbEntity
  8
0
100
AcDbCircle
 62
7
  6
CONTINUOUS
 10
7.4221687546
 20
3.9699138245
 40
0.0624999991
100
AcDbArc
 50
118.0971321168
 51
180.0006233435
  0
ARC
  5
3F2
100
AcDbEntity
  8
0
100
AcDbCircle
 62
7
  6
CONTINUOUS
 10
7.3720389554
 20
3.7401638199
 40
0.05
100
AcDbArc
 50
35.1694359445
 51
90.0
  0
ARC
  5
3F3
100
AcDbEntity
  8
0
100
AcDbCircle
 62
7
  6
CONTINUOUS
 10
7.3829187592
 20
3.8369138199
 40
0.04675
100
AcDbArc
 50
270.0
 51
37.9660022518
  0
ARC
  5
3F4
100
AcDbEntity
  8
0
100
AcDbCircle
 62
7
  6
CONTINUOUS
 10
7.4034187592
 20
3.7679138199
 40
0.03175
100
AcDbArc
 50
319.2364116683
 51
77.7135940003
  0
ARC
  5
3F5
100
AcDbEntity
  8
0
100
AcDbCircle
 62
7
  6
CONTINUOUS
 10
7.3649187592
 20
3.8319138199
 40
0.03125
100
AcDbArc
 50
270.0
 51
90.0
  0
ARC
  5
3F6
100
AcDbEntity
  8
0
100
AcDbCircle
 62
7
  6
CONTINUOUS
 10
7.1096687592
 20
4.2773288121
 40
0.7753350077
100
AcDbArc
 50
88.6231111619
 51
91.1920956682
  0
ARC
  5
3F7
100
AcDbEntity
  8
0
100
AcDbCircle
 62
7
  6
CONTINUOUS
 10
7.1096687592
 20
4.2773288121
 40
0.7753188855
100
AcDbArc
 50
92.2545204889
 51
104.7630312681
  0
ARC
  5
3F8
100
AcDbEntity
  8
0
100
AcDbCircle
 62
7
  6
CONTINUOUS
 10
7.1096687592
 20
4.2773288121
 40
0.7753188855
100
AcDbArc
 50
75.2369687319
 51
87.5605752481
  0
ARC
  5
3F9
100
AcDbEntity
  8
0
100
AcDbCircle
 62
7
  6
CONTINUOUS
 10
7.1096687592
 20
4.2773288121
 40
0.7751750201
100
AcDbArc
 50
88.6239946244
 51
91.1911755502
  0
ARC
  5
3FA
100
AcDbEntity
  8
0
100
AcDbCircle
 62
7
  6
CONTINUOUS
 10
7.1096687592
 20
4.2773288121
 40
0.7748188751
100
AcDbArc
 50
86.8926895707
 51
87.5590000722
  0
ARC
  5
3FB
100
AcDbEntity
  8
0
100
AcDbCircle
 62
7
  6
CONTINUOUS
 10
7.1096687592
 20
4.2773288121
 40
0.7748188751
100
AcDbArc
 50
92.2559761406
 51
93.1443391817
  0
ARC
  5
3FC
100
AcDbEntity
  8
0
100
AcDbCircle
 62
7
  6
CONTINUOUS
 10
7.1096687592
 20
4.2773288121
 40
0.7746749168
100
AcDbArc
 50
88.6231061521
 51
91.1919446428
  0
ARC
  5
3FD
100
AcDbEntity
  8
0
100
AcDbCircle
 62
7
  6
CONTINUOUS
 10
7.1096687592
 20
4.2773288121
 40
0.7746000979
100
AcDbArc
 50
88.6229731319
 51
91.1920597897
  0
ARC
  5
3FE
100
AcDbEntity
  8
0
100
AcDbCircle
 62
7
  6
CONTINUOUS
 10
7.1096687592
 20
4.2773288121
 40
0.7740569257
100
AcDbArc
 50
86.889627857
 51
87.5565957966
  0
ARC
  5
3FF
100
AcDbEntity
  8
0
100
AcDbCircle
 62
7
  6
CONTINUOUS
 10
7.1096687592
 20
4.2773288121
 40
0.7694929332
100
AcDbArc
 50
92.2715987345
 51
93.1661244052
  0
ARC
  5
400
100
AcDbEntity
  8
0
100
AcDbCircle
 62
7
  6
CONTINUOUS
 10
7.1096687592
 20
4.2773288121
 40
0.7694929332
100
AcDbArc
 50
86.871161409
 51
87.5420946835
  0
ARC
  5
401
100
AcDbEntity
  8
0
100
AcDbCircle
 62
7
  6
CONTINUOUS
 10
7.1096687592
 20
4.2773288121
 40
0.7689891346
100
AcDbArc
 50
92.2730877396
 51
93.1682007883
  0
ARC
  5
402
100
AcDbEntity
  8
0
100
AcDbCircle
 62
7
  6
CONTINUOUS
 10
7.1096687592
 20
4.2773288121
 40
0.7689891346
100
AcDbArc
 50
86.8691095275
 51
87.5404834123
  0
ARC
  5
403
100
AcDbEntity
  8
0
100
AcDbCircle
 62
7
  6
CONTINUOUS
 10
7.1096687592
 20
4.2773288121
 40
0.7688591381
100
AcDbArc
 50
88.1413005927
 51
91.6723095547
  0
ARC
  5
404
100
AcDbEntity
  8
0
100
AcDbCircle
 62
7
  6
CONTINUOUS
 10
7.1096687592
 20
4.2773288121
 40
0.768354924
100
AcDbArc
 50
88.1400804383
 51
91.6734072789
  0
ARC
  5
405
100
AcDbEntity
  8
0
100
AcDbCircle
 62
7
  6
CONTINUOUS
 10
7.1096687592
 20
4.2773288121
 40
0.7662813403
100
AcDbArc
 50
87.7562904206
 51
92.0566497773
  0
ARC
  5
406
100
AcDbEntity
  8
0
100
AcDbCircle
 62
7
  6
CONTINUOUS
 10
7.094751223
 20
4.3005459316
 40
0.7473438606
100
AcDbArc
 50
90.0446551133
 51
92.1151144109
  0
ARC
  5
407
100
AcDbEntity
  8
0
100
AcDbCircle
 62
7
  6
CONTINUOUS
 10
7.1060257673
 20
4.2881638199
 40
0.6655302365
100
AcDbArc
 50
162.1759428058
 51
165.3102062657
  0
ARC
  5
408
100
AcDbEntity
  8
0
100
AcDbCircle
 62
7
  6
CONTINUOUS
 10
7.1060257673
 20
4.2881638199
 40
0.6655302365
100
AcDbArc
 50
167.1481751459
 51
170.7147267369
  0
ARC
  5
409
100
AcDbEntity
  8
0
100
AcDbCircle
 62
7
  6
CONTINUOUS
 10
7.1060257673
 20
4.2881638199
 40
0.6655302365
100
AcDbArc
 50
172.4196365177
 51
187.5803634823
  0
ARC
  5
40A
100
AcDbEntity
  8
0
100
AcDbCircle
 62
7
  6
CONTINUOUS
 10
7.1060257673
 20
4.2881638199
 40
0.6655302365
100
AcDbArc
 50
189.2852732631
 51
192.8518248541
  0
ARC
  5
40B
100
AcDbEntity
  8
0
100
AcDbCircle
 62
7
  6
CONTINUOUS
 10
7.1060257673
 20
4.2881638199
 40
0.6655302365
100
AcDbArc
 50
194.6897937343
 51
197.8240571942
  0
ARC
  5
40C
100
AcDbEntity
  8
0
100
AcDbCircle
 62
7
  6
CONTINUOUS
 10
7.0706643983
 20
4.4839400149
 40
0.5650571094
100
AcDbArc
 50
87.3532425516
 51
88.4663922313
  0
ARC
  5
40D
100
AcDbEntity
  8
0
100
AcDbCircle
 62
7
  6
CONTINUOUS
 10
7.0706649117
 20
4.4838251106
 40
0.5646696296
100
AcDbArc
 50
87.7221805793
 51
88.4653917189
  0
ARC
  5
40E
100
AcDbEntity
  8
0
100
AcDbCircle
 62
7
  6
CONTINUOUS
 10
7.3856687592
 20
4.0382804817
 40
0.015
100
AcDbArc
 50
298.0971273946
 51
360.0
  0
ARC
  5
40F
100
AcDbEntity
  8
0
100
AcDbCircle
 62
7
  6
CONTINUOUS
 10
7.4206687592
 20
4.0724138199
 40
0.015
100
AcDbArc
 50
270.0
 51
360.0
  0
ARC
  5
410
100
AcDbEntity
  8
0
100
AcDbCircle
 62
7
  6
CONTINUOUS
 10
7.4575799997
 20
4.4857459832
 40
0.02
100
AcDbArc
 50
88.9999977482
 51
184.0
  0
ARC
  5
411
100
AcDbEntity
  8
0
100
AcDbCircle
 62
7
  6
CONTINUOUS
 10
7.4824234218
 20
4.4853123396
 40
0.02
100
AcDbArc
 50
4.0
 51
88.9999977491
  0
ARC
  5
412
100
AcDbEntity
  8
0
100
AcDbCircle
 62
7
  6
CONTINUOUS
 10
7.4206687592
 20
4.5039138199
 40
0.015
100
AcDbArc
 50
0.0
 51
90.0
  0
ARC
  5
413
100
AcDbEntity
  8
0
100
AcDbCircle
 62
7
  6
CONTINUOUS
 10
8.3626687592
 20
3.1976638199
 40
1.5265
100
AcDbArc
 50
166.7837149256
 51
193.2355634666
  0
ARC
  5
414
100
AcDbEntity
  8
0
100
AcDbCircle
 62
7
  6
CONTINUOUS
 10
8.0081738171
 20
2.7772976325
 40
0.6610050579
100
AcDbArc
 50
199.4270582015
 51
199.4831430565
  0
ARC
  5
415
100
AcDbEntity
  8
0
100
AcDbCircle
 62
7
  6
CONTINUOUS
 10
8.0081738171
 20
2.7772976325
 40
0.6610050579
100
AcDbArc
 50
193.2096255919
 51
194.3929490277
  0
ARC
  5
416
100
AcDbEntity
  8
0
100
AcDbCircle
 62
7
  6
CONTINUOUS
 10
8.0081738171
 20
2.7772976325
 40
0.6610050579
100
AcDbArc
 50
146.9168077474
 51
183.3941852163
  0
ARC
  5
417
100
AcDbEntity
  8
0
100
AcDbCircle
 62
7
  6
CONTINUOUS
 10
7.5455819161
 20
2.8004266761
 40
0.2085
100
AcDbArc
 50
166.7644365334
 51
197.3749047622
  0
ARC
  5
418
100
AcDbEntity
  8
0
100
AcDbCircle
 62
7
  6
CONTINUOUS
 10
7.6695687191
 20
2.3776638199
 40
0.125
100
AcDbArc
 50
182.292442776
 51
270.0
  0
ARC
  5
419
100
AcDbEntity
  8
0
100
AcDbCircle
 62
7
  6
CONTINUOUS
 10
7.6695687191
 20
2.3801638199
 40
0.125
100
AcDbArc
 50
182.292442776
 51
270.0
  0
ARC
  5
41A
100
AcDbEntity
  8
0
100
AcDbCircle
 62
7
  6
CONTINUOUS
 10
7.7846348924
 20
3.3349628547
 40
0.02
100
AcDbArc
 50
269.0
 51
19.0
  0
ARC
  5
41B
100
AcDbEntity
  8
0
100
AcDbCircle
 62
7
  6
CONTINUOUS
 10
7.7580345001
 20
3.3354271663
 40
0.02
100
AcDbArc
 50
199.0
 51
269.0
  0
ARC
  5
41C
100
AcDbEntity
  8
0
100
AcDbCircle
 62
7
  6
CONTINUOUS
 10
7.6821687592
 20
2.2376638199
 40
0.015
100
AcDbArc
 50
0.0
 51
90.0
  0
ARC
  5
41D
100
AcDbEntity
  8
0
100
AcDbCircle
 62
7
  6
CONTINUOUS
 10
7.6821687592
 20
2.2401638199
 40
0.015
100
AcDbArc
 50
0.0
 51
90.0
  0
ARC
  5
41E
100
AcDbEntity
  8
0
100
AcDbCircle
 62
7
  6
CONTINUOUS
 10
9.1858447701
 20
4.3815422569
 40
1.875
100
AcDbArc
 50
171.8938887026
 51
175.0319868957
  0
ARC
  5
41F
100
AcDbEntity
  8
0
100
AcDbCircle
 62
7
  6
CONTINUOUS
 10
8.5144967696
 20
4.3482746083
 40
1.02
100
AcDbArc
 50
184.0
 51
199.0
  0
ARC
  5
420
100
AcDbEntity
  8
0
100
AcDbCircle
 62
7
  6
CONTINUOUS
 10
8.5144967696
 20
4.3482746083
 40
1.0
100
AcDbArc
 50
184.0
 51
199.0
  0
ARC
  5
421
100
AcDbEntity
  8
0
100
AcDbCircle
 62
7
  6
CONTINUOUS
 10
7.7705972041
 20
3.647145641
 40
0.4395
100
AcDbArc
 50
159.5553787122
 51
193.2162850744
  0
ARC
  5
422
100
AcDbEntity
  8
0
100
AcDbCircle
 62
7
  6
CONTINUOUS
 10
7.832825403
 20
4.2086201001
 40
0.375
100
AcDbArc
 50
184.0
 51
199.0
  0
ARC
  5
423
100
AcDbEntity
  8
0
100
AcDbCircle
 62
7
  6
CONTINUOUS
 10
7.832825403
 20
4.2086201001
 40
0.355
100
AcDbArc
 50
184.0
 51
199.0
  0
ARC
  5
424
100
AcDbEntity
  8
0
100
AcDbCircle
 62
7
  6
CONTINUOUS
 10
7.6046494899
 20
4.0099370713
 40
0.2345
100
AcDbArc
 50
186.9248982442
 51
217.9660022518
  0
ARC
  5
425
100
AcDbEntity
  8
0
100
AcDbCircle
 62
7
  6
CONTINUOUS
 10
5.8660603254
 20
5.3066638199
 40
1.0586084337
100
AcDbArc
 50
344.01626018
 51
16.0961901843
  0
ARC
  5
426
100
AcDbEntity
  8
0
100
AcDbCircle
 62
7
  6
CONTINUOUS
 10
6.7455193688
 20
4.9212047276
 40
0.68
100
AcDbArc
 50
337.4255442891
 51
340.9862257999
  0
ARC
  5
427
100
AcDbEntity
  8
0
100
AcDbCircle
 62
7
  6
CONTINUOUS
 10
6.7406027368
 20
4.697940814
 40
0.68
100
AcDbArc
 50
17.6982774827
 51
21.2739720086
  0
ARC
  5
428
100
AcDbEntity
  8
0
100
AcDbCircle
 62
7
  6
CONTINUOUS
 10
7.063125697
 20
4.8509138199
 40
0.2322069378
100
AcDbArc
 50
153.4533900346
 51
154.9963676068
  0
ARC
  5
429
100
AcDbEntity
  8
0
100
AcDbCircle
 62
7
  6
CONTINUOUS
 10
6.8920381817
 20
5.6312943974
 40
0.0323694225
100
AcDbArc
 50
90.0
 51
254.0972010097
  0
ARC
  5
42A
100
AcDbEntity
  8
0
100
AcDbCircle
 62
7
  6
CONTINUOUS
 10
6.9159187592
 20
5.0125636464
 40
0.015
100
AcDbArc
 50
104.7630312681
 51
170.0157385964
  0
ARC
  5
42B
100
AcDbEntity
  8
0
100
AcDbCircle
 62
7
  6
CONTINUOUS
 10
6.7231059352
 20
4.5681621632
 40
0.0121467736
100
AcDbArc
 50
12.8546444693
 51
15.3294247066
  0
ARC
  5
42C
100
AcDbEntity
  8
0
100
AcDbCircle
 62
7
  6
CONTINUOUS
 10
6.7252593104
 20
4.5719138199
 40
0.01
100
AcDbArc
 50
0.0
 51
14.389022944
  0
ARC
  5
42D
100
AcDbEntity
  8
0
100
AcDbCircle
 62
7
  6
CONTINUOUS
 10
6.7253263522
 20
4.5719310772
 40
0.0099307727
100
AcDbArc
 50
14.3887008634
 51
17.1103382621
  0
ARC
  5
42E
100
AcDbEntity
  8
0
100
AcDbCircle
 62
7
  6
CONTINUOUS
 10
6.7276629367
 20
4.5686911346
 40
0.0076026325
100
AcDbArc
 50
16.6113242217
 51
22.755207559
  0
ARC
  5
42F
100
AcDbEntity
  8
0
100
AcDbCircle
 62
7
  6
CONTINUOUS
 10
6.4802593104
 20
4.5105116763
 40
0.005
100
AcDbArc
 50
124.1144729457
 51
180.0
  0
ARC
  5
430
100
AcDbEntity
  8
0
100
AcDbCircle
 62
7
  6
CONTINUOUS
 10
6.5542934271
 20
4.5606638199
 40
0.005
100
AcDbArc
 50
90.0
 51
124.1144729461
  0
ARC
  5
431
100
AcDbEntity
  8
0
100
AcDbCircle
 62
7
  6
CONTINUOUS
 10
6.8707501419
 20
6.5074273093
 40
0.1176686173
100
AcDbArc
 50
308.5444150902
 51
45.36768663
  0
ARC
  5
432
100
AcDbEntity
  8
0
100
AcDbCircle
 62
7
  6
CONTINUOUS
 10
7.0159187592
 20
6.7711638199
 40
0.0625
100
AcDbArc
 50
90.0
 51
180.0
  0
ARC
  5
433
100
AcDbEntity
  8
0
100
AcDbCircle
 62
7
  6
CONTINUOUS
 10
6.9229187592
 20
6.6946638199
 40
0.045
100
AcDbArc
 50
90.0
 51
180.0
  0
ARC
  5
434
100
AcDbEntity
  8
0
100
AcDbCircle
 62
7
  6
CONTINUOUS
 10
6.9229187592
 20
6.6676638199
 40
0.045
100
AcDbArc
 50
180.0
 51
270.0
  0
ARC
  5
435
100
AcDbEntity
  8
0
100
AcDbCircle
 62
7
  6
CONTINUOUS
 10
6.7302440276
 20
6.1275394387
 40
0.0315
100
AcDbArc
 50
33.20382253
 51
90.0
  0
ARC
  5
436
100
AcDbEntity
  8
0
100
AcDbCircle
 62
7
  6
CONTINUOUS
 10
6.7302440276
 20
5.7835394387
 40
0.0315
100
AcDbArc
 50
270.0
 51
326.79617747
  0
ARC
  5
437
100
AcDbEntity
  8
0
100
AcDbCircle
 62
7
  6
CONTINUOUS
 10
6.7829578778
 20
6.1620394387
 40
0.0315
100
AcDbArc
 50
213.20382253
 51
327.7047672559
  0
ARC
  5
438
100
AcDbEntity
  8
0
100
AcDbCircle
 62
7
  6
CONTINUOUS
 10
6.7829578778
 20
5.7490394387
 40
0.0315
100
AcDbArc
 50
32.2952327441
 51
146.79617747
  0
ARC
  5
439
100
AcDbEntity
  8
0
100
AcDbCircle
 62
7
  6
CONTINUOUS
 10
6.5036737187
 20
6.1590394387
 40
0.03125
100
AcDbArc
 50
0.0
 51
180.0
  0
ARC
  5
43A
100
AcDbEntity
  8
0
100
AcDbCircle
 62
7
  6
CONTINUOUS
 10
6.5036737187
 20
5.7520394387
 40
0.03125
100
AcDbArc
 50
180.0
 51
360.0
  0
ARC
  5
43B
100
AcDbEntity
  8
0
100
AcDbCircle
 62
7
  6
CONTINUOUS
 10
6.9379187592
 20
6.7551638199
 40
0.0155
100
AcDbArc
 50
270.0
 51
360.0
  0
ARC
  5
43C
100
AcDbEntity
  8
0
100
AcDbCircle
 62
7
  6
CONTINUOUS
 10
6.9534187592
 20
6.4036638199
 40
0.015
100
AcDbArc
 50
128.5444150902
 51
180.0
  0
ARC
  5
43D
100
AcDbEntity
  8
0
100
AcDbCircle
 62
7
  6
CONTINUOUS
 10
8.3532771929
 20
5.3066638199
 40
1.0586084337
100
AcDbArc
 50
163.9038098157
 51
195.98373982
  0
ARC
  5
43E
100
AcDbEntity
  8
0
100
AcDbCircle
 62
7
  6
CONTINUOUS
 10
7.4738181496
 20
4.9212047276
 40
0.68
100
AcDbArc
 50
199.0137742001
 51
202.5744557109
  0
ARC
  5
43F
100
AcDbEntity
  8
0
100
AcDbCircle
 62
7
  6
CONTINUOUS
 10
7.4787347816
 20
4.697940814
 40
0.68
100
AcDbArc
 50
158.7260279914
 51
162.3017225173
  0
ARC
  5
440
100
AcDbEntity
  8
0
100
AcDbCircle
 62
7
  6
CONTINUOUS
 10
7.1126978184
 20
5.3218988477
 40
0.2859744353
100
AcDbArc
 50
272.3922506462
 51
272.7183601929
  0
ARC
  5
441
100
AcDbEntity
  8
0
100
AcDbCircle
 62
7
  6
CONTINUOUS
 10
7.1099913899
 20
5.3201838182
 40
0.2842527844
100
AcDbArc
 50
267.0932825797
 51
267.2185898881
  0
CIRCLE
  5
442
100
AcDbEntity
  8
0
100
AcDbCircle
 62
7
  6
CONTINUOUS
 10
7.1096687592
 20
4.8021638199
 40
0.2344999982
  0
ARC
  5
443
100
AcDbEntity
  8
0
100
AcDbCircle
 62
7
  6
CONTINUOUS
 10
7.1562118214
 20
4.8509138199
 40
0.2322069378
100
AcDbArc
 50
25.0036323932
 51
26.5466099654
  0
ARC
  5
444
100
AcDbEntity
  8
0
100
AcDbCircle
 62
7
  6
CONTINUOUS
 10
7.1368474443
 20
4.8358810141
 40
0.2162616377
100
AcDbArc
 50
100.6830564131
 51
101.3818884569
  0
CIRCLE
  5
445
100
AcDbEntity
  8
0
100
AcDbCircle
 62
7
  6
CONTINUOUS
 10
7.1096687592
 20
4.8021638199
 40
0.14075
  0
CIRCLE
  5
446
100
AcDbEntity
  8
0
100
AcDbCircle
 62
7
  6
CONTINUOUS
 10
7.1096687592
 20
4.8021638199
 40
0.13075
  0
CIRCLE
  5
447
100
AcDbEntity
  8
0
100
AcDbCircle
 62
7
  6
CONTINUOUS
 10
7.1096687592
 20
4.8021638199
 40
0.125
  0
ARC
  5
448
100
AcDbEntity
  8
0
100
AcDbCircle
 62
7
  6
CONTINUOUS
 10
7.3272993367
 20
5.6312943974
 40
0.0323694225
100
AcDbArc
 50
285.9027989903
 51
90.0
  0
ARC
  5
449
100
AcDbEntity
  8
0
100
AcDbCircle
 62
7
  6
CONTINUOUS
 10
7.3856687592
 20
4.5289138199
 40
0.015
100
AcDbArc
 50
0.0
 51
90.0
  0
ARC
  5
44A
100
AcDbEntity
  8
0
100
AcDbCircle
 62
7
  6
CONTINUOUS
 10
7.3034187592
 20
5.0125636464
 40
0.015
100
AcDbArc
 50
9.9842614036
 51
75.2369687319
  0
ARC
  5
44B
100
AcDbEntity
  8
0
100
AcDbCircle
 62
7
  6
CONTINUOUS
 10
7.1096687592
 20
5.9555394387
 40
0.355
100
AcDbArc
 50
16.5714774769
 51
62.7582127656
  0
ARC
  5
44C
100
AcDbEntity
  8
0
100
AcDbCircle
 62
7
  6
CONTINUOUS
 10
7.1096687592
 20
5.9555394387
 40
0.355
100
AcDbArc
 50
306.4982543829
 51
343.4285225231
  0
ARC
  5
44D
100
AcDbEntity
  8
0
100
AcDbCircle
 62
7
  6
CONTINUOUS
 10
7.1096687592
 20
5.9555394387
 40
0.355
100
AcDbArc
 50
212.2952327441
 51
233.5017456171
  0
ARC
  5
44E
100
AcDbEntity
  8
0
100
AcDbCircle
 62
7
  6
CONTINUOUS
 10
7.1096687592
 20
5.9555394387
 40
0.355
100
AcDbArc
 50
117.2417872344
 51
147.7047672559
  0
ARC
  5
44F
100
AcDbEntity
  8
0
100
AcDbCircle
 62
7
  6
CONTINUOUS
 10
7.3485873765
 20
6.5074273093
 40
0.1176686173
100
AcDbArc
 50
134.6323133701
 51
231.4555849098
  0
ARC
  5
450
100
AcDbEntity
  8
0
100
AcDbCircle
 62
7
  6
CONTINUOUS
 10
7.2034187592
 20
6.7711638199
 40
0.0625
100
AcDbArc
 50
0.0
 51
90.0
  0
ARC
  5
451
100
AcDbEntity
  8
0
100
AcDbCircle
 62
7
  6
CONTINUOUS
 10
7.5902089153
 20
5.8348462543
 40
0.0532
100
AcDbArc
 50
40.9762844863
 51
146.1516146287
  0
ARC
  5
452
100
AcDbEntity
  8
0
100
AcDbCircle
 62
7
  6
CONTINUOUS
 10
7.5902089153
 20
6.0762326231
 40
0.0532
100
AcDbArc
 50
213.8483853713
 51
319.0237155137
  0
ARC
  5
453
100
AcDbEntity
  8
0
100
AcDbCircle
 62
7
  6
CONTINUOUS
 10
7.2964187592
 20
6.6946638199
 40
0.045
100
AcDbArc
 50
0.0
 51
90.0
  0
ARC
  5
454
100
AcDbEntity
  8
0
100
AcDbCircle
 62
7
  6
CONTINUOUS
 10
7.2964187592
 20
6.6676638199
 40
0.045
100
AcDbArc
 50
270.0
 51
360.0
  0
ARC
  5
455
100
AcDbEntity
  8
0
100
AcDbCircle
 62
7
  6
CONTINUOUS
 10
7.7314237187
 20
5.9105394387
 40
0.045
100
AcDbArc
 50
270.0
 51
345.164888418
  0
ARC
  5
456
100
AcDbEntity
  8
0
100
AcDbCircle
 62
7
  6
CONTINUOUS
 10
7.7314237187
 20
6.0005394387
 40
0.045
100
AcDbArc
 50
14.835111582
 51
90.0
  0
ARC
  5
457
100
AcDbEntity
  8
0
100
AcDbCircle
 62
7
  6
CONTINUOUS
 10
7.7014237187
 20
5.8450394387
 40
0.03
100
AcDbArc
 50
270.0
 51
360.0
  0
ARC
  5
458
100
AcDbEntity
  8
0
100
AcDbCircle
 62
7
  6
CONTINUOUS
 10
7.6834237187
 20
5.8450394387
 40
0.03
100
AcDbArc
 50
180.0
 51
270.0
  0
ARC
  5
459
100
AcDbEntity
  8
0
100
AcDbCircle
 62
7
  6
CONTINUOUS
 10
7.7014237187
 20
6.0660394387
 40
0.03
100
AcDbArc
 50
0.0
 51
90.0
  0
ARC
  5
45A
100
AcDbEntity
  8
0
100
AcDbCircle
 62
7
  6
CONTINUOUS
 10
7.6834237187
 20
6.0660394387
 40
0.03
100
AcDbArc
 50
90.0
 51
180.0
  0
ARC
  5
45B
100
AcDbEntity
  8
0
100
AcDbCircle
 62
7
  6
CONTINUOUS
 10
7.5269237187
 20
5.8772894387
 40
0.023
100
AcDbArc
 50
270.0
 51
326.1516146287
  0
ARC
  5
45C
100
AcDbEntity
  8
0
100
AcDbCircle
 62
7
  6
CONTINUOUS
 10
7.5269237187
 20
6.0337894387
 40
0.023
100
AcDbArc
 50
33.8483853713
 51
90.0
  0
ARC
  5
45D
100
AcDbEntity
  8
0
100
AcDbCircle
 62
7
  6
CONTINUOUS
 10
7.2814187592
 20
6.7551638199
 40
0.0155
100
AcDbArc
 50
180.0
 51
270.0
  0
ARC
  5
45E
100
AcDbEntity
  8
0
100
AcDbCircle
 62
7
  6
CONTINUOUS
 10
7.2659187592
 20
6.4036638199
 40
0.015
100
AcDbArc
 50
0.0
 51
51.4555849098
  0
ARC
  5
45F
100
AcDbEntity
  8
0
100
AcDbCircle
 62
7
  6
CONTINUOUS
 10
7.6379237187
 20
5.8762894387
 40
0.01
100
AcDbArc
 50
220.9762844863
 51
270.0
  0
ARC
  5
460
100
AcDbEntity
  8
0
100
AcDbCircle
 62
7
  6
CONTINUOUS
 10
7.6379237187
 20
6.0347894387
 40
0.01
100
AcDbArc
 50
90.0
 51
139.0237155137
  0
SPLINE
  5
461
100
AcDbEntity
  8
0
100
AcDbSpline
 62
7
  6
CONTINUOUS
 70
0
 71
3
 72
28
 73
24
 74
0
 42
0.0000001
 43
0.0000001
 44
0.0000000001
 40
0.0
 40
0.0
 40
0.0
 40
0.0
 40
0.0023551529
 40
0.0047789872
 40
0.0074304812
 40
0.0104319846
 40
0.0177824142
 40
0.0272346826
 40
0.0389465215
 40
0.05298031
 40
0.0693501957
 40
0.0880384738
 40
0.1090119233
 40
0.132217518
 40
0.1850640657
 40
0.2459532675
 40
0.3141161662
 40
0.3886679881
 40
0.4686287781
 40
0.5529420021
 40
0.6404956325
 40
0.8207118821
 40
1.0
 40
1.0
 40
1.0
 40
1.0
 10
6.4487832959
 20
4.3669636067
 30
0.0
 10
6.448792992
 20
4.3669641824
 30
0.0
 10
6.4488129444
 20
4.3669626812
 30
0.0
 10
6.4488420012
 20
4.3669519146
 30
0.0
 10
6.4488697572
 20
4.3669330219
 30
0.0
 10
6.4489076703
 20
4.3668947454
 30
0.0
 10
6.4489510957
 20
4.3668246007
 30
0.0
 10
6.4489961229
 20
4.3667157569
 30
0.0
 10
6.4490374455
 20
4.3665763763
 30
0.0
 10
6.4490748537
 20
4.3664066695
 30
0.0
 10
6.4491081817
 20
4.3662068931
 30
0.0
 10
6.4491372721
 20
4.3659776009
 30
0.0
 10
6.4491619734
 20
4.3657194679
 30
0.0
 10
6.4491901363
 20
4.3653202728
 30
0.0
 10
6.4492119235
 20
4.3647557816
 30
0.0
 10
6.449218798
 20
4.3640055512
 30
0.0
 10
6.4492069899
 20
4.3631658624
 30
0.0
 10
6.4491766018
 20
4.3622479568
 30
0.0
 10
6.4491279786
 20
4.361264149
 30
0.0
 10
6.4490617729
 20
4.3602276354
 30
0.0
 10
6.4489501389
 20
4.3587798297
 30
0.0
 10
6.4487743639
 20
4.3569442811
 30
0.0
 10
6.4485989906
 20
4.3554718525
 30
0.0
 10
6.4485023386
 20
4.3547387728
 30
0.0
  0
SPLINE
  5
462
100
AcDbEntity
  8
0
100
AcDbSpline
 62
7
  6
CONTINUOUS
 70
0
 71
3
 72
18
 73
14
 74
0
 42
0.0000001
 43
0.0000001
 44
0.0000000001
 40
0.0
 40
0.0
 40
0.0
 40
0.0
 40
0.019065908
 40
0.0391830059
 40
0.063145804
 40
0.0926696989
 40
0.1286632764
 40
0.1716115433
 40
0.2792131934
 40
0.4162583194
 40
0.5825809865
 40
0.777551053
 40
1.0
 40
1.0
 40
1.0
 40
1.0
 10
6.4620504851
 20
4.4448747044
 30
0.0
 10
6.4620624791
 20
4.4448753664
 30
0.0
 10
6.4620878059
 20
4.4448717173
 30
0.0
 10
6.4621218107
 20
4.4448492267
 30
0.0
 10
6.4621506125
 20
4.4448122292
 30
0.0
 10
6.4621754247
 20
4.4447613314
 30
0.0
 10
6.4621966852
 20
4.4446962298
 30
0.0
 10
6.4622222846
 20
4.4445813945
 30
0.0
 10
6.4622425602
 20
4.4444009246
 30
0.0
 10
6.4622519725
 20
4.4441420748
 30
0.0
 10
6.4622471539
 20
4.4438280177
 30
0.0
 10
6.4622280862
 20
4.4434606808
 30
0.0
 10
6.4622072029
 20
4.4431984868
 30
0.0
 10
6.4621946435
 20
4.4430588983
 30
0.0
  0
SPLINE
  5
463
100
AcDbEntity
  8
0
100
AcDbSpline
 62
7
  6
CONTINUOUS
 70
0
 71
3
 72
21
 73
17
 74
0
 42
0.0000001
 43
0.0000001
 44
0.0000000001
 40
0.0
 40
0.0
 40
0.0
 40
0.0
 40
0.0112244063
 40
0.0225279731
 40
0.0467691405
 40
0.0752761298
 40
0.1095448621
 40
0.1503512635
 40
0.1980271667
 40
0.2526359827
 40
0.314057738
 40
0.3820318048
 40
0.456189846
 40
0.6211073891
 40
0.804218742
 40
1.0
 40
1.0
 40
1.0
 40
1.0
 10
6.4606455749
 20
4.3591463075
 30
0.0
 10
6.4606791566
 20
4.3591482745
 30
0.0
 10
6.4607471196
 20
4.3591458888
 30
0.0
 10
6.4608844196
 20
4.3591139353
 30
0.0
 10
6.4610548766
 20
4.3590173243
 30
0.0
 10
6.4612377388
 20
4.3588282937
 30
0.0
 10
6.461407446
 20
4.3585667696
 30
0.0
 10
6.4615642136
 20
4.3582330853
 30
0.0
 10
6.4617075906
 20
4.3578283795
 30
0.0
 10
6.4618364499
 20
4.3573546142
 30
0.0
 10
6.4619496714
 20
4.3568146468
 30
0.0
 10
6.4620462284
 20
4.3562120944
 30
0.0
 10
6.4621552976
 20
4.3552981639
 30
0.0
 10
6.462239035
 20
4.3540347674
 30
0.0
 10
6.4622609505
 20
4.3524045814
 30
0.0
 10
6.4622249697
 20
4.3512691988
 30
0.0
 10
6.4621946435
 20
4.3506832318
 30
0.0
  0
SPLINE
  5
464
100
AcDbEntity
  8
0
100
AcDbSpline
 62
7
  6
CONTINUOUS
 70
0
 71
3
 72
35
 73
31
 74
0
 42
0.0000001
 43
0.0000001
 44
0.0000000001
 40
0.0
 40
0.0
 40
0.0
 40
0.0
 40
0.0050365897
 40
0.0087202288
 40
0.0133220903
 40
0.0188832954
 40
0.0254169325
 40
0.0329230595
 40
0.0413939722
 40
0.0611663018
 40
0.0845796351
 40
0.111433354
 40
0.1414963514
 40
0.2102113588
 40
0.2884748304
 40
0.3738091993
 40
0.4635616154
 40
0.5549330158
 40
0.645009845
 40
0.7308074015
 40
0.8093495549
 40
0.8777918482
 40
0.9074140005
 40
0.9335915086
 40
0.9560872472
 40
0.974713864
 40
0.9825377869
 40
0.9893569117
 40
0.9951729865
 40
1.0
 40
1.0
 40
1.0
 40
1.0
 10
6.4573554216
 20
4.1521868091
 30
0.0
 10
6.4573911283
 20
4.1521889082
 30
0.0
 10
6.4574512194
 20
4.1521549832
 30
0.0
 10
6.4575174679
 20
4.1520894857
 30
0.0
 10
6.457579243
 20
4.1520120772
 30
0.0
 10
6.4576449084
 20
4.1519134556
 30
0.0
 10
6.4577152639
 20
4.1517932058
 30
0.0
 10
6.4577898206
 20
4.1516517699
 30
0.0
 10
6.4579005077
 20
4.1514232375
 30
0.0
 10
6.4580465326
 20
4.151086553
 30
0.0
 10
6.4582280791
 20
4.1506234017
 30
0.0
 10
6.4584220561
 20
4.1500868533
 30
0.0
 10
6.4587078988
 20
4.1492416333
 30
0.0
 10
6.4590798001
 20
4.1480403923
 30
0.0
 10
6.4595302897
 20
4.1464531623
 30
0.0
 10
6.459987842
 20
4.1447129898
 30
0.0
 10
6.4604378385
 20
4.1428748822
 30
0.0
 10
6.4608657188
 20
4.1409969415
 30
0.0
 10
6.4612573053
 20
4.1391397912
 30
0.0
 10
6.461599178
 20
4.1373655258
 30
0.0
 10
6.4618789643
 20
4.1357361107
 30
0.0
 10
6.4620600635
 20
4.1344948118
 30
0.0
 10
6.4621626542
 20
4.1336184112
 30
0.0
 10
6.4622145249
 20
4.1330647338
 30
0.0
 10
6.4622446921
 20
4.1325876709
 30
0.0
 10
6.4622522868
 20
4.1322399579
 30
0.0
 10
6.462245453
 20
4.132003736
 30
0.0
 10
6.4622350814
 20
4.1318587483
 30
0.0
 10
6.4622192821
 20
4.1317356815
 30
0.0
 10
6.4622038085
 20
4.1316615433
 30
0.0
 10
6.4621946435
 20
4.1316285112
 30
0.0
  0
SPLINE
  5
465
100
AcDbEntity
  8
0
100
AcDbSpline
 62
7
  6
CONTINUOUS
 70
0
 71
3
 72
25
 73
21
 74
0
 42
0.0000001
 43
0.0000001
 44
0.0000000001
 40
0.0
 40
0.0
 40
0.0
 40
0.0
 40
0.0070907593
 40
0.0147721901
 40
0.0236222005
 40
0.0340173673
 40
0.0461796692
 40
0.0602375502
 40
0.0762578597
 40
0.0942715139
 40
0.1362835944
 40
0.1861507027
 40
0.2435611953
 40
0.3080797952
 40
0.3791706015
 40
0.4562085896
 40
0.5384935721
 40
0.6252602906
 40
0.8088829122
 40
1.0
 40
1.0
 40
1.0
 40
1.0
 10
6.4477491783
 20
4.2979573123
 30
0.0
 10
6.4477730276
 20
4.2979587492
 30
0.0
 10
6.4478235704
 20
4.29795312
 30
0.0
 10
6.4478968424
 20
4.2979195305
 30
0.0
 10
6.4479682725
 20
4.297862546
 30
0.0
 10
6.4480384461
 20
4.2977828267
 30
0.0
 10
6.448107744
 20
4.2976804615
 30
0.0
 10
6.4481761793
 20
4.2975554859
 30
0.0
 10
6.4482436983
 20
4.2974080575
 30
0.0
 10
6.4483371323
 20
4.2971693475
 30
0.0
 10
6.4484478538
 20
4.296815579
 30
0.0
 10
6.4485690844
 20
4.2963271847
 30
0.0
 10
6.4486831296
 20
4.2957594908
 30
0.0
 10
6.4487887878
 20
4.2951176393
 30
0.0
 10
6.4488848818
 20
4.2944075053
 30
0.0
 10
6.4489703804
 20
4.2936357752
 30
0.0
 10
6.4490443677
 20
4.2928098191
 30
0.0
 10
6.4491281474
 20
4.2916243692
 30
0.0
 10
6.4491974751
 20
4.2900705668
 30
0.0
 10
6.4492158265
 20
4.2888077958
 30
0.0
 10
6.4492158265
 20
4.2881638199
 30
0.0
  0
LINE
  5
466
100
AcDbEntity
  8
0
100
AcDbLine
 62
7
  6
CONTINUOUS
 10
6.4467297996
 20
4.2289519671
 11
6.4469993538
 21
4.2286898559
  0
SPLINE
  5
467
100
AcDbEntity
  8
0
100
AcDbSpline
 62
7
  6
CONTINUOUS
 70
0
 71
3
 72
20
 73
16
 74
0
 42
0.0000001
 43
0.0000001
 44
0.0000000001
 40
0.0
 40
0.0
 40
0.0
 40
0.0
 40
0.0221630748
 40
0.0453750667
 40
0.0721450468
 40
0.1041442667
 40
0.1423270134
 40
0.1871937927
 40
0.2389833382
 40
0.297759916
 40
0.3634837772
 40
0.4360226499
 40
0.6006995527
 40
0.7896419508
 40
1.0
 40
1.0
 40
1.0
 40
1.0
 10
6.4614848971
 20
4.4105365221
 30
0.0
 10
6.46152162
 20
4.4105386332
 30
0.0
 10
6.4615984645
 20
4.4105294168
 30
0.0
 10
6.4617055339
 20
4.4104708195
 30
0.0
 10
6.4618012249
 20
4.4103720935
 30
0.0
 10
6.4618872407
 20
4.4102351944
 30
0.0
 10
6.4619644944
 20
4.410060062
 30
0.0
 10
6.4620330872
 20
4.4098467378
 30
0.0
 10
6.4620927893
 20
4.4095955716
 30
0.0
 10
6.4621433445
 20
4.4093072504
 30
0.0
 10
6.462184469
 20
4.4089827238
 30
0.0
 10
6.4622282656
 20
4.4084817525
 30
0.0
 10
6.4622547428
 20
4.4077745437
 30
0.0
 10
6.4622462852
 20
4.4068383416
 30
0.0
 10
6.4622157996
 20
4.4061761794
 30
0.0
 10
6.4621946435
 20
4.4058276942
 30
0.0
  0
SPLINE
  5
468
100
AcDbEntity
  8
0
100
AcDbSpline
 62
7
  6
CONTINUOUS
 70
0
 71
3
 72
30
 73
26
 74
0
 42
0.0000001
 43
0.0000001
 44
0.0000000001
 40
0.0
 40
0.0
 40
0.0
 40
0.0
 40
0.0036620898
 40
0.0075989124
 40
0.0119547124
 40
0.016832477
 40
0.0283980529
 40
0.0426204014
 40
0.059601826
 40
0.0793412544
 40
0.1017814892
 40
0.1268272038
 40
0.1842240892
 40
0.2503458219
 40
0.323757113
 40
0.4028237631
 40
0.485735295
 40
0.5705223747
 40
0.655086874
 40
0.737249627
 40
0.8148191214
 40
0.8856871349
 40
0.9479394833
 40
0.9753311918
 40
1.0
 40
1.0
 40
1.0
 40
1.0
 10
6.4578917052
 20
4.186522917
 30
0.0
 10
6.4579160024
 20
4.1865243399
 30
0.0
 10
6.4579669284
 20
4.1865210858
 30
0.0
 10
6.4580437417
 20
4.1864989687
 30
0.0
 10
6.4581225948
 20
4.1864601141
 30
0.0
 10
6.4582369941
 20
4.1863818866
 30
0.0
 10
6.4583838433
 20
4.1862387144
 30
0.0
 10
6.4585586364
 20
4.1860140082
 30
0.0
 10
6.4587406156
 20
4.1857280193
 30
0.0
 10
6.4589287102
 20
4.1853824997
 30
0.0
 10
6.4591218027
 20
4.1849794101
 30
0.0
 10
6.4593969451
 20
4.18433878
 30
0.0
 10
6.4597396797
 20
4.1834121418
 30
0.0
 10
6.4601358995
 20
4.1821643972
 30
0.0
 10
6.4605235083
 20
4.180763899
 30
0.0
 10
6.4608928656
 20
4.1792434583
 30
0.0
 10
6.4612344685
 20
4.1776391744
 30
0.0
 10
6.4615392828
 20
4.1759903332
 30
0.0
 10
6.4617989125
 20
4.1743388034
 30
0.0
 10
6.4620059091
 20
4.1727281897
 30
0.0
 10
6.4621542246
 20
4.1712024806
 30
0.0
 10
6.4622393874
 20
4.1698044819
 30
0.0
 10
6.4622570227
 20
4.168737259
 30
0.0
 10
6.4622334932
 20
4.1679777593
 30
0.0
 10
6.4622098658
 20
4.1676324398
 30
0.0
 10
6.4621946435
 20
4.1674691952
 30
0.0
  0
SPLINE
  5
469
100
AcDbEntity
  8
0
100
AcDbSpline
 62
7
  6
CONTINUOUS
 70
0
 71
3
 72
22
 73
18
 74
0
 42
0.0000001
 43
0.0000001
 44
0.0000000001
 40
0.0
 40
0.0
 40
0.0
 40
0.0
 40
0.0111594316
 40
0.0226112473
 40
0.047774415
 40
0.0621250751
 40
0.0778920168
 40
0.1141091751
 40
0.157036636
 40
0.2068414829
 40
0.2634428414
 40
0.3265884105
 40
0.3958914635
 40
0.4708493419
 40
0.6352127352
 40
0.8138829118
 40
1.0
 40
1.0
 40
1.0
 40
1.0
 10
6.459667451
 20
4.2985282539
 30
0.0
 10
6.4597087677
 20
4.2985306673
 30
0.0
 10
6.4597932189
 20
4.2985271212
 30
0.0
 10
6.4599662775
 20
4.298484751
 30
0.0
 10
6.460133528
 20
4.2983888751
 30
0.0
 10
6.4602890702
 20
4.2982551322
 30
0.0
 10
6.4604573933
 20
4.2980750197
 30
0.0
 10
6.460660343
 20
4.2977855744
 30
0.0
 10
6.4608848465
 20
4.2973624514
 30
0.0
 10
6.4610989087
 20
4.29685099
 30
0.0
 10
6.4613005228
 20
4.2962549552
 30
0.0
 10
6.4614876304
 20
4.2955789363
 30
0.0
 10
6.4616582346
 20
4.2948286414
 30
0.0
 10
6.461867556
 20
4.2937031008
 30
0.0
 10
6.4620700013
 20
4.2921650051
 30
0.0
 10
6.46221681
 20
4.2902072358
 30
0.0
 10
6.4622497575
 20
4.2888540746
 30
0.0
 10
6.4622497575
 20
4.2881638199
 30
0.0
  0
SPLINE
  5
46A
100
AcDbEntity
  8
0
100
AcDbSpline
 62
7
  6
CONTINUOUS
 70
0
 71
3
 72
27
 73
23
 74
0
 42
0.0000001
 43
0.0000001
 44
0.0000000001
 40
0.0
 40
0.0
 40
0.0
 40
0.0
 40
0.0093719796
 40
0.0195790434
 40
0.0311846085
 40
0.0445542316
 40
0.059899875
 40
0.0773350409
 40
0.096905745
 40
0.1186167074
 40
0.1683139273
 40
0.2259703596
 40
0.2908567026
 40
0.3620438862
 40
0.4384286799
 40
0.51875127
 40
0.6016165386
 40
0.6855203713
 40
0.7688866315
 40
0.8501173243
 40
0.9276446061
 40
1.0
 40
1.0
 40
1.0
 40
1.0
 10
6.4587014918
 20
4.2379110513
 30
0.0
 10
6.458754893
 20
4.2379141612
 30
0.0
 10
6.4588680101
 20
4.2379030007
 30
0.0
 10
6.4590351374
 20
4.2378370082
 30
0.0
 10
6.4592028647
 20
4.2377244919
 30
0.0
 10
6.4593714234
 20
4.2375667444
 30
0.0
 10
6.4595409672
 20
4.2373645237
 30
0.0
 10
6.4597110878
 20
4.2371184784
 30
0.0
 10
6.4598812836
 20
4.2368295043
 30
0.0
 10
6.4601181203
 20
4.2363671227
 30
0.0
 10
6.460404606
 20
4.2356874265
 30
0.0
 10
6.4607242138
 20
4.2347572268
 30
0.0
 10
6.4610273592
 20
4.2336933886
 30
0.0
 10
6.4613083106
 20
4.2325134214
 30
0.0
 10
6.4615614996
 20
4.2312372801
 30
0.0
 10
6.461781762
 20
4.2298874989
 30
0.0
 10
6.4619644295
 20
4.2284888409
 30
0.0
 10
6.4621054994
 20
4.2270679215
 30
0.0
 10
6.4622017995
 20
4.2256526131
 30
0.0
 10
6.4622511392
 20
4.2242712776
 30
0.0
 10
6.4622524428
 20
4.2229519034
 30
0.0
 10
6.4622200698
 20
4.2220967355
 30
0.0
 10
6.4621946435
 20
4.2216845418
 30
0.0
  0
SPLINE
  5
46B
100
AcDbEntity
  8
0
100
AcDbSpline
 62
7
  6
CONTINUOUS
 70
0
 71
3
 72
27
 73
23
 74
0
 42
0.0000001
 43
0.0000001
 44
0.0000000001
 40
0.0
 40
0.0
 40
0.0
 40
0.0
 40
0.1936802204
 40
0.3799129566
 40
0.5515784071
 40
0.6298797467
 40
0.7021526111
 40
0.7677140212
 40
0.8259487192
 40
0.8763170272
 40
0.8984054296
 40
0.9183654125
 40
0.9361543601
 40
0.9517403384
 40
0.9651007956
 40
0.9762252136
 40
0.9851293386
 40
0.9918709947
 40
0.994482351
 40
0.9966414949
 40
0.9984322798
 40
1.0
 40
1.0
 40
1.0
 40
1.0
 10
7.0935540816
 20
5.0517612681
 30
0.0
 10
7.0925775008
 20
5.0517409471
 30
0.0
 10
7.0906621096
 20
5.0516894312
 30
0.0
 10
7.0878824233
 20
5.0515794907
 30
0.0
 10
7.0856855839
 20
5.0514615994
 30
0.0
 10
7.0840640593
 20
5.0513526337
 30
0.0
 10
7.0829772518
 20
5.0512684407
 30
0.0
 10
7.0819923308
 20
5.0511801477
 30
0.0
 10
7.0811187075
 20
5.0510886406
 30
0.0
 10
7.0804645402
 20
5.0510074503
 30
0.0
 10
7.0800032824
 20
5.0509404148
 30
0.0
 10
7.0797053742
 20
5.0508921294
 30
0.0
 10
7.0794407559
 20
5.0508437391
 30
0.0
 10
7.0792100273
 20
5.0507953926
 30
0.0
 10
7.0790137148
 20
5.0507472541
 30
0.0
 10
7.0788521031
 20
5.0506995208
 30
0.0
 10
7.0787255336
 20
5.0506523482
 30
0.0
 10
7.0786427702
 20
5.0506109143
 30
0.0
 10
7.0785958189
 20
5.0505764926
 30
0.0
 10
7.0785723987
 20
5.0505528447
 30
0.0
 10
7.0785576642
 20
5.0505288253
 30
0.0
 10
7.0785540816
 20
5.0505117885
 30
0.0
 10
7.0785540816
 20
5.0505038819
 30
0.0
  0
SPLINE
  5
46C
100
AcDbEntity
  8
0
100
AcDbSpline
 62
7
  6
CONTINUOUS
 70
0
 71
3
 72
21
 73
17
 74
0
 42
0.0000001
 43
0.0000001
 44
0.0000000001
 40
0.0
 40
0.0
 40
0.0
 40
0.0
 40
0.2006655572
 40
0.3795430417
 40
0.4605632241
 40
0.5358740551
 40
0.6054433209
 40
0.669271449
 40
0.7274092973
 40
0.7799629127
 40
0.8271256471
 40
0.8692032947
 40
0.9066708928
 40
0.9402366233
 40
0.9709054804
 40
1.0
 40
1.0
 40
1.0
 40
1.0
 10
7.0769293452
 20
5.0343568158
 30
0.0
 10
7.076184795
 20
5.0345189468
 30
0.0
 10
7.0747816385
 20
5.0348499036
 30
0.0
 10
7.0730980695
 20
5.0353266156
 30
0.0
 10
7.071889588
 20
5.035727048
 30
0.0
 10
7.0710844803
 20
5.0360236487
 30
0.0
 10
7.0703515968
 20
5.0363259003
 30
0.0
 10
7.0696921011
 20
5.0366332942
 30
0.0
 10
7.0691069664
 20
5.0369452396
 30
0.0
 10
7.0685970241
 20
5.0372612893
 30
0.0
 10
7.0681628944
 20
5.0375809915
 30
0.0
 10
7.0678050804
 20
5.0379041614
 30
0.0
 10
7.0675240747
 20
5.0382308643
 30
0.0
 10
7.0673207347
 20
5.0385616129
 30
0.0
 10
7.067196893
 20
5.0388964379
 30
0.0
 10
7.0671687592
 20
5.0391242045
 30
0.0
 10
7.0671687592
 20
5.0392346867
 30
0.0
  0
SPLINE
  5
46D
100
AcDbEntity
  8
0
100
AcDbSpline
 62
7
  6
CONTINUOUS
 70
0
 71
3
 72
16
 73
12
 74
0
 42
0.0000001
 43
0.0000001
 44
0.0000000001
 40
0.0
 40
0.0
 40
0.0
 40
0.0
 40
0.2026979787
 40
0.3821475649
 40
0.5379154183
 40
0.6701162743
 40
0.7794409981
 40
0.8676341471
 40
0.9385011115
 40
0.9698032581
 40
1.0
 40
1.0
 40
1.0
 40
1.0
 10
6.4485023386
 20
4.2797362136
 30
0.0
 10
6.4484754751
 20
4.2796290609
 30
0.0
 10
6.4484213677
 20
4.2794278779
 30
0.0
 10
6.4483325513
 20
4.2791483696
 30
0.0
 10
6.4482413313
 20
4.278910319
 30
0.0
 10
6.4481482264
 20
4.2787145213
 30
0.0
 10
6.4480533035
 20
4.2785612933
 30
0.0
 10
6.4479566811
 20
4.278450403
 30
0.0
 10
6.4478687639
 20
4.2783912723
 30
0.0
 10
6.4477989316
 20
4.278371127
 30
0.0
 10
6.4477651126
 20
4.2783693281
 30
0.0
 10
6.4477486879
 20
4.2783703581
 30
0.0
  0
SPLINE
  5
46E
100
AcDbEntity
  8
0
100
AcDbSpline
 62
7
  6
CONTINUOUS
 70
0
 71
3
 72
14
 73
10
 74
0
 42
0.0000001
 43
0.0000001
 44
0.0000000001
 40
0.0
 40
0.0
 40
0.0
 40
0.0
 40
0.2969902894
 40
0.439244924
 40
0.5741595117
 40
0.699543892
 40
0.8134158299
 40
0.9140453546
 40
1.0
 40
1.0
 40
1.0
 40
1.0
 10
6.4492158265
 20
4.2881638199
 30
0.0
 10
6.4492158265
 20
4.2873249452
 30
0.0
 10
6.4491926078
 20
4.2860840484
 30
0.0
 10
6.4491123744
 20
4.2844641829
 30
0.0
 10
6.4490308642
 20
4.2833299489
 30
0.0
 10
6.4489287588
 20
4.2822778933
 30
0.0
 10
6.4488079974
 20
4.2813252991
 30
0.0
 10
6.4486708636
 20
4.2804875993
 30
0.0
 10
6.4485613787
 20
4.2799717119
 30
0.0
 10
6.4485023386
 20
4.2797362136
 30
0.0
  0
SPLINE
  5
46F
100
AcDbEntity
  8
0
100
AcDbSpline
 62
7
  6
CONTINUOUS
 70
0
 71
3
 72
21
 73
17
 74
0
 42
0.0000001
 43
0.0000001
 44
0.0000000001
 40
0.0
 40
0.0
 40
0.0
 40
0.0
 40
0.1931335496
 40
0.373364307
 40
0.5357809014
 40
0.6090340695
 40
0.6764347172
 40
0.7376745744
 40
0.7925416723
 40
0.8409470116
 40
0.8829579224
 40
0.9188783248
 40
0.9493814888
 40
0.9757179721
 40
0.987969761
 40
1.0
 40
1.0
 40
1.0
 40
1.0
 10
6.4621946435
 20
4.2860207558
 30
0.0
 10
6.4621646087
 20
4.2854431676
 30
0.0
 10
6.4620823155
 20
4.2843276167
 30
0.0
 10
6.4618865759
 20
4.2827344902
 30
0.0
 10
6.4616651194
 20
4.2815078632
 30
0.0
 10
6.4614545841
 20
4.2806248098
 30
0.0
 10
6.461289795
 20
4.2800428815
 30
0.0
 10
6.4611140201
 20
4.2795219267
 30
0.0
 10
6.4609285981
 20
4.2790651014
 30
0.0
 10
6.460734885
 20
4.2786749525
 30
0.0
 10
6.460534108
 20
4.278353379
 30
0.0
 10
6.4603269431
 20
4.278101699
 30
0.0
 10
6.4601135874
 20
4.2779208165
 30
0.0
 10
6.4599243072
 20
4.2778293826
 30
0.0
 10
6.4597750777
 20
4.277799208
 30
0.0
 10
6.4597019485
 20
4.2777972864
 30
0.0
 10
6.4596659886
 20
4.2777994754
 30
0.0
  0
LINE
  5
470
100
AcDbEntity
  8
0
100
AcDbLine
 62
7
  6
CONTINUOUS
 10
6.4621946435
 20
4.1316285112
 11
6.4620498334
 21
4.1314529666
  0
SPLINE
  5
471
100
AcDbEntity
  8
0
100
AcDbSpline
 62
7
  6
CONTINUOUS
 70
0
 71
3
 72
17
 73
13
 74
0
 42
0.0000001
 43
0.0000001
 44
0.0000000001
 40
0.0
 40
0.0
 40
0.0
 40
0.0
 40
0.2035733134
 40
0.3828150762
 40
0.5373336702
 40
0.6674956725
 40
0.7745171916
 40
0.8201938181
 40
0.861317655
 40
0.9330970898
 40
0.9664727979
 40
1.0
 40
1.0
 40
1.0
 40
1.0
 10
6.4621946435
 20
4.1674691952
 30
0.0
 10
6.4621823732
 20
4.1673376074
 30
0.0
 10
6.4621543611
 20
4.1670905602
 30
0.0
 10
6.4620967336
 20
4.1667463256
 30
0.0
 10
6.4620265002
 20
4.1664530943
 30
0.0
 10
6.4619441478
 20
4.1662120662
 30
0.0
 10
6.4618617613
 20
4.1660468441
 30
0.0
 10
6.461788066
 20
4.1659444281
 30
0.0
 10
6.4617177344
 20
4.1658691121
 30
0.0
 10
6.4616365851
 20
4.1658148332
 30
0.0
 10
6.4615489112
 20
4.1657915783
 30
0.0
 10
6.4615051194
 20
4.1657898566
 30
0.0
 10
6.4614833958
 20
4.1657912099
 30
0.0
  0
SPLINE
  5
472
100
AcDbEntity
  8
0
100
AcDbSpline
 62
7
  6
CONTINUOUS
 70
0
 71
3
 72
20
 73
16
 74
0
 42
0.0000001
 43
0.0000001
 44
0.0000000001
 40
0.0
 40
0.0
 40
0.0
 40
0.0
 40
0.2023516948
 40
0.3841470615
 40
0.5431991703
 40
0.613737704
 40
0.6781248231
 40
0.7363396727
 40
0.7884476145
 40
0.8346422231
 40
0.8752785337
 40
0.9109676229
 40
0.9426579658
 40
0.9717398422
 40
1.0
 40
1.0
 40
1.0
 40
1.0
 10
6.4621946435
 20
4.2216845418
 30
0.0
 10
6.4621737468
 20
4.2213457777
 30
0.0
 10
6.4621215159
 20
4.2207032997
 30
0.0
 10
6.4620032811
 20
4.2197995058
 30
0.0
 10
6.4618721117
 20
4.2191213678
 30
0.0
 10
6.4617477607
 20
4.2186440476
 30
0.0
 10
6.4616507405
 20
4.2183347964
 30
0.0
 10
6.4615466599
 20
4.2180606396
 30
0.0
 10
6.461435873
 20
4.2178223222
 30
0.0
 10
6.4613187771
 20
4.2176203721
 30
0.0
 10
6.4611955414
 20
4.2174551939
 30
0.0
 10
6.4610662284
 20
4.2173270792
 30
0.0
 10
6.4609304846
 20
4.2172366976
 30
0.0
 10
6.4607884891
 20
4.2171854448
 30
0.0
 10
6.4606911376
 20
4.2171785078
 30
0.0
 10
6.460643827
 20
4.2171814373
 30
0.0
  0
SPLINE
  5
473
100
AcDbEntity
  8
0
100
AcDbSpline
 62
7
  6
CONTINUOUS
 70
0
 71
3
 72
36
 73
32
 74
0
 42
0.0000001
 43
0.0000001
 44
0.0000000001
 40
0.0
 40
0.0
 40
0.0
 40
0.0
 40
0.0137108113
 40
0.0311107193
 40
0.0521191211
 40
0.0766056513
 40
0.1043934222
 40
0.1352737575
 40
0.2053419858
 40
0.2846443205
 40
0.3706967099
 40
0.4607681006
 40
0.5519513862
 40
0.6412525756
 40
0.7256942513
 40
0.7651966879
 40
0.8024355984
 40
0.8370983969
 40
0.8688960729
 40
0.89756807
 40
0.9228891645
 40
0.94467165
 40
0.9627748261
 40
0.970422118
 40
0.9771281993
 40
0.9829015568
 40
0.9877646691
 40
0.9917627741
 40
0.9949889514
 40
0.9976259775
 40
1.0
 40
1.0
 40
1.0
 40
1.0
 10
6.4469993538
 20
4.2286898559
 30
0.0
 10
6.4470425142
 20
4.2286110962
 30
0.0
 10
6.4471272474
 20
4.2284252597
 30
0.0
 10
6.4472455154
 20
4.2281048845
 30
0.0
 10
6.4473685261
 20
4.2277115342
 30
0.0
 10
6.4474951572
 20
4.2272484432
 30
0.0
 10
6.4476242695
 20
4.2267192153
 30
0.0
 10
6.4478059646
 20
4.2258957028
 30
0.0
 10
6.4480279945
 20
4.2247358351
 30
0.0
 10
6.448277748
 20
4.2232139642
 30
0.0
 10
6.4485122102
 20
4.2215572202
 30
0.0
 10
6.4487235321
 20
4.2198189633
 30
0.0
 10
6.448904523
 20
4.2180558904
 30
0.0
 10
6.4490489852
 20
4.2163264534
 30
0.0
 10
6.4491367596
 20
4.2149322548
 30
0.0
 10
6.4491837087
 20
4.2138774698
 30
0.0
 10
6.4492063153
 20
4.2131480595
 30
0.0
 10
6.449216954
 20
4.2124688464
 30
0.0
 10
6.4492155574
 20
4.2118456575
 30
0.0
 10
6.4492021816
 20
4.2112838081
 30
0.0
 10
6.4491770636
 20
4.2107880039
 30
0.0
 10
6.449140496
 20
4.2103623558
 30
0.0
 10
6.4490990739
 20
4.2100535407
 30
0.0
 10
6.4490587326
 20
4.2098447404
 30
0.0
 10
6.4490275736
 20
4.2097165732
 30
0.0
 10
6.448993896
 20
4.2096079793
 30
0.0
 10
6.4489577789
 20
4.2095190127
 30
0.0
 10
6.4489191636
 20
4.2094495691
 30
0.0
 10
6.4488776983
 20
4.2093993628
 30
0.0
 10
6.4488320216
 20
4.20936854
 30
0.0
 10
6.4487983597
 20
4.2093630678
 30
0.0
 10
6.4487828403
 20
4.2093640524
 30
0.0
  0
SPLINE
  5
474
100
AcDbEntity
  8
0
100
AcDbSpline
 62
7
  6
CONTINUOUS
 70
0
 71
3
 72
21
 73
17
 74
0
 42
0.0000001
 43
0.0000001
 44
0.0000000001
 40
0.0
 40
0.0
 40
0.0
 40
0.0
 40
0.1891797553
 40
0.3710468056
 40
0.538743166
 40
0.6861579094
 40
0.7506336082
 40
0.8082408148
 40
0.8585459043
 40
0.9012552169
 40
0.9362185116
 40
0.9635892983
 40
0.9746353367
 40
0.9841453266
 40
0.9924381957
 40
1.0
 40
1.0
 40
1.0
 40
1.0
 10
7.0821687592
 20
5.0431165389
 30
0.0
 10
7.0819721849
 20
5.0431094798
 30
0.0
 10
7.081586821
 20
5.0430896993
 30
0.0
 10
7.0810284865
 20
5.0430432142
 30
0.0
 10
7.080515268
 20
5.0429820775
 30
0.0
 10
7.0801255064
 20
5.042918745
 30
0.0
 10
7.0798512142
 20
5.042861228
 30
0.0
 10
7.0796771844
 20
5.0428181001
 30
0.0
 10
7.0795270083
 20
5.0427734622
 30
0.0
 10
7.0794018642
 20
5.0427278223
 30
0.0
 10
7.0793027855
 20
5.0426815929
 30
0.0
 10
7.079237971
 20
5.0426403926
 30
0.0
 10
7.0792014038
 20
5.0426063142
 30
0.0
 10
7.079182911
 20
5.0425824775
 30
0.0
 10
7.0791714596
 20
5.0425584371
 30
0.0
 10
7.0791687592
 20
5.0425418737
 30
0.0
 10
7.0791687592
 20
5.0425340113
 30
0.0
  0
SPLINE
  5
475
100
AcDbEntity
  8
0
100
AcDbSpline
 62
7
  6
CONTINUOUS
 70
0
 71
3
 72
21
 73
17
 74
0
 42
0.0000001
 43
0.0000001
 44
0.0000000001
 40
0.0
 40
0.0
 40
0.0
 40
0.0
 40
0.0075639842
 40
0.0158652517
 40
0.0253878956
 40
0.0364490653
 40
0.0638528251
 40
0.0988477916
 40
0.1415842785
 40
0.1919101777
 40
0.2495308132
 40
0.3140120338
 40
0.4614144497
 40
0.6290720368
 40
0.8108828852
 40
1.0
 40
1.0
 40
1.0
 40
1.0
 10
7.1426687592
 20
5.0424302739
 30
0.0
 10
7.1426687592
 20
5.042438143
 30
0.0
 10
7.1426660545
 20
5.0424547257
 30
0.0
 10
7.1426545995
 20
5.0424788059
 30
0.0
 10
7.1426361025
 20
5.0425027068
 30
0.0
 10
7.1425995287
 20
5.0425369097
 30
0.0
 10
7.1425347074
 20
5.0425783274
 30
0.0
 10
7.1424356132
 20
5.0426248898
 30
0.0
 10
7.1423104559
 20
5.0426709455
 30
0.0
 10
7.1421602716
 20
5.042716079
 30
0.0
 10
7.1419862404
 20
5.0427597785
 30
0.0
 10
7.1417119733
 20
5.0428181908
 30
0.0
 10
7.1413222496
 20
5.0428827977
 30
0.0
 10
7.1408090608
 20
5.0429456151
 30
0.0
 10
7.1402507375
 20
5.0429939299
 30
0.0
 10
7.1398653522
 20
5.043014973
 30
0.0
 10
7.1396687592
 20
5.0430226756
 30
0.0
  0
SPLINE
  5
476
100
AcDbEntity
  8
0
100
AcDbSpline
 62
7
  6
CONTINUOUS
 70
0
 71
3
 72
25
 73
21
 74
0
 42
0.0000001
 43
0.0000001
 44
0.0000000001
 40
0.0
 40
0.0
 40
0.0
 40
0.0
 40
0.201888001
 40
0.3898004753
 40
0.476970638
 40
0.5588428761
 40
0.6348902372
 40
0.7046246586
 40
0.7676023526
 40
0.8234343196
 40
0.8717872687
 40
0.9124103625
 40
0.9297751554
 40
0.945167574
 40
0.9585985728
 40
0.9701060596
 40
0.9797700957
 40
0.9877415705
 40
0.9943096381
 40
1.0
 40
1.0
 40
1.0
 40
1.0
 10
6.4485023386
 20
4.3547387728
 30
0.0
 10
6.4484348659
 20
4.3542270112
 30
0.0
 10
6.4482958922
 20
4.3532400351
 30
0.0
 10
6.4481018351
 20
4.3520359404
 30
0.0
 10
6.4479401998
 20
4.3511376766
 30
0.0
 10
6.4478209349
 20
4.3505224593
 30
0.0
 10
6.4477014102
 20
4.3499527674
 30
0.0
 10
6.4475824464
 20
4.3494323984
 30
0.0
 10
6.4474648691
 20
4.3489648397
 30
0.0
 10
6.4473495495
 20
4.3485532131
 30
0.0
 10
6.4472372906
 20
4.3482003126
 30
0.0
 10
6.4471427893
 20
4.3479451754
 30
0.0
 10
6.4470680213
 20
4.3477730448
 30
0.0
 10
6.4470161502
 20
4.3476668966
 30
0.0
 10
6.4469655962
 20
4.3475769359
 30
0.0
 10
6.446916416
 20
4.3475032549
 30
0.0
 10
6.4468686272
 20
4.3474458348
 30
0.0
 10
6.4468220024
 20
4.3474046249
 30
0.0
 10
6.4467759619
 20
4.3473796756
 30
0.0
 10
6.4467440891
 20
4.3473747912
 30
0.0
 10
6.4467295679
 20
4.3473756938
 30
0.0
  0
SPLINE
  5
477
100
AcDbEntity
  8
0
100
AcDbSpline
 62
7
  6
CONTINUOUS
 70
0
 71
3
 72
31
 73
27
 74
0
 42
0.0000001
 43
0.0000001
 44
0.0000000001
 40
0.0
 40
0.0
 40
0.0
 40
0.0
 40
0.0539790947
 40
0.1179909669
 40
0.1902684169
 40
0.2688532121
 40
0.3516953058
 40
0.4367181633
 40
0.5218697359
 40
0.605151812
 40
0.6846407902
 40
0.758501864
 40
0.8250031637
 40
0.8549872058
 40
0.8825422467
 40
0.9074933305
 40
0.9296819877
 40
0.948966189
 40
0.9652286179
 40
0.972199927
 40
0.9783891386
 40
0.9837946601
 40
0.9884237059
 40
0.99229599
 40
0.995452908
 40
1.0
 40
1.0
 40
1.0
 40
1.0
 10
6.4621946435
 20
4.4430588983
 30
0.0
 10
6.4621629437
 20
4.4427065772
 30
0.0
 10
6.4620744935
 20
4.4419381873
 30
0.0
 10
6.461895203
 20
4.4407041473
 30
0.0
 10
6.4616613814
 20
4.4393154425
 30
0.0
 10
6.4613795872
 20
4.4378099721
 30
0.0
 10
6.4610574229
 20
4.4362272941
 30
0.0
 10
6.460703301
 20
4.4346073873
 30
0.0
 10
6.4603261116
 20
4.4329897357
 30
0.0
 10
6.4599350246
 20
4.4314127251
 30
0.0
 10
6.4595393753
 20
4.4299132438
 30
0.0
 10
6.4591485219
 20
4.4285264354
 30
0.0
 10
6.4588244372
 20
4.4274580563
 30
0.0
 10
6.4585729851
 20
4.4266850182
 30
0.0
 10
6.458397904
 20
4.4261735406
 30
0.0
 10
6.4582308602
 20
4.425713389
 30
0.0
 10
6.4580729906
 20
4.4253076689
 30
0.0
 10
6.4579253591
 20
4.4249592356
 30
0.0
 10
6.4578064775
 20
4.4247070874
 30
0.0
 10
6.457716176
 20
4.4245366762
 30
0.0
 10
6.4576551641
 20
4.4244313785
 30
0.0
 10
6.4575973746
 20
4.4243420324
 30
0.0
 10
6.4575430911
 20
4.4242688433
 30
0.0
 10
6.4574918129
 20
4.4242116146
 30
0.0
 10
6.4574351051
 20
4.4241623377
 30
0.0
 10
6.4573850295
 20
4.4241390557
 30
0.0
 10
6.4573552845
 20
4.4241408448
 30
0.0
  0
SPLINE
  5
478
100
AcDbEntity
  8
0
100
AcDbSpline
 62
7
  6
CONTINUOUS
 70
0
 71
3
 72
27
 73
23
 74
0
 42
0.0000001
 43
0.0000001
 44
0.0000000001
 40
0.0
 40
0.0
 40
0.0
 40
0.0
 40
0.0736712506
 40
0.1522655853
 40
0.2342770718
 40
0.3181630179
 40
0.4023930882
 40
0.4854819668
 40
0.5660154013
 40
0.6426674577
 40
0.7142097969
 40
0.7795218979
 40
0.8376015464
 40
0.8875853439
 40
0.9093227623
 40
0.9288003364
 40
0.9459773508
 40
0.9608479379
 40
0.9734563781
 40
0.9839384548
 40
0.9925916906
 40
1.0
 40
1.0
 40
1.0
 40
1.0
 10
6.4621946435
 20
4.4058276942
 30
0.0
 10
6.462169487
 20
4.4054133133
 30
0.0
 10
6.4621025555
 20
4.4045577316
 30
0.0
 10
6.4619621477
 20
4.4032449035
 30
0.0
 10
6.461780819
 20
4.4018790143
 30
0.0
 10
6.4615623859
 20
4.4004864275
 30
0.0
 10
6.4613113043
 20
4.3990931891
 30
0.0
 10
6.4610325138
 20
4.3977245023
 30
0.0
 10
6.460731298
 20
4.3964043326
 30
0.0
 10
6.4604131795
 20
4.3951551518
 30
0.0
 10
6.460083829
 20
4.3939978016
 30
0.0
 10
6.4597490674
 20
4.3929513255
 30
0.0
 10
6.4594146922
 20
4.3920330563
 30
0.0
 10
6.4591296866
 20
4.3913588409
 30
0.0
 10
6.4589030325
 20
4.390897458
 30
0.0
 10
6.4587446472
 20
4.3906088822
 30
0.0
 10
6.458590537
 20
4.3903625713
 30
0.0
 10
6.45844133
 20
4.3901595566
 30
0.0
 10
6.4582974875
 20
4.3900005505
 30
0.0
 10
6.4581589165
 20
4.3898860363
 30
0.0
 10
6.4580247246
 20
4.3898164571
 30
0.0
 10
6.4579328658
 20
4.3898022411
 30
0.0
 10
6.4578911946
 20
4.3898047471
 30
0.0
  0
SPLINE
  5
479
100
AcDbEntity
  8
0
100
AcDbSpline
 62
7
  6
CONTINUOUS
 70
0
 71
3
 72
25
 73
21
 74
0
 42
0.0000001
 43
0.0000001
 44
0.0000000001
 40
0.0
 40
0.0
 40
0.0
 40
0.0
 40
0.1767143377
 40
0.3518749222
 40
0.4362272858
 40
0.5171201872
 40
0.5936707268
 40
0.6650842353
 40
0.7306618538
 40
0.7898088229
 40
0.8420494803
 40
0.8870572836
 40
0.9068099974
 40
0.9247353732
 40
0.9408754325
 40
0.9553087546
 40
0.9681716506
 40
0.9796766088
 40
0.9901408268
 40
1.0
 40
1.0
 40
1.0
 40
1.0
 10
6.4621946435
 20
4.3506832318
 30
0.0
 10
6.4621545702
 20
4.3499089287
 30
0.0
 10
6.4620340172
 20
4.3483690198
 30
0.0
 10
6.4617904934
 20
4.3464697495
 30
0.0
 10
6.461541907
 20
4.3449968762
 30
0.0
 10
6.4613361019
 20
4.3439559873
 30
0.0
 10
6.4611114115
 20
4.3429771581
 30
0.0
 10
6.46087075
 20
4.3420714574
 30
0.0
 10
6.4606171634
 20
4.3412488425
 30
0.0
 10
6.4603537912
 20
4.3405180438
 30
0.0
 10
6.46008378
 20
4.3398867546
 30
0.0
 10
6.4598466388
 20
4.3394305526
 30
0.0
 10
6.4596533816
 20
4.3391232912
 30
0.0
 10
6.4595149603
 20
4.3389317475
 30
0.0
 10
6.4593770542
 20
4.3387693448
 30
0.0
 10
6.4592398651
 20
4.3386365204
 30
0.0
 10
6.4591035726
 20
4.3385336287
 30
0.0
 10
6.4589681283
 20
4.33846117
 30
0.0
 10
6.4588336506
 20
4.3384199684
 30
0.0
 10
6.458743649
 20
4.338414042
 30
0.0
 10
6.4587004697
 20
4.3384166416
 30
0.0
  0
SPLINE
  5
47A
100
AcDbEntity
  8
0
100
AcDbSpline
 62
7
  6
CONTINUOUS
 70
0
 71
3
 72
17
 73
13
 74
0
 42
0.0000001
 43
0.0000001
 44
0.0000000001
 40
0.0
 40
0.0
 40
0.0
 40
0.0
 40
0.0273594956
 40
0.0608483178
 40
0.1002741432
 40
0.1454112276
 40
0.2516789999
 40
0.3770094732
 40
0.5182418486
 40
0.6717950351
 40
0.8337598961
 40
1.0
 40
1.0
 40
1.0
 40
1.0
 10
7.1426687592
 20
5.0506819813
 30
0.0
 10
7.1425406809
 20
5.0507123918
 30
0.0
 10
7.1422537056
 20
5.0507710138
 30
0.0
 10
7.1417778119
 20
5.0508506632
 30
0.0
 10
7.141215339
 20
5.0509300949
 30
0.0
 10
7.140303852
 20
5.0510410264
 30
0.0
 10
7.1389785727
 20
5.0511712436
 30
0.0
 10
7.1371901307
 20
5.0513114448
 30
0.0
 10
7.1351726892
 20
5.0514385356
 30
0.0
 10
7.1329777881
 20
5.0515491159
 30
0.0
 10
7.1306615744
 20
5.0516401449
 30
0.0
 10
7.1290830634
 20
5.0516859883
 30
0.0
 10
7.1282834368
 20
5.05170521
 30
0.0
  0
SPLINE
  5
47B
100
AcDbEntity
  8
0
100
AcDbSpline
 62
7
  6
CONTINUOUS
 70
0
 71
3
 72
21
 73
17
 74
0
 42
0.0000001
 43
0.0000001
 44
0.0000000001
 40
0.0
 40
0.0
 40
0.0
 40
0.0
 40
0.02923689
 40
0.0600375701
 40
0.0937141465
 40
0.1312667101
 40
0.1734024645
 40
0.2205975359
 40
0.27315978
 40
0.3312848727
 40
0.3950814301
 40
0.4646028329
 40
0.5398521464
 40
0.6207998184
 40
0.7995104242
 40
1.0
 40
1.0
 40
1.0
 40
1.0
 10
7.1516687592
 20
5.0392624127
 30
0.0
 10
7.1516687592
 20
5.0391527512
 30
0.0
 10
7.1516410589
 20
5.0389267561
 30
0.0
 10
7.1515190961
 20
5.0385943871
 30
0.0
 10
7.1513187848
 20
5.0382659363
 30
0.0
 10
7.1510419139
 20
5.0379413971
 30
0.0
 10
7.1506893318
 20
5.0376202777
 30
0.0
 10
7.1502615264
 20
5.0373025131
 30
0.0
 10
7.1497589905
 20
5.0369882811
 30
0.0
 10
7.1491823263
 20
5.0366780205
 30
0.0
 10
7.1485323408
 20
5.0363721667
 30
0.0
 10
7.1478099778
 20
5.0360712967
 30
0.0
 10
7.1470163662
 20
5.0357759078
 30
0.0
 10
7.145825052
 20
5.0353768999
 30
0.0
 10
7.1441650605
 20
5.0349013971
 30
0.0
 10
7.1427813019
 20
5.034570817
 30
0.0
 10
7.1420469788
 20
5.0344087493
 30
0.0
  0
SPLINE
  5
47C
100
AcDbEntity
  8
0
100
AcDbSpline
 62
7
  6
CONTINUOUS
 70
0
 71
3
 72
17
 73
13
 74
0
 42
0.0000001
 43
0.0000001
 44
0.0000000001
 40
0.0
 40
0.0
 40
0.0
 40
0.0
 40
0.1399502993
 40
0.2090944063
 40
0.2772565386
 40
0.4097642294
 40
0.536837894
 40
0.5984057004
 40
0.6587160577
 40
0.7758837911
 40
0.8893230342
 40
1.0
 40
1.0
 40
1.0
 40
1.0
 10
6.7252593104
 20
3.9944803168
 30
0.0
 10
6.7258505525
 20
3.9944803168
 30
0.0
 10
6.7267364503
 20
3.9945577889
 30
0.0
 10
6.7278810595
 20
3.9948113126
 30
0.0
 10
6.7289699559
 20
3.9951526486
 30
0.0
 10
6.7302347703
 20
3.9957327671
 30
0.0
 10
6.7313635468
 20
3.996496815
 30
0.0
 10
6.7321578933
 20
3.9971875984
 30
0.0
 10
6.7328665124
 20
3.9979083504
 30
0.0
 10
6.7336257316
 20
3.9988813878
 30
0.0
 10
6.7343366883
 20
4.0001412301
 30
0.0
 10
6.7346799303
 20
4.0010276913
 30
0.0
 10
6.7348175147
 20
4.0014745631
 30
0.0
  0
SPLINE
  5
47D
100
AcDbEntity
  8
0
100
AcDbSpline
 62
7
  6
CONTINUOUS
 70
0
 71
3
 72
17
 73
13
 74
0
 42
0.0000001
 43
0.0000001
 44
0.0000000001
 40
0.0
 40
0.0
 40
0.0
 40
0.0
 40
0.1431957
 40
0.2137404149
 40
0.2830613103
 40
0.4170173524
 40
0.5443316292
 40
0.6056050421
 40
0.6653740806
 40
0.7808400755
 40
0.8919777434
 40
1.0
 40
1.0
 40
1.0
 40
1.0
 10
6.7252593104
 20
3.9952105308
 30
0.0
 10
6.7258757997
 20
3.9952105308
 30
0.0
 10
6.7267986532
 20
3.995290795
 30
0.0
 10
6.7279896938
 20
3.99555377
 30
0.0
 10
6.7291160314
 20
3.9959061468
 30
0.0
 10
6.7304164318
 20
3.9965021488
 30
0.0
 10
6.7315702529
 20
3.9972868684
 30
0.0
 10
6.7323737302
 20
3.9979939271
 30
0.0
 10
6.7330819278
 20
3.9987268152
 30
0.0
 10
6.7338308234
 20
3.9997133538
 30
0.0
 10
6.7345139803
 20
4.000987866
 30
0.0
 10
6.734828094
 20
4.001882181
 30
0.0
 10
6.7349482816
 20
4.0023314422
 30
0.0
  0
SPLINE
  5
47E
100
AcDbEntity
  8
0
100
AcDbSpline
 62
7
  6
CONTINUOUS
 70
0
 71
3
 72
16
 73
12
 74
0
 42
0.0000001
 43
0.0000001
 44
0.0000000001
 40
0.0
 40
0.0
 40
0.0
 40
0.0
 40
0.1459699352
 40
0.2177441272
 40
0.2881247149
 40
0.4235570133
 40
0.5513571198
 40
0.6717807251
 40
0.7858111423
 40
0.8947504728
 40
1.0
 40
1.0
 40
1.0
 40
1.0
 10
6.7252593104
 20
3.9967435268
 30
0.0
 10
6.7258755722
 20
3.9967435268
 30
0.0
 10
6.7267972642
 20
3.9968195454
 30
0.0
 10
6.7279887811
 20
3.9970693153
 30
0.0
 10
6.7291133059
 20
3.9974033578
 30
0.0
 10
6.7304111947
 20
3.9979676242
 30
0.0
 10
6.7317782301
 20
3.9988493326
 30
0.0
 10
6.7329180607
 20
3.9998790096
 30
0.0
 10
6.7338277802
 20
4.0010159172
 30
0.0
 10
6.7345122984
 20
4.0022272188
 30
0.0
 10
6.7348278163
 20
4.0030794441
 30
0.0
 10
6.7349482816
 20
4.0035071498
 30
0.0
  0
SPLINE
  5
47F
100
AcDbEntity
  8
0
100
AcDbSpline
 62
7
  6
CONTINUOUS
 70
0
 71
3
 72
16
 73
12
 74
0
 42
0.0000001
 43
0.0000001
 44
0.0000000001
 40
0.0
 40
0.0
 40
0.0
 40
0.0
 40
0.1477886071
 40
0.2915026162
 40
0.428269541
 40
0.4936399398
 40
0.5569135639
 40
0.6773025744
 40
0.7904003279
 40
0.8974802664
 40
1.0
 40
1.0
 40
1.0
 40
1.0
 10
6.7252593104
 20
3.9990752856
 30
0.0
 10
6.7258504885
 20
3.9990752856
 30
0.0
 10
6.7270185061
 20
3.9991624392
 30
0.0
 10
6.7286947618
 20
3.999543778
 30
0.0
 10
6.7299882818
 20
4.0000505192
 30
0.0
 10
6.7309267189
 20
4.0005489469
 30
0.0
 10
6.7317692921
 20
4.0010818731
 30
0.0
 10
6.7326989372
 20
4.0018281019
 30
0.0
 10
6.7336210899
 20
4.0028382732
 30
0.0
 10
6.7343349901
 20
4.003919859
 30
0.0
 10
6.7346822641
 20
4.0046875573
 30
0.0
 10
6.7348205481
 20
4.0050736347
 30
0.0
  0
SPLINE
  5
480
100
AcDbEntity
  8
0
100
AcDbSpline
 62
7
  6
CONTINUOUS
 70
0
 71
3
 72
15
 73
11
 74
0
 42
0.0000001
 43
0.0000001
 44
0.0000000001
 40
0.0
 40
0.0
 40
0.0
 40
0.0
 40
0.1521010975
 40
0.2992531171
 40
0.4380334904
 40
0.5670122903
 40
0.6863600355
 40
0.797203505
 40
0.9011463894
 40
1.0
 40
1.0
 40
1.0
 40
1.0
 10
6.7252593104
 20
4.002199416
 30
0.0
 10
6.7258751218
 20
4.002199416
 30
0.0
 10
6.727088634
 20
4.0022878159
 30
0.0
 10
6.7288257389
 20
4.002674297
 30
0.0
 10
6.7303997682
 20
4.0032790175
 30
0.0
 10
6.7317667885
 20
4.0040580471
 30
0.0
 10
6.7329080696
 20
4.0049689489
 30
0.0
 10
6.7338203589
 20
4.0059761678
 30
0.0
 10
6.7345078021
 20
4.0070506993
 30
0.0
 10
6.7348270651
 20
4.0078124457
 30
0.0
 10
6.7349482816
 20
4.0081938763
 30
0.0
  0
SPLINE
  5
481
100
AcDbEntity
  8
0
100
AcDbSpline
 62
7
  6
CONTINUOUS
 70
0
 71
3
 72
15
 73
11
 74
0
 42
0.0000001
 43
0.0000001
 44
0.0000000001
 40
0.0
 40
0.0
 40
0.0
 40
0.0
 40
0.1554386275
 40
0.3053977461
 40
0.4460497288
 40
0.5757333429
 40
0.6945434735
 40
0.8036503594
 40
0.9047941844
 40
1.0
 40
1.0
 40
1.0
 40
1.0
 10
6.7252593104
 20
4.0061073549
 30
0.0
 10
6.7258749039
 20
4.0061073549
 30
0.0
 10
6.727086067
 20
4.006189443
 30
0.0
 10
6.7288211525
 20
4.0065485578
 30
0.0
 10
6.7303938832
 20
4.00711063
 30
0.0
 10
6.7317605043
 20
4.0078350256
 30
0.0
 10
6.7329022467
 20
4.0086825104
 30
0.0
 10
6.7338157404
 20
4.0096203129
 30
0.0
 10
6.7345048306
 20
4.0106216393
 30
0.0
 10
6.7348265527
 20
4.0113351901
 30
0.0
 10
6.7349482816
 20
4.0116920493
 30
0.0
  0
SPLINE
  5
482
100
AcDbEntity
  8
0
100
AcDbSpline
 62
7
  6
CONTINUOUS
 70
0
 71
3
 72
15
 73
11
 74
0
 42
0.0000001
 43
0.0000001
 44
0.0000000001
 40
0.0
 40
0.0
 40
0.0
 40
0.0
 40
0.1589021669
 40
0.3117958984
 40
0.4544404592
 40
0.5849230207
 40
0.703233459
 40
0.8105531702
 40
0.9087323294
 40
1.0
 40
1.0
 40
1.0
 40
1.0
 10
6.7252593104
 20
4.0107855667
 30
0.0
 10
6.7258741371
 20
4.0107855667
 30
0.0
 10
6.7270819738
 20
4.0108610357
 30
0.0
 10
6.7288136453
 20
4.0111913914
 30
0.0
 10
6.7303839269
 20
4.0117085933
 30
0.0
 10
6.7317493265
 20
4.0123754157
 30
0.0
 10
6.7328911233
 20
4.0131559456
 30
0.0
 10
6.7338059386
 20
4.0140203479
 30
0.0
 10
6.7344974045
 20
4.0149442585
 30
0.0
 10
6.7348228246
 20
4.0156070194
 30
0.0
 10
6.7349456182
 20
4.0159381169
 30
0.0
  0
SPLINE
  5
483
100
AcDbEntity
  8
0
100
AcDbSpline
 62
7
  6
CONTINUOUS
 70
0
 71
3
 72
15
 73
11
 74
0
 42
0.0000001
 43
0.0000001
 44
0.0000000001
 40
0.0
 40
0.0
 40
0.0
 40
0.0
 40
0.1625874019
 40
0.3186099531
 40
0.4633933672
 40
0.5947577739
 40
0.7125714161
 40
0.8180066693
 40
0.9130057811
 40
1.0
 40
1.0
 40
1.0
 40
1.0
 10
6.7252593104
 20
4.0162296938
 30
0.0
 10
6.7258744946
 20
4.0162296938
 30
0.0
 10
6.7270812274
 20
4.0162986522
 30
0.0
 10
6.7288122906
 20
4.0166006426
 30
0.0
 10
6.7303820402
 20
4.0170734316
 30
0.0
 10
6.7317471198
 20
4.0176830072
 30
0.0
 10
6.7328889281
 20
4.0183966199
 30
0.0
 10
6.7338042714
 20
4.0191873051
 30
0.0
 10
6.7344967954
 20
4.0200331886
 30
0.0
 10
6.7348250958
 20
4.0206448581
 30
0.0
 10
6.7349482816
 20
4.0209500997
 30
0.0
  0
SPLINE
  5
484
100
AcDbEntity
  8
0
100
AcDbSpline
 62
7
  6
CONTINUOUS
 70
0
 71
3
 72
15
 73
11
 74
0
 42
0.0000001
 43
0.0000001
 44
0.0000000001
 40
0.0
 40
0.0
 40
0.0
 40
0.0
 40
0.1663371121
 40
0.3255666582
 40
0.4725829516
 40
0.6049250516
 40
0.7223099014
 40
0.8258582999
 40
0.9175561885
 40
1.0
 40
1.0
 40
1.0
 40
1.0
 10
6.7252593104
 20
4.0224163492
 30
0.0
 10
6.7258743078
 20
4.0224163492
 30
0.0
 10
6.7270790101
 20
4.0224785271
 30
0.0
 10
6.7288081343
 20
4.0227509344
 30
0.0
 10
6.730376262
 20
4.0231773964
 30
0.0
 10
6.7317402077
 20
4.0237272199
 30
0.0
 10
6.7328815168
 20
4.0243708762
 30
0.0
 10
6.7337972811
 20
4.025084302
 30
0.0
 10
6.7344913763
 20
4.025848201
 30
0.0
 10
6.7348240471
 20
4.0264062482
 30
0.0
 10
6.7349482816
 20
4.0266846014
 30
0.0
  0
SPLINE
  5
485
100
AcDbEntity
  8
0
100
AcDbSpline
 62
7
  6
CONTINUOUS
 70
0
 71
3
 72
15
 73
11
 74
0
 42
0.0000001
 43
0.0000001
 44
0.0000000001
 40
0.0
 40
0.0
 40
0.0
 40
0.0
 40
0.1701419697
 40
0.3326437125
 40
0.4819715823
 40
0.6153756428
 40
0.7323989996
 40
0.8340714797
 40
0.9223686781
 40
1.0
 40
1.0
 40
1.0
 40
1.0
 10
6.7252593104
 20
4.0293313999
 30
0.0
 10
6.7258741356
 20
4.0293313999
 30
0.0
 10
6.7270769622
 20
4.029386677
 30
0.0
 10
6.7288042411
 20
4.0296289326
 30
0.0
 10
6.7303707145
 20
4.0300081453
 30
0.0
 10
6.7317333208
 20
4.0304969558
 30
0.0
 10
6.7328737377
 20
4.0310690229
 30
0.0
 10
6.7337894205
 20
4.0317031054
 30
0.0
 10
6.7344847343
 20
4.032382394
 30
0.0
 10
6.7348226774
 20
4.032884961
 30
0.0
 10
6.7349482816
 20
4.0331357995
 30
0.0
  0
SPLINE
  5
486
100
AcDbEntity
  8
0
100
AcDbSpline
 62
7
  6
CONTINUOUS
 70
0
 71
3
 72
17
 73
13
 74
0
 42
0.0000001
 43
0.0000001
 44
0.0000000001
 40
0.0
 40
0.0
 40
0.0
 40
0.0
 40
0.1739130148
 40
0.2582689533
 40
0.3397109244
 40
0.49136982
 40
0.6258875819
 40
0.742616007
 40
0.8424548897
 40
0.8866428703
 40
0.927395932
 40
1.0
 40
1.0
 40
1.0
 40
1.0
 10
6.7252593104
 20
4.0369558923
 30
0.0
 10
6.72587398
 20
4.0369558923
 30
0.0
 10
6.7267874084
 20
4.0369925692
 30
0.0
 10
6.7279820305
 20
4.0371154562
 30
0.0
 10
6.7290925493
 20
4.0372775212
 30
0.0
 10
6.7303655153
 20
4.0375469785
 30
0.0
 10
6.7317266597
 20
4.037973723
 30
0.0
 10
6.7328656422
 20
4.0384728832
 30
0.0
 10
6.733657629
 20
4.0389513128
 30
0.0
 10
6.7341701061
 20
4.0393576707
 30
0.0
 10
6.7345729016
 20
4.0397425491
 30
0.0
 10
6.7348208634
 20
4.0400632732
 30
0.0
 10
6.7349482816
 20
4.0402860116
 30
0.0
  0
SPLINE
  5
487
100
AcDbEntity
  8
0
100
AcDbSpline
 62
7
  6
CONTINUOUS
 70
0
 71
3
 72
19
 73
15
 74
0
 42
0.0000001
 43
0.0000001
 44
0.0000000001
 40
0.0
 40
0.0
 40
0.0
 40
0.0
 40
0.1775928857
 40
0.2636305124
 40
0.3465789258
 40
0.5005586745
 40
0.636238636
 40
0.6969010632
 40
0.7528119534
 40
0.8041092636
 40
0.850986182
 40
0.8936907397
 40
0.9325287881
 40
1.0
 40
1.0
 40
1.0
 40
1.0
 10
6.7252593104
 20
4.0452689281
 30
0.0
 10
6.7258738426
 20
4.0452689281
 30
0.0
 10
6.7267865473
 20
4.045300225
 30
0.0
 10
6.7279814158
 20
4.0454052647
 30
0.0
 10
6.7290906086
 20
4.0455436078
 30
0.0
 10
6.7303606847
 20
4.0457732167
 30
0.0
 10
6.7315335032
 20
4.0460869659
 30
0.0
 10
6.7323576842
 20
4.046375536
 30
0.0
 10
6.732895101
 20
4.0465968429
 30
0.0
 10
6.733375422
 20
4.0468291706
 30
0.0
 10
6.7337992555
 20
4.047070776
 30
0.0
 10
6.7341677478
 20
4.047320324
 30
0.0
 10
6.7345674015
 20
4.0476463373
 30
0.0
 10
6.7348184343
 20
4.0479216046
 30
0.0
 10
6.7349482816
 20
4.0481156396
 30
0.0
  0
SPLINE
  5
488
100
AcDbEntity
  8
0
100
AcDbSpline
 62
7
  6
CONTINUOUS
 70
0
 71
3
 72
19
 73
15
 74
0
 42
0.0000001
 43
0.0000001
 44
0.0000000001
 40
0.0
 40
0.0
 40
0.0
 40
0.0
 40
0.1809791955
 40
0.3529030522
 40
0.5090779297
 40
0.6459198277
 40
0.7067056297
 40
0.7624065071
 40
0.8131361352
 40
0.8590616826
 40
0.9004032513
 40
0.937436838
 40
0.9705006223
 40
1.0
 40
1.0
 40
1.0
 40
1.0
 10
6.7252593104
 20
4.0542425327
 30
0.0
 10
6.7258731707
 20
4.0542425327
 30
0.0
 10
6.7270704717
 20
4.0542764905
 30
0.0
 10
6.7287917798
 20
4.0544253894
 30
0.0
 10
6.7303525555
 20
4.0546583862
 30
0.0
 10
6.7315256577
 20
4.0549174326
 30
0.0
 10
6.7323513354
 20
4.0551562303
 30
0.0
 10
6.7328885254
 20
4.0553389281
 30
0.0
 10
6.7333686934
 20
4.0555306775
 30
0.0
 10
6.7337925221
 20
4.0557300774
 30
0.0
 10
6.7341609601
 20
4.0559358519
 30
0.0
 10
6.7344750811
 20
4.0561470451
 30
0.0
 10
6.7347358929
 20
4.0563626954
 30
0.0
 10
6.7348825282
 20
4.0565171439
 30
0.0
 10
6.7349456182
 20
4.0565948056
 30
0.0
  0
SPLINE
  5
489
100
AcDbEntity
  8
0
100
AcDbSpline
 62
7
  6
CONTINUOUS
 70
0
 71
3
 72
19
 73
15
 74
0
 42
0.0000001
 43
0.0000001
 44
0.0000000001
 40
0.0
 40
0.0
 40
0.0
 40
0.0
 40
0.1842162165
 40
0.3589728101
 40
0.5172475217
 40
0.6552186428
 40
0.7161420229
 40
0.7716692189
 40
0.8218896507
 40
0.8669424049
 40
0.9070143196
 40
0.9423411539
 40
0.9732159051
 40
1.0
 40
1.0
 40
1.0
 40
1.0
 10
6.7252593104
 20
4.0638676637
 30
0.0
 10
6.7258736285
 20
4.0638676637
 30
0.0
 10
6.7270709029
 20
4.0638944552
 30
0.0
 10
6.7287924282
 20
4.0640119313
 30
0.0
 10
6.7303529817
 20
4.0641957173
 30
0.0
 10
6.7315272254
 20
4.0644002119
 30
0.0
 10
6.7323545432
 20
4.0645890896
 30
0.0
 10
6.7328914875
 20
4.0647332531
 30
0.0
 10
6.7333712726
 20
4.0648845081
 30
0.0
 10
6.7337945872
 20
4.0650417311
 30
0.0
 10
6.7341623851
 20
4.0652038836
 30
0.0
 10
6.7344757928
 20
4.0653701893
 30
0.0
 10
6.7347358857
 20
4.0655398623
 30
0.0
 10
6.734884337
 20
4.0656631367
 30
0.0
 10
6.7349482816
 20
4.0657254979
 30
0.0
  0
SPLINE
  5
48A
100
AcDbEntity
  8
0
100
AcDbSpline
 62
7
  6
CONTINUOUS
 70
0
 71
3
 72
18
 73
14
 74
0
 42
0.0000001
 43
0.0000001
 44
0.0000000001
 40
0.0
 40
0.0
 40
0.0
 40
0.0
 40
0.1868621538
 40
0.3639512723
 40
0.5239857955
 40
0.6629491594
 40
0.7794422495
 40
0.8292867347
 40
0.8736579432
 40
0.9127058538
 40
0.946617324
 40
0.9756216304
 40
1.0
 40
1.0
 40
1.0
 40
1.0
 10
6.7252593104
 20
4.0741023855
 30
0.0
 10
6.7258735542
 20
4.0741023855
 30
0.0
 10
6.7270700181
 20
4.0741219009
 30
0.0
 10
6.7287906288
 20
4.0742075135
 30
0.0
 10
6.7303502644
 20
4.0743413437
 30
0.0
 10
6.7317055403
 20
4.0745135382
 30
0.0
 10
6.7326943681
 20
4.0746885257
 30
0.0
 10
6.7333695518
 20
4.0748436219
 30
0.0
 10
6.7337925142
 20
4.0749581313
 30
0.0
 10
6.7341598725
 20
4.0750761333
 30
0.0
 10
6.7344727539
 20
4.0751970272
 30
0.0
 10
6.7347322453
 20
4.0753201718
 30
0.0
 10
6.7348829814
 20
4.0754110112
 30
0.0
 10
6.7349482816
 20
4.0754574608
 30
0.0
  0
SPLINE
  5
48B
100
AcDbEntity
  8
0
100
AcDbSpline
 62
7
  6
CONTINUOUS
 70
0
 71
3
 72
18
 73
14
 74
0
 42
0.0000001
 43
0.0000001
 44
0.0000000001
 40
0.0
 40
0.0
 40
0.0
 40
0.0
 40
0.1888247762
 40
0.3676497531
 40
0.5290054596
 40
0.6687330457
 40
0.7853127436
 40
0.8348998207
 40
0.8787850092
 40
0.9170859067
 40
0.9499434213
 40
0.977520477
 40
1.0
 40
1.0
 40
1.0
 40
1.0
 10
6.7252593104
 20
4.0849238348
 30
0.0
 10
6.7258735028
 20
4.0849238348
 30
0.0
 10
6.7270694012
 20
4.0849360464
 30
0.0
 10
6.7287893942
 20
4.0849896228
 30
0.0
 10
6.7303483076
 20
4.0850733545
 30
0.0
 10
6.7317027216
 20
4.0851810663
 30
0.0
 10
6.7326919167
 20
4.0852905743
 30
0.0
 10
6.7333682548
 20
4.0853878265
 30
0.0
 10
6.7337909055
 20
4.0854594443
 30
0.0
 10
6.7341578374
 20
4.0855331961
 30
0.0
 10
6.7344701259
 20
4.085608652
 30
0.0
 10
6.7347288026
 20
4.0856853611
 30
0.0
 10
6.7348814894
 20
4.0857426838
 30
0.0
 10
6.7349482816
 20
4.085772437
 30
0.0
  0
SPLINE
  5
48C
100
AcDbEntity
  8
0
100
AcDbSpline
 62
7
  6
CONTINUOUS
 70
0
 71
3
 72
17
 73
13
 74
0
 42
0.0000001
 43
0.0000001
 44
0.0000000001
 40
0.0
 40
0.0
 40
0.0
 40
0.0
 40
0.1899439782
 40
0.3697611929
 40
0.5318768913
 40
0.672052188
 40
0.7886984423
 40
0.8817648273
 40
0.9196470355
 40
0.9519045771
 40
0.978653657
 40
1.0
 40
1.0
 40
1.0
 40
1.0
 10
6.7252593104
 20
4.0963023508
 30
0.0
 10
6.725873475
 20
4.0963023508
 30
0.0
 10
6.7270690665
 20
4.0963072396
 30
0.0
 10
6.7287887238
 20
4.0963286805
 30
0.0
 10
6.7303472342
 20
4.0963622054
 30
0.0
 10
6.7317011724
 20
4.0964052674
 30
0.0
 10
6.7328314142
 20
4.0964554588
 30
0.0
 10
6.7336305836
 20
4.0965039665
 30
0.0
 10
6.7341566133
 20
4.096546246
 30
0.0
 10
6.7344684605
 20
4.0965763949
 30
0.0
 10
6.7347264836
 20
4.0966069946
 30
0.0
 10
6.7348803329
 20
4.0966300336
 30
0.0
 10
6.7349482816
 20
4.0966421539
 30
0.0
  0
SPLINE
  5
48D
100
AcDbEntity
  8
0
100
AcDbSpline
 62
7
  6
CONTINUOUS
 70
0
 71
3
 72
17
 73
13
 74
0
 42
0.0000001
 43
0.0000001
 44
0.0000000001
 40
0.0
 40
0.0
 40
0.0
 40
0.0
 40
0.0213463349
 40
0.0480953763
 40
0.0803528424
 40
0.1182348735
 40
0.2113008867
 40
0.3279467819
 40
0.4681220477
 40
0.6302376538
 40
0.8100550739
 40
1.0
 40
1.0
 40
1.0
 40
1.0
 10
6.7349482816
 20
4.4796854859
 30
0.0
 10
6.7348803329
 20
4.4796976061
 30
0.0
 10
6.7347264837
 20
4.4797206451
 30
0.0
 10
6.7344684611
 20
4.4797512448
 30
0.0
 10
6.7341566148
 20
4.4797813936
 30
0.0
 10
6.7336305871
 20
4.4798236731
 30
0.0
 10
6.7328314207
 20
4.4798721806
 30
0.0
 10
6.7317011813
 20
4.479922372
 30
0.0
 10
6.7303472447
 20
4.479965434
 30
0.0
 10
6.728788734
 20
4.4799989591
 30
0.0
 10
6.7270690733
 20
4.4800204001
 30
0.0
 10
6.725873478
 20
4.4800252889
 30
0.0
 10
6.7252593104
 20
4.4800252889
 30
0.0
  0
SPLINE
  5
48E
100
AcDbEntity
  8
0
100
AcDbSpline
 62
7
  6
CONTINUOUS
 70
0
 71
3
 72
18
 73
14
 74
0
 42
0.0000001
 43
0.0000001
 44
0.0000000001
 40
0.0
 40
0.0
 40
0.0
 40
0.0
 40
0.0224795148
 40
0.0500565312
 40
0.0829139686
 40
0.1212146893
 40
0.1650996073
 40
0.2146865843
 40
0.3312659267
 40
0.4709934838
 40
0.6323490998
 40
0.8111742817
 40
1.0
 40
1.0
 40
1.0
 40
1.0
 10
6.7349482816
 20
4.4905552028
 30
0.0
 10
6.7348814895
 20
4.490584956
 30
0.0
 10
6.7347288028
 20
4.4906422786
 30
0.0
 10
6.7344701265
 20
4.4907189877
 30
0.0
 10
6.7341578389
 20
4.4907944432
 30
0.0
 10
6.7337909087
 20
4.4908681949
 30
0.0
 10
6.7333682598
 20
4.4909398125
 30
0.0
 10
6.732691924
 20
4.4910370645
 30
0.0
 10
6.7317027305
 20
4.4911465727
 30
0.0
 10
6.7303483181
 20
4.4912542846
 30
0.0
 10
6.7287894044
 20
4.4913380165
 30
0.0
 10
6.727069408
 20
4.4913915932
 30
0.0
 10
6.7258735059
 20
4.4914038049
 30
0.0
 10
6.7252593104
 20
4.4914038049
 30
0.0
  0
SPLINE
  5
48F
100
AcDbEntity
  8
0
100
AcDbSpline
 62
7
  6
CONTINUOUS
 70
0
 71
3
 72
18
 73
14
 74
0
 42
0.0000001
 43
0.0000001
 44
0.0000000001
 40
0.0
 40
0.0
 40
0.0
 40
0.0
 40
0.0243783612
 40
0.0533826268
 40
0.087294017
 40
0.1263417512
 40
0.170712689
 40
0.2205570764
 40
0.3370498173
 40
0.4760131555
 40
0.636047591
 40
0.8131369137
 40
1.0
 40
1.0
 40
1.0
 40
1.0
 10
6.7349482816
 20
4.500870179
 30
0.0
 10
6.7348829814
 20
4.5009166285
 30
0.0
 10
6.7347322455
 20
4.5010074679
 30
0.0
 10
6.7344727544
 20
4.5011306123
 30
0.0
 10
6.734159874
 20
4.5012515058
 30
0.0
 10
6.7337925174
 20
4.5013695075
 30
0.0
 10
6.7333695567
 20
4.5014840166
 30
0.0
 10
6.7326943754
 20
4.5016391126
 30
0.0
 10
6.7317055492
 20
4.5018141003
 30
0.0
 10
6.7303502749
 20
4.5019862949
 30
0.0
 10
6.7287906391
 20
4.5021201256
 30
0.0
 10
6.7270700249
 20
4.5022057386
 30
0.0
 10
6.7258735572
 20
4.5022252543
 30
0.0
 10
6.7252593104
 20
4.5022252543
 30
0.0
  0
SPLINE
  5
490
100
AcDbEntity
  8
0
100
AcDbSpline
 62
7
  6
CONTINUOUS
 70
0
 71
3
 72
19
 73
15
 74
0
 42
0.0000001
 43
0.0000001
 44
0.0000000001
 40
0.0
 40
0.0
 40
0.0
 40
0.0
 40
0.0267840862
 40
0.0576587945
 40
0.0929855453
 40
0.1330572837
 40
0.1781097667
 40
0.2283301039
 40
0.2838572245
 40
0.3447803389
 40
0.482751439
 40
0.6410260669
 40
0.8157828635
 40
1.0
 40
1.0
 40
1.0
 40
1.0
 10
6.7349482816
 20
4.5106021419
 30
0.0
 10
6.734884337
 20
4.5106645031
 30
0.0
 10
6.7347358859
 20
4.5107877774
 30
0.0
 10
6.7344757934
 20
4.5109574501
 30
0.0
 10
6.7341623866
 20
4.5111237553
 30
0.0
 10
6.7337945904
 20
4.5112859074
 30
0.0
 10
6.7333712776
 20
4.5114431299
 30
0.0
 10
6.7328914939
 20
4.5115943847
 30
0.0
 10
6.7323545511
 20
4.5117385481
 30
0.0
 10
6.7315272346
 20
4.5119274262
 30
0.0
 10
6.7303529922
 20
4.5121319208
 30
0.0
 10
6.7287924384
 20
4.5123157075
 30
0.0
 10
6.7270709097
 20
4.5124331842
 30
0.0
 10
6.7258736316
 20
4.5124599761
 30
0.0
 10
6.7252593104
 20
4.5124599761
 30
0.0
  0
SPLINE
  5
491
100
AcDbEntity
  8
0
100
AcDbSpline
 62
7
  6
CONTINUOUS
 70
0
 71
3
 72
19
 73
15
 74
0
 42
0.0000001
 43
0.0000001
 44
0.0000000001
 40
0.0
 40
0.0
 40
0.0
 40
0.0
 40
0.0294993685
 40
0.0625631076
 40
0.0995966064
 40
0.1409379993
 40
0.1868632756
 40
0.2375928131
 40
0.2932936192
 40
0.3540791621
 40
0.4909210455
 40
0.6470958451
 40
0.819019903
 40
1.0
 40
1.0
 40
1.0
 40
1.0
 10
6.7349456182
 20
4.5197328342
 30
0.0
 10
6.7348825282
 20
4.5198104958
 30
0.0
 10
6.734735893
 20
4.5199649442
 30
0.0
 10
6.7344750817
 20
4.5201805943
 30
0.0
 10
6.7341609614
 20
4.5203917868
 30
0.0
 10
6.7337925253
 20
4.5205975608
 30
0.0
 10
6.7333686983
 20
4.5207969601
 30
0.0
 10
6.7328885319
 20
4.5209887093
 30
0.0
 10
6.7323513433
 20
4.5211714068
 30
0.0
 10
6.731525667
 20
4.521410205
 30
0.0
 10
6.7303525659
 20
4.5216692515
 30
0.0
 10
6.72879179
 20
4.5219022492
 30
0.0
 10
6.7270704785
 20
4.5220511488
 30
0.0
 10
6.7258731738
 20
4.522085107
 30
0.0
 10
6.7252593104
 20
4.522085107
 30
0.0
  0
SPLINE
  5
492
100
AcDbEntity
  8
0
100
AcDbSpline
 62
7
  6
CONTINUOUS
 70
0
 71
3
 72
19
 73
15
 74
0
 42
0.0000001
 43
0.0000001
 44
0.0000000001
 40
0.0
 40
0.0
 40
0.0
 40
0.0
 40
0.0674711547
 40
0.1063091103
 40
0.1490134915
 40
0.1958901368
 40
0.2471873598
 40
0.3030981828
 40
0.3637603569
 40
0.4994403097
 40
0.6534199853
 40
0.7363685243
 40
0.8224062267
 40
1.0
 40
1.0
 40
1.0
 40
1.0
 10
6.7349482816
 20
4.5282120001
 30
0.0
 10
6.7348184344
 20
4.5284060349
 30
0.0
 10
6.734567402
 20
4.528681302
 30
0.0
 10
6.7341677491
 20
4.5290073144
 30
0.0
 10
6.7337992587
 20
4.5292568619
 30
0.0
 10
6.7333754269
 20
4.5294984665
 30
0.0
 10
6.7328951074
 20
4.529730794
 30
0.0
 10
6.7323576921
 20
4.5299521006
 30
0.0
 10
6.7315335125
 20
4.5302406714
 30
0.0
 10
6.7303606952
 20
4.5305544207
 30
0.0
 10
6.7290906191
 20
4.5307840301
 30
0.0
 10
6.727981426
 20
4.5309223742
 30
0.0
 10
6.7267865537
 20
4.5310274142
 30
0.0
 10
6.7258738457
 20
4.5310587116
 30
0.0
 10
6.7252593104
 20
4.5310587116
 30
0.0
  0
SPLINE
  5
493
100
AcDbEntity
  8
0
100
AcDbSpline
 62
7
  6
CONTINUOUS
 70
0
 71
3
 72
17
 73
13
 74
0
 42
0.0000001
 43
0.0000001
 44
0.0000000001
 40
0.0
 40
0.0
 40
0.0
 40
0.0
 40
0.0726040083
 40
0.1133569723
 40
0.1575447754
 40
0.2573833006
 40
0.3741114175
 40
0.5086291788
 40
0.6602880061
 40
0.741730102
 40
0.8260861147
 40
1.0
 40
1.0
 40
1.0
 40
1.0
 10
6.7349482816
 20
4.5360416281
 30
0.0
 10
6.7348208635
 20
4.5362643663
 30
0.0
 10
6.7345729021
 20
4.5365850902
 30
0.0
 10
6.7341701074
 20
4.5369699676
 30
0.0
 10
6.7336576325
 20
4.5373763247
 30
0.0
 10
6.7328656484
 20
4.537854753
 30
0.0
 10
6.7317266687
 20
4.5383539136
 30
0.0
 10
6.7303655258
 20
4.5387806585
 30
0.0
 10
6.7290925597
 20
4.5390501164
 30
0.0
 10
6.7279820406
 20
4.5392121826
 30
0.0
 10
6.7267874148
 20
4.5393350698
 30
0.0
 10
6.7258739831
 20
4.5393717475
 30
0.0
 10
6.7252593104
 20
4.5393717475
 30
0.0
  0
SPLINE
  5
494
100
AcDbEntity
  8
0
100
AcDbSpline
 62
7
  6
CONTINUOUS
 70
0
 71
3
 72
15
 73
11
 74
0
 42
0.0000001
 43
0.0000001
 44
0.0000000001
 40
0.0
 40
0.0
 40
0.0
 40
0.0
 40
0.0776312583
 40
0.1659281779
 40
0.2676003026
 40
0.3846233629
 40
0.518027429
 40
0.6673552382
 40
0.8298571789
 40
1.0
 40
1.0
 40
1.0
 40
1.0
 10
6.7349482816
 20
4.5431918403
 30
0.0
 10
6.7348226775
 20
4.5434426785
 30
0.0
 10
6.7344847352
 20
4.5439452445
 30
0.0
 10
6.7337894236
 20
4.5446245318
 30
0.0
 10
6.732873744
 20
4.5452586128
 30
0.0
 10
6.7317333299
 20
4.5458306804
 30
0.0
 10
6.730370725
 20
4.5463194912
 30
0.0
 10
6.7288042514
 20
4.5466987052
 30
0.0
 10
6.7270769691
 20
4.546940962
 30
0.0
 10
6.7258741387
 20
4.5469962399
 30
0.0
 10
6.7252593104
 20
4.5469962399
 30
0.0
  0
SPLINE
  5
495
100
AcDbEntity
  8
0
100
AcDbSpline
 62
7
  6
CONTINUOUS
 70
0
 71
3
 72
15
 73
11
 74
0
 42
0.0000001
 43
0.0000001
 44
0.0000000001
 40
0.0
 40
0.0
 40
0.0
 40
0.0
 40
0.0824437449
 40
0.1741413486
 40
0.2776893937
 40
0.3950739586
 40
0.5274160721
 40
0.6744323118
 40
0.8336620548
 40
1.0
 40
1.0
 40
1.0
 40
1.0
 10
6.7349482816
 20
4.5496430384
 30
0.0
 10
6.7348240472
 20
4.5499213913
 30
0.0
 10
6.7344913771
 20
4.5504794375
 30
0.0
 10
6.7337972841
 20
4.5512433348
 30
0.0
 10
6.732881523
 20
4.5519567591
 30
0.0
 10
6.7317402168
 20
4.5526004158
 30
0.0
 10
6.7303762726
 20
4.5531502397
 30
0.0
 10
6.7288081447
 20
4.5535767032
 30
0.0
 10
6.727079017
 20
4.5538491118
 30
0.0
 10
6.7258743109
 20
4.5539112906
 30
0.0
 10
6.7252593104
 20
4.5539112906
 30
0.0
  0
SPLINE
  5
496
100
AcDbEntity
  8
0
100
AcDbSpline
 62
7
  6
CONTINUOUS
 70
0
 71
3
 72
15
 73
11
 74
0
 42
0.0000001
 43
0.0000001
 44
0.0000000001
 40
0.0
 40
0.0
 40
0.0
 40
0.0
 40
0.0869941493
 40
0.1819929703
 40
0.2874278714
 40
0.4052412402
 40
0.5366056681
 40
0.6813890353
 40
0.8374117828
 40
1.0
 40
1.0
 40
1.0
 40
1.0
 10
6.7349482816
 20
4.5553775401
 30
0.0
 10
6.7348250959
 20
4.5556827814
 30
0.0
 10
6.7344967962
 20
4.5562944497
 30
0.0
 10
6.7338042744
 20
4.5571403315
 30
0.0
 10
6.7328889343
 20
4.5579310149
 30
0.0
 10
6.7317471289
 20
4.558644628
 30
0.0
 10
6.7303820507
 20
4.5592542041
 30
0.0
 10
6.728812301
 20
4.5597269947
 30
0.0
 10
6.7270812343
 20
4.5600289866
 30
0.0
 10
6.7258744977
 20
4.560097946
 30
0.0
 10
6.7252593104
 20
4.560097946
 30
0.0
  0
SPLINE
  5
497
100
AcDbEntity
  8
0
100
AcDbSpline
 62
7
  6
CONTINUOUS
 70
0
 71
3
 72
15
 73
11
 74
0
 42
0.0000001
 43
0.0000001
 44
0.0000000001
 40
0.0
 40
0.0
 40
0.0
 40
0.0
 40
0.0912675982
 40
0.1894464613
 40
0.2967658226
 40
0.4150759989
 40
0.5455585899
 40
0.6882031113
 40
0.8410970379
 40
1.0
 40
1.0
 40
1.0
 40
1.0
 10
6.7349456182
 20
4.5603895229
 30
0.0
 10
6.7348228247
 20
4.5607206201
 30
0.0
 10
6.7344974053
 20
4.5613833797
 30
0.0
 10
6.7338059416
 20
4.5623072884
 30
0.0
 10
6.7328911294
 20
4.5631716889
 30
0.0
 10
6.7317493356
 20
4.5639522192
 30
0.0
 10
6.7303839374
 20
4.564619042
 30
0.0
 10
6.7288136556
 20
4.5651362457
 30
0.0
 10
6.7270819806
 20
4.565466603
 30
0.0
 10
6.7258741402
 20
4.565542073
 30
0.0
 10
6.7252593104
 20
4.565542073
 30
0.0
  0
SPLINE
  5
498
100
AcDbEntity
  8
0
100
AcDbSpline
 62
7
  6
CONTINUOUS
 70
0
 71
3
 72
15
 73
11
 74
0
 42
0.0000001
 43
0.0000001
 44
0.0000000001
 40
0.0
 40
0.0
 40
0.0
 40
0.0
 40
0.0952057407
 40
0.1963492632
 40
0.3054557988
 40
0.424265677
 40
0.5539493279
 40
0.6946012775
 40
0.8445605914
 40
1.0
 40
1.0
 40
1.0
 40
1.0
 10
6.7349482816
 20
4.5646355905
 30
0.0
 10
6.7348265528
 20
4.5649924494
 30
0.0
 10
6.7345048314
 20
4.5657059988
 30
0.0
 10
6.7338157434
 20
4.5667073231
 30
0.0
 10
6.7329022527
 20
4.5676451236
 30
0.0
 10
6.7317605134
 20
4.5684926088
 30
0.0
 10
6.7303938937
 20
4.5692170049
 30
0.0
 10
6.7288211629
 20
4.569779079
 30
0.0
 10
6.7270860739
 20
4.5701381957
 30
0.0
 10
6.725874907
 20
4.5702202849
 30
0.0
 10
6.7252593104
 20
4.5702202849
 30
0.0
  0
SPLINE
  5
499
100
AcDbEntity
  8
0
100
AcDbSpline
 62
7
  6
CONTINUOUS
 70
0
 71
3
 72
15
 73
11
 74
0
 42
0.0000001
 43
0.0000001
 44
0.0000000001
 40
0.0
 40
0.0
 40
0.0
 40
0.0
 40
0.0988535333
 40
0.2027961097
 40
0.3136392294
 40
0.4329867316
 40
0.5619655755
 40
0.7007459223
 40
0.8478981371
 40
1.0
 40
1.0
 40
1.0
 40
1.0
 10
6.7349482816
 20
4.5681337634
 30
0.0
 10
6.7348270652
 20
4.5685151938
 30
0.0
 10
6.7345078028
 20
4.5692769387
 30
0.0
 10
6.7338203618
 20
4.570351468
 30
0.0
 10
6.7329080756
 20
4.5713586847
 30
0.0
 10
6.7317667977
 20
4.5722695869
 30
0.0
 10
6.7303997787
 20
4.5730486171
 30
0.0
 10
6.7288257494
 20
4.5736533396
 30
0.0
 10
6.727088641
 20
4.5740398226
 30
0.0
 10
6.7258751249
 20
4.5741282238
 30
0.0
 10
6.7252593104
 20
4.5741282238
 30
0.0
  0
SPLINE
  5
49A
100
AcDbEntity
  8
0
100
AcDbSpline
 62
7
  6
CONTINUOUS
 70
0
 71
3
 72
16
 73
12
 74
0
 42
0.0000001
 43
0.0000001
 44
0.0000000001
 40
0.0
 40
0.0
 40
0.0
 40
0.0
 40
0.1029326816
 40
0.2106101152
 40
0.3243325802
 40
0.4452037465
 40
0.5739143966
 40
0.7103690754
 40
0.7811991815
 40
0.8533619326
 40
1.0
 40
1.0
 40
1.0
 40
1.0
 10
6.7346738245
 20
4.5716317932
 30
0.0
 10
6.73452004
 20
4.5719987575
 30
0.0
 10
6.7341465235
 20
4.5727262824
 30
0.0
 10
6.7334095374
 20
4.5737460524
 30
0.0
 10
6.7324800939
 20
4.5746945414
 30
0.0
 10
6.7313563471
 20
4.575545174
 30
0.0
 10
6.7300439074
 20
4.576265988
 30
0.0
 10
6.7288228707
 20
4.5767226659
 30
0.0
 10
6.727775834
 20
4.57699157
 30
0.0
 10
6.7266735913
 20
4.5771917094
 30
0.0
 10
6.725826138
 20
4.5772523541
 30
0.0
 10
6.7252593104
 20
4.5772523541
 30
0.0
  0
SPLINE
  5
49B
100
AcDbEntity
  8
0
100
AcDbSpline
 62
7
  6
CONTINUOUS
 70
0
 71
3
 72
16
 73
12
 74
0
 42
0.0000001
 43
0.0000001
 44
0.0000000001
 40
0.0
 40
0.0
 40
0.0
 40
0.0
 40
0.1052494454
 40
0.2141884575
 40
0.3282185249
 40
0.4486419037
 40
0.5764420676
 40
0.7118743516
 40
0.7822550696
 40
0.8540293292
 40
1.0
 40
1.0
 40
1.0
 40
1.0
 10
6.7349482816
 20
4.57282049
 30
0.0
 10
6.7348278164
 20
4.5732481953
 30
0.0
 10
6.7345122992
 20
4.574100419
 30
0.0
 10
6.7338277831
 20
4.5753117181
 30
0.0
 10
6.7329180666
 20
4.5764486233
 30
0.0
 10
6.7317782393
 20
4.5774783006
 30
0.0
 10
6.7304112053
 20
4.5783600099
 30
0.0
 10
6.7291133164
 20
4.5789242775
 30
0.0
 10
6.7279887914
 20
4.5792583224
 30
0.0
 10
6.7267972706
 20
4.5795080929
 30
0.0
 10
6.7258755753
 20
4.5795841129
 30
0.0
 10
6.7252593104
 20
4.5795841129
 30
0.0
  0
SPLINE
  5
49C
100
AcDbEntity
  8
0
100
AcDbSpline
 62
7
  6
CONTINUOUS
 70
0
 71
3
 72
17
 73
13
 74
0
 42
0.0000001
 43
0.0000001
 44
0.0000000001
 40
0.0
 40
0.0
 40
0.0
 40
0.0
 40
0.1080221731
 40
0.2191595183
 40
0.3346251635
 40
0.3943941739
 40
0.4556673943
 40
0.5829817346
 40
0.7169377683
 40
0.7862587951
 40
0.8568035771
 40
1.0
 40
1.0
 40
1.0
 40
1.0
 10
6.7349482816
 20
4.5739961976
 30
0.0
 10
6.7348280941
 20
4.5744454584
 30
0.0
 10
6.7345139811
 20
4.5753397718
 30
0.0
 10
6.7338308262
 20
4.5766142813
 30
0.0
 10
6.7330819332
 20
4.5776008181
 30
0.0
 10
6.7323737379
 20
4.5783337049
 30
0.0
 10
6.7315702624
 20
4.5790407647
 30
0.0
 10
6.7304164424
 20
4.5798254849
 30
0.0
 10
6.7291160418
 20
4.5804214883
 30
0.0
 10
6.7279897041
 20
4.5807738676
 30
0.0
 10
6.7267986596
 20
4.5810368431
 30
0.0
 10
6.7258758028
 20
4.5811171089
 30
0.0
 10
6.7252593104
 20
4.5811171089
 30
0.0
  0
SPLINE
  5
49D
100
AcDbEntity
  8
0
100
AcDbSpline
 62
7
  6
CONTINUOUS
 70
0
 71
3
 72
17
 73
13
 74
0
 42
0.0000001
 43
0.0000001
 44
0.0000000001
 40
0.0
 40
0.0
 40
0.0
 40
0.0
 40
0.1106767342
 40
0.2241154098
 40
0.34128273
 40
0.4015929566
 40
0.4631604742
 40
0.5902341002
 40
0.7227419448
 40
0.7909042509
 40
0.8600486304
 40
1.0
 40
1.0
 40
1.0
 40
1.0
 10
6.7348175883
 20
4.5748528375
 30
0.0
 10
6.734680013
 20
4.5752997199
 30
0.0
 10
6.7343367872
 20
4.5761862023
 30
0.0
 10
6.7336258486
 20
4.5774460791
 30
0.0
 10
6.7328666374
 20
4.5784191454
 30
0.0
 10
6.7321580215
 20
4.5791399214
 30
0.0
 10
6.7313636738
 20
4.5798307296
 30
0.0
 10
6.7302348889
 20
4.5805948083
 30
0.0
 10
6.7289700568
 20
4.5811749521
 30
0.0
 10
6.7278811418
 20
4.5815163066
 30
0.0
 10
6.7267365069
 20
4.5817698426
 30
0.0
 10
6.7258505876
 20
4.581847323
 30
0.0
 10
6.7252593303
 20
4.581847323
 30
0.0
  0
SPLINE
  5
49E
100
AcDbEntity
  8
0
100
AcDbSpline
 62
7
  6
CONTINUOUS
 70
0
 71
3
 72
30
 73
26
 74
0
 42
0.0000001
 43
0.0000001
 44
0.0000000001
 40
0.0
 40
0.0
 40
0.0
 40
0.0
 40
0.0078426944
 40
0.0124130243
 40
0.0175255464
 40
0.0232350815
 40
0.0295776869
 40
0.0442350418
 40
0.0615803104
 40
0.0816022096
 40
0.1042394007
 40
0.1293969231
 40
0.1867778411
 40
0.2525999915
 40
0.3254856145
 40
0.4038687465
 40
0.4860162507
 40
0.5700446622
 40
0.6539474996
 40
0.7356399913
 40
0.8130216006
 40
0.8840635806
 40
0.9469080422
 40
0.9747615418
 40
1.0
 40
1.0
 40
1.0
 40
1.0
 10
6.4614833958
 20
4.1657912099
 30
0.0
 10
6.4614318304
 20
4.1657944221
 30
0.0
 10
6.46135129
 20
4.1658194823
 30
0.0
 10
6.4612515599
 20
4.1658776687
 30
0.0
 10
6.4611706565
 20
4.1659392743
 30
0.0
 10
6.4610878379
 20
4.1660164411
 30
0.0
 10
6.4609689415
 20
4.1661463568
 30
0.0
 10
6.4608174963
 20
4.1663492321
 30
0.0
 10
6.4606368963
 20
4.166640809
 30
0.0
 10
6.4604506588
 20
4.1669897278
 30
0.0
 10
6.4602598853
 20
4.1673938538
 30
0.0
 10
6.459988999
 20
4.1680317247
 30
0.0
 10
6.4596519924
 20
4.168949744
 30
0.0
 10
6.459262841
 20
4.170181828
 30
0.0
 10
6.4588827087
 20
4.1715608087
 30
0.0
 10
6.4585206821
 20
4.1730554839
 30
0.0
 10
6.458185682
 20
4.1746315562
 30
0.0
 10
6.4578861716
 20
4.176251738
 30
0.0
 10
6.4576300058
 20
4.177876309
 30
0.0
 10
6.4574241633
 20
4.1794638909
 30
0.0
 10
6.4572743471
 20
4.1809726773
 30
0.0
 10
6.457184842
 20
4.1823618546
 30
0.0
 10
6.4571611442
 20
4.1834275957
 30
0.0
 10
6.4571779751
 20
4.1841912711
 30
0.0
 10
6.4571977313
 20
4.1845405722
 30
0.0
 10
6.4572108374
 20
4.1847063182
 30
0.0
  0
SPLINE
  5
49F
100
AcDbEntity
  8
0
100
AcDbSpline
 62
7
  6
CONTINUOUS
 70
0
 71
3
 72
25
 73
21
 74
0
 42
0.0000001
 43
0.0000001
 44
0.0000000001
 40
0.0
 40
0.0
 40
0.0
 40
0.0
 40
0.0052086976
 40
0.0111566891
 40
0.0183844945
 40
0.0271976446
 40
0.0377617656
 40
0.0501652714
 40
0.0644565949
 40
0.0806626626
 40
0.1188539717
 40
0.1647276214
 40
0.2181837185
 40
0.2790511808
 40
0.3471226315
 40
0.4221424421
 40
0.50382856
 40
0.5918521319
 40
0.785507606
 40
1.0
 40
1.0
 40
1.0
 40
1.0
 10
7.0785540816
 20
5.0496536716
 30
0.0
 10
7.0785540816
 20
5.049640873
 30
0.0
 10
7.0785601734
 20
5.049613267
 30
0.0
 10
7.078585437
 20
5.0495750336
 30
0.0
 10
7.0786254187
 20
5.0495381985
 30
0.0
 10
7.0786801508
 20
5.0495021081
 30
0.0
 10
7.0787497873
 20
5.0494665288
 30
0.0
 10
7.078834412
 20
5.0494314162
 30
0.0
 10
7.0789340242
 20
5.0493967855
 30
0.0
 10
7.079095841
 20
5.0493486535
 30
0.0
 10
7.0793356873
 20
5.0492915628
 30
0.0
 10
7.0796677397
 20
5.049228549
 30
0.0
 10
7.0800567975
 20
5.0491683167
 30
0.0
 10
7.080501344
 20
5.0491111253
 30
0.0
 10
7.0809996344
 20
5.049057307
 30
0.0
 10
7.081549683
 20
5.0490070981
 30
0.0
 10
7.0821492513
 20
5.0489607503
 30
0.0
 10
7.0830402144
 20
5.0489025066
 30
0.0
 10
7.0842579742
 20
5.0488422325
 30
0.0
 10
7.0852603422
 20
5.0488088251
 30
0.0
 10
7.0857871963
 20
5.0487947199
 30
0.0
  0
SPLINE
  5
4A0
100
AcDbEntity
  8
0
100
AcDbSpline
 62
7
  6
CONTINUOUS
 70
0
 71
3
 72
22
 73
18
 74
0
 42
0.0000001
 43
0.0000001
 44
0.0000000001
 40
0.0
 40
0.0
 40
0.0
 40
0.0
 40
0.0111443281
 40
0.0227887347
 40
0.0352645505
 40
0.0488358998
 40
0.0799715765
 40
0.1172456631
 40
0.1610913638
 40
0.211610279
 40
0.2686888525
 40
0.3320617366
 40
0.4013425629
 40
0.4760382836
 40
0.6392346984
 40
0.8160728226
 40
1.0
 40
1.0
 40
1.0
 40
1.0
 10
6.4596659886
 20
4.2777994754
 30
0.0
 10
6.4596250176
 20
4.2778019695
 30
0.0
 10
6.4595415492
 20
4.2778154399
 30
0.0
 10
6.45941878
 20
4.2778597529
 30
0.0
 10
6.4592972294
 20
4.2779279526
 30
0.0
 10
6.4591293888
 20
4.2780561211
 30
0.0
 10
6.4589249757
 20
4.2782814123
 30
0.0
 10
6.4586984823
 20
4.2786285101
 30
0.0
 10
6.4584808194
 20
4.2790626748
 30
0.0
 10
6.4582737783
 20
4.2795811466
 30
0.0
 10
6.4580791503
 20
4.2801804216
 30
0.0
 10
6.4578988827
 20
4.2808558718
 30
0.0
 10
6.4577348044
 20
4.2816019717
 30
0.0
 10
6.4575340618
 20
4.2827156259
 30
0.0
 10
6.457340073
 20
4.2842318673
 30
0.0
 10
6.4571995383
 20
4.2861573516
 30
0.0
 10
6.4571680205
 20
4.2874863771
 30
0.0
 10
6.4571680205
 20
4.2881638199
 30
0.0
  0
SPLINE
  5
4A1
100
AcDbEntity
  8
0
100
AcDbSpline
 62
7
  6
CONTINUOUS
 70
0
 71
3
 72
14
 73
10
 74
0
 42
0.0000001
 43
0.0000001
 44
0.0000000001
 40
0.0
 40
0.0
 40
0.0
 40
0.0
 40
0.0789837062
 40
0.1752056595
 40
0.2870387149
 40
0.4124689379
 40
0.5491632676
 40
0.6945307485
 40
1.0
 40
1.0
 40
1.0
 40
1.0
 10
7.0791687592
 20
5.0462170512
 30
0.0
 10
7.0793770493
 20
5.0461734425
 30
0.0
 10
7.0798431151
 20
5.0460961291
 30
0.0
 10
7.080611353
 20
5.0460059583
 30
0.0
 10
7.0815070012
 20
5.0459323308
 30
0.0
 10
7.0825131248
 20
5.0458769397
 30
0.0
 10
7.0836105327
 20
5.0458411059
 30
0.0
 10
7.0851934486
 20
5.045820242
 30
0.0
 10
7.08640834
 20
5.0458364598
 30
0.0
 10
7.0872310169
 20
5.0458604783
 30
0.0
  0
LINE
  5
4A2
100
AcDbEntity
  8
0
100
AcDbLine
 62
7
  6
CONTINUOUS
 10
6.4572108374
 20
4.1519625801
 11
6.4573554216
 21
4.1521868091
  0
SPLINE
  5
4A3
100
AcDbEntity
  8
0
100
AcDbSpline
 62
7
  6
CONTINUOUS
 70
0
 71
3
 72
16
 73
12
 74
0
 42
0.0000001
 43
0.0000001
 44
0.0000000001
 40
0.0
 40
0.0
 40
0.0
 40
0.0
 40
0.2020670347
 40
0.3808963706
 40
0.5359792908
 40
0.6674685976
 40
0.776215164
 40
0.8642796152
 40
0.9360497231
 40
0.9683754544
 40
1.0
 40
1.0
 40
1.0
 40
1.0
 10
6.4572108374
 20
4.1847063182
 30
0.0
 10
6.4572217028
 20
4.1848437279
 30
0.0
 10
6.4572470082
 20
4.1851024144
 30
0.0
 10
6.4573003703
 20
4.1854642944
 30
0.0
 10
6.4573665223
 20
4.1857750808
 30
0.0
 10
6.4574449168
 20
4.1860335447
 30
0.0
 10
6.4575354239
 20
4.1862392467
 30
0.0
 10
6.4576380502
 20
4.1863925307
 30
0.0
 10
6.4577404098
 20
4.1864790602
 30
0.0
 10
6.4578267436
 20
4.1865143346
 30
0.0
 10
6.4578701696
 20
4.1865216559
 30
0.0
 10
6.4578917052
 20
4.186522917
 30
0.0
  0
SPLINE
  5
4A4
100
AcDbEntity
  8
0
100
AcDbSpline
 62
7
  6
CONTINUOUS
 70
0
 71
3
 72
19
 73
15
 74
0
 42
0.0000001
 43
0.0000001
 44
0.0000000001
 40
0.0
 40
0.0
 40
0.0
 40
0.0
 40
0.199680754
 40
0.3799928943
 40
0.5387119849
 40
0.6742986972
 40
0.7331872648
 40
0.7861343626
 40
0.8332673726
 40
0.8748524429
 40
0.9113621653
 40
0.9435527009
 40
0.9725749352
 40
1.0
 40
1.0
 40
1.0
 40
1.0
 10
6.4572108374
 20
4.233200523
 30
0.0
 10
6.4572291814
 20
4.2335442954
 30
0.0
 10
6.4572763877
 20
4.2341979452
 30
0.0
 10
6.4573863329
 20
4.235120614
 30
0.0
 10
6.4575300347
 20
4.2359266629
 30
0.0
 10
6.4576817183
 20
4.2365174035
 30
0.0
 10
6.4578219185
 20
4.2369205331
 30
0.0
 10
6.4579289054
 20
4.2371731233
 30
0.0
 10
6.4580422937
 20
4.2373898256
 30
0.0
 10
6.4581618491
 20
4.2375701836
 30
0.0
 10
6.4582874202
 20
4.237713902
 30
0.0
 10
6.4584192631
 20
4.2378205217
 30
0.0
 10
6.4585574544
 20
4.2378890555
 30
0.0
 10
6.4586542893
 20
4.2379083024
 30
0.0
 10
6.4587014918
 20
4.2379110513
 30
0.0
  0
LINE
  5
4A5
100
AcDbEntity
  8
0
100
AcDbLine
 62
7
  6
CONTINUOUS
 10
6.4485023386
 20
4.2096704319
 11
6.4482005329
 21
4.2104654376
  0
SPLINE
  5
4A6
100
AcDbEntity
  8
0
100
AcDbSpline
 62
7
  6
CONTINUOUS
 70
0
 71
3
 72
20
 73
16
 74
0
 42
0.0000001
 43
0.0000001
 44
0.0000000001
 40
0.0
 40
0.0
 40
0.0
 40
0.0
 40
0.0403509556
 40
0.0886045532
 40
0.1439841273
 40
0.2055825269
 40
0.2723798617
 40
0.3432612456
 40
0.492430728
 40
0.6428916117
 40
0.7841028073
 40
0.848056091
 40
0.9060157401
 40
0.9569553297
 40
1.0
 40
1.0
 40
1.0
 40
1.0
 10
6.4482005329
 20
4.2104654376
 30
0.0
 10
6.4481324168
 20
4.2106873375
 30
0.0
 10
6.4479982413
 20
4.2111793082
 30
0.0
 10
6.4478105125
 20
4.211986131
 30
0.0
 10
6.4476212371
 20
4.2129177026
 30
0.0
 10
6.4474338153
 20
4.2139581941
 30
0.0
 10
6.4472515961
 20
4.2150900238
 30
0.0
 10
6.4470158998
 20
4.2167232584
 30
0.0
 10
6.4467585441
 20
4.2188393556
 30
0.0
 10
6.4465198324
 20
4.2213643125
 30
0.0
 10
6.4463847046
 20
4.2234059795
 30
0.0
 10
6.4463257577
 20
4.2249185384
 30
0.0
 10
6.4463080405
 20
4.2259128174
 30
0.0
 10
6.4463154157
 20
4.2267869436
 30
0.0
 10
6.4463386628
 20
4.2273272963
 30
0.0
 10
6.4463562366
 20
4.2275742869
 30
0.0
  0
SPLINE
  5
4A7
100
AcDbEntity
  8
0
100
AcDbSpline
 62
7
  6
CONTINUOUS
 70
0
 71
3
 72
17
 73
13
 74
0
 42
0.0000001
 43
0.0000001
 44
0.0000000001
 40
0.0
 40
0.0
 40
0.0
 40
0.0
 40
0.2132195082
 40
0.4008372177
 40
0.5623373804
 40
0.6974721644
 40
0.8064500274
 40
0.8902935118
 40
0.9236638212
 40
0.9521861807
 40
0.9770416707
 40
1.0
 40
1.0
 40
1.0
 40
1.0
 10
6.4463562366
 20
4.2275742869
 30
0.0
 10
6.4463636935
 20
4.2276790892
 30
0.0
 10
6.4463801265
 20
4.227875954
 30
0.0
 10
6.4464122342
 20
4.2281512565
 30
0.0
 10
6.446450024
 20
4.2283869475
 30
0.0
 10
6.4464932204
 20
4.2285823109
 30
0.0
 10
6.4465415479
 20
4.2287366772
 30
0.0
 10
6.4465888884
 20
4.2288384687
 30
0.0
 10
6.4466313277
 20
4.22889671
 30
0.0
 10
6.4466622853
 20
4.228926606
 30
0.0
 10
6.4466950775
 20
4.2289459223
 30
0.0
 10
6.4467185068
 20
4.2289512887
 30
0.0
 10
6.4467297996
 20
4.2289519671
 30
0.0
  0
SPLINE
  5
4A8
100
AcDbEntity
  8
0
100
AcDbSpline
 62
7
  6
CONTINUOUS
 70
0
 71
3
 72
25
 73
21
 74
0
 42
0.0000001
 43
0.0000001
 44
0.0000000001
 40
0.0
 40
0.0
 40
0.0
 40
0.0
 40
0.2144884731
 40
0.4081404673
 40
0.496162512
 40
0.5778472724
 40
0.652865922
 40
0.7209364403
 40
0.7818032381
 40
0.8352589889
 40
0.8811326792
 40
0.9193245167
 40
0.9355310827
 40
0.9498230974
 40
0.9622275297
 40
0.9727928724
 40
0.9816076234
 40
0.988837516
 40
0.9947881682
 40
1.0
 40
1.0
 40
1.0
 40
1.0
 10
7.0857871963
 20
5.0482922107
 30
0.0
 10
7.0852603412
 20
5.0483063251
 30
0.0
 10
7.0842579714
 20
5.0483397543
 30
0.0
 10
7.0830402102
 20
5.0484000678
 30
0.0
 10
7.0821492468
 20
5.0484583496
 30
0.0
 10
7.0815496783
 20
5.0485047277
 30
0.0
 10
7.0809996298
 20
5.0485549693
 30
0.0
 10
7.0805013395
 20
5.0486088227
 30
0.0
 10
7.0800567932
 20
5.0486660514
 30
0.0
 10
7.0796677356
 20
5.0487263231
 30
0.0
 10
7.0793356833
 20
5.048789378
 30
0.0
 10
7.0790958377
 20
5.0488465059
 30
0.0
 10
7.0789340221
 20
5.0488946691
 30
0.0
 10
7.0788344099
 20
5.0489293224
 30
0.0
 10
7.0787497851
 20
5.048964458
 30
0.0
 10
7.0786801484
 20
5.0490000608
 30
0.0
 10
7.0786254159
 20
5.0490361754
 30
0.0
 10
7.0785854342
 20
5.0490730354
 30
0.0
 10
7.0785601721
 20
5.0491112941
 30
0.0
 10
7.0785540816
 20
5.049138915
 30
0.0
 10
7.0785540816
 20
5.0491517216
 30
0.0
  0
SPLINE
  5
4A9
100
AcDbEntity
  8
0
100
AcDbSpline
 62
7
  6
CONTINUOUS
 70
0
 71
3
 72
27
 73
23
 74
0
 42
0.0000001
 43
0.0000001
 44
0.0000000001
 40
0.0
 40
0.0
 40
0.0
 40
0.0
 40
0.002353017
 40
0.0048445089
 40
0.0076146948
 40
0.0107659877
 40
0.01845618
 40
0.0282482251
 40
0.0402721297
 40
0.0545793217
 40
0.0711780815
 40
0.0900490947
 40
0.1344505982
 40
0.1873457939
 40
0.248125923
 40
0.3160496031
 40
0.3902656652
 40
0.4698325
 40
0.5537355674
 40
0.6409057325
 40
0.8206091795
 40
1.0
 40
1.0
 40
1.0
 40
1.0
 10
6.4467295679
 20
4.3473756938
 30
0.0
 10
6.4467200351
 20
4.3473762863
 30
0.0
 10
6.4467004835
 20
4.347380254
 30
0.0
 10
6.4466725903
 20
4.3473942263
 30
0.0
 10
6.4466459208
 20
4.3474158964
 30
0.0
 10
6.4466094332
 20
4.347457648
 30
0.0
 10
6.4465676375
 20
4.3475310001
 30
0.0
 10
6.446524104
 20
4.3476427594
 30
0.0
 10
6.4464841729
 20
4.3477840362
 30
0.0
 10
6.4464480388
 20
4.3479545875
 30
0.0
 10
6.4464158476
 20
4.3481541229
 30
0.0
 10
6.4463762453
 20
4.3484759593
 30
0.0
 10
6.4463400849
 20
4.3489463296
 30
0.0
 10
6.4463156016
 20
4.3495876089
 30
0.0
 10
6.446308857
 20
4.3503247995
 30
0.0
 10
6.4463200263
 20
4.3511484569
 30
0.0
 10
6.4463490912
 20
4.3520479692
 30
0.0
 10
6.4463957156
 20
4.3530116767
 30
0.0
 10
6.4464593099
 20
4.3540271003
 30
0.0
 10
6.446566756
 20
4.3554469228
 30
0.0
 10
6.446736436
 20
4.3572505775
 30
0.0
 10
6.4469058786
 20
4.3586984591
 30
0.0
 10
6.4469993538
 20
4.3594206056
 30
0.0
  0
SPLINE
  5
4AA
100
AcDbEntity
  8
0
100
AcDbSpline
 62
7
  6
CONTINUOUS
 70
0
 71
3
 72
24
 73
20
 74
0
 42
0.0000001
 43
0.0000001
 44
0.0000000001
 40
0.0
 40
0.0
 40
0.0
 40
0.0
 40
0.0071615869
 40
0.0151268038
 40
0.0243853962
 40
0.0352442702
 40
0.0478825307
 40
0.0624034449
 40
0.0788588737
 40
0.0972712018
 40
0.1399510058
 40
0.190295719
 40
0.2479871797
 40
0.3125922107
 40
0.3835830364
 40
0.4603474025
 40
0.6283936774
 40
0.8105675189
 40
1.0
 40
1.0
 40
1.0
 40
1.0
 10
6.4477486879
 20
4.2783703581
 30
0.0
 10
6.4477246684
 20
4.2783718645
 30
0.0
 10
6.4476742493
 20
4.2783838668
 30
0.0
 10
6.4476026295
 20
4.278425339
 30
0.0
 10
6.4475325501
 20
4.2784893262
 30
0.0
 10
6.4474635506
 20
4.2785754909
 30
0.0
 10
6.4473953786
 20
4.2786837811
 30
0.0
 10
6.4473280795
 20
4.2788141348
 30
0.0
 10
6.4472617256
 20
4.2789663675
 30
0.0
 10
6.4471701773
 20
4.2792104568
 30
0.0
 10
6.4470616628
 20
4.2795692525
 30
0.0
 10
6.4469428611
 20
4.2800617792
 30
0.0
 10
6.4468312543
 20
4.2806312617
 30
0.0
 10
6.4467279861
 20
4.2812726451
 30
0.0
 10
6.4466341556
 20
4.2819801727
 30
0.0
 10
6.4465194974
 20
4.2830352994
 30
0.0
 10
6.446409233
 20
4.2844663236
 30
0.0
 10
6.4463295643
 20
4.2862783459
 30
0.0
 10
6.4463117266
 20
4.2875272263
 30
0.0
 10
6.4463117266
 20
4.2881638199
 30
0.0
  0
SPLINE
  5
4AB
100
AcDbEntity
  8
0
100
AcDbSpline
 62
7
  6
CONTINUOUS
 70
0
 71
3
 72
14
 73
10
 74
0
 42
0.0000001
 43
0.0000001
 44
0.0000000001
 40
0.0
 40
0.0
 40
0.0
 40
0.0
 40
0.3054687096
 40
0.4508359198
 40
0.587529992
 40
0.7129600157
 40
0.8247930528
 40
0.9210153372
 40
1.0
 40
1.0
 40
1.0
 40
1.0
 10
7.0872310169
 20
5.0453560492
 30
0.0
 10
7.0864083392
 20
5.0453320149
 30
0.0
 10
7.0851934456
 20
5.0453157864
 30
0.0
 10
7.0836105274
 20
5.0453366642
 30
0.0
 10
7.0825131185
 20
5.0453725217
 30
0.0
 10
7.0815069947
 20
5.0454279494
 30
0.0
 10
7.080611347
 20
5.0455016253
 30
0.0
 10
7.0798431098
 20
5.0455918555
 30
0.0
 10
7.0793770468
 20
5.0456692194
 30
0.0
 10
7.0791687592
 20
5.0457128562
 30
0.0
  0
SPLINE
  5
4AC
100
AcDbEntity
  8
0
100
AcDbSpline
 62
7
  6
CONTINUOUS
 70
0
 71
3
 72
14
 73
10
 74
0
 42
0.0000001
 43
0.0000001
 44
0.0000000001
 40
0.0
 40
0.0
 40
0.0
 40
0.0
 40
0.0789590485
 40
0.1751669535
 40
0.2869957394
 40
0.4124293602
 40
0.5491319776
 40
0.6945099399
 40
1.0
 40
1.0
 40
1.0
 40
1.0
 10
7.1426687592
 20
5.0456095481
 30
0.0
 10
7.1424604337
 20
5.0455665753
 30
0.0
 10
7.1419942981
 20
5.0454907102
 30
0.0
 10
7.1412259991
 20
5.0454029671
 30
0.0
 10
7.1403302807
 20
5.0453321981
 30
0.0
 10
7.1393240986
 20
5.0452800428
 30
0.0
 10
7.138226667
 20
5.0452477598
 30
0.0
 10
7.1366437961
 20
5.0452320416
 30
0.0
 10
7.1354290416
 20
5.0452522291
 30
0.0
 10
7.1346065014
 20
5.0452789396
 30
0.0
  0
SPLINE
  5
4AD
100
AcDbEntity
  8
0
100
AcDbSpline
 62
7
  6
CONTINUOUS
 70
0
 71
3
 72
25
 73
21
 74
0
 42
0.0000001
 43
0.0000001
 44
0.0000000001
 40
0.0
 40
0.0
 40
0.0
 40
0.0
 40
0.0095329598
 40
0.019483929
 40
0.0302284978
 40
0.0420647151
 40
0.0552120589
 40
0.0698261514
 40
0.0860144633
 40
0.1038467064
 40
0.1445952803
 40
0.1922502295
 40
0.2467885404
 40
0.308064699
 40
0.3758450199
 40
0.4498262429
 40
0.5296426948
 40
0.614876401
 40
0.7996704573
 40
1.0
 40
1.0
 40
1.0
 40
1.0
 10
7.0791687592
 20
5.0401981146
 30
0.0
 10
7.0791687592
 20
5.0401429206
 30
0.0
 10
7.0791814474
 20
5.0400297569
 30
0.0
 10
7.0792376912
 20
5.0398628437
 30
0.0
 10
7.0793303749
 20
5.0396978047
 30
0.0
 10
7.079458808
 20
5.039534796
 30
0.0
 10
7.0796225416
 20
5.0393736274
 30
0.0
 10
7.0798213614
 20
5.0392142546
 30
0.0
 10
7.0800550732
 20
5.0390567228
 30
0.0
 10
7.0804298733
 20
5.0388395701
 30
0.0
 10
7.0809878276
 20
5.0385781434
 30
0.0
 10
7.0817630345
 20
5.0382868126
 30
0.0
 10
7.0826677428
 20
5.0380072486
 30
0.0
 10
7.0836972027
 20
5.0377412242
 30
0.0
 10
7.0848459473
 20
5.037490518
 30
0.0
 10
7.0861075579
 20
5.0372568221
 30
0.0
 10
7.0874748296
 20
5.0370416897
 30
0.0
 10
7.0894827987
 20
5.0367743719
 30
0.0
 10
7.0921931394
 20
5.0365018863
 30
0.0
 10
7.0944185468
 20
5.0363555694
 30
0.0
 10
7.0955769224
 20
5.0362967481
 30
0.0
  0
SPLINE
  5
4AE
100
AcDbEntity
  8
0
100
AcDbSpline
 62
7
  6
CONTINUOUS
 70
0
 71
3
 72
23
 73
19
 74
0
 42
0.0000001
 43
0.0000001
 44
0.0000000001
 40
0.0
 40
0.0
 40
0.0
 40
0.0
 40
0.0101291546
 40
0.0206233932
 40
0.0318245156
 40
0.0440134481
 40
0.0721233686
 40
0.1061244766
 40
0.1465604921
 40
0.1936643411
 40
0.2474826058
 40
0.3079428406
 40
0.3748890073
 40
0.4480953705
 40
0.5272830265
 40
0.612123721
 40
0.7972305057
 40
1.0
 40
1.0
 40
1.0
 40
1.0
 10
7.1426687592
 20
5.0395858145
 30
0.0
 10
7.1426687592
 20
5.0395354422
 30
0.0
 10
7.1426582839
 20
5.0394326057
 30
0.0
 10
7.1426116447
 20
5.0392804612
 30
0.0
 10
7.1425345884
 20
5.0391297538
 30
0.0
 10
7.1423846764
 20
5.0389211381
 30
0.0
 10
7.1421133495
 20
5.0386658638
 30
0.0
 10
7.1416886991
 20
5.0383812247
 30
0.0
 10
7.1411505994
 20
5.0381037202
 30
0.0
 10
7.1405005979
 20
5.0378345141
 30
0.0
 10
7.1397408149
 20
5.0375747139
 30
0.0
 10
7.1388743593
 20
5.0373257245
 30
0.0
 10
7.137904998
 20
5.0370889124
 30
0.0
 10
7.136837155
 20
5.0368655751
 30
0.0
 10
7.1356758391
 20
5.03665695
 30
0.0
 10
7.1339597341
 20
5.0363922829
 30
0.0
 10
7.1316250724
 20
5.0361114939
 30
0.0
 10
7.1297027034
 20
5.0359484231
 30
0.0
 10
7.1286967943
 20
5.0358779847
 30
0.0
  0
SPLINE
  5
4AF
100
AcDbEntity
  8
0
100
AcDbSpline
 62
7
  6
CONTINUOUS
 70
0
 71
3
 72
25
 73
21
 74
0
 42
0.0000001
 43
0.0000001
 44
0.0000000001
 40
0.0
 40
0.0
 40
0.0
 40
0.0
 40
0.200405433
 40
0.3852583556
 40
0.4705125776
 40
0.5503424439
 40
0.624329365
 40
0.6921073105
 40
0.7533730191
 40
0.8078931998
 40
0.8555231996
 40
0.8962415544
 40
0.9140575052
 40
0.9302292887
 40
0.9448272238
 40
0.9579596015
 40
0.9697830832
 40
0.9805184493
 40
0.9904651687
 40
1.0
 40
1.0
 40
1.0
 40
1.0
 10
7.1262605959
 20
5.0362462112
 30
0.0
 10
7.1274188976
 20
5.0363012171
 30
0.0
 10
7.1296442074
 20
5.0364402043
 30
0.0
 10
7.1323546795
 20
5.0367037961
 30
0.0
 10
7.1343628194
 20
5.0369645557
 30
0.0
 10
7.1357301723
 20
5.0371752284
 30
0.0
 10
7.136991848
 20
5.037404819
 30
0.0
 10
7.1381406328
 20
5.0376517959
 30
0.0
 10
7.1391701024
 20
5.037914485
 30
0.0
 10
7.1400747901
 20
5.0381911228
 30
0.0
 10
7.1408499498
 20
5.038479949
 30
0.0
 10
7.1414078779
 20
5.0387395881
 30
0.0
 10
7.1417826464
 20
5.0389555462
 30
0.0
 10
7.1420163193
 20
5.0391123257
 30
0.0
 10
7.1422151023
 20
5.03927106
 30
0.0
 10
7.1423788035
 20
5.0394317057
 30
0.0
 10
7.1425072088
 20
5.0395943093
 30
0.0
 10
7.142599868
 20
5.0397590623
 30
0.0
 10
7.1426560881
 20
5.0399258047
 30
0.0
 10
7.1426687592
 20
5.0400388881
 30
0.0
 10
7.1426687592
 20
5.0400940595
 30
0.0
  0
SPLINE
  5
4B0
100
AcDbEntity
  8
0
100
AcDbSpline
 62
7
  6
CONTINUOUS
 70
0
 71
3
 72
27
 73
23
 74
0
 42
0.0000001
 43
0.0000001
 44
0.0000000001
 40
0.0
 40
0.0
 40
0.0
 40
0.0
 40
0.0095667026
 40
0.0201677138
 40
0.0322645678
 40
0.0461474879
 40
0.0619842215
 40
0.0798603566
 40
0.0998092057
 40
0.1218258091
 40
0.17191111
 40
0.2296592908
 40
0.2943674502
 40
0.3651481003
 40
0.4409527736
 40
0.5205881042
 40
0.6027354487
 40
0.6859740886
 40
0.7688151587
 40
0.8497455821
 40
0.9272765658
 40
1.0
 40
1.0
 40
1.0
 40
1.0
 10
6.460643827
 20
4.2171814373
 30
0.0
 10
6.4605901935
 20
4.2171847585
 30
0.0
 10
6.4604778237
 20
4.2172089092
 30
0.0
 10
6.46031428
 20
4.2172900358
 30
0.0
 10
6.4601499869
 20
4.2174149925
 30
0.0
 10
6.4599848508
 20
4.2175828546
 30
0.0
 10
6.4598189353
 20
4.2177930014
 30
0.0
 10
6.4596526582
 20
4.2180447417
 30
0.0
 10
6.4594865819
 20
4.2183372146
 30
0.0
 10
6.4592562719
 20
4.2188003662
 30
0.0
 10
6.4589778471
 20
4.2194754216
 30
0.0
 10
6.4586672926
 20
4.2203939684
 30
0.0
 10
6.4583730454
 20
4.2214391653
 30
0.0
 10
6.458100365
 20
4.2225945597
 30
0.0
 10
6.4578543476
 20
4.223841463
 30
0.0
 10
6.4576397121
 20
4.2251588488
 30
0.0
 10
6.4574607249
 20
4.2265236602
 30
0.0
 10
6.4573210565
 20
4.2279111489
 30
0.0
 10
6.4572236435
 20
4.2292953945
 30
0.0
 10
6.4571705558
 20
4.2306499888
 30
0.0
 10
6.4571628924
 20
4.2319487725
 30
0.0
 10
6.457189071
 20
4.2327926158
 30
0.0
 10
6.4572108374
 20
4.233200523
 30
0.0
  0
SPLINE
  5
4B1
100
AcDbEntity
  8
0
100
AcDbSpline
 62
7
  6
CONTINUOUS
 70
0
 71
3
 72
26
 73
22
 74
0
 42
0.0000001
 43
0.0000001
 44
0.0000000001
 40
0.0
 40
0.0
 40
0.0
 40
0.0
 40
0.2033679533
 40
0.2983790368
 40
0.3883807877
 40
0.4730013777
 40
0.5519065471
 40
0.6247992099
 40
0.6914330943
 40
0.7516123627
 40
0.8052065207
 40
0.8295199592
 40
0.8521792146
 40
0.8731964961
 40
0.8925972939
 40
0.9267002366
 40
0.9550659996
 40
0.9674422446
 40
0.9788662106
 40
0.9896097462
 40
1.0
 40
1.0
 40
1.0
 40
1.0
 10
7.0922161503
 20
5.0360086748
 30
0.0
 10
7.0912701815
 20
5.0360869488
 30
0.0
 10
7.0898837493
 20
5.0362220933
 30
0.0
 10
7.0880849752
 20
5.0364473043
 30
0.0
 10
7.0868394847
 20
5.036628385
 30
0.0
 10
7.085672425
 20
5.0368245089
 30
0.0
 10
7.084589022
 20
5.0370346534
 30
0.0
 10
7.0835940552
 20
5.0372577587
 30
0.0
 10
7.0826917988
 20
5.0374926545
 30
0.0
 10
7.0818860816
 20
5.0377381793
 30
0.0
 10
7.0812794682
 20
5.0379571315
 30
0.0
 10
7.0808464419
 20
5.0381385109
 30
0.0
 10
7.0805584798
 20
5.0382720496
 30
0.0
 10
7.0802968863
 20
5.0384073846
 30
0.0
 10
7.0799963625
 20
5.0385827274
 30
0.0
 10
7.0796827163
 20
5.0388027722
 30
0.0
 10
7.0794315731
 20
5.0390496432
 30
0.0
 10
7.0792929644
 20
5.0392506946
 30
0.0
 10
7.0792216053
 20
5.03939604
 30
0.0
 10
7.0791784492
 20
5.0395425562
 30
0.0
 10
7.0791687592
 20
5.0396414433
 30
0.0
 10
7.0791687592
 20
5.0396899389
 30
0.0
  0
SPLINE
  5
4B2
100
AcDbEntity
  8
0
100
AcDbSpline
 62
7
  6
CONTINUOUS
 70
0
 71
3
 72
21
 73
17
 74
0
 42
0.0000001
 43
0.0000001
 44
0.0000000001
 40
0.0
 40
0.0
 40
0.0
 40
0.0
 40
0.1900872705
 40
0.3683594594
 40
0.5299371161
 40
0.6031814842
 40
0.6708348992
 40
0.7325716499
 40
0.7881560754
 40
0.8374621796
 40
0.8805000729
 40
0.91748232
 40
0.9489266808
 40
0.9758365037
 40
0.9881324307
 40
1.0
 40
1.0
 40
1.0
 40
1.0
 10
6.4572108374
 20
4.2900623916
 30
0.0
 10
6.4572371913
 20
4.2906416769
 30
0.0
 10
6.457312189
 20
4.2917633615
 30
0.0
 10
6.4574962513
 20
4.2933700874
 30
0.0
 10
6.4577077142
 20
4.2946133362
 30
0.0
 10
6.4579103268
 20
4.2955137548
 30
0.0
 10
6.4580699298
 20
4.2961111544
 30
0.0
 10
6.458240875
 20
4.2966491798
 30
0.0
 10
6.4584218608
 20
4.2971245318
 30
0.0
 10
6.4586115559
 20
4.2975345039
 30
0.0
 10
6.4588087104
 20
4.297876996
 30
0.0
 10
6.4590124776
 20
4.2981505585
 30
0.0
 10
6.4592222967
 20
4.2983542023
 30
0.0
 10
6.4594090978
 20
4.2984673533
 30
0.0
 10
6.4595579574
 20
4.2985153686
 30
0.0
 10
6.4596313091
 20
4.2985261429
 30
0.0
 10
6.459667451
 20
4.2985282539
 30
0.0
  0
SPLINE
  5
4B3
100
AcDbEntity
  8
0
100
AcDbSpline
 62
7
  6
CONTINUOUS
 70
0
 71
3
 72
17
 73
13
 74
0
 42
0.0000001
 43
0.0000001
 44
0.0000000001
 40
0.0
 40
0.0
 40
0.0
 40
0.0
 40
0.2004218576
 40
0.3786538783
 40
0.5341973864
 40
0.6670512885
 40
0.7776959009
 40
0.8674639298
 40
0.9054273507
 40
0.9395288706
 40
0.9706609456
 40
1.0
 40
1.0
 40
1.0
 40
1.0
 10
6.4469993538
 20
4.2964955331
 30
0.0
 10
6.4470259388
 20
4.2966064579
 30
0.0
 10
6.4470795667
 20
4.2968152419
 30
0.0
 10
6.4471675878
 20
4.2971063685
 30
0.0
 10
6.4472581387
 20
4.2973561912
 30
0.0
 10
6.447350769
 20
4.2975638763
 30
0.0
 10
6.4474451096
 20
4.2977288026
 30
0.0
 10
6.4475294591
 20
4.2978362806
 30
0.0
 10
6.4475987367
 20
4.2978973711
 30
0.0
 10
6.4476482666
 20
4.2979294316
 30
0.0
 10
6.4476982979
 20
4.2979501682
 30
0.0
 10
6.4477325108
 20
4.297956308
 30
0.0
 10
6.4477491783
 20
4.2979573123
 30
0.0
  0
SPLINE
  5
4B4
100
AcDbEntity
  8
0
100
AcDbSpline
 62
7
  6
CONTINUOUS
 70
0
 71
3
 72
14
 73
10
 74
0
 42
0.0000001
 43
0.0000001
 44
0.0000000001
 40
0.0
 40
0.0
 40
0.0
 40
0.0
 40
0.2951034226
 40
0.4366789264
 40
0.5712197226
 40
0.6966175317
 40
0.8109563273
 40
0.9125533286
 40
1.0
 40
1.0
 40
1.0
 40
1.0
 10
6.4463117266
 20
4.2881638199
 30
0.0
 10
6.4463117266
 20
4.2889876296
 30
0.0
 10
6.4463340465
 20
4.2902068586
 30
0.0
 10
6.446411092
 20
4.2917996937
 30
0.0
 10
6.4464894789
 20
4.2929179189
 30
0.0
 10
6.4465877979
 20
4.2939582269
 30
0.0
 10
6.4467042735
 20
4.2949041132
 30
0.0
 10
6.4468368064
 20
4.2957407741
 30
0.0
 10
6.4469424584
 20
4.2962581401
 30
0.0
 10
6.4469993538
 20
4.2964955331
 30
0.0
  0
SPLINE
  5
4B5
100
AcDbEntity
  8
0
100
AcDbSpline
 62
7
  6
CONTINUOUS
 70
0
 71
3
 72
23
 73
19
 74
0
 42
0.0000001
 43
0.0000001
 44
0.0000000001
 40
0.0
 40
0.0
 40
0.0
 40
0.0
 40
0.199668825
 40
0.3860926612
 40
0.5543608178
 40
0.6302855067
 40
0.7000669032
 40
0.7632558644
 40
0.8194564417
 40
0.8683266946
 40
0.9096034025
 40
0.9431206449
 40
0.9569672671
 40
0.9688995626
 40
0.9789818141
 40
0.9873359146
 40
0.9941958103
 40
1.0
 40
1.0
 40
1.0
 40
1.0
 10
6.4469993538
 20
4.3594206056
 30
0.0
 10
6.4470663329
 20
4.3599380561
 30
0.0
 10
6.4472046411
 20
4.3609375278
 30
0.0
 10
6.4474316676
 20
4.3623683591
 30
0.0
 10
6.4476337239
 20
4.3634754954
 30
0.0
 10
6.4477995801
 20
4.3642790574
 30
0.0
 10
6.4479193092
 20
4.3648116761
 30
0.0
 10
6.4480378285
 20
4.3652916396
 30
0.0
 10
6.4481542853
 20
4.3657156856
 30
0.0
 10
6.4482677958
 20
4.366080994
 30
0.0
 10
6.4483775193
 20
4.3663850621
 30
0.0
 10
6.4484699201
 20
4.3665978184
 30
0.0
 10
6.4485431281
 20
4.3667344893
 30
0.0
 10
6.4485931251
 20
4.3668138683
 30
0.0
 10
6.448641698
 20
4.3668768297
 30
0.0
 10
6.4486890158
 20
4.366923408
 30
0.0
 10
6.4487354546
 20
4.3669536727
 30
0.0
 10
6.4487681553
 20
4.3669627076
 30
0.0
 10
6.4487832959
 20
4.3669636067
 30
0.0
  0
SPLINE
  5
4B6
100
AcDbEntity
  8
0
100
AcDbSpline
 62
7
  6
CONTINUOUS
 70
0
 71
3
 72
19
 73
15
 74
0
 42
0.0000001
 43
0.0000001
 44
0.0000000001
 40
0.0
 40
0.0
 40
0.0
 40
0.0
 40
0.0221795726
 40
0.0461391746
 40
0.0740048869
 40
0.1071447835
 40
0.1463351305
 40
0.1919989612
 40
0.2443251086
 40
0.3033757009
 40
0.4413700795
 40
0.6048675428
 40
0.7919355438
 40
1.0
 40
1.0
 40
1.0
 40
1.0
 10
6.4578911946
 20
4.3898047471
 30
0.0
 10
6.4578562688
 20
4.3898068475
 30
0.0
 10
6.4577837972
 20
4.3898246646
 30
0.0
 10
6.4576853496
 20
4.3898906725
 30
0.0
 10
6.4575966472
 20
4.3899926049
 30
0.0
 10
6.4575164178
 20
4.3901295063
 30
0.0
 10
6.4574440494
 20
4.3903014164
 30
0.0
 10
6.4573796038
 20
4.39050826
 30
0.0
 10
6.4573232022
 20
4.390749662
 30
0.0
 10
6.4572556358
 20
4.3911373718
 30
0.0
 10
6.4571974155
 20
4.3917037785
 30
0.0
 10
6.4571650052
 20
4.3924740962
 30
0.0
 10
6.4571682543
 20
4.3933555976
 30
0.0
 10
6.457193063
 20
4.3939785611
 30
0.0
 10
6.4572108374
 20
4.3943063075
 30
0.0
  0
SPLINE
  5
4B7
100
AcDbEntity
  8
0
100
AcDbSpline
 62
7
  6
CONTINUOUS
 70
0
 71
3
 72
19
 73
15
 74
0
 42
0.0000001
 43
0.0000001
 44
0.0000000001
 40
0.0
 40
0.0
 40
0.0
 40
0.0
 40
0.0440815926
 40
0.0953307968
 40
0.152874354
 40
0.2157402817
 40
0.3532314918
 40
0.4991370115
 40
0.6447785618
 40
0.7818439368
 40
0.8447149016
 40
0.9025886542
 40
0.954612812
 40
1.0
 40
1.0
 40
1.0
 40
1.0
 10
6.4572108374
 20
4.4258181636
 30
0.0
 10
6.4572322888
 20
4.426079787
 30
0.0
 10
6.4572904457
 20
4.4266446108
 30
0.0
 10
6.4574079673
 20
4.427547411
 30
0.0
 10
6.4575609737
 20
4.4285581708
 30
0.0
 10
6.4578165958
 20
4.4300725766
 30
0.0
 10
6.4582044479
 20
4.4320979944
 30
0.0
 10
6.4587426552
 20
4.4345957417
 30
0.0
 10
6.4593344567
 20
4.4370787287
 30
0.0
 10
6.4598569443
 20
4.4390694291
 30
0.0
 10
6.4602780662
 20
4.4405458277
 30
0.0
 10
6.4605762075
 20
4.4415305626
 30
0.0
 10
6.4608613145
 20
4.4424102823
 30
0.0
 10
6.4610536945
 20
4.4429576353
 30
0.0
 10
6.4611479641
 20
4.4432109384
 30
0.0
  0
SPLINE
  5
4B8
100
AcDbEntity
  8
0
100
AcDbSpline
 62
7
  6
CONTINUOUS
 70
0
 71
3
 72
17
 73
13
 74
0
 42
0.0000001
 43
0.0000001
 44
0.0000000001
 40
0.0
 40
0.0
 40
0.0
 40
0.0
 40
0.2090256311
 40
0.395046072
 40
0.5571320473
 40
0.6945550849
 40
0.8068346413
 40
0.8535373264
 40
0.8940135784
 40
0.9284349122
 40
0.9571327653
 40
1.0
 40
1.0
 40
1.0
 40
1.0
 10
6.4611479641
 20
4.4432109384
 30
0.0
 10
6.4611947787
 20
4.4433367296
 30
0.0
 10
6.4612854622
 20
4.4435736601
 30
0.0
 10
6.4614214174
 20
4.4439046099
 30
0.0
 10
6.4615488427
 20
4.4441892314
 30
0.0
 10
6.4616670024
 20
4.4444258729
 30
0.0
 10
6.4617620494
 20
4.4445910144
 30
0.0
 10
6.4618341815
 20
4.444696955
 30
0.0
 10
6.461882152
 20
4.4447585768
 30
0.0
 10
6.4619276264
 20
4.4448075263
 30
0.0
 10
6.4619791912
 20
4.4448512938
 30
0.0
 10
6.4620230009
 20
4.4448731874
 30
0.0
 10
6.4620504851
 20
4.4448747044
 30
0.0
  0
SPLINE
  5
4B9
100
AcDbEntity
  8
0
100
AcDbSpline
 62
7
  6
CONTINUOUS
 70
0
 71
3
 72
27
 73
23
 74
0
 42
0.0000001
 43
0.0000001
 44
0.0000000001
 40
0.0
 40
0.0
 40
0.0
 40
0.0
 40
0.0720372061
 40
0.149213927
 40
0.2300455174
 40
0.3129996009
 40
0.3965497138
 40
0.4792082353
 40
0.5595549284
 40
0.6362555482
 40
0.7080724572
 40
0.7738747841
 40
0.8326485019
 40
0.8835144781
 40
0.9057564001
 40
0.9257742226
 40
0.9435212639
 40
0.9589797003
 40
0.9721766943
 40
0.9832140154
 40
0.9923288341
 40
1.0
 40
1.0
 40
1.0
 40
1.0
 10
6.4572108374
 20
4.3943063075
 30
0.0
 10
6.4572330444
 20
4.3947157904
 30
0.0
 10
6.4572942675
 20
4.3955631809
 30
0.0
 10
6.4574265131
 20
4.3968662091
 30
0.0
 10
6.4576001701
 20
4.3982270384
 30
0.0
 10
6.4578116277
 20
4.3996191992
 30
0.0
 10
6.4580566041
 20
4.4010164107
 30
0.0
 10
6.4583303035
 20
4.4023931514
 30
0.0
 10
6.4586275519
 20
4.4037250846
 30
0.0
 10
6.4589429049
 20
4.404989347
 30
0.0
 10
6.4592707401
 20
4.4061647077
 30
0.0
 10
6.4596052636
 20
4.4072317391
 30
0.0
 10
6.4599406699
 20
4.4081727474
 30
0.0
 10
6.460227252
 20
4.4088672055
 30
0.0
 10
6.4604556084
 20
4.4093457757
 30
0.0
 10
6.4606158204
 20
4.4096476193
 30
0.0
 10
6.4607720077
 20
4.4099074531
 30
0.0
 10
6.4609235396
 20
4.4101241557
 30
0.0
 10
6.4610698284
 20
4.4102969264
 30
0.0
 10
6.4612108321
 20
4.4104251917
 30
0.0
 10
6.461346889
 20
4.4105086779
 30
0.0
 10
6.4614412996
 20
4.4105340158
 30
0.0
 10
6.4614848971
 20
4.4105365221
 30
0.0
  0
SPLINE
  5
4BA
100
AcDbEntity
  8
0
100
AcDbSpline
 62
7
  6
CONTINUOUS
 70
0
 71
3
 72
25
 73
21
 74
0
 42
0.0000001
 43
0.0000001
 44
0.0000000001
 40
0.0
 40
0.0
 40
0.0
 40
0.0
 40
0.1736114348
 40
0.3466324745
 40
0.4303024613
 40
0.5107763255
 40
0.5871696408
 40
0.6586822472
 40
0.72460696
 40
0.7843367697
 40
0.8373781833
 40
0.8833757219
 40
0.9036778215
 40
0.9221783538
 40
0.9389031166
 40
0.9539119563
 40
0.9673097254
 40
0.9792654206
 40
0.9900389863
 40
1.0
 40
1.0
 40
1.0
 40
1.0
 10
6.4572108374
 20
4.3466352198
 30
0.0
 10
6.4572461008
 20
4.3474066192
 30
0.0
 10
6.4573573556
 20
4.3489451407
 30
0.0
 10
6.4575889036
 20
4.3508458641
 30
0.0
 10
6.4578282435
 20
4.352326475
 30
0.0
 10
6.4580279456
 20
4.3533777062
 30
0.0
 10
6.4582471374
 20
4.3543697518
 30
0.0
 10
6.4584830043
 20
4.3552913418
 30
0.0
 10
6.4587325839
 20
4.3561323054
 30
0.0
 10
6.4589928054
 20
4.3568836821
 30
0.0
 10
6.4592605786
 20
4.3575375524
 30
0.0
 10
6.4594961912
 20
4.3580140188
 30
0.0
 10
6.4596885789
 20
4.3583386474
 30
0.0
 10
6.4598268586
 20
4.3585434943
 30
0.0
 10
6.4599648532
 20
4.3587195147
 30
0.0
 10
6.4601022796
 20
4.3588662725
 30
0.0
 10
6.4602389214
 20
4.3589833995
 30
0.0
 10
6.4603747654
 20
4.3590704553
 30
0.0
 10
6.4605097003
 20
4.3591268638
 30
0.0
 10
6.4606013452
 20
4.3591437167
 30
0.0
 10
6.4606455749
 20
4.3591463075
 30
0.0
  0
SPLINE
  5
4BB
100
AcDbEntity
  8
0
100
AcDbSpline
 62
7
  6
CONTINUOUS
 70
0
 71
3
 72
14
 73
10
 74
0
 42
0.0000001
 43
0.0000001
 44
0.0000000001
 40
0.0
 40
0.0
 40
0.0
 40
0.0
 40
0.3054905564
 40
0.4508687676
 40
0.5875716371
 40
0.7130054409
 40
0.8248342701
 40
0.9210418701
 40
1.0
 40
1.0
 40
1.0
 40
1.0
 10
7.1346065014
 20
5.0457834193
 30
0.0
 10
7.1354290409
 20
5.0457567264
 30
0.0
 10
7.1366437934
 20
5.0457365521
 30
0.0
 10
7.138226662
 20
5.0457522599
 30
0.0
 10
7.1393240924
 20
5.0457845215
 30
0.0
 10
7.1403302743
 20
5.0458366425
 30
0.0
 10
7.1412259932
 20
5.0459073648
 30
0.0
 10
7.1419942929
 20
5.0459950502
 30
0.0
 10
7.1424604312
 20
5.0460708658
 30
0.0
 10
7.1426687592
 20
5.0461138108
 30
0.0
  0
LINE
  5
4BC
100
AcDbEntity
  8
0
100
AcDbLine
 62
7
  6
CONTINUOUS
 10
6.4620498334
 20
4.1314529666
 11
6.4613233291
 21
4.132663496
  0
SPLINE
  5
4BD
100
AcDbEntity
  8
0
100
AcDbSpline
 62
7
  6
CONTINUOUS
 70
0
 71
3
 72
22
 73
18
 74
0
 42
0.0000001
 43
0.0000001
 44
0.0000000001
 40
0.0
 40
0.0
 40
0.0
 40
0.0
 40
0.0425895033
 40
0.0933945305
 40
0.1514455569
 40
0.215667492
 40
0.2849036763
 40
0.3579298641
 40
0.5101697058
 40
0.6615660633
 40
0.7334218376
 40
0.8008227585
 40
0.8623950752
 40
0.9168497992
 40
0.9630352094
 40
0.9827206946
 40
1.0
 40
1.0
 40
1.0
 40
1.0
 10
6.4613233291
 20
4.132663496
 30
0.0
 10
6.4612218379
 20
4.1329146691
 30
0.0
 10
6.4610141526
 20
4.1334714637
 30
0.0
 10
6.4607064894
 20
4.1343844168
 30
0.0
 10
6.4603799504
 20
4.1354358836
 30
0.0
 10
6.4600407793
 20
4.1366059216
 30
0.0
 10
6.4596952714
 20
4.1378731176
 30
0.0
 10
6.4592280421
 20
4.1396872323
 30
0.0
 10
6.4586757431
 20
4.1420188402
 30
0.0
 10
6.4581810075
 20
4.1443557459
 30
0.0
 10
6.457835275
 20
4.1461719735
 30
0.0
 10
6.4576155833
 20
4.147430428
 30
0.0
 10
6.4574354259
 20
4.1485832648
 30
0.0
 10
6.4572987202
 20
4.1496060525
 30
0.0
 10
6.4572192403
 20
4.1503674812
 30
0.0
 10
6.4571822087
 20
4.1508951288
 30
0.0
 10
6.4571723057
 20
4.1511300965
 30
0.0
 10
6.4571698584
 20
4.1512399793
 30
0.0
  0
LINE
  5
4BE
100
AcDbEntity
  8
0
100
AcDbLine
 62
7
  6
CONTINUOUS
 10
6.4571698584
 20
4.1512399793
 11
6.4572108374
 21
4.1519625801
  0
SPLINE
  5
4BF
100
AcDbEntity
  8
0
100
AcDbSpline
 62
7
  6
CONTINUOUS
 70
0
 71
3
 72
18
 73
14
 74
0
 42
0.0000001
 43
0.0000001
 44
0.0000000001
 40
0.0
 40
0.0
 40
0.0
 40
0.0
 40
0.0624603623
 40
0.1249315018
 40
0.1874256925
 40
0.2499342194
 40
0.3436602296
 40
0.4374126054
 40
0.5311774664
 40
0.6249476547
 40
0.7187193866
 40
0.8124903341
 40
1.0
 40
1.0
 40
1.0
 40
1.0
 10
7.0395795303
 20
6.4036638199
 30
0.0
 10
7.0395795303
 20
6.4040903143
 30
0.0
 10
7.0396698539
 20
6.404945884
 30
0.0
 10
7.0400571002
 20
6.4061732489
 30
0.0
 10
7.0406514115
 20
6.4073133754
 30
0.0
 10
7.0415296048
 20
6.4085265621
 30
0.0
 10
7.0427300675
 20
6.4097505881
 30
0.0
 10
7.0442480728
 20
6.4109333141
 30
0.0
 10
7.0458777729
 20
6.4119547479
 30
0.0
 10
7.0475836294
 20
6.4128412551
 30
0.0
 10
7.0493433119
 20
6.4136143652
 30
0.0
 10
7.0517411113
 20
6.4145163158
 30
0.0
 10
7.0535833194
 20
6.415069025
 30
0.0
 10
7.054821305
 20
6.4153957002
 30
0.0
  0
SPLINE
  5
4C0
100
AcDbEntity
  8
0
100
AcDbSpline
 62
7
  6
CONTINUOUS
 70
0
 71
3
 72
14
 73
10
 74
0
 42
0.0000001
 43
0.0000001
 44
0.0000000001
 40
0.0
 40
0.0
 40
0.0
 40
0.0
 40
0.2499887426
 40
0.3749891793
 40
0.4999909801
 40
0.624993562
 40
0.749994822
 40
0.8749986533
 40
1.0
 40
1.0
 40
1.0
 40
1.0
 10
7.054821305
 20
6.4153957002
 30
0.0
 10
7.0593035299
 20
6.4165784537
 30
0.0
 10
7.0660544946
 20
6.4182547836
 30
0.0
 10
7.0751287922
 20
6.4201618895
 30
0.0
 10
7.0819738251
 20
6.421394011
 30
0.0
 10
7.0888568265
 20
6.4223947357
 30
0.0
 10
7.0957731803
 20
6.4231343032
 30
0.0
 10
7.1027142167
 20
6.4235886011
 30
0.0
 10
7.1073508051
 20
6.4236907986
 30
0.0
 10
7.1096687592
 20
6.4236907986
 30
0.0
  0
SPLINE
  5
4C1
100
AcDbEntity
  8
0
100
AcDbSpline
 62
7
  6
CONTINUOUS
 70
0
 71
3
 72
22
 73
18
 74
0
 42
0.0000001
 43
0.0000001
 44
0.0000000001
 40
0.0
 40
0.0
 40
0.0
 40
0.0
 40
0.062500857
 40
0.1250062157
 40
0.1875127258
 40
0.2500166845
 40
0.3437691021
 40
0.4375203161
 40
0.5312674758
 40
0.6250057066
 40
0.7187222724
 40
0.7656110674
 40
0.8124962244
 40
0.8593786589
 40
0.906256589
 40
0.9531296807
 40
1.0
 40
1.0
 40
1.0
 40
1.0
 10
7.1645162134
 20
6.4153957002
 30
0.0
 10
7.1649289478
 20
6.4152867893
 30
0.0
 10
7.1657520342
 20
6.415059661
 30
0.0
 10
7.1669777792
 20
6.414688204
 30
0.0
 10
7.1681929664
 20
6.414283313
 30
0.0
 10
7.169595514
 20
6.4137677511
 30
0.0
 10
7.1711724906
 20
6.4131106687
 30
0.0
 10
7.1728983049
 20
6.4122640916
 30
0.0
 10
7.174556564
 20
6.4112902872
 30
0.0
 10
7.1761167207
 20
6.410164731
 30
0.0
 10
7.1772960472
 20
6.4090738113
 30
0.0
 10
7.1781247117
 20
6.4080956015
 30
0.0
 10
7.1786746363
 20
6.4073058917
 30
0.0
 10
7.1791351761
 20
6.4064604299
 30
0.0
 10
7.1794861941
 20
6.4055632507
 30
0.0
 10
7.1797074696
 20
6.4046252639
 30
0.0
 10
7.179757988
 20
6.4039839301
 30
0.0
 10
7.179757988
 20
6.4036638199
 30
0.0
  0
SPLINE
  5
4C2
100
AcDbEntity
  8
0
100
AcDbSpline
 62
7
  6
CONTINUOUS
 70
0
 71
3
 72
14
 73
10
 74
0
 42
0.0000001
 43
0.0000001
 44
0.0000000001
 40
0.0
 40
0.0
 40
0.0
 40
0.0
 40
0.1250013675
 40
0.2500052406
 40
0.3750065135
 40
0.5000091035
 40
0.6250108874
 40
0.7500113054
 40
1.0
 40
1.0
 40
1.0
 40
1.0
 10
7.1096687592
 20
6.4236907986
 30
0.0
 10
7.1119867136
 20
6.4236907986
 30
0.0
 10
7.1166233032
 20
6.4235886006
 30
0.0
 10
7.123564341
 20
6.4231343024
 30
0.0
 10
7.130480696
 20
6.4223947354
 30
0.0
 10
7.1373636975
 20
6.4213940108
 30
0.0
 10
7.1442087297
 20
6.4201618883
 30
0.0
 10
7.1532830259
 20
6.4182547836
 30
0.0
 10
7.1600339893
 20
6.4165784535
 30
0.0
 10
7.1645162134
 20
6.4153957002
 30
0.0
  0
SPLINE
  5
4C3
100
AcDbEntity
  8
0
100
AcDbSpline
 62
7
  6
CONTINUOUS
 70
0
 71
3
 72
35
 73
31
 74
0
 42
0.0000001
 43
0.0000001
 44
0.0000000001
 40
0.0
 40
0.0
 40
0.0
 40
0.0
 40
0.0297440401
 40
0.0611224771
 40
0.0947029198
 40
0.1312411646
 40
0.1716415401
 40
0.2165945369
 40
0.2653980122
 40
0.3147884402
 40
0.3609870781
 40
0.4026157557
 40
0.4401368422
 40
0.4744570368
 40
0.5063842453
 40
0.5365361644
 40
0.5653680007
 40
0.5932136513
 40
0.6203192218
 40
0.6468671664
 40
0.6987864312
 40
0.7243542246
 40
0.7497404773
 40
0.800131152
 40
0.8252039765
 40
0.8502229722
 40
0.9001599679
 40
0.9251083598
 40
0.9500573944
 40
1.0
 40
1.0
 40
1.0
 40
1.0
 10
6.8078579594
 20
3.8656741292
 30
0.0
 10
6.8068723651
 20
3.8649474953
 30
0.0
 10
6.804911051
 20
3.8633647888
 30
0.0
 10
6.8021213142
 20
3.8606320709
 30
0.0
 10
6.7994627461
 20
3.8573967491
 30
0.0
 10
6.7970134165
 20
3.8535477618
 30
0.0
 10
6.794911587
 20
3.8489720955
 30
0.0
 10
6.7933875002
 20
3.8436388973
 30
0.0
 10
6.7927294111
 20
3.8377526945
 30
0.0
 10
6.7931057735
 20
3.8317894296
 30
0.0
 10
6.7944166797
 20
3.8262683086
 30
0.0
 10
6.7963849953
 20
3.8214776183
 30
0.0
 10
6.7987548699
 20
3.8174363146
 30
0.0
 10
6.8013648417
 20
3.814041958
 30
0.0
 10
6.8041237397
 20
3.8111791637
 30
0.0
 10
6.8069791603
 20
3.8087513227
 30
0.0
 10
6.8098996119
 20
3.8066829618
 30
0.0
 10
6.8128650916
 20
3.8049153936
 30
0.0
 10
6.8158625466
 20
3.8034024176
 30
0.0
 10
6.8198593608
 20
3.801689565
 30
0.0
 10
6.823930119
 20
3.8003311905
 30
0.0
 10
6.8280291005
 20
3.7992633407
 30
0.0
 10
6.8321062946
 20
3.7983736481
 30
0.0
 10
6.8362081068
 20
3.7977088855
 30
0.0
 10
6.8403175899
 20
3.797232303
 30
0.0
 10
6.8444204135
 20
3.7968741211
 30
0.0
 10
6.8485306421
 20
3.7966774142
 30
0.0
 10
6.8526407026
 20
3.796633698
 30
0.0
 10
6.8567508028
 20
3.7966892067
 30
0.0
 10
6.859831708
 20
3.7968459472
 30
0.0
 10
6.8618816333
 20
3.7970042407
 30
0.0
  0
SPLINE
  5
4C4
100
AcDbEntity
  8
0
100
AcDbSpline
 62
7
  6
CONTINUOUS
 70
0
 71
3
 72
21
 73
17
 74
0
 42
0.0000001
 43
0.0000001
 44
0.0000000001
 40
0.0
 40
0.0
 40
0.0
 40
0.0
 40
0.135678047
 40
0.2024290945
 40
0.2683661294
 40
0.333433808
 40
0.3975957386
 40
0.5231064404
 40
0.5845296316
 40
0.6451363319
 40
0.7050354345
 40
0.7643737422
 40
0.8233309697
 40
0.8821111755
 40
0.9409297029
 40
1.0
 40
1.0
 40
1.0
 40
1.0
 10
6.8078579594
 20
3.8656741292
 30
0.0
 10
6.8099106821
 20
3.8671875085
 30
0.0
 10
6.8130146516
 20
3.8693909669
 30
0.0
 10
6.817233913
 20
3.8721566007
 30
0.0
 10
6.8203996113
 20
3.8741058605
 30
0.0
 10
6.8235848197
 20
3.8759275035
 30
0.0
 10
6.827826386
 20
3.878150669
 30
0.0
 10
6.8321413236
 20
3.8800831895
 30
0.0
 10
6.8365243078
 20
3.881650906
 30
0.0
 10
6.8398060456
 20
3.8826194332
 30
0.0
 10
6.843102687
 20
3.8833776055
 30
0.0
 10
6.8464113843
 20
3.8839143682
 30
0.0
 10
6.8497281209
 20
3.8842231905
 30
0.0
 10
6.8530487059
 20
3.8842984657
 30
0.0
 10
6.8563683249
 20
3.8841401636
 30
0.0
 10
6.8585710303
 20
3.8838805489
 30
0.0
 10
6.8596687754
 20
3.8837138956
 30
0.0
  0
SPLINE
  5
4C5
100
AcDbEntity
  8
0
100
AcDbSpline
 62
7
  6
CONTINUOUS
 70
0
 71
3
 72
18
 73
14
 74
0
 42
0.0000001
 43
0.0000001
 44
0.0000000001
 40
0.0
 40
0.0
 40
0.0
 40
0.0
 40
0.112802556
 40
0.2277745812
 40
0.3457946824
 40
0.4062666177
 40
0.4678205003
 40
0.5943525566
 40
0.7257513516
 40
0.7932089131
 40
0.8615788723
 40
0.9306181457
 40
1.0
 40
1.0
 40
1.0
 40
1.0
 10
6.7349482816
 20
4.0023314422
 30
0.0
 10
6.7348285162
 20
4.0018425738
 30
0.0
 10
6.7345166141
 20
4.0008710255
 30
0.0
 10
6.7338355758
 20
3.9994807167
 30
0.0
 10
6.7330859786
 20
3.9984000718
 30
0.0
 10
6.7323757497
 20
3.9975969993
 30
0.0
 10
6.7315755167
 20
3.9968275524
 30
0.0
 10
6.7304262768
 20
3.995971856
 30
0.0
 10
6.7291211485
 20
3.9953169586
 30
0.0
 10
6.7279915686
 20
3.994930766
 30
0.0
 10
6.7271015664
 20
3.9947161038
 30
0.0
 10
6.7261869337
 20
3.9945848746
 30
0.0
 10
6.7255688922
 20
3.9945554336
 30
0.0
 10
6.7252593104
 20
3.9945554336
 30
0.0
  0
SPLINE
  5
4C6
100
AcDbEntity
  8
0
100
AcDbSpline
 62
7
  6
CONTINUOUS
 70
0
 71
3
 72
18
 73
14
 74
0
 42
0.0000001
 43
0.0000001
 44
0.0000000001
 40
0.0
 40
0.0
 40
0.0
 40
0.0
 40
0.1148446712
 40
0.2314723209
 40
0.3506163839
 40
0.4114078723
 40
0.4731007934
 40
0.5993290551
 40
0.7296423445
 40
0.7962958778
 40
0.8637215656
 40
0.9317157856
 40
1.0
 40
1.0
 40
1.0
 40
1.0
 10
6.7349482816
 20
4.0035071498
 30
0.0
 10
6.7348286768
 20
4.0030003521
 30
0.0
 10
6.7345176306
 20
4.0019938581
 30
0.0
 10
6.7338374656
 20
4.0005513124
 30
0.0
 10
6.7330876523
 20
3.9994282149
 30
0.0
 10
6.7323766008
 20
3.9985934006
 30
0.0
 10
6.7315777868
 20
3.9977958799
 30
0.0
 10
6.7304306936
 20
3.9969082749
 30
0.0
 10
6.7291235466
 20
3.9962265693
 30
0.0
 10
6.7279924104
 20
3.9958249986
 30
0.0
 10
6.7271021767
 20
3.9956020298
 30
0.0
 10
6.7261872599
 20
3.9954657148
 30
0.0
 10
6.7255689194
 20
3.9954351279
 30
0.0
 10
6.7252593104
 20
3.9954351279
 30
0.0
  0
SPLINE
  5
4C7
100
AcDbEntity
  8
0
100
AcDbSpline
 62
7
  6
CONTINUOUS
 70
0
 71
3
 72
22
 73
18
 74
0
 42
0.0000001
 43
0.0000001
 44
0.0000000001
 40
0.0
 40
0.0
 40
0.0
 40
0.0
 40
0.121227444
 40
0.181791176
 40
0.2423643143
 40
0.3029828268
 40
0.3636872021
 40
0.4245257174
 40
0.4855608429
 40
0.5468731894
 40
0.6085712035
 40
0.6707998345
 40
0.7337562805
 40
0.7977092327
 40
0.8630272056
 40
0.9302202575
 40
1.0
 40
1.0
 40
1.0
 40
1.0
 10
7.3574558606
 20
3.7970042432
 30
0.0
 10
7.3597594862
 20
3.7968263566
 30
0.0
 10
7.3632228376
 20
3.7966615452
 30
0.0
 10
7.3678423422
 20
3.7966339075
 30
0.0
 10
7.3713061404
 20
3.7967074648
 30
0.0
 10
7.3747691119
 20
3.7968792454
 30
0.0
 10
7.3782307684
 20
3.7971515283
 30
0.0
 10
7.3816902219
 20
3.7975325649
 30
0.0
 10
7.3851464918
 20
3.7980313485
 30
0.0
 10
7.3885982137
 20
3.7986606687
 30
0.0
 10
7.3920435465
 20
3.7994364737
 30
0.0
 10
7.3954798577
 20
3.8003790305
 30
0.0
 10
7.3989037273
 20
3.8015125965
 30
0.0
 10
7.4023097907
 20
3.8028686201
 30
0.0
 10
7.4056908629
 20
3.8044852396
 30
0.0
 10
7.4090354866
 20
3.8064110229
 30
0.0
 10
7.411179674
 20
3.8079080845
 30
0.0
 10
7.4122319747
 20
3.8087213481
 30
0.0
  0
SPLINE
  5
4C8
100
AcDbEntity
  8
0
100
AcDbSpline
 62
7
  6
CONTINUOUS
 70
0
 71
3
 72
18
 73
14
 74
0
 42
0.0000001
 43
0.0000001
 44
0.0000000001
 40
0.0
 40
0.0
 40
0.0
 40
0.0
 40
0.1167620729
 40
0.2351219196
 40
0.355619021
 40
0.416871787
 40
0.4788426762
 40
0.6049972
 40
0.7342576122
 40
0.8000129159
 40
0.8663301601
 40
0.9330634975
 40
1.0
 40
1.0
 40
1.0
 40
1.0
 10
6.7347104361
 20
4.004576831
 30
0.0
 10
6.7345620875
 20
4.0040976227
 30
0.0
 10
6.7342023344
 20
4.0031502195
 30
0.0
 10
6.7334759074
 20
4.0018012413
 30
0.0
 10
6.7327105154
 20
4.0007575731
 30
0.0
 10
6.732001357
 20
3.9999859867
 30
0.0
 10
6.7312175135
 20
3.9992542264
 30
0.0
 10
6.73011167
 20
3.9984455178
 30
0.0
 10
6.7288693993
 20
3.9978275922
 30
0.0
 10
6.7278050657
 20
3.9974660086
 30
0.0
 10
6.7269732879
 20
3.9972662791
 30
0.0
 10
6.7261215499
 20
3.9971444794
 30
0.0
 10
6.7255468898
 20
3.9971171713
 30
0.0
 10
6.7252593104
 20
3.9971171713
 30
0.0
  0
SPLINE
  5
4C9
100
AcDbEntity
  8
0
100
AcDbSpline
 62
7
  6
CONTINUOUS
 70
0
 71
3
 72
18
 73
14
 74
0
 42
0.0000001
 43
0.0000001
 44
0.0000000001
 40
0.0
 40
0.0
 40
0.0
 40
0.0
 40
0.1182846246
 40
0.2377217069
 40
0.3587976932
 40
0.4201500668
 40
0.4820992613
 40
0.6078478421
 40
0.7363293942
 40
0.8016094317
 40
0.867414146
 40
0.9336087973
 40
1.0
 40
1.0
 40
1.0
 40
1.0
 10
6.7349482816
 20
4.0081938763
 30
0.0
 10
6.7348289249
 20
4.0076552427
 30
0.0
 10
6.734519216
 20
4.0065867081
 30
0.0
 10
6.7338404775
 20
4.0050516346
 30
0.0
 10
6.7330904002
 20
4.003853366
 30
0.0
 10
6.7323780233
 20
4.0029622414
 30
0.0
 10
6.7315816427
 20
4.0021150971
 30
0.0
 10
6.7304384532
 20
4.001171168
 30
0.0
 10
6.7291278894
 20
4.0004416533
 30
0.0
 10
6.727993954
 20
4.0000126649
 30
0.0
 10
6.7271033071
 20
3.9997749363
 30
0.0
 10
6.7261878676
 20
3.9996295787
 30
0.0
 10
6.7255689701
 20
3.9995969532
 30
0.0
 10
6.7252593104
 20
3.9995969532
 30
0.0
  0
SPLINE
  5
4CA
100
AcDbEntity
  8
0
100
AcDbSpline
 62
7
  6
CONTINUOUS
 70
0
 71
3
 72
17
 73
13
 74
0
 42
0.0000001
 43
0.0000001
 44
0.0000000001
 40
0.0
 40
0.0
 40
0.0
 40
0.0
 40
0.1197179032
 40
0.2403350571
 40
0.3622352749
 40
0.4858044299
 40
0.6113795369
 40
0.7391162671
 40
0.8038282419
 40
0.8689583317
 40
0.9344011439
 40
1.0
 40
1.0
 40
1.0
 40
1.0
 10
6.7349482816
 20
4.0116920493
 30
0.0
 10
6.7348290199
 20
4.011139605
 30
0.0
 10
6.734519853
 20
4.010044188
 30
0.0
 10
6.733841572
 20
4.0084689167
 30
0.0
 10
6.7329389847
 20
4.0069878181
 30
0.0
 10
6.7318055074
 20
4.005642523
 30
0.0
 10
6.730441868
 20
4.0044859771
 30
0.0
 10
6.7291297907
 20
4.0037355248
 30
0.0
 10
6.7279946443
 20
4.0032946134
 30
0.0
 10
6.727103815
 20
4.0030504738
 30
0.0
 10
6.7261881427
 20
4.0029011889
 30
0.0
 10
6.725568993
 20
4.0028676769
 30
0.0
 10
6.7252593104
 20
4.0028676769
 30
0.0
  0
SPLINE
  5
4CB
100
AcDbEntity
  8
0
100
AcDbSpline
 62
7
  6
CONTINUOUS
 70
0
 71
3
 72
17
 73
13
 74
0
 42
0.0000001
 43
0.0000001
 44
0.0000000001
 40
0.0
 40
0.0
 40
0.0
 40
0.0
 40
0.1209542139
 40
0.2425918359
 40
0.3652067678
 40
0.4890942841
 40
0.6145151166
 40
0.7415928815
 40
0.8058010141
 40
0.8703318749
 40
0.9351061347
 40
1.0
 40
1.0
 40
1.0
 40
1.0
 10
6.7349456182
 20
4.0159381169
 30
0.0
 10
6.7348260307
 20
4.0153739312
 30
0.0
 10
6.7345166001
 20
4.0142557081
 30
0.0
 10
6.7338381201
 20
4.012646603
 30
0.0
 10
6.7329358722
 20
4.0111337331
 30
0.0
 10
6.7318032085
 20
4.0097594669
 30
0.0
 10
6.7304406835
 20
4.00857773
 30
0.0
 10
6.7291282224
 20
4.0078098927
 30
0.0
 10
6.7279928498
 20
4.0073590553
 30
0.0
 10
6.7271026112
 20
4.0071096238
 30
0.0
 10
6.7261875428
 20
4.0069570976
 30
0.0
 10
6.7255687302
 20
4.0069228543
 30
0.0
 10
6.7252593104
 20
4.0069228543
 30
0.0
  0
SPLINE
  5
4CC
100
AcDbEntity
  8
0
100
AcDbSpline
 62
7
  6
CONTINUOUS
 70
0
 71
3
 72
17
 73
13
 74
0
 42
0.0000001
 43
0.0000001
 44
0.0000000001
 40
0.0
 40
0.0
 40
0.0
 40
0.0
 40
0.122014195
 40
0.2445270546
 40
0.3677561012
 40
0.4919188318
 40
0.6172095259
 40
0.7437226712
 40
0.8074981458
 40
0.87151384
 40
0.935712904
 40
1.0
 40
1.0
 40
1.0
 40
1.0
 10
6.7349482816
 20
4.0209500997
 30
0.0
 10
6.7348291648
 20
4.0203744544
 30
0.0
 10
6.7345207918
 20
4.0192338276
 30
0.0
 10
6.7338434126
 20
4.0175913373
 30
0.0
 10
6.7329420398
 20
4.0160468604
 30
0.0
 10
6.7318099146
 20
4.0146435295
 30
0.0
 10
6.7304473779
 20
4.0134362989
 30
0.0
 10
6.7291330376
 20
4.0126507857
 30
0.0
 10
6.7279958236
 20
4.0121897543
 30
0.0
 10
6.7271046935
 20
4.0119348428
 30
0.0
 10
6.7261886199
 20
4.0117789505
 30
0.0
 10
6.7255690329
 20
4.0117439468
 30
0.0
 10
6.7252593104
 20
4.0117439468
 30
0.0
  0
SPLINE
  5
4CD
100
AcDbEntity
  8
0
100
AcDbSpline
 62
7
  6
CONTINUOUS
 70
0
 71
3
 72
17
 73
13
 74
0
 42
0.0000001
 43
0.0000001
 44
0.0000000001
 40
0.0
 40
0.0
 40
0.0
 40
0.0
 40
0.1229054925
 40
0.2461569655
 40
0.3699073211
 40
0.4943073736
 40
0.6194931582
 40
0.7455316298
 40
0.8089408423
 40
0.8725192649
 40
0.9362292616
 40
1.0
 40
1.0
 40
1.0
 40
1.0
 10
6.7349482816
 20
4.0266846014
 30
0.0
 10
6.7348292184
 20
4.0260996347
 30
0.0
 10
6.7345211405
 20
4.0249408428
 30
0.0
 10
6.7338441037
 20
4.0232713742
 30
0.0
 10
6.7329432043
 20
4.0217014759
 30
0.0
 10
6.7318116258
 20
4.0202748792
 30
0.0
 10
6.7304495642
 20
4.0190473273
 30
0.0
 10
6.7291343522
 20
4.0182476974
 30
0.0
 10
6.7279963054
 20
4.0177785602
 30
0.0
 10
6.7271050549
 20
4.0175193181
 30
0.0
 10
6.726188817
 20
4.0173607678
 30
0.0
 10
6.7255690494
 20
4.0173251638
 30
0.0
 10
6.7252593104
 20
4.0173251638
 30
0.0
  0
SPLINE
  5
4CE
100
AcDbEntity
  8
0
100
AcDbSpline
 62
7
  6
CONTINUOUS
 70
0
 71
3
 72
17
 73
13
 74
0
 42
0.0000001
 43
0.0000001
 44
0.0000000001
 40
0.0
 40
0.0
 40
0.0
 40
0.0
 40
0.1236345982
 40
0.2474914194
 40
0.3716704955
 40
0.4962675745
 40
0.6213698812
 40
0.7470202363
 40
0.8101287009
 40
0.873347446
 40
0.9366547078
 40
1.0
 40
1.0
 40
1.0
 40
1.0
 10
6.7349482816
 20
4.0331357995
 30
0.0
 10
6.7348292611
 20
4.0325430687
 30
0.0
 10
6.7345214193
 20
4.0313691462
 30
0.0
 10
6.7338446595
 20
4.0296772182
 30
0.0
 10
6.7329441479
 20
4.0280861629
 30
0.0
 10
6.7318130254
 20
4.0266402092
 30
0.0
 10
6.7304513723
 20
4.0253957501
 30
0.0
 10
6.729135451
 20
4.0245843497
 30
0.0
 10
6.72799671
 20
4.0241084513
 30
0.0
 10
6.7271053594
 20
4.0238456009
 30
0.0
 10
6.7261889836
 20
4.0236848353
 30
0.0
 10
6.7255690633
 20
4.0236487307
 30
0.0
 10
6.7252593104
 20
4.0236487307
 30
0.0
  0
SPLINE
  5
4CF
100
AcDbEntity
  8
0
100
AcDbSpline
 62
7
  6
CONTINUOUS
 70
0
 71
3
 72
18
 73
14
 74
0
 42
0.0000001
 43
0.0000001
 44
0.0000000001
 40
0.0
 40
0.0
 40
0.0
 40
0.0
 40
0.1241874681
 40
0.2485007135
 40
0.3729982725
 40
0.497732358
 40
0.6227511519
 40
0.6854500396
 40
0.7482334394
 40
0.8110953422
 40
0.8740207271
 40
0.937000386
 40
1.0
 40
1.0
 40
1.0
 40
1.0
 10
6.7349482816
 20
4.0402860116
 30
0.0
 10
6.734829294
 20
4.0396870969
 30
0.0
 10
6.7345216285
 20
4.0385011199
 30
0.0
 10
6.7338451103
 20
4.0367913238
 30
0.0
 10
6.7329448064
 20
4.0351833795
 30
0.0
 10
6.7318144092
 20
4.0337222044
 30
0.0
 10
6.730679261
 20
4.0326737582
 30
0.0
 10
6.7296646204
 20
4.03197252
 30
0.0
 10
6.7288527059
 20
4.0315236224
 30
0.0
 10
6.7279969987
 20
4.0311620403
 30
0.0
 10
6.727105614
 20
4.030896359
 30
0.0
 10
6.726189115
 20
4.0307338161
 30
0.0
 10
6.7255690746
 20
4.0306973151
 30
0.0
 10
6.7252593104
 20
4.0306973151
 30
0.0
  0
SPLINE
  5
4D0
100
AcDbEntity
  8
0
100
AcDbSpline
 62
7
  6
CONTINUOUS
 70
0
 71
3
 72
18
 73
14
 74
0
 42
0.0000001
 43
0.0000001
 44
0.0000000001
 40
0.0
 40
0.0
 40
0.0
 40
0.0
 40
0.1246068456
 40
0.2492691907
 40
0.3740151517
 40
0.4988648508
 40
0.6238374497
 40
0.6864471246
 40
0.7490973442
 40
0.8117852522
 40
0.8745020333
 40
0.9372477373
 40
1.0
 40
1.0
 40
1.0
 40
1.0
 10
6.7349482816
 20
4.0481156396
 30
0.0
 10
6.7348293178
 20
4.0475121393
 30
0.0
 10
6.7345217839
 20
4.0463172253
 30
0.0
 10
6.7338454228
 20
4.0445941737
 30
0.0
 10
6.7329453409
 20
4.0429737463
 30
0.0
 10
6.731815218
 20
4.0415011608
 30
0.0
 10
6.7306798721
 20
4.0404440307
 30
0.0
 10
6.7296648971
 20
4.0397369949
 30
0.0
 10
6.7288529781
 20
4.0392845304
 30
0.0
 10
6.7279972406
 20
4.0389200604
 30
0.0
 10
6.7271057968
 20
4.038652247
 30
0.0
 10
6.7261892154
 20
4.0384883943
 30
0.0
 10
6.7255690829
 20
4.0384515973
 30
0.0
 10
6.7252593104
 20
4.0384515973
 30
0.0
  0
SPLINE
  5
4D1
100
AcDbEntity
  8
0
100
AcDbSpline
 62
7
  6
CONTINUOUS
 70
0
 71
3
 72
18
 73
14
 74
0
 42
0.0000001
 43
0.0000001
 44
0.0000000001
 40
0.0
 40
0.0
 40
0.0
 40
0.0
 40
0.124876662
 40
0.2497638155
 40
0.3746700038
 40
0.4995946296
 40
0.6245380129
 40
0.6870903451
 40
0.7496548058
 40
0.8122305485
 40
0.8748127489
 40
0.937407439
 40
1.0
 40
1.0
 40
1.0
 40
1.0
 10
6.7349456182
 20
4.0565948056
 30
0.0
 10
6.7348262659
 20
4.0559889877
 30
0.0
 10
6.7345181223
 20
4.0547896311
 30
0.0
 10
6.733841173
 20
4.0530600862
 30
0.0
 10
6.7329409176
 20
4.0514336931
 30
0.0
 10
6.7318110615
 20
4.0499557954
 30
0.0
 10
6.7306760375
 20
4.0488946539
 30
0.0
 10
6.7296614351
 20
4.0481849995
 30
0.0
 10
6.7288500696
 20
4.0477309795
 30
0.0
 10
6.7279949744
 20
4.0473652664
 30
0.0
 10
6.7271042441
 20
4.0470965451
 30
0.0
 10
6.726188427
 20
4.046932139
 30
0.0
 10
6.7255688043
 20
4.0468952171
 30
0.0
 10
6.7252593104
 20
4.0468952171
 30
0.0
  0
SPLINE
  5
4D2
100
AcDbEntity
  8
0
100
AcDbSpline
 62
7
  6
CONTINUOUS
 70
0
 71
3
 72
18
 73
14
 74
0
 42
0.0000001
 43
0.0000001
 44
0.0000000001
 40
0.0
 40
0.0
 40
0.0
 40
0.0
 40
0.1249989272
 40
0.2499879437
 40
0.3749667381
 40
0.49992531
 40
0.624855384
 40
0.6873817864
 40
0.749907424
 40
0.8124323606
 40
0.8749535793
 40
0.9374798263
 40
1.0
 40
1.0
 40
1.0
 40
1.0
 10
6.7349482816
 20
4.0657254979
 30
0.0
 10
6.7348293397
 20
4.0651176702
 30
0.0
 10
6.7345219275
 20
4.063914322
 30
0.0
 10
6.7338457126
 20
4.0621787642
 30
0.0
 10
6.7329458381
 20
4.0605465609
 30
0.0
 10
6.7318159738
 20
4.0590632134
 30
0.0
 10
6.7306804462
 20
4.0579978892
 30
0.0
 10
6.7296651577
 20
4.0572853805
 30
0.0
 10
6.7288532353
 20
4.0568295502
 30
0.0
 10
6.7279974699
 20
4.0564623548
 30
0.0
 10
6.7271059704
 20
4.0561925289
 30
0.0
 10
6.7261893108
 20
4.0560274398
 30
0.0
 10
6.7255690909
 20
4.0559903632
 30
0.0
 10
6.7252593104
 20
4.0559903632
 30
0.0
  0
SPLINE
  5
4D3
100
AcDbEntity
  8
0
100
AcDbSpline
 62
7
  6
CONTINUOUS
 70
0
 71
3
 72
18
 73
14
 74
0
 42
0.0000001
 43
0.0000001
 44
0.0000000001
 40
0.0
 40
0.0
 40
0.0
 40
0.0
 40
0.1249744967
 40
0.2499431499
 40
0.3749074195
 40
0.4998591854
 40
0.6247918904
 40
0.6873234777
 40
0.7498568797
 40
0.8123919793
 40
0.8749253987
 40
0.9374653409
 40
1.0
 40
1.0
 40
1.0
 40
1.0
 10
6.7349482816
 20
4.0754574608
 30
0.0
 10
6.7348293384
 20
4.0748499038
 30
0.0
 10
6.7345219186
 20
4.0736470834
 30
0.0
 10
6.7338456946
 20
4.0719123081
 30
0.0
 10
6.7329458072
 20
4.0702808416
 30
0.0
 10
6.7318159267
 20
4.0687981674
 30
0.0
 10
6.7306804104
 20
4.0677333559
 30
0.0
 10
6.7296651414
 20
4.0670211897
 30
0.0
 10
6.7288532192
 20
4.06656557
 30
0.0
 10
6.7279974555
 20
4.0661985451
 30
0.0
 10
6.7271059595
 20
4.0659288453
 30
0.0
 10
6.7261893048
 20
4.0657638335
 30
0.0
 10
6.7255690904
 20
4.0657267744
 30
0.0
 10
6.7252593104
 20
4.0657267744
 30
0.0
  0
SPLINE
  5
4D4
100
AcDbEntity
  8
0
100
AcDbSpline
 62
7
  6
CONTINUOUS
 70
0
 71
3
 72
18
 73
14
 74
0
 42
0.0000001
 43
0.0000001
 44
0.0000000001
 40
0.0
 40
0.0
 40
0.0
 40
0.0
 40
0.1248032049
 40
0.249629115
 40
0.3744916088
 40
0.499395738
 40
0.6243469606
 40
0.6869149152
 40
0.7495027503
 40
0.8121090763
 40
0.8747279822
 40
0.9373638681
 40
1.0
 40
1.0
 40
1.0
 40
1.0
 10
6.7349482816
 20
4.085772437
 30
0.0
 10
6.7348293288
 20
4.0851667743
 30
0.0
 10
6.734521856
 20
4.083967646
 30
0.0
 10
6.7338455682
 20
4.082238345
 30
0.0
 10
6.7329455902
 20
4.080612033
 30
0.0
 10
6.7318155966
 20
4.0791340693
 30
0.0
 10
6.7306801593
 20
4.0780728446
 30
0.0
 10
6.7296650273
 20
4.0773630744
 30
0.0
 10
6.7288531066
 20
4.076908928
 30
0.0
 10
6.7279973551
 20
4.0765430962
 30
0.0
 10
6.7271058834
 20
4.0762742773
 30
0.0
 10
6.726189263
 20
4.0761098068
 30
0.0
 10
6.7255690869
 20
4.0760728701
 30
0.0
 10
6.7252593104
 20
4.0760728701
 30
0.0
  0
SPLINE
  5
4D5
100
AcDbEntity
  8
0
100
AcDbSpline
 62
7
  6
CONTINUOUS
 70
0
 71
3
 72
18
 73
14
 74
0
 42
0.0000001
 43
0.0000001
 44
0.0000000001
 40
0.0
 40
0.0
 40
0.0
 40
0.0
 40
0.1244837971
 40
0.2490436813
 40
0.3737166917
 40
0.4985323789
 40
0.6235184543
 40
0.6861542899
 40
0.7488435948
 40
0.8115825892
 40
0.8743606375
 40
0.9371750682
 40
1.0
 40
1.0
 40
1.0
 40
1.0
 10
6.7349482816
 20
4.0966421539
 30
0.0
 10
6.7348293108
 20
4.0960400036
 30
0.0
 10
6.7345217385
 20
4.0948477207
 30
0.0
 10
6.7338453314
 20
4.0931285713
 30
0.0
 10
6.7329451844
 20
4.0915118184
 30
0.0
 10
6.7318149807
 20
4.0900425915
 30
0.0
 10
6.7306796925
 20
4.0889880179
 30
0.0
 10
6.7296648157
 20
4.0882826891
 30
0.0
 10
6.728852898
 20
4.0878312747
 30
0.0
 10
6.7279971693
 20
4.0874676549
 30
0.0
 10
6.7271057429
 20
4.0872004692
 30
0.0
 10
6.7261891858
 20
4.0870370022
 30
0.0
 10
6.7255690805
 20
4.0870002924
 30
0.0
 10
6.7252593104
 20
4.0870002924
 30
0.0
  0
SPLINE
  5
4D6
100
AcDbEntity
  8
0
100
AcDbSpline
 62
7
  6
CONTINUOUS
 70
0
 71
3
 72
17
 73
13
 74
0
 42
0.0000001
 43
0.0000001
 44
0.0000000001
 40
0.0
 40
0.0
 40
0.0
 40
0.0
 40
0.1240332369
 40
0.2482214628
 40
0.3726358036
 40
0.4973417087
 40
0.6223992764
 40
0.7478375117
 40
0.8107811128
 40
0.873802449
 40
0.9368884935
 40
1.0
 40
1.0
 40
1.0
 40
1.0
 10
6.7349482816
 20
4.1080368184
 30
0.0
 10
6.7348292841
 20
4.1074397882
 30
0.0
 10
6.7345215695
 20
4.1062574868
 30
0.0
 10
6.7338449598
 20
4.1045531261
 30
0.0
 10
6.7329446604
 20
4.1029503615
 30
0.0
 10
6.7318137904
 20
4.1014936971
 30
0.0
 10
6.7304523683
 20
4.1002398829
 30
0.0
 10
6.7291360608
 20
4.09942196
 30
0.0
 10
6.7279969353
 20
4.0989423137
 30
0.0
 10
6.7271055295
 20
4.0986774647
 30
0.0
 10
6.7261890767
 20
4.0985154718
 30
0.0
 10
6.7255690711
 20
4.0984790898
 30
0.0
 10
6.7252593104
 20
4.0984790898
 30
0.0
  0
LINE
  5
4D7
100
AcDbEntity
  8
0
100
AcDbLine
 62
7
  6
CONTINUOUS
 10
6.7252593104
 20
4.1082067458
 11
6.7349482816
 21
4.1080368184
  0
SPLINE
  5
4D8
100
AcDbEntity
  8
0
100
AcDbSpline
 62
7
  6
CONTINUOUS
 70
0
 71
3
 72
17
 73
13
 74
0
 42
0.0000001
 43
0.0000001
 44
0.0000000001
 40
0.0
 40
0.0
 40
0.0
 40
0.0
 40
0.1234091564
 40
0.2470791374
 40
0.37112616
 40
0.4956628312
 40
0.6207912984
 40
0.7465616753
 40
0.8097628529
 40
0.8730924123
 40
0.9365237067
 40
1.0
 40
1.0
 40
1.0
 40
1.0
 10
6.7349456182
 20
4.1199190828
 30
0.0
 10
6.7348261805
 20
4.1193294031
 30
0.0
 10
6.7345175712
 20
4.1181615005
 30
0.0
 10
6.7338400375
 20
4.1164785992
 30
0.0
 10
6.7329390907
 20
4.1148961903
 30
0.0
 10
6.7318079185
 20
4.113458282
 30
0.0
 10
6.7304466738
 20
4.1122209654
 30
0.0
 10
6.7291318099
 20
4.1114145539
 30
0.0
 10
6.7279941621
 20
4.1109415713
 30
0.0
 10
6.7271035942
 20
4.1106803045
 30
0.0
 10
6.7261880786
 20
4.1105205154
 30
0.0
 10
6.725568775
 20
4.1104846317
 30
0.0
 10
6.7252593104
 20
4.1104846317
 30
0.0
  0
SPLINE
  5
4D9
100
AcDbEntity
  8
0
100
AcDbSpline
 62
7
  6
CONTINUOUS
 70
0
 71
3
 72
17
 73
13
 74
0
 42
0.0000001
 43
0.0000001
 44
0.0000000001
 40
0.0
 40
0.0
 40
0.0
 40
0.0
 40
0.189183686
 40
0.3683366276
 40
0.5299583472
 40
0.669859543
 40
0.7864890152
 40
0.879840544
 40
0.9180036326
 40
0.9506542322
 40
0.9779358087
 40
1.0
 40
1.0
 40
1.0
 40
1.0
 10
6.7252593104
 20
4.1205973441
 30
0.0
 10
6.7258729372
 20
4.1205973441
 30
0.0
 10
6.7270676804
 20
4.1205875871
 30
0.0
 10
6.7287861774
 20
4.1205447934
 30
0.0
 10
6.7303439285
 20
4.1204778735
 30
0.0
 10
6.7316976235
 20
4.1203918904
 30
0.0
 10
6.7328281632
 20
4.1202916482
 30
0.0
 10
6.7336274413
 20
4.1201947588
 30
0.0
 10
6.7341532612
 20
4.1201104285
 30
0.0
 10
6.7344657558
 20
4.1200501512
 30
0.0
 10
6.7347246449
 20
4.1199889166
 30
0.0
 10
6.7348781743
 20
4.1199430214
 30
0.0
 10
6.7349456182
 20
4.1199190828
 30
0.0
  0
SPLINE
  5
4DA
100
AcDbEntity
  8
0
100
AcDbSpline
 62
7
  6
CONTINUOUS
 70
0
 71
3
 72
17
 73
13
 74
0
 42
0.0000001
 43
0.0000001
 44
0.0000000001
 40
0.0
 40
0.0
 40
0.0
 40
0.0
 40
0.1226267107
 40
0.2456469928
 40
0.3692339626
 40
0.4935593676
 40
0.61877763
 40
0.7449645479
 40
0.8084884853
 40
0.8722039638
 40
0.9360673154
 40
1.0
 40
1.0
 40
1.0
 40
1.0
 10
6.7349482816
 20
4.1322747089
 30
0.0
 10
6.7348292018
 20
4.1316926775
 30
0.0
 10
6.7345210323
 20
4.130539606
 30
0.0
 10
6.7338438889
 20
4.1288786313
 30
0.0
 10
6.7329428414
 20
4.1273167359
 30
0.0
 10
6.7318110906
 20
4.1258974626
 30
0.0
 10
6.7304488775
 20
4.1246763073
 30
0.0
 10
6.7291339377
 20
4.1238811246
 30
0.0
 10
6.7279961532
 20
4.1234145413
 30
0.0
 10
6.7271049406
 20
4.1231566631
 30
0.0
 10
6.7261887546
 20
4.12299895
 30
0.0
 10
6.7255690442
 20
4.1229635352
 30
0.0
 10
6.7252593104
 20
4.1229635352
 30
0.0
  0
SPLINE
  5
4DB
100
AcDbEntity
  8
0
100
AcDbSpline
 62
7
  6
CONTINUOUS
 70
0
 71
3
 72
18
 73
14
 74
0
 42
0.0000001
 43
0.0000001
 44
0.0000000001
 40
0.0
 40
0.0
 40
0.0
 40
0.0
 40
0.1876005276
 40
0.3653421053
 40
0.5258720021
 40
0.6651198573
 40
0.7816412202
 40
0.8313864445
 40
0.8755725039
 40
0.9143377012
 40
0.9478526269
 40
0.9763237348
 40
1.0
 40
1.0
 40
1.0
 40
1.0
 10
6.7252593104
 20
4.1334613041
 30
0.0
 10
6.7258735345
 20
4.1334613041
 30
0.0
 10
6.7270697815
 20
4.1334442203
 30
0.0
 10
6.7287901558
 20
4.1333692723
 30
0.0
 10
6.7303495167
 20
4.1332521232
 30
0.0
 10
6.7317044668
 20
4.1331014037
 30
0.0
 10
6.7326934422
 20
4.1329482119
 30
0.0
 10
6.7333690651
 20
4.1328123327
 30
0.0
 10
6.7337919156
 20
4.1327121076
 30
0.0
 10
6.7341591239
 20
4.1326088509
 30
0.0
 10
6.7344718058
 20
4.1325031105
 30
0.0
 10
6.7347310351
 20
4.1323954723
 30
0.0
 10
6.7348824834
 20
4.1323156935
 30
0.0
 10
6.7349482816
 20
4.1322747089
 30
0.0
  0
SPLINE
  5
4DC
100
AcDbEntity
  8
0
100
AcDbSpline
 62
7
  6
CONTINUOUS
 70
0
 71
3
 72
17
 73
13
 74
0
 42
0.0000001
 43
0.0000001
 44
0.0000000001
 40
0.0
 40
0.0
 40
0.0
 40
0.0
 40
0.1216799717
 40
0.2439162564
 40
0.3669506078
 40
0.4910253469
 40
0.6163561892
 40
0.7430473751
 40
0.8069597949
 40
0.8711387769
 40
0.9355203202
 40
1.0
 40
1.0
 40
1.0
 40
1.0
 10
6.7349482816
 20
4.1450515006
 30
0.0
 10
6.7348291444
 20
4.144479304
 30
0.0
 10
6.7345206589
 20
4.1433453974
 30
0.0
 10
6.7338431501
 20
4.1417128921
 30
0.0
 10
6.7329416
 20
4.1401778263
 30
0.0
 10
6.7318092728
 20
4.1387831103
 30
0.0
 10
6.7304465649
 20
4.1375834041
 30
0.0
 10
6.7291325526
 20
4.1368031094
 30
0.0
 10
6.7279956465
 20
4.1363450737
 30
0.0
 10
6.7271045611
 20
4.136091764
 30
0.0
 10
6.7261885478
 20
4.1359368545
 30
0.0
 10
6.7255690269
 20
4.1359020728
 30
0.0
 10
6.7252593104
 20
4.1359020728
 30
0.0
  0
SPLINE
  5
4DD
100
AcDbEntity
  8
0
100
AcDbSpline
 62
7
  6
CONTINUOUS
 70
0
 71
3
 72
19
 73
15
 74
0
 42
0.0000001
 43
0.0000001
 44
0.0000000001
 40
0.0
 40
0.0
 40
0.0
 40
0.0
 40
0.1851620428
 40
0.3607513439
 40
0.5196521277
 40
0.6579726069
 40
0.7189474202
 40
0.7744352057
 40
0.8245171827
 40
0.8693225585
 40
0.9090258533
 40
0.9438469263
 40
0.9740589229
 40
1.0
 40
1.0
 40
1.0
 40
1.0
 10
6.7252593104
 20
4.1467422465
 30
0.0
 10
6.7258736012
 20
4.1467422465
 30
0.0
 10
6.7270705767
 20
4.1467178742
 30
0.0
 10
6.728791774
 20
4.1466110056
 30
0.0
 10
6.7303519746
 20
4.1464438214
 30
0.0
 10
6.7315263752
 20
4.146257757
 30
0.0
 10
6.7323541077
 20
4.146085801
 30
0.0
 10
6.7328909717
 20
4.1459546407
 30
0.0
 10
6.7333706601
 20
4.1458170426
 30
0.0
 10
6.7337938584
 20
4.1456740359
 30
0.0
 10
6.7341615155
 20
4.1455265785
 30
0.0
 10
6.734474765
 20
4.1453753932
 30
0.0
 10
6.7347346945
 20
4.1452212159
 30
0.0
 10
6.7348839148
 20
4.1451086279
 30
0.0
 10
6.7349482816
 20
4.1450515006
 30
0.0
  0
SPLINE
  5
4DE
100
AcDbEntity
  8
0
100
AcDbSpline
 62
7
  6
CONTINUOUS
 70
0
 71
3
 72
17
 73
13
 74
0
 42
0.0000001
 43
0.0000001
 44
0.0000000001
 40
0.0
 40
0.0
 40
0.0
 40
0.0
 40
0.1205621227
 40
0.2418749995
 40
0.364261354
 40
0.4880457509
 40
0.6135139656
 40
0.7408007848
 40
0.8051696601
 40
0.8698920779
 40
0.9348803318
 40
1.0
 40
1.0
 40
1.0
 40
1.0
 10
6.7349482816
 20
4.1582205531
 30
0.0
 10
6.7348290744
 20
4.1576597112
 30
0.0
 10
6.7345202052
 20
4.1565479306
 30
0.0
 10
6.7338422589
 20
4.1549483167
 30
0.0
 10
6.7329401169
 20
4.15344426
 30
0.0
 10
6.7318071271
 20
4.1520779369
 30
0.0
 10
6.730443873
 20
4.1509030281
 30
0.0
 10
6.7291309615
 20
4.1501398983
 30
0.0
 10
6.7279950678
 20
4.1496917135
 30
0.0
 10
6.7271041295
 20
4.1494436761
 30
0.0
 10
6.7261883132
 20
4.1492920008
 30
0.0
 10
6.7255690073
 20
4.1492579494
 30
0.0
 10
6.7252593104
 20
4.1492579494
 30
0.0
  0
SPLINE
  5
4DF
100
AcDbEntity
  8
0
100
AcDbSpline
 62
7
  6
CONTINUOUS
 70
0
 71
3
 72
19
 73
15
 74
0
 42
0.0000001
 43
0.0000001
 44
0.0000000001
 40
0.0
 40
0.0
 40
0.0
 40
0.0
 40
0.1821630259
 40
0.355115854
 40
0.5120421541
 40
0.6492735638
 40
0.7100973134
 40
0.7657231894
 40
0.8162573535
 40
0.8618584715
 40
0.9027368889
 40
0.9391573089
 40
0.9714462936
 40
1.0
 40
1.0
 40
1.0
 40
1.0
 10
6.7252593104
 20
4.1604108155
 30
0.0
 10
6.7258736905
 20
4.1604108155
 30
0.0
 10
6.7270716431
 20
4.1603792014
 30
0.0
 10
6.7287939062
 20
4.160240582
 30
0.0
 10
6.7303552443
 20
4.1600236995
 30
0.0
 10
6.7315291115
 20
4.1597825082
 30
0.0
 10
6.7323555004
 20
4.159560025
 30
0.0
 10
6.7328926088
 20
4.1593899629
 30
0.0
 10
6.733372585
 20
4.1592115004
 30
0.0
 10
6.7337961184
 20
4.1590259475
 30
0.0
 10
6.7341641651
 20
4.1588345017
 30
0.0
 10
6.7344778218
 20
4.1586380553
 30
0.0
 10
6.7347381235
 20
4.1584375061
 30
0.0
 10
6.7348850816
 20
4.1582932168
 30
0.0
 10
6.7349482816
 20
4.1582205531
 30
0.0
  0
SPLINE
  5
4E0
100
AcDbEntity
  8
0
100
AcDbSpline
 62
7
  6
CONTINUOUS
 70
0
 71
3
 72
17
 73
13
 74
0
 42
0.0000001
 43
0.0000001
 44
0.0000000001
 40
0.0
 40
0.0
 40
0.0
 40
0.0
 40
0.1192651107
 40
0.2395097116
 40
0.3611503507
 40
0.4846054875
 40
0.610239021
 40
0.7382170663
 40
0.8031124817
 40
0.8684602563
 40
0.9341455882
 40
1.0
 40
1.0
 40
1.0
 40
1.0
 10
6.7349482816
 20
4.1717457712
 30
0.0
 10
6.7348289901
 20
4.17119777
 30
0.0
 10
6.7345196608
 20
4.1701110108
 30
0.0
 10
6.7338411987
 20
4.1685486251
 30
0.0
 10
6.732938373
 20
4.1670796822
 30
0.0
 10
6.7318046391
 20
4.1657455231
 30
0.0
 10
6.7304408025
 20
4.1645987006
 30
0.0
 10
6.7291291735
 20
4.1638549498
 30
0.0
 10
6.7279944218
 20
4.1634178825
 30
0.0
 10
6.7271036502
 20
4.1631758047
 30
0.0
 10
6.7261880535
 20
4.1630277839
 30
0.0
 10
6.7255689856
 20
4.1629945572
 30
0.0
 10
6.7252593104
 20
4.1629945572
 30
0.0
  0
SPLINE
  5
4E1
100
AcDbEntity
  8
0
100
AcDbSpline
 62
7
  6
CONTINUOUS
 70
0
 71
3
 72
19
 73
15
 74
0
 42
0.0000001
 43
0.0000001
 44
0.0000000001
 40
0.0
 40
0.0
 40
0.0
 40
0.0
 40
0.1787864284
 40
0.2653708824
 40
0.3488107437
 40
0.5035543367
 40
0.6396300532
 40
0.7003289895
 40
0.7561598077
 40
0.8072529698
 40
0.8537939041
 40
0.896022704
 40
0.9342372952
 40
1.0
 40
1.0
 40
1.0
 40
1.0
 10
6.7252593104
 20
4.1744295467
 30
0.0
 10
6.7258738012
 20
4.1744295467
 30
0.0
 10
6.7267862866
 20
4.1744000572
 30
0.0
 10
6.72798123
 20
4.1743010322
 30
0.0
 10
6.7290900137
 20
4.1741706635
 30
0.0
 10
6.730359223
 20
4.1739544109
 30
0.0
 10
6.7315323384
 20
4.1736586861
 30
0.0
 10
6.7323571119
 20
4.1733864811
 30
0.0
 10
6.7328944546
 20
4.1731779066
 30
0.0
 10
6.7333747026
 20
4.1729589604
 30
0.0
 10
6.7337984625
 20
4.1727312883
 30
0.0
 10
6.734166911
 20
4.1724961518
 30
0.0
 10
6.7345653566
 20
4.1721898511
 30
0.0
 10
6.7348174513
 20
4.1719300852
 30
0.0
 10
6.7349482816
 20
4.1717457712
 30
0.0
  0
SPLINE
  5
4E2
100
AcDbEntity
  8
0
100
AcDbSpline
 62
7
  6
CONTINUOUS
 70
0
 71
3
 72
18
 73
14
 74
0
 42
0.0000001
 43
0.0000001
 44
0.0000000001
 40
0.0
 40
0.0
 40
0.0
 40
0.0
 40
0.1177679459
 40
0.2367814529
 40
0.357564215
 40
0.418830535
 40
0.4807394518
 40
0.60655742
 40
0.7353142539
 40
0.800802104
 40
0.8668527364
 40
0.9333208704
 40
1.0
 40
1.0
 40
1.0
 40
1.0
 10
6.7349482816
 20
4.185590083
 30
0.0
 10
6.7348288894
 20
4.1850563707
 30
0.0
 10
6.7345189875
 20
4.1839974261
 30
0.0
 10
6.7338400385
 20
4.1824766389
 30
0.0
 10
6.7330899934
 20
4.1812899738
 30
0.0
 10
6.7323778106
 20
4.1804075494
 30
0.0
 10
6.7315810614
 20
4.1795680584
 30
0.0
 10
6.7304372621
 20
4.1786328084
 30
0.0
 10
6.7291272117
 20
4.1779107006
 30
0.0
 10
6.7279937115
 20
4.17748596
 30
0.0
 10
6.7271031285
 20
4.177250514
 30
0.0
 10
6.7261877713
 20
4.1771065553
 30
0.0
 10
6.725568962
 20
4.1770742454
 30
0.0
 10
6.7252593104
 20
4.1770742454
 30
0.0
  0
SPLINE
  5
4E3
100
AcDbEntity
  8
0
100
AcDbSpline
 62
7
  6
CONTINUOUS
 70
0
 71
3
 72
18
 73
14
 74
0
 42
0.0000001
 43
0.0000001
 44
0.0000000001
 40
0.0
 40
0.0
 40
0.0
 40
0.0
 40
0.1751501067
 40
0.2600706177
 40
0.3420174298
 40
0.494450336
 40
0.6293482679
 40
0.7459966195
 40
0.7977293077
 40
0.8453081611
 40
0.8889937712
 40
0.9291030869
 40
1.0
 40
1.0
 40
1.0
 40
1.0
 10
6.7252593104
 20
4.1887600156
 30
0.0
 10
6.7258739321
 20
4.1887600156
 30
0.0
 10
6.7267871069
 20
4.1887251247
 30
0.0
 10
6.727981819
 20
4.1886081522
 30
0.0
 10
6.7290918642
 20
4.1884539588
 30
0.0
 10
6.7303639291
 20
4.1881977441
 30
0.0
 10
6.7317243284
 20
4.1877919108
 30
0.0
 10
6.7327091998
 20
4.1873814839
 30
0.0
 10
6.7333768643
 20
4.187021796
 30
0.0
 10
6.7338008097
 20
4.1867525163
 30
0.0
 10
6.7341693472
 20
4.1864743804
 30
0.0
 10
6.7345711749
 20
4.18610907
 30
0.0
 10
6.734820132
 20
4.1858033243
 30
0.0
 10
6.7349482816
 20
4.185590083
 30
0.0
  0
SPLINE
  5
4E4
100
AcDbEntity
  8
0
100
AcDbSpline
 62
7
  6
CONTINUOUS
 70
0
 71
3
 72
18
 73
14
 74
0
 42
0.0000001
 43
0.0000001
 44
0.0000000001
 40
0.0
 40
0.0
 40
0.0
 40
0.0
 40
0.1160843246
 40
0.2337240351
 40
0.3535628446
 40
0.4145553431
 40
0.4763393986
 40
0.6023928322
 40
0.7320458812
 40
0.7982052408
 40
0.865048193
 40
0.9323958036
 40
1.0
 40
1.0
 40
1.0
 40
1.0
 10
6.7349456182
 20
4.1997123272
 30
0.0
 10
6.7348256988
 20
4.1991948628
 30
0.0
 10
6.7345144468
 20
4.1981676533
 30
0.0
 10
6.7338341159
 20
4.1966942646
 30
0.0
 10
6.7330839389
 20
4.1955461547
 30
0.0
 10
6.7323723954
 20
4.194692668
 30
0.0
 10
6.731574592
 20
4.1938787998
 30
0.0
 10
6.7304293315
 20
4.1929726872
 30
0.0
 10
6.7291217875
 20
4.1922753042
 30
0.0
 10
6.7279905343
 20
4.1918647889
 30
0.0
 10
6.727100905
 20
4.1916370215
 30
0.0
 10
6.7261866209
 20
4.1914977713
 30
0.0
 10
6.7255686532
 20
4.1914665232
 30
0.0
 10
6.7252593104
 20
4.1914665232
 30
0.0
  0
SPLINE
  5
4E5
100
AcDbEntity
  8
0
100
AcDbSpline
 62
7
  6
CONTINUOUS
 70
0
 71
3
 72
15
 73
11
 74
0
 42
0.0000001
 43
0.0000001
 44
0.0000000001
 40
0.0
 40
0.0
 40
0.0
 40
0.0
 40
0.1713469828
 40
0.3348959837
 40
0.4849815116
 40
0.6187571823
 40
0.7356994637
 40
0.8367923464
 40
0.9239857592
 40
1.0
 40
1.0
 40
1.0
 40
1.0
 10
6.7252593104
 20
4.2033547297
 30
0.0
 10
6.7258735265
 20
4.2033547297
 30
0.0
 10
6.7270747258
 20
4.2033018685
 30
0.0
 10
6.7288000424
 20
4.2030701696
 30
0.0
 10
6.7303649639
 20
4.2027074713
 30
0.0
 10
6.7317265166
 20
4.2022399459
 30
0.0
 10
6.7328664053
 20
4.2016928228
 30
0.0
 10
6.7337821802
 20
4.2010863956
 30
0.0
 10
6.7344783896
 20
4.2004366783
 30
0.0
 10
6.7348190286
 20
4.1999536198
 30
0.0
 10
6.7349456182
 20
4.1997123272
 30
0.0
  0
SPLINE
  5
4E6
100
AcDbEntity
  8
0
100
AcDbSpline
 62
7
  6
CONTINUOUS
 70
0
 71
3
 72
18
 73
14
 74
0
 42
0.0000001
 43
0.0000001
 44
0.0000000001
 40
0.0
 40
0.0
 40
0.0
 40
0.0
 40
0.1141889271
 40
0.2302839271
 40
0.3490651927
 40
0.4097529797
 40
0.4714001999
 40
0.597724513
 40
0.7283865721
 40
0.7952992159
 40
0.8630295726
 40
0.9313612336
 40
1.0
 40
1.0
 40
1.0
 40
1.0
 10
6.7349482816
 20
4.2140834322
 30
0.0
 10
6.7348286264
 20
4.2135824665
 30
0.0
 10
6.7345173106
 20
4.2125873386
 30
0.0
 10
6.7338368672
 20
4.2111617732
 30
0.0
 10
6.7330871182
 20
4.2100524748
 30
0.0
 10
6.732376328
 20
4.209227983
 30
0.0
 10
6.7315770561
 20
4.2084395833
 30
0.0
 10
6.73042926
 20
4.2075623423
 30
0.0
 10
6.7291227625
 20
4.2068893664
 30
0.0
 10
6.7279921343
 20
4.2064928027
 30
0.0
 10
6.7271019761
 20
4.2062725362
 30
0.0
 10
6.7261871525
 20
4.206137876
 30
0.0
 10
6.7255689104
 20
4.206107662
 30
0.0
 10
6.7252593104
 20
4.206107662
 30
0.0
  0
SPLINE
  5
4E7
100
AcDbEntity
  8
0
100
AcDbSpline
 62
7
  6
CONTINUOUS
 70
0
 71
3
 72
15
 73
11
 74
0
 42
0.0000001
 43
0.0000001
 44
0.0000000001
 40
0.0
 40
0.0
 40
0.0
 40
0.0
 40
0.1676021786
 40
0.3279176925
 40
0.4756974388
 40
0.608384717
 40
0.7256408355
 40
0.8285607032
 40
0.9191333826
 40
1.0
 40
1.0
 40
1.0
 40
1.0
 10
6.7252593104
 20
4.2181983046
 30
0.0
 10
6.7258742487
 20
4.2181983046
 30
0.0
 10
6.7270783074
 20
4.2181384144
 30
0.0
 10
6.7288068044
 20
4.2178759985
 30
0.0
 10
6.7303743819
 20
4.2174651911
 30
0.0
 10
6.7317379017
 20
4.2169355763
 30
0.0
 10
6.7328789573
 20
4.2163156168
 30
0.0
 10
6.7337947562
 20
4.2156284242
 30
0.0
 10
6.7344893097
 20
4.2148924474
 30
0.0
 10
6.7348236314
 20
4.2143526806
 30
0.0
 10
6.7349482816
 20
4.2140834322
 30
0.0
  0
SPLINE
  5
4E8
100
AcDbEntity
  8
0
100
AcDbSpline
 62
7
  6
CONTINUOUS
 70
0
 71
3
 72
18
 73
14
 74
0
 42
0.0000001
 43
0.0000001
 44
0.0000000001
 40
0.0
 40
0.0
 40
0.0
 40
0.0
 40
0.1120709276
 40
0.2264520771
 40
0.3440737216
 40
0.4044336031
 40
0.4659400147
 40
0.5925842083
 40
0.724371401
 40
0.7921149403
 40
0.8608199683
 40
0.9302295196
 40
1.0
 40
1.0
 40
1.0
 40
1.0
 10
6.7349482816
 20
4.2286543713
 30
0.0
 10
6.734828456
 20
4.2281717642
 30
0.0
 10
6.7345162354
 20
4.2272124217
 30
0.0
 10
6.7338348798
 20
4.22584038
 30
0.0
 10
6.7330853715
 20
4.2247745816
 30
0.0
 10
6.7323754438
 20
4.2239825987
 30
0.0
 10
6.7315747076
 20
4.2232229793
 30
0.0
 10
6.7304247287
 20
4.2223784585
 30
0.0
 10
6.7291203202
 20
4.2217329019
 30
0.0
 10
6.7279912796
 20
4.2213520694
 30
0.0
 10
6.7271013578
 20
4.2211403072
 30
0.0
 10
6.7261868225
 20
4.2210108532
 30
0.0
 10
6.7255688829
 20
4.2209818119
 30
0.0
 10
6.7252593104
 20
4.2209818119
 30
0.0
  0
SPLINE
  5
4E9
100
AcDbEntity
  8
0
100
AcDbSpline
 62
7
  6
CONTINUOUS
 70
0
 71
3
 72
15
 73
11
 74
0
 42
0.0000001
 43
0.0000001
 44
0.0000000001
 40
0.0
 40
0.0
 40
0.0
 40
0.0
 40
0.1638277999
 40
0.3209092401
 40
0.4664263066
 40
0.5981066799
 40
0.7157708785
 40
0.8205783445
 40
0.9144911657
 40
1.0
 40
1.0
 40
1.0
 40
1.0
 10
6.7252593104
 20
4.2332254364
 30
0.0
 10
6.7258744309
 20
4.2332254364
 30
0.0
 10
6.727080471
 20
4.2331587237
 30
0.0
 10
6.7288108797
 20
4.2328665261
 30
0.0
 10
6.730380095
 20
4.2324090678
 30
0.0
 10
6.7317448219
 20
4.2318192554
 30
0.0
 10
6.7328865067
 20
4.2311287615
 30
0.0
 10
6.7338020385
 20
4.2303635779
 30
0.0
 10
6.7344951107
 20
4.229544719
 30
0.0
 10
6.7348247759
 20
4.2289507235
 30
0.0
 10
6.7349482816
 20
4.2286543713
 30
0.0
  0
SPLINE
  5
4EA
100
AcDbEntity
  8
0
100
AcDbSpline
 62
7
  6
CONTINUOUS
 70
0
 71
3
 72
17
 73
13
 74
0
 42
0.0000001
 43
0.0000001
 44
0.0000000001
 40
0.0
 40
0.0
 40
0.0
 40
0.0
 40
0.1097317104
 40
0.2222354948
 40
0.338606583
 40
0.3986230736
 40
0.4599937377
 40
0.587028344
 40
0.7200823662
 40
0.788748644
 40
0.8585305948
 40
1.0
 40
1.0
 40
1.0
 40
1.0
 10
6.7349482816
 20
4.2433884216
 30
0.0
 10
6.7348282522
 20
4.2429254235
 30
0.0
 10
6.7345149611
 20
4.2420043145
 30
0.0
 10
6.7338325698
 20
4.240689572
 30
0.0
 10
6.7330833925
 20
4.2396703426
 30
0.0
 10
6.7323744562
 20
4.2389131036
 30
0.0
 10
6.731572122
 20
4.2381843446
 30
0.0
 10
6.730419852
 20
4.237374931
 30
0.0
 10
6.7291178072
 20
4.2367585549
 30
0.0
 10
6.7279903047
 20
4.2363944708
 30
0.0
 10
6.7267995765
 20
4.2361230881
 30
0.0
 10
6.7258759537
 20
4.2360401031
 30
0.0
 10
6.7252593104
 20
4.2360401031
 30
0.0
  0
SPLINE
  5
4EB
100
AcDbEntity
  8
0
100
AcDbSpline
 62
7
  6
CONTINUOUS
 70
0
 71
3
 72
15
 73
11
 74
0
 42
0.0000001
 43
0.0000001
 44
0.0000000001
 40
0.0
 40
0.0
 40
0.0
 40
0.0
 40
0.1601433678
 40
0.3140853405
 40
0.4574376667
 40
0.588200767
 40
0.7063298697
 40
0.8130111102
 40
0.9101334795
 40
1.0
 40
1.0
 40
1.0
 40
1.0
 10
6.7252593104
 20
4.2484031504
 30
0.0
 10
6.7258746263
 20
4.2484031504
 30
0.0
 10
6.7270827872
 20
4.248329747
 30
0.0
 10
6.728815178
 20
4.2480083915
 30
0.0
 10
6.730385969
 20
4.2475053041
 30
0.0
 10
6.7317516736
 20
4.2468567063
 30
0.0
 10
6.7328936066
 20
4.2460975087
 30
0.0
 10
6.7338084524
 20
4.245256627
 30
0.0
 10
6.7344998402
 20
4.2443576329
 30
0.0
 10
6.7348256608
 20
4.2437112081
 30
0.0
 10
6.7349482816
 20
4.2433884216
 30
0.0
  0
SPLINE
  5
4EC
100
AcDbEntity
  8
0
100
AcDbSpline
 62
7
  6
CONTINUOUS
 70
0
 71
3
 72
17
 73
13
 74
0
 42
0.0000001
 43
0.0000001
 44
0.0000000001
 40
0.0
 40
0.0
 40
0.0
 40
0.0
 40
0.1071241939
 40
0.2175466492
 40
0.3325417658
 40
0.3921835885
 40
0.4534082384
 40
0.5808729202
 40
0.7153017857
 40
0.7849642891
 40
0.8559061251
 40
1.0
 40
1.0
 40
1.0
 40
1.0
 10
6.7349482816
 20
4.2582451982
 30
0.0
 10
6.7348280074
 20
4.2578029984
 30
0.0
 10
6.7345134465
 20
4.2569224625
 30
0.0
 10
6.733829887
 20
4.2556686648
 30
0.0
 10
6.7330811592
 20
4.2546989545
 30
0.0
 10
6.7323733602
 20
4.2539785879
 30
0.0
 10
6.7315692922
 20
4.2532827085
 30
0.0
 10
6.73041469
 20
4.2525107123
 30
0.0
 10
6.7291151455
 20
4.2519251573
 30
0.0
 10
6.7279894005
 20
4.2515787852
 30
0.0
 10
6.7267981982
 20
4.2513201342
 30
0.0
 10
6.7258757271
 20
4.2512412617
 30
0.0
 10
6.7252593104
 20
4.2512412617
 30
0.0
  0
SPLINE
  5
4ED
100
AcDbEntity
  8
0
100
AcDbSpline
 62
7
  6
CONTINUOUS
 70
0
 71
3
 72
15
 73
11
 74
0
 42
0.0000001
 43
0.0000001
 44
0.0000000001
 40
0.0
 40
0.0
 40
0.0
 40
0.0
 40
0.156589175
 40
0.3075195511
 40
0.4488252374
 40
0.57876347
 40
0.6973984757
 40
0.8059093986
 40
0.9060778979
 40
1.0
 40
1.0
 40
1.0
 40
1.0
 10
6.7252593104
 20
4.2636898457
 30
0.0
 10
6.7258748329
 20
4.2636898457
 30
0.0
 10
6.7270852296
 20
4.2636099014
 30
0.0
 10
6.7288196394
 20
4.2632600968
 30
0.0
 10
6.7303919058
 20
4.2627125551
 30
0.0
 10
6.7317583397
 20
4.262006808
 30
0.0
 10
6.7329001796
 20
4.2611810119
 30
0.0
 10
6.7338140457
 20
4.2602669856
 30
0.0
 10
6.7345037043
 20
4.2592907449
 30
0.0
 10
6.7348263549
 20
4.2585936738
 30
0.0
 10
6.7349482816
 20
4.2582451982
 30
0.0
  0
SPLINE
  5
4EE
100
AcDbEntity
  8
0
100
AcDbSpline
 62
7
  6
CONTINUOUS
 70
0
 71
3
 72
16
 73
12
 74
0
 42
0.0000001
 43
0.0000001
 44
0.0000000001
 40
0.0
 40
0.0
 40
0.0
 40
0.0
 40
0.1042611499
 40
0.2124204664
 40
0.3259449902
 40
0.4461882526
 40
0.574161514
 40
0.7101113709
 40
0.7808619512
 40
0.8530645036
 40
1.0
 40
1.0
 40
1.0
 40
1.0
 10
6.7349482816
 20
4.2731839797
 30
0.0
 10
6.7348277113
 20
4.2727637027
 30
0.0
 10
6.7345116599
 20
4.2719259854
 30
0.0
 10
6.7338266941
 20
4.2707365574
 30
0.0
 10
6.7329165501
 20
4.2696203845
 30
0.0
 10
6.7317764398
 20
4.2686097107
 30
0.0
 10
6.7304093691
 20
4.2677444705
 30
0.0
 10
6.7291123997
 20
4.2671911442
 30
0.0
 10
6.7279884839
 20
4.2668633992
 30
0.0
 10
6.7267968072
 20
4.266618186
 30
0.0
 10
6.7258754995
 20
4.2665436225
 30
0.0
 10
6.7252593104
 20
4.2665436225
 30
0.0
  0
SPLINE
  5
4EF
100
AcDbEntity
  8
0
100
AcDbSpline
 62
7
  6
CONTINUOUS
 70
0
 71
3
 72
14
 73
10
 74
0
 42
0.0000001
 43
0.0000001
 44
0.0000000001
 40
0.0
 40
0.0
 40
0.0
 40
0.0
 40
0.3007185698
 40
0.4402163905
 40
0.5695212099
 40
0.6887811064
 40
0.7991408125
 40
0.9022524889
 40
1.0
 40
1.0
 40
1.0
 40
1.0
 10
6.7252593104
 20
4.2790436225
 30
0.0
 10
6.7264670581
 20
4.2790436225
 30
0.0
 10
6.7282506595
 20
4.2787955449
 30
0.0
 10
6.7303974727
 20
4.2779892434
 30
0.0
 10
6.7317648128
 20
4.2772281233
 30
0.0
 10
6.7329061721
 20
4.2763380959
 30
0.0
 10
6.7338188985
 20
4.2753536864
 30
0.0
 10
6.7345068734
 20
4.2743032112
 30
0.0
 10
6.7348269066
 20
4.2735573195
 30
0.0
 10
6.7349482816
 20
4.2731839797
 30
0.0
  0
SPLINE
  5
4F0
100
AcDbEntity
  8
0
100
AcDbSpline
 62
7
  6
CONTINUOUS
 70
0
 71
3
 72
16
 73
12
 74
0
 42
0.0000001
 43
0.0000001
 44
0.0000000001
 40
0.0
 40
0.0
 40
0.0
 40
0.0
 40
0.1011154959
 40
0.2068178725
 40
0.3187741261
 40
0.4384856862
 40
0.5016644605
 40
0.5671327528
 40
0.7047217685
 40
0.8500633556
 40
1.0
 40
1.0
 40
1.0
 40
1.0
 10
6.7349456182
 20
4.2881638199
 30
0.0
 10
6.7348242718
 20
4.2877669346
 30
0.0
 10
6.7345056997
 20
4.2869750154
 30
0.0
 10
6.7338185965
 20
4.2858548083
 30
0.0
 10
6.732906968
 20
4.2848044328
 30
0.0
 10
6.7319729261
 20
4.2840263042
 30
0.0
 10
6.7311185399
 20
4.2834687226
 30
0.0
 10
6.7301586756
 20
4.2829443801
 30
0.0
 10
6.7288256594
 20
4.282409616
 30
0.0
 10
6.7270887942
 20
4.2820061799
 30
0.0
 10
6.725874715
 20
4.2819138199
 30
0.0
 10
6.7252593104
 20
4.2819138199
 30
0.0
  0
SPLINE
  5
4F1
100
AcDbEntity
  8
0
100
AcDbSpline
 62
7
  6
CONTINUOUS
 70
0
 71
3
 72
16
 73
12
 74
0
 42
0.0000001
 43
0.0000001
 44
0.0000000001
 40
0.0
 40
0.0
 40
0.0
 40
0.0
 40
0.1499358894
 40
0.2952772805
 40
0.4328663237
 40
0.4983346021
 40
0.5615133369
 40
0.681225135
 40
0.7931817375
 40
0.8988844248
 40
1.0
 40
1.0
 40
1.0
 40
1.0
 10
6.7252593104
 20
4.2944138199
 30
0.0
 10
6.7258747119
 20
4.2944138199
 30
0.0
 10
6.7270887872
 20
4.2943214611
 30
0.0
 10
6.728825649
 20
4.2939180272
 30
0.0
 10
6.7301586649
 20
4.2933832644
 30
0.0
 10
6.73111853
 20
4.2928589235
 30
0.0
 10
6.731972917
 20
4.2923013418
 30
0.0
 10
6.732906962
 20
4.2915232134
 30
0.0
 10
6.7338185936
 20
4.2904728355
 30
0.0
 10
6.734505699
 20
4.2893526262
 30
0.0
 10
6.7348242717
 20
4.2885607055
 30
0.0
 10
6.7349456182
 20
4.2881638199
 30
0.0
  0
SPLINE
  5
4F2
100
AcDbEntity
  8
0
100
AcDbSpline
 62
7
  6
CONTINUOUS
 70
0
 71
3
 72
14
 73
10
 74
0
 42
0.0000001
 43
0.0000001
 44
0.0000000001
 40
0.0
 40
0.0
 40
0.0
 40
0.0
 40
0.097747435
 40
0.2008588056
 40
0.3112181621
 40
0.4304778131
 40
0.5597826749
 40
0.6992804677
 40
1.0
 40
1.0
 40
1.0
 40
1.0
 10
6.7349482816
 20
4.30314366
 30
0.0
 10
6.7348269067
 20
4.3027703206
 30
0.0
 10
6.7345068741
 20
4.3020244303
 30
0.0
 10
6.7338189014
 20
4.3009739573
 30
0.0
 10
6.7329061781
 20
4.2999895499
 30
0.0
 10
6.7317648219
 20
4.2990995221
 30
0.0
 10
6.7303974832
 20
4.2983384014
 30
0.0
 10
6.7282506672
 20
4.2975320964
 30
0.0
 10
6.7264670619
 20
4.2972840173
 30
0.0
 10
6.7252593104
 20
4.2972840173
 30
0.0
  0
SPLINE
  5
4F3
100
AcDbEntity
  8
0
100
AcDbSpline
 62
7
  6
CONTINUOUS
 70
0
 71
3
 72
16
 73
12
 74
0
 42
0.0000001
 43
0.0000001
 44
0.0000000001
 40
0.0
 40
0.0
 40
0.0
 40
0.0
 40
0.1469347561
 40
0.2191372407
 40
0.2898876909
 40
0.4258375642
 40
0.5538107705
 40
0.6740542621
 40
0.7875791357
 40
0.8957387689
 40
1.0
 40
1.0
 40
1.0
 40
1.0
 10
6.7252593104
 20
4.3097840173
 30
0.0
 10
6.7258754964
 20
4.3097840173
 30
0.0
 10
6.7267968008
 20
4.3097094552
 30
0.0
 10
6.7279884736
 20
4.3094642426
 30
0.0
 10
6.7291123892
 20
4.3091364998
 30
0.0
 10
6.7304093585
 20
4.3085831749
 30
0.0
 10
6.7317764306
 20
4.3077179355
 30
0.0
 10
6.7329165441
 20
4.3067072619
 30
0.0
 10
6.7338266912
 20
4.3055910867
 30
0.0
 10
6.7345116591
 20
4.3044016562
 30
0.0
 10
6.7348277112
 20
4.3035639373
 30
0.0
 10
6.7349482816
 20
4.30314366
 30
0.0
  0
SPLINE
  5
4F4
100
AcDbEntity
  8
0
100
AcDbSpline
 62
7
  6
CONTINUOUS
 70
0
 71
3
 72
15
 73
11
 74
0
 42
0.0000001
 43
0.0000001
 44
0.0000000001
 40
0.0
 40
0.0
 40
0.0
 40
0.0
 40
0.093922028
 40
0.1940902267
 40
0.3026007991
 40
0.4212355491
 40
0.5511738158
 40
0.6924794666
 40
0.8434100382
 40
1.0
 40
1.0
 40
1.0
 40
1.0
 10
6.7349482816
 20
4.3180824415
 30
0.0
 10
6.734826355
 20
4.3177339662
 30
0.0
 10
6.734503705
 20
4.3170368965
 30
0.0
 10
6.7338140487
 20
4.3160606577
 30
0.0
 10
6.7329001857
 20
4.3151466335
 30
0.0
 10
6.7317583488
 20
4.3143208369
 30
0.0
 10
6.7303919164
 20
4.3136150894
 30
0.0
 10
6.7288196498
 20
4.3130675458
 30
0.0
 10
6.7270852365
 20
4.3127177394
 30
0.0
 10
6.725874836
 20
4.312637794
 30
0.0
 10
6.7252593104
 20
4.312637794
 30
0.0
  0
SPLINE
  5
4F5
100
AcDbEntity
  8
0
100
AcDbSpline
 62
7
  6
CONTINUOUS
 70
0
 71
3
 72
17
 73
13
 74
0
 42
0.0000001
 43
0.0000001
 44
0.0000000001
 40
0.0
 40
0.0
 40
0.0
 40
0.0
 40
0.1440931481
 40
0.2150349167
 40
0.284697289
 40
0.4191261648
 40
0.5465907849
 40
0.6078156288
 40
0.6674574804
 40
0.7824529467
 40
0.8928757232
 40
1.0
 40
1.0
 40
1.0
 40
1.0
 10
6.7252593104
 20
4.3250863781
 30
0.0
 10
6.7258757239
 20
4.3250863781
 30
0.0
 10
6.7267981918
 20
4.3250075071
 30
0.0
 10
6.7279893902
 20
4.3247488568
 30
0.0
 10
6.7291151351
 20
4.324402487
 30
0.0
 10
6.7304146795
 20
4.3238169334
 30
0.0
 10
6.7315692827
 20
4.3230449378
 30
0.0
 10
6.7323733525
 20
4.3223490594
 30
0.0
 10
6.7330811538
 20
4.3216286917
 30
0.0
 10
6.7338298842
 20
4.3206589795
 30
0.0
 10
6.7345134458
 20
4.3194051793
 30
0.0
 10
6.7348280073
 20
4.3185246417
 30
0.0
 10
6.7349482816
 20
4.3180824415
 30
0.0
  0
SPLINE
  5
4F6
100
AcDbEntity
  8
0
100
AcDbSpline
 62
7
  6
CONTINUOUS
 70
0
 71
3
 72
15
 73
11
 74
0
 42
0.0000001
 43
0.0000001
 44
0.0000000001
 40
0.0
 40
0.0
 40
0.0
 40
0.0
 40
0.0898664491
 40
0.1869885235
 40
0.2936694127
 40
0.4117982493
 40
0.5425613762
 40
0.6859136601
 40
0.8398558287
 40
1.0
 40
1.0
 40
1.0
 40
1.0
 10
6.7349482816
 20
4.3329392181
 30
0.0
 10
6.7348256609
 20
4.332616432
 30
0.0
 10
6.734499841
 20
4.3319700084
 30
0.0
 10
6.7338084554
 20
4.3310710161
 30
0.0
 10
6.7328936127
 20
4.3302301362
 30
0.0
 10
6.7317516827
 20
4.3294709383
 30
0.0
 10
6.7303859796
 20
4.3288223399
 30
0.0
 10
6.7288151884
 20
4.3283192509
 30
0.0
 10
6.7270827942
 20
4.3279978937
 30
0.0
 10
6.7258746294
 20
4.3279244893
 30
0.0
 10
6.7252593104
 20
4.3279244893
 30
0.0
  0
SPLINE
  5
4F7
100
AcDbEntity
  8
0
100
AcDbSpline
 62
7
  6
CONTINUOUS
 70
0
 71
3
 72
17
 73
13
 74
0
 42
0.0000001
 43
0.0000001
 44
0.0000000001
 40
0.0
 40
0.0
 40
0.0
 40
0.0
 40
0.1414686907
 40
0.2112505747
 40
0.2799167204
 40
0.4129707474
 40
0.5400052862
 40
0.6013761401
 40
0.6613926569
 40
0.777764095
 40
0.890268205
 40
1.0
 40
1.0
 40
1.0
 40
1.0
 10
6.7252593104
 20
4.3402875367
 30
0.0
 10
6.7258759506
 20
4.3402875367
 30
0.0
 10
6.7267995701
 20
4.3402045532
 30
0.0
 10
6.7279902944
 20
4.3399331713
 30
0.0
 10
6.7291177967
 20
4.3395690896
 30
0.0
 10
6.7304198415
 20
4.338952715
 30
0.0
 10
6.7315721124
 20
4.3381433021
 30
0.0
 10
6.7323744485
 20
4.3374145441
 30
0.0
 10
6.7330833871
 20
4.3366573039
 30
0.0
 10
6.733832567
 20
4.3356380725
 30
0.0
 10
6.7345149604
 20
4.3343233273
 30
0.0
 10
6.7348282521
 20
4.3334022167
 30
0.0
 10
6.7349482816
 20
4.3329392181
 30
0.0
  0
SPLINE
  5
4F8
100
AcDbEntity
  8
0
100
AcDbSpline
 62
7
  6
CONTINUOUS
 70
0
 71
3
 72
15
 73
11
 74
0
 42
0.0000001
 43
0.0000001
 44
0.0000000001
 40
0.0
 40
0.0
 40
0.0
 40
0.0
 40
0.0855087656
 40
0.1794212981
 40
0.2842284116
 40
0.4018923329
 40
0.533572725
 40
0.6790897424
 40
0.8361713791
 40
1.0
 40
1.0
 40
1.0
 40
1.0
 10
6.7349482816
 20
4.3476732684
 30
0.0
 10
6.734824776
 20
4.3473769165
 30
0.0
 10
6.7344951115
 20
4.3467829222
 30
0.0
 10
6.7338020415
 20
4.345964065
 30
0.0
 10
6.7328865129
 20
4.345198883
 30
0.0
 10
6.7317448311
 20
4.3445083887
 30
0.0
 10
6.7303801056
 20
4.3439185759
 30
0.0
 10
6.72881089
 20
4.343461116
 30
0.0
 10
6.7270804779
 20
4.343168917
 30
0.0
 10
6.7258744339
 20
4.3431022034
 30
0.0
 10
6.7252593104
 20
4.3431022034
 30
0.0
  0
SPLINE
  5
4F9
100
AcDbEntity
  8
0
100
AcDbSpline
 62
7
  6
CONTINUOUS
 70
0
 71
3
 72
18
 73
14
 74
0
 42
0.0000001
 43
0.0000001
 44
0.0000000001
 40
0.0
 40
0.0
 40
0.0
 40
0.0
 40
0.0697703168
 40
0.1391793259
 40
0.2078842878
 40
0.2756276944
 40
0.4074148871
 40
0.5340590083
 40
0.5955656061
 40
0.6559255116
 40
0.7735475065
 40
0.8879289858
 40
1.0
 40
1.0
 40
1.0
 40
1.0
 10
6.7252593104
 20
4.3553458278
 30
0.0
 10
6.7255688822
 20
4.3553458278
 30
0.0
 10
6.7261868186
 20
4.3553167867
 30
0.0
 10
6.7271013507
 20
4.3551873344
 30
0.0
 10
6.7279912692
 20
4.3549755728
 30
0.0
 10
6.7291203097
 20
4.3545947428
 30
0.0
 10
6.7304247181
 20
4.3539491878
 30
0.0
 10
6.731574698
 20
4.3531046677
 30
0.0
 10
6.7323754361
 20
4.3523450493
 30
0.0
 10
6.7330853661
 20
4.3515530651
 30
0.0
 10
6.733834877
 20
4.3504872647
 30
0.0
 10
6.7345162347
 20
4.3491152202
 30
0.0
 10
6.7348284559
 20
4.3481558759
 30
0.0
 10
6.7349482816
 20
4.3476732684
 30
0.0
  0
SPLINE
  5
4FA
100
AcDbEntity
  8
0
100
AcDbSpline
 62
7
  6
CONTINUOUS
 70
0
 71
3
 72
15
 73
11
 74
0
 42
0.0000001
 43
0.0000001
 44
0.0000000001
 40
0.0
 40
0.0
 40
0.0
 40
0.0
 40
0.0808665517
 40
0.1714389484
 40
0.2743584619
 40
0.3916142917
 40
0.5243015807
 40
0.6720812709
 40
0.8323969821
 40
1.0
 40
1.0
 40
1.0
 40
1.0
 10
6.7349482816
 20
4.3622442075
 30
0.0
 10
6.7348236315
 20
4.3619749594
 30
0.0
 10
6.7344893105
 20
4.3614351937
 30
0.0
 10
6.7337947593
 20
4.3606992184
 30
0.0
 10
6.7328789636
 20
4.3600120272
 30
0.0
 10
6.7317379108
 20
4.3593920673
 30
0.0
 10
6.7303743925
 20
4.3588624522
 30
0.0
 10
6.7288068148
 20
4.3584516434
 30
0.0
 10
6.7270783143
 20
4.3581892261
 30
0.0
 10
6.7258742518
 20
4.3581293351
 30
0.0
 10
6.7252593104
 20
4.3581293351
 30
0.0
  0
SPLINE
  5
4FB
100
AcDbEntity
  8
0
100
AcDbSpline
 62
7
  6
CONTINUOUS
 70
0
 71
3
 72
18
 73
14
 74
0
 42
0.0000001
 43
0.0000001
 44
0.0000000001
 40
0.0
 40
0.0
 40
0.0
 40
0.0
 40
0.0686386054
 40
0.1369697322
 40
0.2047000233
 40
0.2716125333
 40
0.4022745877
 40
0.5285988232
 40
0.5902462263
 40
0.6509340351
 40
0.7697156515
 40
0.885810985
 40
1.0
 40
1.0
 40
1.0
 40
1.0
 10
6.7252593104
 20
4.3702199778
 30
0.0
 10
6.7255689097
 20
4.3702199778
 30
0.0
 10
6.7261871486
 20
4.370189764
 30
0.0
 10
6.727101969
 20
4.3700551055
 30
0.0
 10
6.7279921239
 20
4.3698348395
 30
0.0
 10
6.729122752
 20
4.3694382786
 30
0.0
 10
6.7304292494
 20
4.3687653042
 30
0.0
 10
6.7315770465
 20
4.367888064
 30
0.0
 10
6.7323763203
 20
4.3670996653
 30
0.0
 10
6.7330871128
 20
4.3662751722
 30
0.0
 10
6.7338368644
 20
4.3651658717
 30
0.0
 10
6.7345173099
 20
4.3637403033
 30
0.0
 10
6.7348286263
 20
4.3627451737
 30
0.0
 10
6.7349482816
 20
4.3622442075
 30
0.0
  0
SPLINE
  5
4FC
100
AcDbEntity
  8
0
100
AcDbSpline
 62
7
  6
CONTINUOUS
 70
0
 71
3
 72
15
 73
11
 74
0
 42
0.0000001
 43
0.0000001
 44
0.0000000001
 40
0.0
 40
0.0
 40
0.0
 40
0.0
 40
0.0760141782
 40
0.1632073146
 40
0.2642998424
 40
0.381241824
 40
0.5150174983
 40
0.6651029641
 40
0.8286521625
 40
1.0
 40
1.0
 40
1.0
 40
1.0
 10
6.7349456182
 20
4.3766153126
 30
0.0
 10
6.7348190287
 20
4.3763740201
 30
0.0
 10
6.7344783905
 20
4.3758909627
 30
0.0
 10
6.7337821833
 20
4.3752412466
 30
0.0
 10
6.7328664116
 20
4.3746348207
 30
0.0
 10
6.7317265257
 20
4.3740876972
 30
0.0
 10
6.7303649744
 20
4.3736201715
 30
0.0
 10
6.7288000527
 20
4.373257472
 30
0.0
 10
6.7270747326
 20
4.3730257719
 30
0.0
 10
6.7258735296
 20
4.3729729101
 30
0.0
 10
6.7252593104
 20
4.3729729101
 30
0.0
  0
SPLINE
  5
4FD
100
AcDbEntity
  8
0
100
AcDbSpline
 62
7
  6
CONTINUOUS
 70
0
 71
3
 72
18
 73
14
 74
0
 42
0.0000001
 43
0.0000001
 44
0.0000000001
 40
0.0
 40
0.0
 40
0.0
 40
0.0
 40
0.0676040383
 40
0.1349511232
 40
0.2017940102
 40
0.2679532357
 40
0.3976062753
 40
0.5236596267
 40
0.5854438618
 40
0.6464363802
 40
0.7662755397
 40
0.8839155861
 40
1.0
 40
1.0
 40
1.0
 40
1.0
 10
6.7252593104
 20
4.3848611165
 30
0.0
 10
6.7255686525
 20
4.3848611165
 30
0.0
 10
6.726186617
 20
4.3848298686
 30
0.0
 10
6.727100898
 20
4.3846906203
 30
0.0
 10
6.7279905239
 20
4.3844628534
 30
0.0
 10
6.7291217771
 20
4.3840523409
 30
0.0
 10
6.7304293209
 20
4.3833549595
 30
0.0
 10
6.7315745825
 20
4.3824488478
 30
0.0
 10
6.7323723878
 20
4.3816349806
 30
0.0
 10
6.7330839336
 20
4.3807814925
 30
0.0
 10
6.7338341132
 20
4.3796333804
 30
0.0
 10
6.7345144461
 20
4.3781599887
 30
0.0
 10
6.7348256987
 20
4.3771327773
 30
0.0
 10
6.7349456182
 20
4.3766153126
 30
0.0
  0
SPLINE
  5
4FE
100
AcDbEntity
  8
0
100
AcDbSpline
 62
7
  6
CONTINUOUS
 70
0
 71
3
 72
18
 73
14
 74
0
 42
0.0000001
 43
0.0000001
 44
0.0000000001
 40
0.0
 40
0.0
 40
0.0
 40
0.0
 40
0.0708968538
 40
0.1110060734
 40
0.1546915065
 40
0.2022700859
 40
0.2540026895
 40
0.3706507291
 40
0.5055486569
 40
0.657981494
 40
0.7399284316
 40
0.8248490176
 40
1.0
 40
1.0
 40
1.0
 40
1.0
 10
6.7349482816
 20
4.3907375567
 30
0.0
 10
6.7348201321
 20
4.3905243157
 30
0.0
 10
6.7345711755
 20
4.3902185703
 30
0.0
 10
6.7341693485
 20
4.3898532608
 30
0.0
 10
6.7338008129
 20
4.3895751256
 30
0.0
 10
6.7333768693
 20
4.3893058467
 30
0.0
 10
6.7327092071
 20
4.3889461593
 30
0.0
 10
6.7317243374
 20
4.3885357319
 30
0.0
 10
6.7303639396
 20
4.3881298983
 30
0.0
 10
6.7290918747
 20
4.387873683
 30
0.0
 10
6.7279818292
 20
4.3877194885
 30
0.0
 10
6.7267871133
 20
4.3876025157
 30
0.0
 10
6.7258739352
 20
4.3875676241
 30
0.0
 10
6.7252593104
 20
4.3875676241
 30
0.0
  0
SPLINE
  5
4FF
100
AcDbEntity
  8
0
100
AcDbSpline
 62
7
  6
CONTINUOUS
 70
0
 71
3
 72
18
 73
14
 74
0
 42
0.0000001
 43
0.0000001
 44
0.0000000001
 40
0.0
 40
0.0
 40
0.0
 40
0.0
 40
0.0666789731
 40
0.1331465861
 40
0.1991971534
 40
0.2646848681
 40
0.3934416889
 40
0.5192595711
 40
0.5811686651
 40
0.6424350032
 40
0.7632181169
 40
0.8822319637
 40
1.0
 40
1.0
 40
1.0
 40
1.0
 10
6.7252593104
 20
4.3992533944
 30
0.0
 10
6.7255689613
 20
4.3992533944
 30
0.0
 10
6.7261877674
 20
4.3992210846
 30
0.0
 10
6.7271031214
 20
4.3990771279
 30
0.0
 10
6.727993701
 20
4.3988416824
 30
0.0
 10
6.7291272012
 20
4.3984169447
 30
0.0
 10
6.7304372515
 20
4.3976948386
 30
0.0
 10
6.7315810518
 20
4.3967595894
 30
0.0
 10
6.732377803
 20
4.3959200995
 30
0.0
 10
6.733089988
 20
4.3950376737
 30
0.0
 10
6.7338400358
 20
4.3938510063
 30
0.0
 10
6.7345189868
 20
4.3923302159
 30
0.0
 10
6.7348288893
 20
4.3912712694
 30
0.0
 10
6.7349482816
 20
4.3907375567
 30
0.0
  0
SPLINE
  5
500
100
AcDbEntity
  8
0
100
AcDbSpline
 62
7
  6
CONTINUOUS
 70
0
 71
3
 72
19
 73
15
 74
0
 42
0.0000001
 43
0.0000001
 44
0.0000000001
 40
0.0
 40
0.0
 40
0.0
 40
0.0
 40
0.0657626486
 40
0.1039771487
 40
0.1462057721
 40
0.1927464338
 40
0.2438395073
 40
0.2996702569
 40
0.3603689378
 40
0.4964446432
 40
0.651188161
 40
0.7346281478
 40
0.8212126778
 40
1.0
 40
1.0
 40
1.0
 40
1.0
 10
6.7349482816
 20
4.4045818686
 30
0.0
 10
6.7348174514
 20
4.4043975547
 30
0.0
 10
6.7345653572
 20
4.4041377891
 30
0.0
 10
6.7341669124
 20
4.4038314892
 30
0.0
 10
6.7337984657
 20
4.4035963532
 30
0.0
 10
6.7333747075
 20
4.4033686819
 30
0.0
 10
6.732894461
 20
4.4031497359
 30
0.0
 10
6.7323571198
 20
4.4029411616
 30
0.0
 10
6.7315323477
 20
4.4026689561
 30
0.0
 10
6.7303592335
 20
4.4023732311
 30
0.0
 10
6.7290900242
 20
4.402156978
 30
0.0
 10
6.7279812402
 20
4.4020266084
 30
0.0
 10
6.726786293
 20
4.4019275832
 30
0.0
 10
6.7258738042
 20
4.401898093
 30
0.0
 10
6.7252593104
 20
4.401898093
 30
0.0
  0
SPLINE
  5
501
100
AcDbEntity
  8
0
100
AcDbSpline
 62
7
  6
CONTINUOUS
 70
0
 71
3
 72
17
 73
13
 74
0
 42
0.0000001
 43
0.0000001
 44
0.0000000001
 40
0.0
 40
0.0
 40
0.0
 40
0.0
 40
0.0658542573
 40
0.131539074
 40
0.196886784
 40
0.2617820633
 40
0.389760092
 40
0.5153935359
 40
0.6388488629
 40
0.7604898541
 40
0.8807347977
 40
1.0
 40
1.0
 40
1.0
 40
1.0
 10
6.7252593104
 20
4.4133330825
 30
0.0
 10
6.7255689848
 20
4.4133330825
 30
0.0
 10
6.7261880496
 20
4.413299856
 30
0.0
 10
6.7271036432
 20
4.4131518373
 30
0.0
 10
6.7279944113
 20
4.41290976
 30
0.0
 10
6.7291291631
 20
4.4124726957
 30
0.0
 10
6.7304407918
 20
4.4117289466
 30
0.0
 10
6.7318046299
 20
4.4105821253
 30
0.0
 10
6.7329383673
 20
4.4092479663
 30
0.0
 10
6.7338411959
 20
4.4077790202
 30
0.0
 10
6.7345196601
 20
4.4062166313
 30
0.0
 10
6.73482899
 20
4.4051298701
 30
0.0
 10
6.7349482816
 20
4.4045818686
 30
0.0
  0
SPLINE
  5
502
100
AcDbEntity
  8
0
100
AcDbSpline
 62
7
  6
CONTINUOUS
 70
0
 71
3
 72
19
 73
15
 74
0
 42
0.0000001
 43
0.0000001
 44
0.0000000001
 40
0.0
 40
0.0
 40
0.0
 40
0.0
 40
0.0285536973
 40
0.0608426378
 40
0.0972629713
 40
0.1381412125
 40
0.1837420589
 40
0.2342761307
 40
0.2899019338
 40
0.3507254217
 40
0.4879568141
 40
0.6448830339
 40
0.8178360642
 40
1.0
 40
1.0
 40
1.0
 40
1.0
 10
6.7349482816
 20
4.4181070866
 30
0.0
 10
6.7348850816
 20
4.418034423
 30
0.0
 10
6.7347381236
 20
4.4178901338
 30
0.0
 10
6.7344778224
 20
4.4176895848
 30
0.0
 10
6.7341641665
 20
4.4174931391
 30
0.0
 10
6.7337961217
 20
4.4173016938
 30
0.0
 10
6.7333725899
 20
4.4171161414
 30
0.0
 10
6.7328926152
 20
4.4169376791
 30
0.0
 10
6.7323555083
 20
4.4167676171
 30
0.0
 10
6.7315291208
 20
4.4165451335
 30
0.0
 10
6.7303552548
 20
4.4163039421
 30
0.0
 10
6.7287939165
 20
4.4160870588
 30
0.0
 10
6.7270716499
 20
4.4159484387
 30
0.0
 10
6.7258736935
 20
4.4159168242
 30
0.0
 10
6.7252593104
 20
4.4159168242
 30
0.0
  0
SPLINE
  5
503
100
AcDbEntity
  8
0
100
AcDbSpline
 62
7
  6
CONTINUOUS
 70
0
 71
3
 72
17
 73
13
 74
0
 42
0.0000001
 43
0.0000001
 44
0.0000000001
 40
0.0
 40
0.0
 40
0.0
 40
0.0
 40
0.0651195154
 40
0.130107259
 40
0.1948296123
 40
0.2591983508
 40
0.3864851503
 40
0.5119532723
 40
0.635737856
 40
0.7581245631
 40
0.8794377848
 40
1.0
 40
1.0
 40
1.0
 40
1.0
 10
6.7252593104
 20
4.4270696904
 30
0.0
 10
6.7255690065
 20
4.4270696904
 30
0.0
 10
6.7261883093
 20
4.4270356392
 30
0.0
 10
6.7271041225
 20
4.4268839659
 30
0.0
 10
6.7279950574
 20
4.4266359291
 30
0.0
 10
6.7291309511
 20
4.4261877473
 30
0.0
 10
6.7304438624
 20
4.4254246192
 30
0.0
 10
6.7318071179
 20
4.4242497117
 30
0.0
 10
6.7329401112
 20
4.4228833887
 30
0.0
 10
6.7338422561
 20
4.4213793287
 30
0.0
 10
6.7345202045
 20
4.4197797116
 30
0.0
 10
6.7348290743
 20
4.418667929
 30
0.0
 10
6.7349482816
 20
4.4181070866
 30
0.0
  0
SPLINE
  5
504
100
AcDbEntity
  8
0
100
AcDbSpline
 62
7
  6
CONTINUOUS
 70
0
 71
3
 72
19
 73
15
 74
0
 42
0.0000001
 43
0.0000001
 44
0.0000000001
 40
0.0
 40
0.0
 40
0.0
 40
0.0
 40
0.0259410682
 40
0.0561530225
 40
0.0909740134
 40
0.1306771315
 40
0.175482235
 40
0.2255641173
 40
0.2810518274
 40
0.3420263706
 40
0.4803468309
 40
0.6392475256
 40
0.8148370314
 40
1.0
 40
1.0
 40
1.0
 40
1.0
 10
6.7349482816
 20
4.4312761392
 30
0.0
 10
6.7348839148
 20
4.4312190118
 30
0.0
 10
6.7347346947
 20
4.4311064239
 30
0.0
 10
6.7344747656
 20
4.4309522469
 30
0.0
 10
6.7341615169
 20
4.430801062
 30
0.0
 10
6.7337938616
 20
4.430653605
 30
0.0
 10
6.7333706651
 20
4.4305105987
 30
0.0
 10
6.7328909782
 20
4.4303730008
 30
0.0
 10
6.7323541156
 20
4.4302418407
 30
0.0
 10
6.7315263845
 20
4.4300698843
 30
0.0
 10
6.7303519851
 20
4.4298838198
 30
0.0
 10
6.7287917843
 20
4.429716635
 30
0.0
 10
6.7270705835
 20
4.4296097658
 30
0.0
 10
6.7258736043
 20
4.4295853933
 30
0.0
 10
6.7252593104
 20
4.4295853933
 30
0.0
  0
SPLINE
  5
505
100
AcDbEntity
  8
0
100
AcDbSpline
 62
7
  6
CONTINUOUS
 70
0
 71
3
 72
17
 73
13
 74
0
 42
0.0000001
 43
0.0000001
 44
0.0000000001
 40
0.0
 40
0.0
 40
0.0
 40
0.0
 40
0.0644795271
 40
0.1288605626
 40
0.19303948
 40
0.2569517616
 40
0.383642933
 40
0.5089736721
 40
0.6330485971
 40
0.7560833027
 40
0.8783199347
 40
1.0
 40
1.0
 40
1.0
 40
1.0
 10
6.7252593104
 20
4.4404255669
 30
0.0
 10
6.7255690261
 20
4.4404255669
 30
0.0
 10
6.7261885439
 20
4.4403907855
 30
0.0
 10
6.727104554
 20
4.440235878
 30
0.0
 10
6.727995636
 20
4.4399825689
 30
0.0
 10
6.7291325422
 20
4.4395245364
 30
0.0
 10
6.7304465542
 20
4.4387442435
 30
0.0
 10
6.7318092636
 20
4.4375445385
 30
0.0
 10
6.7329415942
 20
4.4361498225
 30
0.0
 10
6.7338431473
 20
4.4346147534
 30
0.0
 10
6.7345206582
 20
4.4329822448
 30
0.0
 10
6.7348291443
 20
4.4318483362
 30
0.0
 10
6.7349482816
 20
4.4312761392
 30
0.0
  0
SPLINE
  5
506
100
AcDbEntity
  8
0
100
AcDbSpline
 62
7
  6
CONTINUOUS
 70
0
 71
3
 72
18
 73
14
 74
0
 42
0.0000001
 43
0.0000001
 44
0.0000000001
 40
0.0
 40
0.0
 40
0.0
 40
0.0
 40
0.0236762568
 40
0.0521473244
 40
0.0856621714
 40
0.124427192
 40
0.1686129808
 40
0.2183581065
 40
0.3348791178
 40
0.474126946
 40
0.634656754
 40
0.8123985361
 40
1.0
 40
1.0
 40
1.0
 40
1.0
 10
6.7349482816
 20
4.4440529309
 30
0.0
 10
6.7348824834
 20
4.4440119463
 30
0.0
 10
6.7347310352
 20
4.4439321675
 30
0.0
 10
6.7344718063
 20
4.4438245294
 30
0.0
 10
6.7341591254
 20
4.4437187895
 30
0.0
 10
6.7337919188
 20
4.4436155329
 30
0.0
 10
6.73336907
 20
4.4435153082
 30
0.0
 10
6.7326934496
 20
4.4433794292
 30
0.0
 10
6.7317044758
 20
4.4432262371
 30
0.0
 10
6.7303495272
 20
4.4430755176
 30
0.0
 10
6.728790166
 20
4.442958368
 30
0.0
 10
6.7270697883
 20
4.4428834197
 30
0.0
 10
6.7258735375
 20
4.4428663357
 30
0.0
 10
6.7252593104
 20
4.4428663357
 30
0.0
  0
SPLINE
  5
507
100
AcDbEntity
  8
0
100
AcDbSpline
 62
7
  6
CONTINUOUS
 70
0
 71
3
 72
17
 73
13
 74
0
 42
0.0000001
 43
0.0000001
 44
0.0000000001
 40
0.0
 40
0.0
 40
0.0
 40
0.0
 40
0.0639325344
 40
0.1277953838
 40
0.1915107983
 40
0.2550345977
 40
0.3812214906
 40
0.5064396551
 40
0.6307652416
 40
0.7543525646
 40
0.8773731953
 40
1.0
 40
1.0
 40
1.0
 40
1.0
 10
6.7252593104
 20
4.4533641046
 30
0.0
 10
6.7255690434
 20
4.4533641046
 30
0.0
 10
6.7261887507
 20
4.4533286899
 30
0.0
 10
6.7271049335
 20
4.4531709789
 30
0.0
 10
6.7279961427
 20
4.4529131014
 30
0.0
 10
6.7291339273
 20
4.4524465213
 30
0.0
 10
6.7304488669
 20
4.4516513403
 30
0.0
 10
6.7318110814
 20
4.4504301863
 30
0.0
 10
6.7329428356
 20
4.4490109131
 30
0.0
 10
6.7338438861
 20
4.4474490143
 30
0.0
 10
6.7345210317
 20
4.4457880363
 30
0.0
 10
6.7348292017
 20
4.4446349627
 30
0.0
 10
6.7349482816
 20
4.4440529309
 30
0.0
  0
SPLINE
  5
508
100
AcDbEntity
  8
0
100
AcDbSpline
 62
7
  6
CONTINUOUS
 70
0
 71
3
 72
17
 73
13
 74
0
 42
0.0000001
 43
0.0000001
 44
0.0000000001
 40
0.0
 40
0.0
 40
0.0
 40
0.0
 40
0.0220641831
 40
0.0493457205
 40
0.0819962437
 40
0.1201591559
 40
0.2135103147
 40
0.3301394309
 40
0.4700405976
 40
0.6316622268
 40
0.8108153729
 40
1.0
 40
1.0
 40
1.0
 40
1.0
 10
6.7349456182
 20
4.4564085569
 30
0.0
 10
6.7348781743
 20
4.4563846184
 30
0.0
 10
6.7347246451
 20
4.4563387232
 30
0.0
 10
6.7344657564
 20
4.4562774887
 30
0.0
 10
6.7341532627
 20
4.4562172116
 30
0.0
 10
6.7336274448
 20
4.4561328813
 30
0.0
 10
6.7328281696
 20
4.4560359923
 30
0.0
 10
6.7316976324
 20
4.4559357499
 30
0.0
 10
6.7303439389
 20
4.4558497669
 30
0.0
 10
6.7287861876
 20
4.4557828467
 30
0.0
 10
6.7270676871
 20
4.4557400528
 30
0.0
 10
6.7258729402
 20
4.4557302956
 30
0.0
 10
6.7252593104
 20
4.4557302956
 30
0.0
  0
SPLINE
  5
509
100
AcDbEntity
  8
0
100
AcDbSpline
 62
7
  6
CONTINUOUS
 70
0
 71
3
 72
17
 73
13
 74
0
 42
0.0000001
 43
0.0000001
 44
0.0000000001
 40
0.0
 40
0.0
 40
0.0
 40
0.0
 40
0.0634761447
 40
0.1269069413
 40
0.1902364369
 40
0.2534374766
 40
0.3792078264
 40
0.5043361936
 40
0.628873044
 40
0.7529204189
 40
0.8765907491
 40
1.0
 40
1.0
 40
1.0
 40
1.0
 10
6.7252593104
 20
4.4658430081
 30
0.0
 10
6.7255687742
 20
4.4658430081
 30
0.0
 10
6.7261880747
 20
4.4658071246
 30
0.0
 10
6.7271035871
 20
4.4656473376
 30
0.0
 10
6.7279941517
 20
4.4653860714
 30
0.0
 10
6.7291317995
 20
4.4649130921
 30
0.0
 10
6.7304466632
 20
4.4641066823
 30
0.0
 10
6.7318079093
 20
4.462869367
 30
0.0
 10
6.732939085
 20
4.4614314587
 30
0.0
 10
6.7338400348
 20
4.4598490465
 30
0.0
 10
6.7345175705
 20
4.4581661418
 30
0.0
 10
6.7348261804
 20
4.4569982371
 30
0.0
 10
6.7349456182
 20
4.4564085569
 30
0.0
  0
LINE
  5
50A
100
AcDbEntity
  8
0
100
AcDbLine
 62
7
  6
CONTINUOUS
 10
6.7349482816
 20
4.4682908214
 11
6.7252593104
 21
4.468120894
  0
SPLINE
  5
50B
100
AcDbEntity
  8
0
100
AcDbSpline
 62
7
  6
CONTINUOUS
 70
0
 71
3
 72
17
 73
13
 74
0
 42
0.0000001
 43
0.0000001
 44
0.0000000001
 40
0.0
 40
0.0
 40
0.0
 40
0.0
 40
0.0631113581
 40
0.1261969058
 40
0.1892181782
 40
0.2521616404
 40
0.3775998473
 40
0.5026573135
 40
0.6273633965
 40
0.751778091
 40
0.8759666682
 40
1.0
 40
1.0
 40
1.0
 40
1.0
 10
6.7252593104
 20
4.4778485499
 30
0.0
 10
6.7255690704
 20
4.4778485499
 30
0.0
 10
6.7261890728
 20
4.4778121682
 30
0.0
 10
6.7271055224
 20
4.4776501774
 30
0.0
 10
6.7279969248
 20
4.477385329
 30
0.0
 10
6.7291360504
 20
4.4769056861
 30
0.0
 10
6.7304523577
 20
4.476087765
 30
0.0
 10
6.7318137812
 20
4.4748339521
 30
0.0
 10
6.7329446547
 20
4.4733772877
 30
0.0
 10
6.733844957
 20
4.4717745197
 30
0.0
 10
6.7345215688
 20
4.4700701555
 30
0.0
 10
6.734829284
 20
4.4688878521
 30
0.0
 10
6.7349482816
 20
4.4682908214
 30
0.0
  0
SPLINE
  5
50C
100
AcDbEntity
  8
0
100
AcDbSpline
 62
7
  6
CONTINUOUS
 70
0
 71
3
 72
18
 73
14
 74
0
 42
0.0000001
 43
0.0000001
 44
0.0000000001
 40
0.0
 40
0.0
 40
0.0
 40
0.0
 40
0.0628247844
 40
0.1256387206
 40
0.1884167054
 40
0.2511555608
 40
0.3138446152
 40
0.3764806682
 40
0.5014666414
 40
0.6262825058
 40
0.7509558705
 40
0.8755161072
 40
1.0
 40
1.0
 40
1.0
 40
1.0
 10
6.7252593104
 20
4.4893273474
 30
0.0
 10
6.7255690797
 20
4.4893273474
 30
0.0
 10
6.7261891818
 20
4.4892906378
 30
0.0
 10
6.7271057358
 20
4.4891271729
 30
0.0
 10
6.7279971588
 20
4.4888599879
 30
0.0
 10
6.7288528865
 20
4.4884963715
 30
0.0
 10
6.7296648033
 20
4.4880449572
 30
0.0
 10
6.7306796816
 20
4.4873396318
 30
0.0
 10
6.7318149714
 20
4.4862850575
 30
0.0
 10
6.7329451787
 20
4.4848158309
 30
0.0
 10
6.7338453287
 20
4.4831990745
 30
0.0
 10
6.7345217378
 20
4.4814799217
 30
0.0
 10
6.7348293107
 20
4.4802876366
 30
0.0
 10
6.7349482816
 20
4.4796854859
 30
0.0
  0
SPLINE
  5
50D
100
AcDbEntity
  8
0
100
AcDbSpline
 62
7
  6
CONTINUOUS
 70
0
 71
3
 72
18
 73
14
 74
0
 42
0.0000001
 43
0.0000001
 44
0.0000000001
 40
0.0
 40
0.0
 40
0.0
 40
0.0
 40
0.0626359849
 40
0.1252713775
 40
0.18789022
 40
0.2504964068
 40
0.3130839915
 40
0.3756521626
 40
0.5006032821
 40
0.6255075878
 40
0.750370436
 40
0.8751966991
 40
1.0
 40
1.0
 40
1.0
 40
1.0
 10
6.7252593104
 20
4.5002547696
 30
0.0
 10
6.7255690862
 20
4.5002547696
 30
0.0
 10
6.7261892591
 20
4.5002178332
 30
0.0
 10
6.7271058764
 20
4.5000533649
 30
0.0
 10
6.7279973445
 20
4.4997845466
 30
0.0
 10
6.7288530951
 20
4.4994187182
 30
0.0
 10
6.729665015
 20
4.4989645721
 30
0.0
 10
6.7306801484
 20
4.4982548051
 30
0.0
 10
6.7318155872
 20
4.4971935799
 30
0.0
 10
6.7329455845
 20
4.4957156164
 30
0.0
 10
6.7338455655
 20
4.4940893008
 30
0.0
 10
6.7345218553
 20
4.4923599964
 30
0.0
 10
6.7348293287
 20
4.4911608659
 30
0.0
 10
6.7349482816
 20
4.4905552028
 30
0.0
  0
SPLINE
  5
50E
100
AcDbEntity
  8
0
100
AcDbSpline
 62
7
  6
CONTINUOUS
 70
0
 71
3
 72
18
 73
14
 74
0
 42
0.0000001
 43
0.0000001
 44
0.0000000001
 40
0.0
 40
0.0
 40
0.0
 40
0.0
 40
0.0625345123
 40
0.1250739617
 40
0.1876073177
 40
0.2501422781
 40
0.3126754298
 40
0.375207233
 40
0.5001398347
 40
0.6250917765
 40
0.7500564005
 40
0.8750254073
 40
1.0
 40
1.0
 40
1.0
 40
1.0
 10
6.7252593104
 20
4.5106008653
 30
0.0
 10
6.7255690897
 20
4.5106008653
 30
0.0
 10
6.7261893009
 20
4.5105638065
 30
0.0
 10
6.7271059525
 20
4.5103987969
 30
0.0
 10
6.727997445
 20
4.5101290976
 30
0.0
 10
6.7288532077
 20
4.5097620762
 30
0.0
 10
6.7296651291
 20
4.5093064567
 30
0.0
 10
6.7306803995
 20
4.5085942938
 30
0.0
 10
6.7318159174
 20
4.5075294818
 30
0.0
 10
6.7329458015
 20
4.5060468078
 30
0.0
 10
6.7338456918
 20
4.5044153377
 30
0.0
 10
6.7345219179
 20
4.502680559
 30
0.0
 10
6.7348293383
 20
4.5014777364
 30
0.0
 10
6.7349482816
 20
4.500870179
 30
0.0
  0
SPLINE
  5
50F
100
AcDbEntity
  8
0
100
AcDbSpline
 62
7
  6
CONTINUOUS
 70
0
 71
3
 72
18
 73
14
 74
0
 42
0.0000001
 43
0.0000001
 44
0.0000000001
 40
0.0
 40
0.0
 40
0.0
 40
0.0
 40
0.062520027
 40
0.1250457815
 40
0.1875669368
 40
0.2500917341
 40
0.3126171214
 40
0.3751437396
 40
0.5000737101
 40
0.6250324579
 40
0.7500116067
 40
0.8750009768
 40
1.0
 40
1.0
 40
1.0
 40
1.0
 10
6.7252593104
 20
4.5203372765
 30
0.0
 10
6.7255690902
 20
4.5203372765
 30
0.0
 10
6.7261893069
 20
4.5203002002
 30
0.0
 10
6.7271059633
 20
4.5201351133
 30
0.0
 10
6.7279974593
 20
4.519865288
 30
0.0
 10
6.7288532238
 20
4.519498096
 30
0.0
 10
6.7296651454
 20
4.519042266
 30
0.0
 10
6.7306804354
 20
4.5183297605
 30
0.0
 10
6.7318159645
 20
4.5172644357
 30
0.0
 10
6.7329458324
 20
4.5157810885
 30
0.0
 10
6.7338457098
 20
4.5141488817
 30
0.0
 10
6.7345219268
 20
4.5124133204
 30
0.0
 10
6.7348293396
 20
4.5112099701
 30
0.0
 10
6.7349482816
 20
4.5106021419
 30
0.0
  0
SPLINE
  5
510
100
AcDbEntity
  8
0
100
AcDbSpline
 62
7
  6
CONTINUOUS
 70
0
 71
3
 72
18
 73
14
 74
0
 42
0.0000001
 43
0.0000001
 44
0.0000000001
 40
0.0
 40
0.0
 40
0.0
 40
0.0
 40
0.0625924146
 40
0.1251866131
 40
0.1877687502
 40
0.2503443543
 40
0.312908565
 40
0.3754611128
 40
0.5004043929
 40
0.6253291946
 40
0.7502357361
 40
0.875123242
 40
1.0
 40
1.0
 40
1.0
 40
1.0
 10
6.7252593104
 20
4.5294324227
 30
0.0
 10
6.7255688036
 20
4.5294324227
 30
0.0
 10
6.7261884231
 20
4.529395501
 30
0.0
 10
6.7271042371
 20
4.529231097
 30
0.0
 10
6.7279949639
 20
4.5289623764
 30
0.0
 10
6.7288500582
 20
4.5285966667
 30
0.0
 10
6.7296614228
 20
4.5281426469
 30
0.0
 10
6.7306760266
 20
4.5274329959
 30
0.0
 10
6.7318110522
 20
4.5263718537
 30
0.0
 10
6.732940912
 20
4.5248939563
 30
0.0
 10
6.7338411703
 20
4.5232675596
 30
0.0
 10
6.7345181216
 20
4.5215380113
 30
0.0
 10
6.7348262658
 20
4.5203386525
 30
0.0
 10
6.7349456182
 20
4.5197328342
 30
0.0
  0
SPLINE
  5
511
100
AcDbEntity
  8
0
100
AcDbSpline
 62
7
  6
CONTINUOUS
 70
0
 71
3
 72
21
 73
17
 74
0
 42
0.0000001
 43
0.0000001
 44
0.0000000001
 40
0.0
 40
0.0
 40
0.0
 40
0.0
 40
0.0590702981
 40
0.1178888267
 40
0.1766690336
 40
0.2356262621
 40
0.2949645709
 40
0.3548636742
 40
0.4154703754
 40
0.4768935666
 40
0.6024042681
 40
0.6665661983
 40
0.7316338762
 40
0.7975709092
 40
0.8643219559
 40
1.0
 40
1.0
 40
1.0
 40
1.0
 10
7.3596687433
 20
3.8837138957
 30
0.0
 10
7.3607664884
 20
3.8838805489
 30
0.0
 10
7.3629691938
 20
3.8841401637
 30
0.0
 10
7.3662888129
 20
3.8842984656
 30
0.0
 10
7.3696093979
 20
3.8842231905
 30
0.0
 10
7.3729261346
 20
3.8839143681
 30
0.0
 10
7.3762348319
 20
3.8833776054
 30
0.0
 10
7.3795314733
 20
3.882619433
 30
0.0
 10
7.3828132112
 20
3.8816509058
 30
0.0
 10
7.3871961953
 20
3.8800831893
 30
0.0
 10
7.3915111329
 20
3.8781506688
 30
0.0
 10
7.3957526991
 20
3.8759275032
 30
0.0
 10
7.3989379074
 20
3.8741058603
 30
0.0
 10
7.4021036056
 20
3.8721566006
 30
0.0
 10
7.4063228668
 20
3.8693909667
 30
0.0
 10
7.4094268363
 20
3.8671875085
 30
0.0
 10
7.4114795589
 20
3.8656741292
 30
0.0
  0
SPLINE
  5
512
100
AcDbEntity
  8
0
100
AcDbSpline
 62
7
  6
CONTINUOUS
 70
0
 71
3
 72
18
 73
14
 74
0
 42
0.0000001
 43
0.0000001
 44
0.0000000001
 40
0.0
 40
0.0
 40
0.0
 40
0.0
 40
0.0627521154
 40
0.1254973252
 40
0.1882140429
 40
0.2509018118
 40
0.313551781
 40
0.376161673
 40
0.5011341694
 40
0.6259840454
 40
0.7507303607
 40
0.8753930586
 40
1.0
 40
1.0
 40
1.0
 40
1.0
 10
6.7252593104
 20
4.5378760425
 30
0.0
 10
6.7255690822
 20
4.5378760425
 30
0.0
 10
6.7261892115
 20
4.5378392457
 30
0.0
 10
6.7271057897
 20
4.5376753952
 30
0.0
 10
6.7279972301
 20
4.5374075824
 30
0.0
 10
6.7288529666
 20
4.5370431157
 30
0.0
 10
6.7296648847
 20
4.5365906515
 30
0.0
 10
6.7306798612
 20
4.535883619
 30
0.0
 10
6.7318152086
 20
4.5348264882
 30
0.0
 10
6.7329453352
 20
4.533353903
 30
0.0
 10
6.7338454201
 20
4.5317334721
 30
0.0
 10
6.7345217832
 20
4.5300104171
 30
0.0
 10
6.7348293177
 20
4.5288155009
 30
0.0
 10
6.7349482816
 20
4.5282120001
 30
0.0
  0
SPLINE
  5
513
100
AcDbEntity
  8
0
100
AcDbSpline
 62
7
  6
CONTINUOUS
 70
0
 71
3
 72
17
 73
13
 74
0
 42
0.0000001
 43
0.0000001
 44
0.0000000001
 40
0.0
 40
0.0
 40
0.0
 40
0.0
 40
0.0630092914
 40
0.1259982762
 40
0.1889334122
 40
0.2518049808
 40
0.3771508363
 40
0.5021890197
 40
0.626942742
 40
0.7514600768
 40
0.8757930653
 40
1.0
 40
1.0
 40
1.0
 40
1.0
 10
6.7252593104
 20
4.5456303246
 30
0.0
 10
6.7255690738
 20
4.5456303246
 30
0.0
 10
6.7261891138
 20
4.5455938213
 30
0.0
 10
6.7271055972
 20
4.5454312925
 30
0.0
 10
6.7279970238
 20
4.5451655679
 30
0.0
 10
6.7291363179
 20
4.5446842814
 30
0.0
 10
6.7304527929
 20
4.5438635004
 30
0.0
 10
6.7318141142
 20
4.5426055887
 30
0.0
 10
6.7329448771
 20
4.5411442313
 30
0.0
 10
6.733845087
 20
4.5395363323
 30
0.0
 10
6.7345216336
 20
4.5378265195
 30
0.0
 10
6.7348292939
 20
4.5366405433
 30
0.0
 10
6.7349482816
 20
4.5360416281
 30
0.0
  0
SPLINE
  5
514
100
AcDbEntity
  8
0
100
AcDbSpline
 62
7
  6
CONTINUOUS
 70
0
 71
3
 72
17
 73
13
 74
0
 42
0.0000001
 43
0.0000001
 44
0.0000000001
 40
0.0
 40
0.0
 40
0.0
 40
0.0
 40
0.0633451433
 40
0.1266519068
 40
0.1898705881
 40
0.252978914
 40
0.3786292416
 40
0.5037314479
 40
0.6283287058
 40
0.7525081355
 40
0.8763653072
 40
1.0
 40
1.0
 40
1.0
 40
1.0
 10
6.7252593104
 20
4.552678909
 30
0.0
 10
6.7255690626
 20
4.552678909
 30
0.0
 10
6.7261889797
 20
4.5526428047
 30
0.0
 10
6.7271053524
 20
4.5524820412
 30
0.0
 10
6.7279966995
 20
4.5522191915
 30
0.0
 10
6.7291354406
 20
4.5517432963
 30
0.0
 10
6.7304513617
 20
4.5509318977
 30
0.0
 10
6.7318130162
 20
4.5496874399
 30
0.0
 10
6.7329441422
 20
4.5482414862
 30
0.0
 10
6.7338446567
 20
4.5466504276
 30
0.0
 10
6.7345214187
 20
4.5449584961
 30
0.0
 10
6.734829261
 20
4.5437845716
 30
0.0
 10
6.7349482816
 20
4.5431918403
 30
0.0
  0
SPLINE
  5
515
100
AcDbEntity
  8
0
100
AcDbSpline
 62
7
  6
CONTINUOUS
 70
0
 71
3
 72
17
 73
13
 74
0
 42
0.0000001
 43
0.0000001
 44
0.0000000001
 40
0.0
 40
0.0
 40
0.0
 40
0.0
 40
0.0637705886
 40
0.1274800839
 40
0.1910584425
 40
0.2544675169
 40
0.3805059629
 40
0.5056916489
 40
0.6300918822
 40
0.7538425911
 40
0.8770944133
 40
1.0
 40
1.0
 40
1.0
 40
1.0
 10
6.7252593104
 20
4.5590024759
 30
0.0
 10
6.7255690487
 20
4.5590024759
 30
0.0
 10
6.7261888131
 20
4.5589668721
 30
0.0
 10
6.7271050478
 20
4.558808324
 30
0.0
 10
6.7279962949
 20
4.5585490825
 30
0.0
 10
6.7291343418
 20
4.5580799486
 30
0.0
 10
6.7304495536
 20
4.5572803204
 30
0.0
 10
6.7318116166
 20
4.5560527698
 30
0.0
 10
6.7329431986
 20
4.5546261731
 30
0.0
 10
6.7338441009
 20
4.5530562714
 30
0.0
 10
6.7345211398
 20
4.5513867995
 30
0.0
 10
6.7348292183
 20
4.5502280055
 30
0.0
 10
6.7349482816
 20
4.5496430384
 30
0.0
  0
SPLINE
  5
516
100
AcDbEntity
  8
0
100
AcDbSpline
 62
7
  6
CONTINUOUS
 70
0
 71
3
 72
17
 73
13
 74
0
 42
0.0000001
 43
0.0000001
 44
0.0000000001
 40
0.0
 40
0.0
 40
0.0
 40
0.0
 40
0.064286945
 40
0.1284855044
 40
0.1925011345
 40
0.2562764714
 40
0.3827895934
 40
0.5080801911
 40
0.6322431047
 40
0.7554725043
 40
0.8779857115
 40
1.0
 40
1.0
 40
1.0
 40
1.0
 10
6.7252593104
 20
4.5645836929
 30
0.0
 10
6.7255690322
 20
4.5645836929
 30
0.0
 10
6.726188616
 20
4.5645486895
 30
0.0
 10
6.7271046865
 20
4.5643927992
 30
0.0
 10
6.7279958132
 20
4.5641378884
 30
0.0
 10
6.7291330272
 20
4.5636768601
 30
0.0
 10
6.7304473673
 20
4.5628913487
 30
0.0
 10
6.7318099054
 20
4.5616841193
 30
0.0
 10
6.732942034
 20
4.5602807884
 30
0.0
 10
6.7338434098
 20
4.5587363083
 30
0.0
 10
6.7345207912
 20
4.5570938146
 30
0.0
 10
6.7348291647
 20
4.5559531857
 30
0.0
 10
6.7349482816
 20
4.5553775401
 30
0.0
  0
SPLINE
  5
517
100
AcDbEntity
  8
0
100
AcDbSpline
 62
7
  6
CONTINUOUS
 70
0
 71
3
 72
17
 73
13
 74
0
 42
0.0000001
 43
0.0000001
 44
0.0000000001
 40
0.0
 40
0.0
 40
0.0
 40
0.0
 40
0.0648937135
 40
0.129667466
 40
0.1941982626
 40
0.2584062587
 40
0.3854840026
 40
0.5109047413
 40
0.6347924431
 40
0.7574077265
 40
0.8790456932
 40
1.0
 40
1.0
 40
1.0
 40
1.0
 10
6.7252593104
 20
4.5694047855
 30
0.0
 10
6.7255687294
 20
4.5694047855
 30
0.0
 10
6.7261875389
 20
4.5693705424
 30
0.0
 10
6.7271026042
 20
4.5692180182
 30
0.0
 10
6.7279928394
 20
4.5689685872
 30
0.0
 10
6.7291282121
 20
4.5685177529
 30
0.0
 10
6.730440673
 20
4.5677499174
 30
0.0
 10
6.7318031993
 20
4.5665681817
 30
0.0
 10
6.7329358664
 20
4.5651939155
 30
0.0
 10
6.7338381173
 20
4.5636810425
 30
0.0
 10
6.7345165994
 20
4.5620719341
 30
0.0
 10
6.7348260306
 20
4.560953709
 30
0.0
 10
6.7349456182
 20
4.5603895229
 30
0.0
  0
SPLINE
  5
518
100
AcDbEntity
  8
0
100
AcDbSpline
 62
7
  6
CONTINUOUS
 70
0
 71
3
 72
17
 73
13
 74
0
 42
0.0000001
 43
0.0000001
 44
0.0000000001
 40
0.0
 40
0.0
 40
0.0
 40
0.0
 40
0.0655987022
 40
0.1310410008
 40
0.196171026
 40
0.2608828644
 40
0.388619577
 40
0.5141945934
 40
0.6377639374
 40
0.7596645075
 40
0.8802820048
 40
1.0
 40
1.0
 40
1.0
 40
1.0
 10
6.7252593104
 20
4.5734599628
 30
0.0
 10
6.7255689923
 20
4.5734599628
 30
0.0
 10
6.7261881388
 20
4.5734264511
 30
0.0
 10
6.727103808
 20
4.5732771682
 30
0.0
 10
6.7279946339
 20
4.5730330291
 30
0.0
 10
6.7291297803
 20
4.5725921207
 30
0.0
 10
6.7304418573
 20
4.5718416701
 30
0.0
 10
6.7318054981
 20
4.5706851254
 30
0.0
 10
6.7329389789
 20
4.5693398304
 30
0.0
 10
6.7338415692
 20
4.5678587286
 30
0.0
 10
6.7345198524
 20
4.5662834542
 30
0.0
 10
6.7348290198
 20
4.5651880352
 30
0.0
 10
6.7349482816
 20
4.5646355905
 30
0.0
  0
SPLINE
  5
519
100
AcDbEntity
  8
0
100
AcDbSpline
 62
7
  6
CONTINUOUS
 70
0
 71
3
 72
18
 73
14
 74
0
 42
0.0000001
 43
0.0000001
 44
0.0000000001
 40
0.0
 40
0.0
 40
0.0
 40
0.0
 40
0.0663910469
 40
0.1325851792
 40
0.1983898286
 40
0.2636697304
 40
0.3921512681
 40
0.5178997615
 40
0.5798491325
 40
0.6412015237
 40
0.7622778617
 40
0.8817152846
 40
1.0
 40
1.0
 40
1.0
 40
1.0
 10
6.7252593104
 20
4.5767306865
 30
0.0
 10
6.7255689693
 20
4.5767306865
 30
0.0
 10
6.7261878637
 20
4.5766980612
 30
0.0
 10
6.7271033
 20
4.5765527056
 30
0.0
 10
6.7279939436
 20
4.5763149775
 30
0.0
 10
6.7291278789
 20
4.5758859921
 30
0.0
 10
6.7304384426
 20
4.5751564791
 30
0.0
 10
6.7315816331
 20
4.5742125508
 30
0.0
 10
6.7323780156
 20
4.5733654075
 30
0.0
 10
6.7330903949
 20
4.5724742816
 30
0.0
 10
6.7338404747
 20
4.5712760106
 30
0.0
 10
6.7345192153
 20
4.569740934
 30
0.0
 10
6.7348289249
 20
4.5686723974
 30
0.0
 10
6.7349482816
 20
4.5681337634
 30
0.0
  0
SPLINE
  5
51A
100
AcDbEntity
  8
0
100
AcDbSpline
 62
7
  6
CONTINUOUS
 70
0
 71
3
 72
18
 73
14
 74
0
 42
0.0000001
 43
0.0000001
 44
0.0000000001
 40
0.0
 40
0.0
 40
0.0
 40
0.0
 40
0.0670894278
 40
0.133959251
 40
0.2003884687
 40
0.2662216406
 40
0.3955247037
 40
0.5216044203
 40
0.583513703
 40
0.6446936351
 40
0.7650423937
 40
0.8832859664
 40
1.0
 40
1.0
 40
1.0
 40
1.0
 10
6.7252593104
 20
4.5792104685
 30
0.0
 10
6.7255563228
 20
4.5792104685
 30
0.0
 10
6.7261497874
 20
4.579181343
 30
0.0
 10
6.7270287072
 20
4.5790514886
 30
0.0
 10
6.7278857018
 20
4.5788387785
 30
0.0
 10
6.7289795404
 20
4.5784543787
 30
0.0
 10
6.7302509526
 20
4.5777990499
 30
0.0
 10
6.7313744959
 20
4.5769444546
 30
0.0
 10
6.7321650454
 20
4.5761737094
 30
0.0
 10
6.7328762139
 20
4.5753626794
 30
0.0
 10
6.733636217
 20
4.5742683356
 30
0.0
 10
6.734344156
 20
4.5728585237
 30
0.0
 10
6.7346839379
 20
4.571871706
 30
0.0
 10
6.7348205481
 20
4.571373386
 30
0.0
  0
SPLINE
  5
51B
100
AcDbEntity
  8
0
100
AcDbSpline
 62
7
  6
CONTINUOUS
 70
0
 71
3
 72
18
 73
14
 74
0
 42
0.0000001
 43
0.0000001
 44
0.0000000001
 40
0.0
 40
0.0
 40
0.0
 40
0.0
 40
0.0682840542
 40
0.1362777422
 40
0.2037033644
 40
0.2703567637
 40
0.400670047
 40
0.5268982296
 40
0.5885913326
 40
0.6493828421
 40
0.7685272561
 40
0.8851552403
 40
1.0
 40
1.0
 40
1.0
 40
1.0
 10
6.7252593104
 20
4.5808925118
 30
0.0
 10
6.7255689187
 20
4.5808925118
 30
0.0
 10
6.726187256
 20
4.5808619252
 30
0.0
 10
6.7271021696
 20
4.5807256119
 30
0.0
 10
6.7279924
 20
4.5805026437
 30
0.0
 10
6.7291235361
 20
4.5801010758
 30
0.0
 10
6.7304306831
 20
4.5794193718
 30
0.0
 10
6.7315777772
 20
4.5785317675
 30
0.0
 10
6.7323765931
 20
4.5777342478
 30
0.0
 10
6.7330876469
 20
4.5768994322
 30
0.0
 10
6.7338374628
 20
4.5757763326
 30
0.0
 10
6.7345176299
 20
4.5743337839
 30
0.0
 10
6.7348286767
 20
4.573327288
 30
0.0
 10
6.7349482816
 20
4.57282049
 30
0.0
  0
SPLINE
  5
51C
100
AcDbEntity
  8
0
100
AcDbSpline
 62
7
  6
CONTINUOUS
 70
0
 71
3
 72
18
 73
14
 74
0
 42
0.0000001
 43
0.0000001
 44
0.0000000001
 40
0.0
 40
0.0
 40
0.0
 40
0.0
 40
0.0693816917
 40
0.1384204258
 40
0.206790319
 40
0.2742477473
 40
0.4056465408
 40
0.5321785228
 40
0.5937325905
 40
0.6542045489
 40
0.7722250007
 40
0.8871973569
 40
1.0
 40
1.0
 40
1.0
 40
1.0
 10
6.7252593104
 20
4.5817722062
 30
0.0
 10
6.7255688915
 20
4.5817722062
 30
0.0
 10
6.7261869298
 20
4.5817427653
 30
0.0
 10
6.7271015593
 20
4.5816115379
 30
0.0
 10
6.7279915583
 20
4.5813968762
 30
0.0
 10
6.7291211381
 20
4.5810106863
 30
0.0
 10
6.7304262662
 20
4.5803557904
 30
0.0
 10
6.7315755072
 20
4.5795000947
 30
0.0
 10
6.732375742
 20
4.5787306489
 30
0.0
 10
6.7330859732
 20
4.577927575
 30
0.0
 10
6.733835573
 20
4.5768469281
 30
0.0
 10
6.7345166134
 20
4.5754566164
 30
0.0
 10
6.7348285161
 20
4.5744850664
 30
0.0
 10
6.7349482816
 20
4.5739961976
 30
0.0
  0
LINE
  5
51D
100
AcDbEntity
  8
0
100
AcDbLine
 62
7
  6
CONTINUOUS
 10
6.4487828403
 20
4.2093640524
 11
6.4485023386
 21
4.2096704319
  0
SPLINE
  5
51E
100
AcDbEntity
  8
0
100
AcDbSpline
 62
7
  6
CONTINUOUS
 70
0
 71
3
 72
155
 73
151
 74
0
 42
0.0000001
 43
0.0000001
 44
0.0000000001
 40
0.0
 40
0.0
 40
0.0
 40
0.0
 40
0.0000009754
 40
0.0000038884
 40
0.0000087381
 40
0.0000155235
 40
0.0000348976
 40
0.000062003
 40
0.0000968319
 40
0.0001393768
 40
0.00018963
 40
0.0002475836
 40
0.0003865618
 40
0.0005562497
 40
0.0007565752
 40
0.0009874477
 40
0.0012487745
 40
0.0015404627
 40
0.002214551
 40
0.0030087828
 40
0.0039218674
 40
0.0049524701
 40
0.0060990892
 40
0.007359956
 40
0.0087332768
 40
0.0118096186
 40
0.0153119752
 40
0.0192227201
 40
0.0235232876
 40
0.0281949702
 40
0.0332188315
 40
0.0385757535
 40
0.0442472342
 40
0.0502152478
 40
0.0564623823
 40
0.0697275563
 40
0.083918748
 40
0.0989249357
 40
0.1146481652
 40
0.1310026221
 40
0.1479133197
 40
0.165314831
 40
0.1831500029
 40
0.2013690479
 40
0.2199284334
 40
0.2387896089
 40
0.2579186696
 40
0.2772854729
 40
0.2968630717
 40
0.316627628
 40
0.326573237
 40
0.3365577137
 40
0.3465786901
 40
0.3566339451
 40
0.3667213231
 40
0.3768388301
 40
0.3869844955
 40
0.3971565475
 40
0.4073531774
 40
0.4175728011
 40
0.427813982
 40
0.432942349
 40
0.4380757104
 40
0.4432137273
 40
0.4483565207
 40
0.453503725
 40
0.4586555381
 40
0.4638114578
 40
0.4689716676
 40
0.4741358075
 40
0.4793035464
 40
0.4844745237
 40
0.4896482028
 40
0.4948237947
 40
0.5000003795
 40
0.5051769358
 40
0.5103525479
 40
0.5155261926
 40
0.5206971527
 40
0.5258649157
 40
0.5310290762
 40
0.5361891931
 40
0.5413451621
 40
0.5464969098
 40
0.5516441784
 40
0.5567869062
 40
0.561924909
 40
0.5670582407
 40
0.5721866787
 40
0.5773099451
 40
0.5824280172
 40
0.5926476353
 40
0.5977490355
 40
0.6028444103
 40
0.6130163926
 40
0.6231620345
 40
0.6332795585
 40
0.6433669398
 40
0.6534221864
 40
0.6634431437
 40
0.6734276009
 40
0.6833732048
 40
0.7031377435
 40
0.7227153019
 40
0.7420820706
 40
0.7612111037
 40
0.7800722815
 40
0.7986316623
 40
0.8168507
 40
0.8346858833
 40
0.8520873991
 40
0.8689980812
 40
0.8853525395
 40
0.9010757945
 40
0.9160819633
 40
0.9302731583
 40
0.9435383414
 40
0.9557534874
 40
0.9614250395
 40
0.9667819716
 40
0.9718057365
 40
0.9764773341
 40
0.9807779099
 40
0.9846887644
 40
0.9881910498
 40
0.9897833578
 40
0.9912671537
 40
0.9926405169
 40
0.9939015246
 40
0.9950482525
 40
0.9960788038
 40
0.9969916717
 40
0.9977856403
 40
0.9984595267
 40
0.9987511448
 40
0.9990124213
 40
0.9992432631
 40
0.9994435769
 40
0.9996132712
 40
0.9997522699
 40
0.9998102379
 40
0.9998605075
 40
0.9999030705
 40
0.9999379187
 40
0.9999650439
 40
0.999984438
 40
0.9999912333
 40
0.9999960927
 40
0.9999990153
 40
1.0
 40
1.0
 40
1.0
 40
1.0
 10
7.3596687592
 20
3.9699131441
 30
0.0
 10
7.359668678
 20
3.9699133664
 30
0.0
 10
7.359667922
 20
3.9699140082
 30
0.0
 10
7.3596667447
 20
3.9699157443
 30
0.0
 10
7.3596644341
 20
3.969918437
 30
0.0
 10
7.3596597507
 20
3.9699243123
 30
0.0
 10
7.3596515708
 20
3.9699343277
 30
0.0
 10
7.3596391612
 20
3.9699496586
 30
0.0
 10
7.3596231787
 20
3.9699693367
 30
0.0
 10
7.3596036622
 20
3.9699933773
 30
0.0
 10
7.3595805996
 20
3.9700217669
 30
0.0
 10
7.3595427772
 20
3.9700683105
 30
0.0
 10
7.359486658
 20
3.9701373255
 30
0.0
 10
7.3594087088
 20
3.9702331117
 30
0.0
 10
7.3593166484
 20
3.9703461602
 30
0.0
 10
7.3592105233
 20
3.9704764289
 30
0.0
 10
7.3590903797
 20
3.9706238691
 30
0.0
 10
7.3589022911
 20
3.9708546611
 30
0.0
 10
7.3586325104
 20
3.9711856737
 30
0.0
 10
7.3582674976
 20
3.9716335695
 30
0.0
 10
7.3578478447
 20
3.9721485229
 30
0.0
 10
7.3573741846
 20
3.972729758
 30
0.0
 10
7.3568472112
 20
3.9733763987
 30
0.0
 10
7.3562676723
 20
3.9740874696
 30
0.0
 10
7.355392252
 20
3.9751614017
 30
0.0
 10
7.354173023
 20
3.9766567173
 30
0.0
 10
7.3525646526
 20
3.9786290983
 30
0.0
 10
7.3507683124
 20
3.9808314671
 30
0.0
 10
7.3487921456
 20
3.9832532767
 30
0.0
 10
7.3466448649
 20
3.9858840342
 30
0.0
 10
7.3443350842
 20
3.9887129932
 30
0.0
 10
7.3418711804
 20
3.991729278
 30
0.0
 10
7.3392616158
 20
3.9949223679
 30
0.0
 10
7.3365146437
 20
3.9982821058
 30
0.0
 10
7.3326002118
 20
4.0030671887
 30
0.0
 10
7.3274196165
 20
4.0093941953
 30
0.0
 10
7.3208875201
 20
4.017361289
 30
0.0
 10
7.3139707208
 20
4.0257841838
 30
0.0
 10
7.3067128921
 20
4.0346061839
 30
0.0
 10
7.2991520177
 20
4.0437772281
 30
0.0
 10
7.2913206703
 20
4.0532530137
 30
0.0
 10
7.2832466568
 20
4.0629943077
 30
0.0
 10
7.2749535439
 20
4.0729662859
 30
0.0
 10
7.2664609689
 20
4.0831377412
 30
0.0
 10
7.2577848353
 20
4.0934801933
 30
0.0
 10
7.2489376134
 20
4.1039672577
 30
0.0
 10
7.2399284189
 20
4.1145738907
 30
0.0
 10
7.2307622925
 20
4.1252751583
 30
0.0
 10
7.2214406209
 20
4.136045994
 30
0.0
 10
7.2135564056
 20
4.1450375984
 30
0.0
 10
7.2071612326
 20
4.1522388755
 30
0.0
 10
7.202309874
 20
4.1576493463
 30
0.0
 10
7.1974104022
 20
4.1630522674
 30
0.0
 10
7.1924593683
 20
4.1684419514
 30
0.0
 10
7.1874515802
 20
4.1738110464
 30
0.0
 10
7.1823811468
 20
4.179151357
 30
0.0
 10
7.1772395456
 20
4.1844519139
 30
0.0
 10
7.1720169162
 20
4.1896998781
 30
0.0
 10
7.1666989258
 20
4.1948771565
 30
0.0
 10
7.1612682878
 20
4.1999609314
 30
0.0
 10
7.1566329701
 20
4.2040927859
 30
0.0
 10
7.1528417822
 20
4.2073138558
 30
0.0
 10
7.1499511261
 20
4.2096816692
 30
0.0
 10
7.1470085832
 20
4.2119904708
 30
0.0
 10
7.1440090015
 20
4.2142304645
 30
0.0
 10
7.1409452016
 20
4.2163878418
 30
0.0
 10
7.1378111812
 20
4.2184480508
 30
0.0
 10
7.1345980599
 20
4.2203892816
 30
0.0
 10
7.1312986312
 20
4.2221869669
 30
0.0
 10
7.1279068878
 20
4.2238116361
 30
0.0
 10
7.1244196959
 20
4.2252285918
 30
0.0
 10
7.1208380741
 20
4.2263970128
 30
0.0
 10
7.1171703987
 20
4.2272702851
 30
0.0
 10
7.1134378238
 20
4.2278163935
 30
0.0
 10
7.1096685701
 20
4.2280030331
 30
0.0
 10
7.1058996499
 20
4.2278138116
 30
0.0
 10
7.1021665087
 20
4.2272716791
 30
0.0
 10
7.0984991311
 20
4.2263966764
 30
0.0
 10
7.0949177448
 20
4.2252277762
 30
0.0
 10
7.0914304191
 20
4.2238111457
 30
0.0
 10
7.0880383099
 20
4.2221872787
 30
0.0
 10
7.0847386385
 20
4.2203900216
 30
0.0
 10
7.0815257524
 20
4.2184484303
 30
0.0
 10
7.0783921839
 20
4.2163875202
 30
0.0
 10
7.0753282873
 20
4.2142303332
 30
0.0
 10
7.0723280635
 20
4.2119911983
 30
0.0
 10
7.0693858406
 20
4.2096820137
 30
0.0
 10
7.0664957318
 20
4.2073135296
 30
0.0
 10
7.0636510693
 20
4.2048962722
 30
0.0
 10
7.0608470161
 20
4.2024376785
 30
0.0
 10
7.0571606319
 20
4.199112481
 30
0.0
 10
7.0535407105
 20
4.1957222749
 30
0.0
 10
7.0499753097
 20
4.1922833631
 30
0.0
 10
7.046447615
 20
4.1888222327
 30
0.0
 10
7.0420974719
 20
4.1844521958
 30
0.0
 10
7.0369558351
 20
4.1791517066
 30
0.0
 10
7.0318857551
 20
4.1738110584
 30
0.0
 10
7.0268780613
 20
4.1684418734
 30
0.0
 10
7.0219271282
 20
4.1630521048
 30
0.0
 10
7.017027546
 20
4.1576492997
 30
0.0
 10
7.0121761502
 20
4.1522388761
 30
0.0
 10
7.0057810228
 20
4.145037572
 30
0.0
 10
6.9978969501
 20
4.1360458632
 30
0.0
 10
6.9885752004
 20
4.1252751254
 30
0.0
 10
6.9794090826
 20
4.1145738828
 30
0.0
 10
6.9703999063
 20
4.1039672534
 30
0.0
 10
6.9615526899
 20
4.0934801939
 30
0.0
 10
6.9528765497
 20
4.0831377505
 30
0.0
 10
6.9443839643
 20
4.072966304
 30
0.0
 10
6.9360908611
 20
4.0629943149
 30
0.0
 10
6.9280168599
 20
4.0532530107
 30
0.0
 10
6.9201854914
 20
4.0437772456
 30
0.0
 10
6.9126246098
 20
4.0346062036
 30
0.0
 10
6.9053668322
 20
4.025784159
 30
0.0
 10
6.8984499829
 20
4.0173613022
 30
0.0
 10
6.8919178951
 20
4.0093942035
 30
0.0
 10
6.8858199705
 20
4.0019468295
 30
0.0
 10
6.8810350171
 20
3.99609602
 30
0.0
 10
6.8774663654
 20
3.9917292055
 30
0.0
 10
6.8750024817
 20
3.9887129089
 30
0.0
 10
6.8726926499
 20
3.9858840453
 30
0.0
 10
6.8705453424
 20
3.9832533639
 30
0.0
 10
6.8685691658
 20
3.980831552
 30
0.0
 10
6.8667729105
 20
3.9786290992
 30
0.0
 10
6.8653920738
 20
3.9769357699
 30
0.0
 10
6.8643833318
 20
3.9756988544
 30
0.0
 10
6.8637011027
 20
3.974862185
 30
0.0
 10
6.8630698084
 20
3.9740877009
 30
0.0
 10
6.8624903051
 20
3.9733765095
 30
0.0
 10
6.8619633718
 20
3.972729774
 30
0.0
 10
6.8614897172
 20
3.9721485844
 30
0.0
 10
6.86107004
 20
3.971633817
 30
0.0
 10
6.8607049996
 20
3.9711861571
 30
0.0
 10
6.8604352129
 20
3.970855317
 30
0.0
 10
6.860247128
 20
3.9706246229
 30
0.0
 10
6.860126985
 20
3.9704772295
 30
0.0
 10
6.860020861
 20
3.9703469888
 30
0.0
 10
6.8599288023
 20
3.9702339502
 30
0.0
 10
6.8598508559
 20
3.9701381571
 30
0.0
 10
6.8597947417
 20
3.9700691251
 30
0.0
 10
6.8597569233
 20
3.9700225621
 30
0.0
 10
6.8597338624
 20
3.9699941559
 30
0.0
 10
6.8597143469
 20
3.9699700977
 30
0.0
 10
6.859698365
 20
3.9699504013
 30
0.0
 10
6.8596859542
 20
3.9699350527
 30
0.0
 10
6.859677775
 20
3.9699250217
 30
0.0
 10
6.8596730885
 20
3.969919136
 30
0.0
 10
6.8596707794
 20
3.9699164336
 30
0.0
 10
6.8596695947
 20
3.9699146934
 30
0.0
 10
6.8596688423
 20
3.9699140439
 30
0.0
 10
6.8596687592
 20
3.9699138199
 30
0.0
  0
SPLINE
  5
51F
100
AcDbEntity
  8
0
100
AcDbSpline
 62
7
  6
CONTINUOUS
 70
0
 71
3
 72
21
 73
17
 74
0
 42
0.0000001
 43
0.0000001
 44
0.0000000001
 40
0.0
 40
0.0
 40
0.0
 40
0.0
 40
0.011167855
 40
0.0226294018
 40
0.0476545871
 40
0.0772189839
 40
0.1125343552
 40
0.1542219505
 40
0.2025467966
 40
0.2575398577
 40
0.3190767442
 40
0.3869137411
 40
0.4607036309
 40
0.6243517029
 40
0.8058034171
 40
1.0
 40
1.0
 40
1.0
 40
1.0
 10
6.4587004697
 20
4.3384166416
 30
0.0
 10
6.4586682159
 20
4.3384185835
 30
0.0
 10
6.4586030719
 20
4.3384286767
 30
0.0
 10
6.4584723247
 20
4.3384745443
 30
0.0
 10
6.4583118917
 20
4.338584181
 30
0.0
 10
6.4581395265
 20
4.3387812554
 30
0.0
 10
6.4579790065
 20
4.3390457998
 30
0.0
 10
6.4578304941
 20
4.3393773242
 30
0.0
 10
6.4576945577
 20
4.3397747053
 30
0.0
 10
6.4575721692
 20
4.3402360295
 30
0.0
 10
6.4574643119
 20
4.3407586723
 30
0.0
 10
6.4573719042
 20
4.3413393564
 30
0.0
 10
6.4572667674
 20
4.3422165119
 30
0.0
 10
6.4571836991
 20
4.3434264404
 30
0.0
 10
6.4571565338
 20
4.3449870594
 30
0.0
 10
6.4571851789
 20
4.3460739323
 30
0.0
 10
6.4572108374
 20
4.3466352198
 30
0.0
  0
SPLINE
  5
520
100
AcDbEntity
  8
0
100
AcDbSpline
 62
7
  6
CONTINUOUS
 70
0
 71
3
 72
19
 73
15
 74
0
 42
0.0000001
 43
0.0000001
 44
0.0000000001
 40
0.0
 40
0.0
 40
0.0
 40
0.0
 40
0.0193406913
 40
0.0404294971
 40
0.0656218896
 40
0.0963339811
 40
0.1333460872
 40
0.1770843731
 40
0.227766133
 40
0.2855043713
 40
0.422300962
 40
0.587411987
 40
0.7803246219
 40
1.0
 40
1.0
 40
1.0
 40
1.0
 10
6.4573552845
 20
4.4241408448
 30
0.0
 10
6.4573440868
 20
4.4241415183
 30
0.0
 10
6.4573207022
 20
4.4241478099
 30
0.0
 10
6.4572901178
 20
4.4241716692
 30
0.0
 10
6.4572637514
 20
4.4242081799
 30
0.0
 10
6.4572407844
 20
4.4242571579
 30
0.0
 10
6.4572209511
 20
4.4243188156
 30
0.0
 10
6.4572042073
 20
4.4243932614
 30
0.0
 10
6.4571905533
 20
4.4244805017
 30
0.0
 10
6.4571756932
 20
4.424621999
 30
0.0
 10
6.4571666533
 20
4.4248305733
 30
0.0
 10
6.4571686654
 20
4.4251176365
 30
0.0
 10
6.4571833399
 20
4.4254524511
 30
0.0
 10
6.457200425
 20
4.4256911743
 30
0.0
 10
6.4572108374
 20
4.4258181636
 30
0.0
  0
SPLINE
  5
521
100
AcDbEntity
  8
0
100
AcDbSpline
 62
7
  6
CONTINUOUS
 70
0
 71
3
 72
109
 73
105
 74
0
 42
0.0000001
 43
0.0000001
 44
0.0000000001
 40
0.0
 40
0.0
 40
0.0
 40
0.0
 40
0.0545140686
 40
0.0851091745
 40
0.1173414699
 40
0.1508869799
 40
0.185490305
 40
0.2031234443
 40
0.2209478805
 40
0.2389442866
 40
0.2570947342
 40
0.275383253
 40
0.2937950772
 40
0.3030430683
 40
0.3123169677
 40
0.3216152447
 40
0.330936521
 40
0.3496421026
 40
0.3684232736
 40
0.3778395668
 40
0.3872711652
 40
0.39671714
 40
0.401445206
 40
0.4061766276
 40
0.4156477722
 40
0.4251298962
 40
0.4346213683
 40
0.4393708013
 40
0.4441222489
 40
0.4488749873
 40
0.4536290763
 40
0.4583843393
 40
0.4631402902
 40
0.4655183771
 40
0.4678964421
 40
0.4726524856
 40
0.4774083867
 40
0.482163284
 40
0.4869169632
 40
0.4916695972
 40
0.4964204682
 40
0.5011694313
 40
0.505916349
 40
0.5106609255
 40
0.5201416485
 40
0.5296115285
 40
0.5390690418
 40
0.5485133246
 40
0.5579431663
 40
0.5673574727
 40
0.576755029
 40
0.5861347792
 40
0.59549541
 40
0.6048357155
 40
0.6141542363
 40
0.6234496541
 40
0.6327204804
 40
0.6419651787
 40
0.6511822092
 40
0.669526572
 40
0.6877395018
 40
0.7058056267
 40
0.7237078648
 40
0.7414275963
 40
0.7762344824
 40
0.8100322163
 40
0.8425781106
 40
0.8582885391
 40
0.8735647919
 40
0.888355005
 40
0.9026007017
 40
0.9162360971
 40
0.9291872507
 40
0.9413713774
 40
0.9526975183
 40
0.9630660338
 40
0.9678582403
 40
0.9723707989
 40
0.9765896591
 40
0.9805011065
 40
0.9840915507
 40
0.9873470863
 40
0.9902544361
 40
0.9928021304
 40
0.9939376203
 40
0.9949790231
 40
0.9959249695
 40
0.99677434
 40
0.9975262051
 40
0.9981796435
 40
0.9987338957
 40
0.9989736631
 40
0.9991884411
 40
0.9993781672
 40
0.9995427787
 40
0.9996822169
 40
0.9997964299
 40
0.9998853663
 40
0.9999203396
 40
0.9999489744
 40
0.9999712643
 40
0.9999872028
 40
0.9999967835
 40
1.0
 40
1.0
 40
1.0
 40
1.0
 10
7.3856687429
 20
4.0611479826
 30
0.0
 10
7.3755107238
 20
4.0691234683
 30
0.0
 10
7.3596367379
 20
4.0815560587
 30
0.0
 10
7.3377056024
 20
4.0986389009
 30
0.0
 10
7.3196596659
 20
4.1126255829
 30
0.0
 10
7.3008164648
 20
4.1271335254
 30
0.0
 10
7.2846603205
 20
4.1394618463
 30
0.0
 10
7.2714197625
 20
4.1494710264
 30
0.0
 10
7.2612902328
 20
4.1570712438
 30
0.0
 10
7.2510288859
 20
4.1646997972
 30
0.0
 10
7.2406386933
 20
4.1723390634
 30
0.0
 10
7.2301182487
 20
4.179966884
 30
0.0
 10
7.2212527999
 20
4.186283791
 30
0.0
 10
7.2140865988
 20
4.1913044945
 30
0.0
 10
7.2086660952
 20
4.1950538888
 30
0.0
 10
7.2032050955
 20
4.1987750081
 30
0.0
 10
7.1958585512
 20
4.2036966134
 30
0.0
 10
7.186560628
 20
4.2097411854
 30
0.0
 10
7.1770953899
 20
4.2155653635
 30
0.0
 10
7.1693830608
 20
4.2200375541
 30
0.0
 10
7.1635141258
 20
4.2232770291
 30
0.0
 10
7.158551016
 20
4.2258560567
 30
0.0
 10
7.1545295508
 20
4.2278283278
 30
0.0
 10
7.1504699285
 20
4.2297348216
 30
0.0
 10
7.1453243159
 20
4.2319767341
 30
0.0
 10
7.1390292351
 20
4.2343888624
 30
0.0
 10
7.1336750102
 20
4.2361098251
 30
0.0
 10
7.1293284185
 20
4.2372756567
 30
0.0
 10
7.1260372808
 20
4.2380349254
 30
0.0
 10
7.1227183403
 20
4.2386681131
 30
0.0
 10
7.1193751957
 20
4.239164539
 30
0.0
 10
7.116013524
 20
4.2395211946
 30
0.0
 10
7.1132014251
 20
4.2396984151
 30
0.0
 10
7.1109486804
 20
4.2397633804
 30
0.0
 10
7.1086950033
 20
4.2397753265
 30
0.0
 10
7.1058783503
 20
4.2396920152
 30
0.0
 10
7.102506404
 20
4.2394459795
 30
0.0
 10
7.0991482747
 20
4.2390584989
 30
0.0
 10
7.0958106224
 20
4.2385276117
 30
0.0
 10
7.0924983997
 20
4.2378616567
 30
0.0
 10
7.0892145662
 20
4.2370727808
 30
0.0
 10
7.085961333
 20
4.2361714201
 30
0.0
 10
7.082739739
 20
4.2351680883
 30
0.0
 10
7.0784885649
 20
4.2337071121
 30
0.0
 10
7.0732557789
 20
4.231667569
 30
0.0
 10
7.0671001342
 20
4.2289426133
 30
0.0
 10
7.0610533415
 20
4.2260048032
 30
0.0
 10
7.0551058433
 20
4.2228919967
 30
0.0
 10
7.0492468677
 20
4.2196371719
 30
0.0
 10
7.0434662429
 20
4.2162674149
 30
0.0
 10
7.0377549868
 20
4.212804444
 30
0.0
 10
7.0321051494
 20
4.2092662061
 30
0.0
 10
7.0265101616
 20
4.2056669583
 30
0.0
 10
7.0209656983
 20
4.2020167379
 30
0.0
 10
7.0154669691
 20
4.1983256771
 30
0.0
 10
7.0100112934
 20
4.1946004159
 30
0.0
 10
7.0045953836
 20
4.1908482297
 30
0.0
 10
6.9992170234
 20
4.1870746703
 30
0.0
 10
6.9921056499
 20
4.1820286933
 30
0.0
 10
6.9833044477
 20
4.1756929572
 30
0.0
 10
6.9728575611
 20
4.1680556615
 30
0.0
 10
6.9625393461
 20
4.1604202466
 30
0.0
 10
6.9523515795
 20
4.1528052573
 30
0.0
 10
6.9390262736
 20
4.1427636529
 30
0.0
 10
6.9227536798
 20
4.1303761159
 30
0.0
 10
6.9037538252
 20
4.1157728604
 30
0.0
 10
6.8883815723
 20
4.1038740105
 30
0.0
 10
6.8764972303
 20
4.0946377787
 30
0.0
 10
6.8679417578
 20
4.0879731786
 30
0.0
 10
6.8596664163
 20
4.0815136464
 30
0.0
 10
6.8517029061
 20
4.0752863968
 30
0.0
 10
6.8440871164
 20
4.0693217722
 30
0.0
 10
6.8368594872
 20
4.0636536388
 30
0.0
 10
6.8300656481
 20
4.0583189066
 30
0.0
 10
6.8237553443
 20
4.0533590999
 30
0.0
 10
6.8188236537
 20
4.0494791899
 30
0.0
 10
6.8151614155
 20
4.0465963396
 30
0.0
 10
6.8126442848
 20
4.0446142165
 30
0.0
 10
6.8102914671
 20
4.0427607029
 30
0.0
 10
6.8081105038
 20
4.0410420589
 30
0.0
 10
6.8061088016
 20
4.0394646587
 30
0.0
 10
6.8042941326
 20
4.0380342463
 30
0.0
 10
6.8026738766
 20
4.0367562516
 30
0.0
 10
6.8014479523
 20
4.035789328
 30
0.0
 10
6.8005690413
 20
4.0350962624
 30
0.0
 10
6.799988118
 20
4.0346381425
 30
0.0
 10
6.7994604742
 20
4.0342219273
 30
0.0
 10
6.7989867506
 20
4.0338481122
 30
0.0
 10
6.7985674753
 20
4.0335171638
 30
0.0
 10
6.798203117
 20
4.0332294867
 30
0.0
 10
6.7979339942
 20
4.0330169685
 30
0.0
 10
6.7977464185
 20
4.0328688703
 30
0.0
 10
6.7976266111
 20
4.0327743018
 30
0.0
 10
6.7975207622
 20
4.0326907869
 30
0.0
 10
6.7974288995
 20
4.032618361
 30
0.0
 10
6.7973510556
 20
4.0325570485
 30
0.0
 10
6.797287268
 20
4.0325068655
 30
0.0
 10
6.7972429211
 20
4.0324719951
 30
0.0
 10
6.79721449
 20
4.0324496885
 30
0.0
 10
6.7971985002
 20
4.0324370948
 30
0.0
 10
6.7971859891
 20
4.0324273942
 30
0.0
 10
6.7971771826
 20
4.032420235
 30
0.0
 10
6.7971716335
 20
4.0324163394
 30
0.0
 10
6.7971694421
 20
4.0324141579
 30
0.0
 10
6.7971687592
 20
4.0324138199
 30
0.0
  0
LINE
  5
522
100
AcDbEntity
  8
0
100
AcDbLine
 62
7
  6
CONTINUOUS
 10
7.3927332738
 20
4.0250482231
 11
7.3856687097
 21
4.0611480457
  0
SPLINE
  5
523
100
AcDbEntity
  8
0
100
AcDbSpline
 62
7
  6
CONTINUOUS
 70
0
 71
3
 72
21
 73
17
 74
0
 42
0.0000001
 43
0.0000001
 44
0.0000000001
 40
0.0
 40
0.0
 40
0.0
 40
0.0
 40
0.1320816811
 40
0.1978508507
 40
0.2306075765
 40
0.2632535312
 40
0.392315081
 40
0.518761437
 40
0.5809760476
 40
0.6424687193
 40
0.7032734471
 40
0.7634521548
 40
0.8230941589
 40
0.8823079463
 40
0.9412328651
 40
1.0
 40
1.0
 40
1.0
 40
1.0
 10
7.3856687429
 20
4.0611479856
 30
0.0
 10
7.386647929
 20
4.061147984
 30
0.0
 10
7.3881189678
 20
4.0612760388
 30
0.0
 10
7.3897894394
 20
4.0616472538
 30
0.0
 10
7.3907229793
 20
4.0619209076
 30
0.0
 10
7.3920871387
 20
4.0623878532
 30
0.0
 10
7.3940306416
 20
4.0633055691
 30
0.0
 10
7.3959495301
 20
4.0646976827
 30
0.0
 10
7.3972770283
 20
4.0659963997
 30
0.0
 10
7.3981562565
 20
4.0670474094
 30
0.0
 10
7.398915252
 20
4.0681700919
 30
0.0
 10
7.399546721
 20
4.0693537394
 30
0.0
 10
7.4000444134
 20
4.0705869076
 30
0.0
 10
7.4004035216
 20
4.071857765
 30
0.0
 10
7.4006203675
 20
4.0731537607
 30
0.0
 10
7.4006687599
 20
4.0740270336
 30
0.0
 10
7.4006687592
 20
4.0744627031
 30
0.0
  0
SPLINE
  5
524
100
AcDbEntity
  8
0
100
AcDbSpline
 62
7
  6
CONTINUOUS
 70
0
 71
3
 72
23
 73
19
 74
0
 42
0.0000001
 43
0.0000001
 44
0.0000000001
 40
0.0
 40
0.0
 40
0.0
 40
0.0
 40
0.0489794389
 40
0.100387705
 40
0.1549514755
 40
0.213605415
 40
0.277472502
 40
0.34762664
 40
0.4242383602
 40
0.5050115329
 40
0.5849798434
 40
0.6597647661
 40
0.7279618915
 40
0.7901524317
 40
0.847477355
 40
0.9010128325
 40
0.9516312176
 40
1.0
 40
1.0
 40
1.0
 40
1.0
 10
7.4122319747
 20
3.8087213481
 30
0.0
 10
7.4130889742
 20
3.8093836744
 30
0.0
 10
7.4147930065
 20
3.8108108758
 30
0.0
 10
7.4172254605
 20
3.8132305081
 30
0.0
 10
7.4195564815
 20
3.816034636
 30
0.0
 10
7.4217358801
 20
3.8192975595
 30
0.0
 10
7.4236816141
 20
3.8230998803
 30
0.0
 10
7.4252608173
 20
3.8274967671
 30
0.0
 10
7.4262849813
 20
3.8324416071
 30
0.0
 10
7.4265689741
 20
3.837703599
 30
0.0
 10
7.4260501922
 20
3.8429064874
 30
0.0
 10
7.4248391022
 20
3.8477030853
 30
0.0
 10
7.4231331335
 20
3.8519211538
 30
0.0
 10
7.4211065831
 20
3.8555548707
 30
0.0
 10
7.4188752581
 20
3.8586726749
 30
0.0
 10
7.4165097943
 20
3.8613550993
 30
0.0
 10
7.4140536162
 20
3.86367259
 30
0.0
 10
7.4123404809
 20
3.8650394105
 30
0.0
 10
7.4114795589
 20
3.8656741292
 30
0.0
  0
ENDSEC
  0
SECTION
  2
OBJECTS
  0
DICTIONARY
  5
C
100
AcDbDictionary
280
0
281
1
  3
ACAD_GROUP
350
D
  3
ACAD_MLINESTYLE
350
17
  3
ACAD_LAYOUT
350
1A
  3
ACAD_PLOTSETTINGS
350
19
  3
ACAD_PLOTSTYLENAME
350
E
  0
DICTIONARY
  5
D
102
{ACAD_REACTORS
330
C
102
}
100
AcDbDictionary
280
0
281
1
  0
ACDBDICTIONARYWDFLT
  5
E
102
{ACAD_REACTORS
330
C
102
}
100
AcDbDictionary
281
1
  3
Normal
350
F
100
AcDbDictionaryWithDefault
340
F
  0
DICTIONARY
  5
17
102
{ACAD_REACTORS
330
C
102
}
100
AcDbDictionary
280
0
281
1
  3
Standard
350
18
  0
DICTIONARY
  5
19
102
{ACAD_REACTORS
330
C
102
}
100
AcDbDictionary
281
1
  0
DICTIONARY
  5
1A
102
{ACAD_REACTORS
330
C
102
}
100
AcDbDictionary
281
1
  3
Model
350
525
  3
Layout1
350
526
  0
ACDBPLACEHOLDER
  5
F
102
{ACAD_REACTORS
330
E
102
}
  0
MLINESTYLE
  5
18
102
{ACAD_REACTORS
330
17
102
}
100
AcDbMlineStyle
  2
STANDARD
 70
0
  3

 62
256
 51
90.0
 52
90.0
 71
2
 49
0.5
 62
256
  6
BYLAYER
 49
-0.5
 62
256
  6
BYLAYER
  0
LAYOUT
  5
525
102
{ACAD_REACTORS
330
1A
102
}
100
AcDbPlotSettings
  1

  2
none_device
  4
ANSI_A_(11.00_x_8.50_Inches)
  6

 40
0.0
 41
0.0
 42
0.0
 43
0.0
 44
279.4
 45
215.9
 46
0.0
 47
0.0
 48
0.0
 49
0.0
140
0.0
141
0.0
142
1.0
143
1.0
 70
1024
 72
0
 73
0
 74
0
  7

 75
0
147
1.0
148
0.0
149
0.0
100
AcDbLayout
  1
Model
 70
0
 71
0
 10
0.0
 20
0.0
 11
11.0
 21
8.5
 12
0.0
 22
0.0
 32
0.0
 14
0.0
 24
0.0
 34
0.0
 15
0.0
 25
0.0
 35
0.0
146
0.0
 13
0.0
 23
0.0
 33
0.0
 16
1.0
 26
0.0
 36
0.0
 17
0.0
 27
1.0
 37
0.0
 76
0
330
202
345
0
346
0
  0
LAYOUT
  5
526
102
{ACAD_REACTORS
330
1A
102
}
100
AcDbPlotSettings
  1

  2
none_device
  4
ANSI_A_(11.00_x_8.50_Inches)
  6

 40
0.0
 41
0.0
 42
0.0
 43
0.0
 44
279.4
 45
215.9
 46
0.0
 47
0.0
 48
0.0
 49
0.0
140
0.0
141
0.0
142
1.0
143
1.0
 70
0
 72
0
 73
0
 74
0
  7

 75
0
147
1.0
148
0.0
149
0.0
100
AcDbLayout
  1
Layout1
 70
0
 71
1
 10
0.0
 20
0.0
 11
11.0
 21
8.5
 12
0.0
 22
0.0
 32
0.0
 14
0.0
 24
0.0
 34
0.0
 15
0.0
 25
0.0
 35
0.0
146
0.0
 13
0.0
 23
0.0
 33
0.0
 16
1.0
 26
0.0
 36
0.0
 17
0.0
 27
1.0
 37
0.0
 76
0
330
203
345
0
346
0
  0
ENDSEC
  0
EOF
