999
DXF file: 9463_front.dxf
999
Pro/ENGINEER 2018400 by Parametric Technology Corporation
  0
SECTION
  2
HEADER
  9
$ACADVER
  1
AC1027
  9
$DWGCODEPAGE
  3
ANSI_1252
  9
$EXTMAX
 10
11.0
 20
8.5
 30
0.0
  9
$EXTMIN
 10
0.0
 20
0.0
 30
0.0
  9
$LIMMIN
 10
0.0
 20
0.0
  9
$LIMMAX
 10
11.0
 20
8.5
  9
$VIEWCTR
 10
5.5
 20
4.25
  9
$VIEWSIZE
 40
8.5
  9
$CLAYER
  8
0
  9
$LTSCALE
 40
0.605
  9
$CELTYPE
  6
BYLAYER
  9
$DIMSCALE
 40
1.0
  9
$DIMASZ
 40
0.1
  9
$DIMEXO
 40
0.0625
  9
$DIMDLI
 40
0.418
  9
$DIMEXE
 40
0.125
  9
$DIMCEN
 40
0.099
  9
$DIMLFAC
 40
1.0
  9
$DIMBLK
  1
_FILLED
  9
$DIMALT
 70
1
  9
$DIMALTD
 70
1
  9
$DIMALTTD
 70
2
  9
$DIMALTF
 40
25.4
  9
$DIMTXT
 40
0.08
  9
$DIMTOL
 70
1
  9
$DIMLIM
 70
0
  9
$DIMTFAC
 40
1.0
  9
$DIMTP
 40
0.01
  9
$DIMTM
 40
0.01
  9
$DIMGAP
 40
0.09
  9
$DIMDSEP
 70
46
  9
$AUNITS
 70
0
  9
$PDMODE
 70
3
  9
$PDSIZE
 40
0.3125
  9
$HANDSEED
  5
413
  9
$TILEMODE
 70
1
  9
$MEASUREMENT
 70
0
  9
$INSUNITS
 70
1
  0
ENDSEC
  0
SECTION
  2
CLASSES
  0
CLASS
  1
ACDBDICTIONARYWDFLT
  2
AcDbDictionaryWithDefault
  3
AutoCAD 2000
 90
0
 91
1
280
0
281
0
  0
CLASS
  1
ACDBPLACEHOLDER
  2
AcDbPlaceHolder
  3
AutoCAD 2000
 90
0
 91
1
280
0
281
0
  0
CLASS
  1
LAYOUT
  2
AcDbLayout
  3
AutoCAD 2000
 90
0
 91
0
280
0
281
0
  0
ENDSEC
  0
SECTION
  2
TABLES
  0
TABLE
  2
VPORT
  5
8
100
AcDbSymbolTable
 70
2
  0
VPORT
  5
1F4
100
AcDbSymbolTableRecord
100
AcDbViewportTableRecord
  2
*ACTIVE
 70
0
 10
0.0
 20
0.0
 11
1.0
 21
1.0
 12
5.5
 22
4.25
 13
0.0
 23
0.0
 14
1.0
 24
1.0
 15
0.0
 25
0.0
 16
0.0
 26
0.0
 36
1.0
 17
0.0
 27
0.0
 37
0.0
 40
8.5
 41
1.2941176471
 42
50.0
 43
0.0
 44
0.0
 50
0.0
 51
0.0
 71
0
 72
100
 73
1
 74
1
 75
0
 76
0
 77
0
 78
0
  0
ENDTAB
  0
TABLE
  2
LTYPE
  5
5
100
AcDbSymbolTable
 70
6
  0
LTYPE
  5
14
100
AcDbSymbolTableRecord
100
AcDbLinetypeTableRecord
  2
BYBLOCK
 70
0
  3

 72
65
 73
0
 40
0.0
  0
LTYPE
  5
15
100
AcDbSymbolTableRecord
100
AcDbLinetypeTableRecord
  2
BYLAYER
 70
0
  3

 72
65
 73
0
 40
0.0
  0
LTYPE
  5
16
100
AcDbSymbolTableRecord
100
AcDbLinetypeTableRecord
  2
CONTINUOUS
 70
64
  3
Solid line
 72
65
 73
0
 40
0.0
  0
LTYPE
  5
1F5
100
AcDbSymbolTableRecord
100
AcDbLinetypeTableRecord
  2
CENTER
 70
64
  3
____ _ ____ _ ____ _ ____ _ ____ _ ____ _ ____
 72
65
 73
4
 40
0.6
 49
0.375
 74
0
 49
-0.075
 74
0
 49
0.075
 74
0
 49
-0.075
 74
0
  0
LTYPE
  5
1F6
100
AcDbSymbolTableRecord
100
AcDbLinetypeTableRecord
  2
HIDDEN
 70
64
  3
- - - - - - - - - - - - - - - - - - - -
 72
65
 73
2
 40
0.2
 49
0.1
 74
0
 49
-0.1
 74
0
  0
LTYPE
  5
1F7
100
AcDbSymbolTableRecord
100
AcDbLinetypeTableRecord
  2
PHANTOM
 70
64
  3
_____ _ _ _____ _ _ _____ _ _ _____
 72
65
 73
6
 40
0.8
 49
0.45
 74
0
 49
-0.05
 74
0
 49
0.1
 74
0
 49
-0.05
 74
0
 49
0.1
 74
0
 49
-0.05
 74
0
  0
LTYPE
  5
1F8
100
AcDbSymbolTableRecord
100
AcDbLinetypeTableRecord
  2
DOT
 70
64
  3
. . . . . . . . . . . . . . . . . . . .
 72
65
 73
2
 40
0.2
 49
0.1
 74
0
 49
-0.1
 74
0
  0
LTYPE
  5
1F9
100
AcDbSymbolTableRecord
100
AcDbLinetypeTableRecord
  2
DASHED
 70
64
  3
- - - - - - - - - - - - - - - - - - - -
 72
65
 73
2
 40
0.2
 49
0.1
 74
0
 49
-0.1
 74
0
  0
ENDTAB
  0
TABLE
  2
LAYER
  5
2
100
AcDbSymbolTable
 70
36
  0
LAYER
  5
10
100
AcDbSymbolTableRecord
100
AcDbLayerTableRecord
  2
0
 70
0
 62
7
  6
CONTINUOUS
370
-3
390
F
  0
LAYER
  5
1FA
100
AcDbSymbolTableRecord
100
AcDbLayerTableRecord
  2
DEFAULT_1
 70
0
 62
7
  6
CENTER
370
-3
390
F
  0
LAYER
  5
1FB
100
AcDbSymbolTableRecord
100
AcDbLayerTableRecord
  2
DEFAULT_2
 70
0
 62
8
  6
HIDDEN
370
-3
390
F
  0
LAYER
  5
1FC
100
AcDbSymbolTableRecord
100
AcDbLayerTableRecord
  2
DEFAULT_3
 70
0
 62
7
  6
PHANTOM
370
-3
390
F
  0
LAYER
  5
1FD
100
AcDbSymbolTableRecord
100
AcDbLayerTableRecord
  2
DEFAULT_COORDINATE_SYSTEM
 70
0
 62
7
  6
CONTINUOUS
370
-3
390
F
  0
LAYER
  5
1FE
100
AcDbSymbolTableRecord
100
AcDbLayerTableRecord
  2
DEFAULT_DATUM_AXES
 70
0
 62
7
  6
CONTINUOUS
370
-3
390
F
  0
LAYER
  5
1FF
100
AcDbSymbolTableRecord
100
AcDbLayerTableRecord
  2
DEFAULT_DATUM_PLANES
 70
0
 62
7
  6
CONTINUOUS
370
-3
390
F
  0
ENDTAB
  0
TABLE
  2
STYLE
  5
3
100
AcDbSymbolTable
 70
1
  0
STYLE
  5
11
100
AcDbSymbolTableRecord
100
AcDbTextStyleTableRecord
  2
STANDARD
 70
0
 40
0.0
 41
0.8
 50
0.0
 71
0
 42
0.2
  3
txt
  4

  0
STYLE
  5
200
100
AcDbSymbolTableRecord
100
AcDbTextStyleTableRecord
  2
TEXTSTYLE_1
 70
0
 40
0.0
 41
0.8
 50
0.0
 71
0
 42
0.2
  3
gdt
  4

  0
ENDTAB
  0
TABLE
  2
VIEW
  5
6
100
AcDbSymbolTable
 70
0
  0
ENDTAB
  0
TABLE
  2
UCS
  5
7
100
AcDbSymbolTable
 70
0
  0
ENDTAB
  0
TABLE
  2
APPID
  5
9
100
AcDbSymbolTable
 70
1
  0
APPID
  5
201
100
AcDbSymbolTableRecord
100
AcDbRegAppTableRecord
  2
ACAD
 70
0
  0
ENDTAB
  0
TABLE
  2
BLOCK_RECORD
  5
1
100
AcDbSymbolTable
 70
0
  0
BLOCK_RECORD
  5
202
100
AcDbSymbolTableRecord
100
AcDbBlockTableRecord
  2
*Model_Space
  0
BLOCK_RECORD
  5
203
100
AcDbSymbolTableRecord
100
AcDbBlockTableRecord
  2
*Paper_Space
  0
BLOCK_RECORD
  5
204
100
AcDbSymbolTableRecord
100
AcDbBlockTableRecord
  2
_FILLED
  0
ENDTAB
  0
TABLE
  2
DIMSTYLE
  5
A
100
AcDbSymbolTable
 70
1
100
AcDbDimStyleTable
 71
0
  0
DIMSTYLE
105
205
100
AcDbSymbolTableRecord
100
AcDbDimStyleTableRecord
  2
STANDARD
 70
0
  3

  4

 40
1.0
 41
0.1
 42
0.0625
 43
0.38
 44
0.125
 45
0.0
 46
0.0
 47
0.01
 48
0.01
140
0.08
141
0.09
142
0.0
143
25.4
144
1.0
145
0.0
146
1.0
147
0.09
 71
1.0
 72
0.0
 73
1
 74
1
 75
0
 76
0
 77
0
 78
4
 79
1
170
1
171
1
172
0
173
0
174
0
175
0
176
0
177
0
178
0
270
2
179
2
271
2
272
2
273
2
274
2
275
0
280
0
281
0
282
0
283
1
284
4
285
0
286
0
287
3
288
0
340
11
278
46
341
204
342
204
343
204
344
204
  0
ENDTAB
  0
ENDSEC
  0
SECTION
  2
BLOCKS
  0
BLOCK
  5
20
100
AcDbEntity
  8
0
100
AcDbBlockBegin
  2
*Model_Space
 70
0
 10
0.0
 20
0.0
 30
0.0
  3
*Model_Space
  1

  0
ENDBLK
  5
21
100
AcDbEntity
  8
0
100
AcDbBlockEnd
  0
BLOCK
  5
1C
100
AcDbEntity
  8
0
100
AcDbBlockBegin
  2
*Paper_Space
 70
0
 10
0.0
 20
0.0
 30
0.0
  3
*Paper_Space
  1

  0
ENDBLK
  5
1D
100
AcDbEntity
  8
0
100
AcDbBlockEnd
  0
BLOCK
  5
206
100
AcDbEntity
  8
0
100
AcDbBlockBegin
  2
_FILLED
 70
64
 10
0.0
 20
0.0
  3
_FILLED
  1

  0
SOLID
  5
207
100
AcDbEntity
  8
0
  6
BYBLOCK
 62
0
100
AcDbTrace
 10
0.0
 20
0.0
 11
-1.0
 21
0.2
 12
-1.0
 22
-0.2
 13
-1.0
 23
-0.2
  0
ENDBLK
  5
208
100
AcDbEntity
  8
0
  6
BYBLOCK
 62
0
100
AcDbBlockEnd
  0
ENDSEC
  0
SECTION
  2
ENTITIES
  0
MTEXT
  5
209
100
AcDbEntity
  8
0
100
AcDbMText
 62
2
  6
CONTINUOUS
  7
STANDARD
 71
3
 72
1
 10
5.1195263975
 20
0.4928359727
 30
0.0
 11
1.0
 21
0.0
 31
0.0
 73
2
 44
0.9
  1
SCALE  .500
 40
0.08
 41
0.704
  0
LINE
  5
20A
100
AcDbEntity
  8
0
100
AcDbLine
 62
7
  6
CONTINUOUS
 10
0.0
 20
0.0
 11
0.0
 21
8.5
  0
LINE
  5
20B
100
AcDbEntity
  8
0
100
AcDbLine
 62
7
  6
CONTINUOUS
 10
0.0
 20
0.0
 11
11.0
 21
0.0
  0
LINE
  5
20C
100
AcDbEntity
  8
0
100
AcDbLine
 62
7
  6
CONTINUOUS
 10
0.0
 20
8.5
 11
11.0
 21
8.5
  0
LINE
  5
20D
100
AcDbEntity
  8
0
100
AcDbLine
 62
7
  6
CONTINUOUS
 10
11.0
 20
0.0
 11
11.0
 21
8.5
  0
LINE
  5
20E
100
AcDbEntity
  8
0
100
AcDbLine
 62
7
  6
CONTINUOUS
 10
1.4812991016
 20
2.6400859727
 11
1.4812991016
 21
2.9015859727
  0
LINE
  5
20F
100
AcDbEntity
  8
0
100
AcDbLine
 62
7
  6
CONTINUOUS
 10
1.4912991016
 20
2.9115859727
 11
1.4912991016
 21
2.6300859727
  0
LINE
  5
210
100
AcDbEntity
  8
0
100
AcDbLine
 62
7
  6
CONTINUOUS
 10
1.5312991016
 20
2.6300859727
 11
1.5312991016
 21
2.9115859727
  0
LINE
  5
211
100
AcDbEntity
  8
0
100
AcDbLine
 62
7
  6
CONTINUOUS
 10
2.6597991045
 20
0.5878359727
 11
3.5792990986
 21
0.5878359727
  0
LINE
  5
212
100
AcDbEntity
  8
0
100
AcDbLine
 62
7
  6
CONTINUOUS
 10
7.579288353
 20
0.5878815193
 11
6.6599673473
 21
0.5878639809
  0
LINE
  5
213
100
AcDbEntity
  8
0
100
AcDbLine
 62
7
  6
CONTINUOUS
 10
2.6402991016
 20
0.6073359727
 11
3.5987991016
 21
0.6073359727
  0
LINE
  5
214
100
AcDbEntity
  8
0
100
AcDbLine
 62
7
  6
CONTINUOUS
 10
7.5987881299
 20
0.6073818971
 11
6.6402881301
 21
0.6073633271
  0
LINE
  5
215
100
AcDbEntity
  8
0
100
AcDbLine
 62
7
  6
CONTINUOUS
 10
2.6402991016
 20
0.6348283866
 11
3.5987991016
 21
0.6348283866
  0
LINE
  5
216
100
AcDbEntity
  8
0
100
AcDbLine
 62
7
  6
CONTINUOUS
 10
7.5987875973
 20
0.634874311
 11
6.6402875975
 21
0.634855741
  0
LINE
  5
217
100
AcDbEntity
  8
0
100
AcDbLine
 62
7
  6
CONTINUOUS
 10
2.6548617158
 20
0.6536929624
 11
3.5842364873
 21
0.6536929624
  0
LINE
  5
218
100
AcDbEntity
  8
0
100
AcDbLine
 62
7
  6
CONTINUOUS
 10
7.5842246176
 20
0.6537386047
 11
6.6548498463
 21
0.653720599
  0
LINE
  5
219
100
AcDbEntity
  8
0
100
AcDbLine
 62
7
  6
CONTINUOUS
 10
1.4912991016
 20
2.6300859727
 11
1.4812991016
 21
2.6400859727
  0
LINE
  5
21A
100
AcDbEntity
  8
0
100
AcDbLine
 62
7
  6
CONTINUOUS
 10
2.8360265021
 20
0.9646606637
 11
3.4030717011
 21
0.9646606637
  0
LINE
  5
21B
100
AcDbEntity
  8
0
100
AcDbLine
 62
7
  6
CONTINUOUS
 10
7.4030538067
 20
0.964702796
 11
6.8360086078
 21
0.96469181
  0
LINE
  5
21C
100
AcDbEntity
  8
0
100
AcDbLine
 62
7
  6
CONTINUOUS
 10
6.7866464682
 20
1.1503985378
 11
6.5610146302
 21
1.1503888371
  0
LINE
  5
21D
100
AcDbEntity
  8
0
100
AcDbLine
 62
7
  6
CONTINUOUS
 10
3.4524323325
 20
1.1503762102
 11
3.6780934103
 21
1.1503762102
  0
LINE
  5
21E
100
AcDbEntity
  8
0
100
AcDbLine
 62
7
  6
CONTINUOUS
 10
2.7552191277
 20
1.2686921409
 11
3.4838790754
 21
1.2686921409
  0
LINE
  5
21F
100
AcDbEntity
  8
0
100
AcDbLine
 62
7
  6
CONTINUOUS
 10
7.4838552907
 20
1.2687358386
 11
6.7551953431
 21
1.2687217215
  0
LINE
  5
220
100
AcDbEntity
  8
0
100
AcDbLine
 62
7
  6
CONTINUOUS
 10
3.432012247
 20
1.5397503936
 11
2.8070859562
 21
1.5397503936
  0
LINE
  5
221
100
AcDbEntity
  8
0
100
AcDbLine
 62
7
  6
CONTINUOUS
 10
7.4319832108
 20
1.5397930863
 11
6.8070569201
 21
1.539780979
  0
LINE
  5
222
100
AcDbEntity
  8
0
100
AcDbLine
 62
7
  6
CONTINUOUS
 10
6.8143598465
 20
1.5503997294
 11
6.5610068806
 21
1.550388837
  0
LINE
  5
223
100
AcDbEntity
  8
0
100
AcDbLine
 62
7
  6
CONTINUOUS
 10
3.4247041414
 20
1.5503762102
 11
3.6780934103
 21
1.5503762102
  0
LINE
  5
224
100
AcDbEntity
  8
0
100
AcDbLine
 62
7
  6
CONTINUOUS
 10
2.7552191277
 20
1.2686921409
 11
2.8360265021
 21
0.9646606637
  0
LINE
  5
225
100
AcDbEntity
  8
0
100
AcDbLine
 62
7
  6
CONTINUOUS
 10
2.6402991016
 20
0.6348283866
 11
2.6402991016
 21
0.6073359727
  0
LINE
  5
226
100
AcDbEntity
  8
0
100
AcDbLine
 62
7
  6
CONTINUOUS
 10
2.6757991016
 20
2.6300859727
 11
2.6757991016
 21
2.9115859727
  0
LINE
  5
227
100
AcDbEntity
  8
0
100
AcDbLine
 62
7
  6
CONTINUOUS
 10
3.3951391016
 20
1.6514096998
 11
2.8439591016
 21
1.6514096998
  0
LINE
  5
228
100
AcDbEntity
  8
0
100
AcDbLine
 62
7
  6
CONTINUOUS
 10
7.3951079021
 20
1.6514516781
 11
6.8439279022
 21
1.6514409995
  0
LINE
  5
229
100
AcDbEntity
  8
0
100
AcDbLine
 62
7
  6
CONTINUOUS
 10
2.8439590573
 20
1.7688359727
 11
3.3951391459
 21
1.7688359727
  0
LINE
  5
22A
100
AcDbEntity
  8
0
100
AcDbLine
 62
7
  6
CONTINUOUS
 10
7.0303131182
 20
1.844346282
 11
6.9069073378
 21
1.844346282
  0
LINE
  5
22B
100
AcDbEntity
  8
0
100
AcDbLine
 62
7
  6
CONTINUOUS
 10
6.8177048281
 20
1.844346282
 11
6.8094090531
 21
1.844346282
  0
LINE
  5
22C
100
AcDbEntity
  8
0
100
AcDbLine
 62
6
  6
CONTINUOUS
 10
3.0303465919
 20
1.844346282
 11
2.9069408115
 21
1.844346282
  0
LINE
  5
22D
100
AcDbEntity
  8
0
100
AcDbLine
 62
6
  6
CONTINUOUS
 10
2.8177383018
 20
1.844346282
 11
2.8094425268
 21
1.844346282
  0
LINE
  5
22E
100
AcDbEntity
  8
0
100
AcDbLine
 62
6
  6
CONTINUOUS
 10
3.2087516112
 20
1.844346282
 11
3.3321573916
 21
1.844346282
  0
LINE
  5
22F
100
AcDbEntity
  8
0
100
AcDbLine
 62
6
  6
CONTINUOUS
 10
3.4213599013
 20
1.844346282
 11
3.4296556764
 21
1.844346282
  0
LINE
  5
230
100
AcDbEntity
  8
0
100
AcDbLine
 62
7
  6
CONTINUOUS
 10
7.2087181375
 20
1.844346282
 11
7.3321239179
 21
1.844346282
  0
LINE
  5
231
100
AcDbEntity
  8
0
100
AcDbLine
 62
7
  6
CONTINUOUS
 10
7.4213264276
 20
1.844346282
 11
7.4296222027
 21
1.844346282
  0
LINE
  5
232
100
AcDbEntity
  8
0
100
AcDbLine
 62
7
  6
CONTINUOUS
 10
6.5522991016
 20
1.8458359727
 11
5.9822991016
 21
1.8458359727
  0
LINE
  5
233
100
AcDbEntity
  8
0
100
AcDbLine
 62
7
  6
CONTINUOUS
 10
4.2567991016
 20
1.8458359727
 11
3.6867991016
 21
1.8458359727
  0
LINE
  5
234
100
AcDbEntity
  8
0
100
AcDbLine
 62
7
  6
CONTINUOUS
 10
6.5642991016
 20
1.9042926874
 11
6.5160209648
 21
1.9042926874
  0
LINE
  5
235
100
AcDbEntity
  8
0
100
AcDbLine
 62
7
  6
CONTINUOUS
 10
6.3155772383
 20
1.9042926874
 11
6.2190209648
 21
1.9042926874
  0
LINE
  5
236
100
AcDbEntity
  8
0
100
AcDbLine
 62
7
  6
CONTINUOUS
 10
6.0185772383
 20
1.9042926874
 11
5.9702991016
 21
1.9042926874
  0
LINE
  5
237
100
AcDbEntity
  8
0
100
AcDbLine
 62
7
  6
CONTINUOUS
 10
4.2687991016
 20
1.9042926874
 11
4.2205209648
 21
1.9042926874
  0
LINE
  5
238
100
AcDbEntity
  8
0
100
AcDbLine
 62
7
  6
CONTINUOUS
 10
4.0200772383
 20
1.9042926874
 11
3.9235209648
 21
1.9042926874
  0
LINE
  5
239
100
AcDbEntity
  8
0
100
AcDbLine
 62
7
  6
CONTINUOUS
 10
3.7230772383
 20
1.9042926874
 11
3.6747991016
 21
1.9042926874
  0
LINE
  5
23A
100
AcDbEntity
  8
0
100
AcDbLine
 62
7
  6
CONTINUOUS
 10
7.3951056268
 20
1.768894573
 11
6.8439256267
 21
1.7688945727
  0
LWPOLYLINE
  5
23B
100
AcDbEntity
  8
0
100
AcDbPolyline
 62
7
  6
CONTINUOUS
 90
9
 70
0
 10
3.7594023237
 20
1.7835499037
 10
3.7598292596
 20
1.7828992264
 10
3.762829997
 20
1.7777370349
 10
3.7653319221
 20
1.7722904416
 10
3.7673036429
 20
1.7666154527
 10
3.7687226956
 20
1.7607657659
 10
3.7695728807
 20
1.7547929209
 10
3.7698423671
 20
1.7487539029
 10
3.7695241662
 20
1.7426953428
  0
LINE
  5
23C
100
AcDbEntity
  8
0
100
AcDbLine
 62
7
  6
CONTINUOUS
 10
3.6867991016
 20
1.8458359727
 11
3.6747991016
 21
1.8666205824
  0
LINE
  5
23D
100
AcDbEntity
  8
0
100
AcDbLine
 62
7
  6
CONTINUOUS
 10
2.8407991016
 20
2.6683359727
 11
2.8557991016
 21
2.6288359727
  0
LINE
  5
23E
100
AcDbEntity
  8
0
100
AcDbLine
 62
7
  6
CONTINUOUS
 10
2.7282991016
 20
2.6300859727
 11
2.7282991016
 21
2.9115859727
  0
LINE
  5
23F
100
AcDbEntity
  8
0
100
AcDbLine
 62
7
  6
CONTINUOUS
 10
2.8282991016
 20
2.6723359727
 11
2.8282991016
 21
2.8693359727
  0
LINE
  5
240
100
AcDbEntity
  8
0
100
AcDbLine
 62
7
  6
CONTINUOUS
 10
2.8407991016
 20
2.8733359727
 11
2.8407991016
 21
2.8693359727
  0
LINE
  5
241
100
AcDbEntity
  8
0
100
AcDbLine
 62
7
  6
CONTINUOUS
 10
2.8407991016
 20
2.6723359727
 11
2.8407991016
 21
2.6683359727
  0
LINE
  5
242
100
AcDbEntity
  8
0
100
AcDbLine
 62
7
  6
CONTINUOUS
 10
2.8439591016
 20
1.7688359727
 11
2.8439591016
 21
1.6514096998
  0
LINE
  5
243
100
AcDbEntity
  8
0
100
AcDbLine
 62
7
  6
CONTINUOUS
 10
2.8557991016
 20
2.9644780212
 11
2.8557991016
 21
2.9288359727
  0
LINE
  5
244
100
AcDbEntity
  8
0
100
AcDbLine
 62
7
  6
CONTINUOUS
 10
2.8582991016
 20
2.7549535925
 11
2.8582991016
 21
2.7867183529
  0
LINE
  5
245
100
AcDbEntity
  8
0
100
AcDbLine
 62
7
  6
CONTINUOUS
 10
2.9477991016
 20
2.6033359727
 11
2.9477991016
 21
2.4238359727
  0
LINE
  5
246
100
AcDbEntity
  8
0
100
AcDbLine
 62
7
  6
CONTINUOUS
 10
2.9870491016
 20
3.0082390064
 11
2.9870491016
 21
3.0088134123
  0
LINE
  5
247
100
AcDbEntity
  8
0
100
AcDbLine
 62
7
  6
CONTINUOUS
 10
2.9952991016
 20
3.0105703952
 11
2.9952991016
 21
3.0108089543
  0
LINE
  5
248
100
AcDbEntity
  8
0
100
AcDbLine
 62
7
  6
CONTINUOUS
 10
3.0152991016
 20
3.0137745322
 11
3.0152991016
 21
3.0135531805
  0
LINE
  5
249
100
AcDbEntity
  8
0
100
AcDbLine
 62
7
  6
CONTINUOUS
 10
3.0235491016
 20
3.0142607266
 11
3.0235491016
 21
3.0136903965
  0
LINE
  5
24A
100
AcDbEntity
  8
0
100
AcDbLine
 62
7
  6
CONTINUOUS
 10
3.0320491016
 20
3.0147055961
 11
3.0320491016
 21
3.0152751735
  0
LINE
  5
24B
100
AcDbEntity
  8
0
100
AcDbLine
 62
7
  6
CONTINUOUS
 10
3.0402991016
 20
3.016535775
 11
3.0402991016
 21
3.0167562702
  0
LINE
  5
24C
100
AcDbEntity
  8
0
100
AcDbLine
 62
6
  6
CONTINUOUS
 10
2.8573577032
 20
1.9603359727
 11
3.3817405
 21
1.9603359727
  0
LINE
  5
24D
100
AcDbEntity
  8
0
100
AcDbLine
 62
7
  6
CONTINUOUS
 10
6.8573242294
 20
1.9603359727
 11
7.3817070263
 21
1.9603359727
  0
LINE
  5
24E
100
AcDbEntity
  8
0
100
AcDbLine
 62
7
  6
CONTINUOUS
 10
6.5642991016
 20
2.0773792579
 11
6.5160209648
 21
2.0773792579
  0
LINE
  5
24F
100
AcDbEntity
  8
0
100
AcDbLine
 62
7
  6
CONTINUOUS
 10
6.3155772383
 20
2.0773792579
 11
6.2190209648
 21
2.0773792579
  0
LINE
  5
250
100
AcDbEntity
  8
0
100
AcDbLine
 62
7
  6
CONTINUOUS
 10
6.0185772383
 20
2.0773792579
 11
5.9702991016
 21
2.0773792579
  0
LINE
  5
251
100
AcDbEntity
  8
0
100
AcDbLine
 62
7
  6
CONTINUOUS
 10
4.2687991016
 20
2.0773792579
 11
4.2205209648
 21
2.0773792579
  0
LINE
  5
252
100
AcDbEntity
  8
0
100
AcDbLine
 62
7
  6
CONTINUOUS
 10
4.0200772383
 20
2.0773792579
 11
3.9235209648
 21
2.0773792579
  0
LINE
  5
253
100
AcDbEntity
  8
0
100
AcDbLine
 62
7
  6
CONTINUOUS
 10
3.7230772383
 20
2.0773792579
 11
3.6747991016
 21
2.0773792579
  0
LINE
  5
254
100
AcDbEntity
  8
0
100
AcDbLine
 62
7
  6
CONTINUOUS
 10
6.5522991016
 20
2.1358359727
 11
5.9822991016
 21
2.1358359727
  0
LINE
  5
255
100
AcDbEntity
  8
0
100
AcDbLine
 62
7
  6
CONTINUOUS
 10
4.2567991016
 20
2.1358359727
 11
3.6867991016
 21
2.1358359727
  0
LINE
  5
256
100
AcDbEntity
  8
0
100
AcDbLine
 62
7
  6
CONTINUOUS
 10
4.1903026016
 20
2.1558359727
 11
3.7532956016
 21
2.1558359727
  0
LINE
  5
257
100
AcDbEntity
  8
0
100
AcDbLine
 62
7
  6
CONTINUOUS
 10
6.0487956016
 20
2.1558359727
 11
6.4858026016
 21
2.1558359727
  0
LINE
  5
258
100
AcDbEntity
  8
0
100
AcDbLine
 62
7
  6
CONTINUOUS
 10
2.8557991016
 20
2.6288359727
 11
2.9342991016
 21
2.6033359727
  0
LINE
  5
259
100
AcDbEntity
  8
0
100
AcDbLine
 62
7
  6
CONTINUOUS
 10
2.7282991016
 20
2.9115859727
 11
2.8282991016
 21
2.8693359727
  0
LINE
  5
25A
100
AcDbEntity
  8
0
100
AcDbLine
 62
7
  6
CONTINUOUS
 10
2.8557991016
 20
2.9288359727
 11
2.8687991016
 21
2.9213359727
  0
LINE
  5
25B
100
AcDbEntity
  8
0
100
AcDbLine
 62
7
  6
CONTINUOUS
 10
3.3702991016
 20
2.9213359727
 11
3.3841452592
 21
2.9133359727
  0
LINE
  5
25C
100
AcDbEntity
  8
0
100
AcDbLine
 62
7
  6
CONTINUOUS
 10
3.5742799727
 20
2.6683176123
 11
3.5496969377
 21
2.685467294
  0
LINE
  5
25D
100
AcDbEntity
  8
0
100
AcDbLine
 62
7
  6
CONTINUOUS
 10
3.3721893122
 20
2.9755878106
 11
3.3832991016
 21
2.9644780212
  0
LINE
  5
25E
100
AcDbEntity
  8
0
100
AcDbLine
 62
7
  6
CONTINUOUS
 10
3.398206687
 20
2.6770387387
 11
3.3982991016
 21
2.6768467958
  0
LINE
  5
25F
100
AcDbEntity
  8
0
100
AcDbLine
 62
7
  6
CONTINUOUS
 10
3.3841452592
 20
2.9133359727
 11
3.3982991016
 21
2.8733359727
  0
LINE
  5
260
100
AcDbEntity
  8
0
100
AcDbLine
 62
7
  6
CONTINUOUS
 10
3.1977991016
 20
3.0167331441
 11
3.1977990754
 21
3.0168746525
  0
LINE
  5
261
100
AcDbEntity
  8
0
100
AcDbLine
 62
7
  6
CONTINUOUS
 10
3.0685491016
 20
3.0185539061
 11
3.0685491016
 21
3.0179867477
  0
LINE
  5
262
100
AcDbEntity
  8
0
100
AcDbLine
 62
7
  6
CONTINUOUS
 10
3.1885491016
 20
3.0165864914
 11
3.1885491016
 21
3.0171546796
  0
LINE
  5
263
100
AcDbEntity
  8
0
100
AcDbLine
 62
7
  6
CONTINUOUS
 10
3.2157991016
 20
3.0148346576
 11
3.2157991016
 21
3.014692775
  0
LINE
  5
264
100
AcDbEntity
  8
0
100
AcDbLine
 62
7
  6
CONTINUOUS
 10
3.2250491016
 20
3.0130138825
 11
3.2250491016
 21
3.0124426245
  0
LINE
  5
265
100
AcDbEntity
  8
0
100
AcDbLine
 62
7
  6
CONTINUOUS
 10
3.2912991016
 20
2.6033359727
 11
3.2912991016
 21
2.4238359727
  0
LINE
  5
266
100
AcDbEntity
  8
0
100
AcDbLine
 62
7
  6
CONTINUOUS
 10
3.3807991016
 20
2.758426299
 11
3.3807991016
 21
2.7832456463
  0
LINE
  5
267
100
AcDbEntity
  8
0
100
AcDbLine
 62
7
  6
CONTINUOUS
 10
3.3832991016
 20
2.9644780212
 11
3.3832991016
 21
2.9288359727
  0
LINE
  5
268
100
AcDbEntity
  8
0
100
AcDbLine
 62
7
  6
CONTINUOUS
 10
3.3878939744
 20
2.70829472
 11
3.3878939744
 21
2.8333772254
  0
LINE
  5
269
100
AcDbEntity
  8
0
100
AcDbLine
 62
7
  6
CONTINUOUS
 10
3.3951391016
 20
1.7688359727
 11
3.3951391016
 21
1.6514096998
  0
LINE
  5
26A
100
AcDbEntity
  8
0
100
AcDbLine
 62
7
  6
CONTINUOUS
 10
3.3982991016
 20
2.8733359727
 11
3.3982991016
 21
2.6683359727
  0
LINE
  5
26B
100
AcDbEntity
  8
0
100
AcDbLine
 62
6
  6
CONTINUOUS
 10
2.9109814755
 20
2.4018501786
 11
2.8573577032
 21
1.9603359727
  0
LINE
  5
26C
100
AcDbEntity
  8
0
100
AcDbLine
 62
7
  6
CONTINUOUS
 10
4.1903026016
 20
2.3493359727
 11
3.7532956016
 21
2.3493359727
  0
LINE
  5
26D
100
AcDbEntity
  8
0
100
AcDbLine
 62
7
  6
CONTINUOUS
 10
6.0487956016
 20
2.3493359727
 11
6.4858026016
 21
2.3493359727
  0
LINE
  5
26E
100
AcDbEntity
  8
0
100
AcDbLine
 62
6
  6
CONTINUOUS
 10
2.9109814755
 20
2.4018501786
 11
3.3281167276
 21
2.4018501786
  0
LINE
  5
26F
100
AcDbEntity
  8
0
100
AcDbLine
 62
7
  6
CONTINUOUS
 10
6.9109480018
 20
2.4018501786
 11
7.3280832539
 21
2.4018501786
  0
LINE
  5
270
100
AcDbEntity
  8
0
100
AcDbLine
 62
6
  6
CONTINUOUS
 10
2.9357991016
 20
2.4238359727
 11
3.3032991016
 21
2.4238359727
  0
LINE
  5
271
100
AcDbEntity
  8
0
100
AcDbLine
 62
7
  6
CONTINUOUS
 10
6.9357656279
 20
2.4238359727
 11
7.3032656279
 21
2.4238359727
  0
LINE
  5
272
100
AcDbEntity
  8
0
100
AcDbLine
 62
7
  6
CONTINUOUS
 10
2.9343143349
 20
2.6033359727
 11
3.3047838682
 21
2.6033359727
  0
LINE
  5
273
100
AcDbEntity
  8
0
100
AcDbLine
 62
7
  6
CONTINUOUS
 10
6.9342689268
 20
2.6033359727
 11
7.3047384601
 21
2.6033359727
  0
LINE
  5
274
100
AcDbEntity
  8
0
100
AcDbLine
 62
7
  6
CONTINUOUS
 10
2.8557991016
 20
2.6288359727
 11
3.3832991016
 21
2.6288359727
  0
LINE
  5
275
100
AcDbEntity
  8
0
100
AcDbLine
 62
7
  6
CONTINUOUS
 10
6.8557536935
 20
2.6288359727
 11
7.3832536935
 21
2.6288359727
  0
LINE
  5
276
100
AcDbEntity
  8
0
100
AcDbLine
 62
7
  6
CONTINUOUS
 10
8.7477536935
 20
2.6300859727
 11
8.7077536935
 21
2.6300859727
  0
LINE
  5
277
100
AcDbEntity
  8
0
100
AcDbLine
 62
7
  6
CONTINUOUS
 10
7.5632536935
 20
2.6300859727
 11
7.5107536935
 21
2.6300859727
  0
LINE
  5
278
100
AcDbEntity
  8
0
100
AcDbLine
 62
7
  6
CONTINUOUS
 10
1.4912991016
 20
2.6300859727
 11
1.5312991016
 21
2.6300859727
  0
LINE
  5
279
100
AcDbEntity
  8
0
100
AcDbLine
 62
7
  6
CONTINUOUS
 10
2.6757991016
 20
2.6300859727
 11
2.7282991016
 21
2.6300859727
  0
LINE
  5
27A
100
AcDbEntity
  8
0
100
AcDbLine
 62
7
  6
CONTINUOUS
 10
3.3468040796
 20
2.9838359727
 11
3.3721893122
 21
2.9755878106
  0
LINE
  5
27B
100
AcDbEntity
  8
0
100
AcDbLine
 62
7
  6
CONTINUOUS
 10
4.2687991016
 20
2.115051363
 11
4.2567991016
 21
2.1358359727
  0
LINE
  5
27C
100
AcDbEntity
  8
0
100
AcDbLine
 62
6
  6
CONTINUOUS
 10
3.3281167276
 20
2.4018501786
 11
3.3817405
 21
1.9603359727
  0
LINE
  5
27D
100
AcDbEntity
  8
0
100
AcDbLine
 62
7
  6
CONTINUOUS
 10
3.523869002
 20
2.6750141905
 11
3.523869002
 21
2.8666577549
  0
LINE
  5
27E
100
AcDbEntity
  8
0
100
AcDbLine
 62
7
  6
CONTINUOUS
 10
3.5373559731
 20
2.6808359727
 11
3.5373559731
 21
2.8608359727
  0
LINE
  5
27F
100
AcDbEntity
  8
0
100
AcDbLine
 62
7
  6
CONTINUOUS
 10
3.5496969377
 20
2.685467294
 11
3.5496969377
 21
2.8562046514
  0
LINE
  5
280
100
AcDbEntity
  8
0
100
AcDbLine
 62
7
  6
CONTINUOUS
 10
3.5742799727
 20
2.6683176123
 11
3.5742799727
 21
2.8733543331
  0
LINE
  5
281
100
AcDbEntity
  8
0
100
AcDbLine
 62
7
  6
CONTINUOUS
 10
3.5987991016
 20
0.6348283866
 11
3.5987991016
 21
0.6073359727
  0
LINE
  5
282
100
AcDbEntity
  8
0
100
AcDbLine
 62
7
  6
CONTINUOUS
 10
3.6747991016
 20
1.8666205824
 11
3.6747991016
 21
2.115051363
  0
LINE
  5
283
100
AcDbEntity
  8
0
100
AcDbLine
 62
7
  6
CONTINUOUS
 10
3.7230772383
 20
2.0773792579
 11
3.7230772383
 21
1.9042926874
  0
LINE
  5
284
100
AcDbEntity
  8
0
100
AcDbLine
 62
7
  6
CONTINUOUS
 10
3.7532956016
 20
2.3493359727
 11
3.7532956016
 21
2.1558359727
  0
LINE
  5
285
100
AcDbEntity
  8
0
100
AcDbLine
 62
7
  6
CONTINUOUS
 10
2.8407991016
 20
2.6723257018
 11
2.8415472771
 21
2.6744864324
  0
LINE
  5
286
100
AcDbEntity
  8
0
100
AcDbLine
 62
7
  6
CONTINUOUS
 10
2.8549529439
 20
2.9133359727
 11
2.8407991016
 21
2.8733359727
  0
LINE
  5
287
100
AcDbEntity
  8
0
100
AcDbLine
 62
7
  6
CONTINUOUS
 10
1.4912991016
 20
2.9115859727
 11
1.4812991016
 21
2.9015859727
  0
LINE
  5
288
100
AcDbEntity
  8
0
100
AcDbLine
 62
7
  6
CONTINUOUS
 10
6.9563150307
 20
3.0028986327
 11
6.9445036652
 21
3.0008150327
  0
LINE
  5
289
100
AcDbEntity
  8
0
100
AcDbLine
 62
7
  6
CONTINUOUS
 10
7.0206648983
 20
3.0149164875
 11
6.9850608763
 21
3.0090074343
  0
LINE
  5
28A
100
AcDbEntity
  8
0
100
AcDbLine
 62
7
  6
CONTINUOUS
 10
6.9655048319
 20
3.0053781044
 11
6.9656053788
 21
3.0053939638
  0
LINE
  5
28B
100
AcDbEntity
  8
0
100
AcDbLine
 62
7
  6
CONTINUOUS
 10
6.9656053788
 20
3.0053939638
 11
6.9684882022
 21
3.0058222915
  0
LINE
  5
28C
100
AcDbEntity
  8
0
100
AcDbLine
 62
7
  6
CONTINUOUS
 10
7.1001412069
 20
3.0210941647
 11
7.0576137818
 21
3.0188618923
  0
LINE
  5
28D
100
AcDbEntity
  8
0
100
AcDbLine
 62
7
  6
CONTINUOUS
 10
7.0394485597
 20
3.0171917185
 11
7.0433521758
 21
3.0173260654
  0
LINE
  5
28E
100
AcDbEntity
  8
0
100
AcDbLine
 62
7
  6
CONTINUOUS
 10
7.0394520745
 20
3.0171923242
 11
7.0396742494
 21
3.0171958441
  0
LINE
  5
28F
100
AcDbEntity
  8
0
100
AcDbLine
 62
7
  6
CONTINUOUS
 10
7.1180036935
 20
3.0208345208
 11
7.1001536935
 21
3.0205943207
  0
LINE
  5
290
100
AcDbEntity
  8
0
100
AcDbLine
 62
7
  6
CONTINUOUS
 10
2.8407991016
 20
2.6683359727
 11
3.3982991016
 21
2.6683359727
  0
LINE
  5
291
100
AcDbEntity
  8
0
100
AcDbLine
 62
7
  6
CONTINUOUS
 10
6.8407536935
 20
2.6683359727
 11
7.3982536935
 21
2.6683359727
  0
LINE
  5
292
100
AcDbEntity
  8
0
100
AcDbLine
 62
7
  6
CONTINUOUS
 10
7.4107536935
 20
2.6723359727
 11
7.3982536935
 21
2.6723359727
  0
LINE
  5
293
100
AcDbEntity
  8
0
100
AcDbLine
 62
7
  6
CONTINUOUS
 10
2.8282991016
 20
2.6723359727
 11
2.8407991016
 21
2.6723359727
  0
LINE
  5
294
100
AcDbEntity
  8
0
100
AcDbLine
 62
7
  6
CONTINUOUS
 10
5.7047991016
 20
2.6933324727
 11
5.4913456115
 21
2.6933324727
  0
LINE
  5
295
100
AcDbEntity
  8
0
100
AcDbLine
 62
7
  6
CONTINUOUS
 10
4.7477525916
 20
2.6933324727
 11
4.5342991016
 21
2.6933324727
  0
LINE
  5
296
100
AcDbEntity
  8
0
100
AcDbLine
 62
7
  6
CONTINUOUS
 10
7.4107536935
 20
2.8693359727
 11
7.3982536935
 21
2.8693359727
  0
LINE
  5
297
100
AcDbEntity
  8
0
100
AcDbLine
 62
7
  6
CONTINUOUS
 10
2.8282991016
 20
2.8693359727
 11
2.8407991016
 21
2.8693359727
  0
LINE
  5
298
100
AcDbEntity
  8
0
100
AcDbLine
 62
7
  6
CONTINUOUS
 10
2.8407991016
 20
2.8733359727
 11
3.3982991016
 21
2.8733359727
  0
LINE
  5
299
100
AcDbEntity
  8
0
100
AcDbLine
 62
7
  6
CONTINUOUS
 10
6.8407536935
 20
2.8733359727
 11
7.3982536935
 21
2.8733359727
  0
LINE
  5
29A
100
AcDbEntity
  8
0
100
AcDbLine
 62
7
  6
CONTINUOUS
 10
8.7477536935
 20
2.9115859727
 11
8.7077536935
 21
2.9115859727
  0
LINE
  5
29B
100
AcDbEntity
  8
0
100
AcDbLine
 62
7
  6
CONTINUOUS
 10
7.5632536935
 20
2.9115859727
 11
7.5107536935
 21
2.9115859727
  0
LINE
  5
29C
100
AcDbEntity
  8
0
100
AcDbLine
 62
7
  6
CONTINUOUS
 10
1.4912991016
 20
2.9115859727
 11
1.5312991016
 21
2.9115859727
  0
LINE
  5
29D
100
AcDbEntity
  8
0
100
AcDbLine
 62
7
  6
CONTINUOUS
 10
2.6757991016
 20
2.9115859727
 11
2.7282991016
 21
2.9115859727
  0
LINE
  5
29E
100
AcDbEntity
  8
0
100
AcDbLine
 62
7
  6
CONTINUOUS
 10
2.8549529439
 20
2.9133359727
 11
3.3841452592
 21
2.9133359727
  0
LINE
  5
29F
100
AcDbEntity
  8
0
100
AcDbLine
 62
7
  6
CONTINUOUS
 10
6.8549075358
 20
2.9133359727
 11
7.3840998511
 21
2.9133359727
  0
LINE
  5
2A0
100
AcDbEntity
  8
0
100
AcDbLine
 62
7
  6
CONTINUOUS
 10
2.8687991016
 20
2.9213359727
 11
3.3702991016
 21
2.9213359727
  0
LINE
  5
2A1
100
AcDbEntity
  8
0
100
AcDbLine
 62
7
  6
CONTINUOUS
 10
6.8687536935
 20
2.9213359727
 11
7.3702536935
 21
2.9213359727
  0
LINE
  5
2A2
100
AcDbEntity
  8
0
100
AcDbLine
 62
7
  6
CONTINUOUS
 10
2.8557991016
 20
2.9288359727
 11
3.3832991016
 21
2.9288359727
  0
LINE
  5
2A3
100
AcDbEntity
  8
0
100
AcDbLine
 62
7
  6
CONTINUOUS
 10
6.8557536935
 20
2.9288359727
 11
7.3832536935
 21
2.9288359727
  0
LINE
  5
2A4
100
AcDbEntity
  8
0
100
AcDbLine
 62
7
  6
CONTINUOUS
 10
2.8557991016
 20
2.9644780212
 11
3.3832991016
 21
2.9644780212
  0
LINE
  5
2A5
100
AcDbEntity
  8
0
100
AcDbLine
 62
7
  6
CONTINUOUS
 10
6.8557536935
 20
2.9644780212
 11
7.3832536935
 21
2.9644780212
  0
LINE
  5
2A6
100
AcDbEntity
  8
0
100
AcDbLine
 62
7
  6
CONTINUOUS
 10
2.866908891
 20
2.9755878106
 11
3.3721893122
 21
2.9755878106
  0
LINE
  5
2A7
100
AcDbEntity
  8
0
100
AcDbLine
 62
7
  6
CONTINUOUS
 10
6.8668634829
 20
2.9755878106
 11
7.3721439041
 21
2.9755878106
  0
LINE
  5
2A8
100
AcDbEntity
  8
0
100
AcDbLine
 62
7
  6
CONTINUOUS
 10
2.8922941235
 20
2.9838359727
 11
3.3468040796
 21
2.9838359727
  0
LINE
  5
2A9
100
AcDbEntity
  8
0
100
AcDbLine
 62
7
  6
CONTINUOUS
 10
6.8922487154
 20
2.9838359727
 11
7.3467586715
 21
2.9838359727
  0
LINE
  5
2AA
100
AcDbEntity
  8
0
100
AcDbLine
 62
7
  6
CONTINUOUS
 10
7.3170760218
 20
2.9957406193
 11
6.9219313652
 21
2.9957406193
  0
LINE
  5
2AB
100
AcDbEntity
  8
0
100
AcDbLine
 62
7
  6
CONTINUOUS
 10
3.3171214213
 20
2.9957406792
 11
2.9219767818
 21
2.9957406792
  0
LINE
  5
2AC
100
AcDbEntity
  8
0
100
AcDbLine
 62
7
  6
CONTINUOUS
 10
3.1977991015
 20
3.0168746512
 11
3.2157991016
 21
3.0148346576
  0
LINE
  5
2AD
100
AcDbEntity
  8
0
100
AcDbLine
 62
7
  6
CONTINUOUS
 10
3.7700491016
 20
2.1358359727
 11
3.7700491016
 21
2.1558359727
  0
LINE
  5
2AE
100
AcDbEntity
  8
0
100
AcDbLine
 62
7
  6
CONTINUOUS
 10
3.9235209648
 20
2.0773792579
 11
3.9235209648
 21
1.9042926874
  0
LINE
  5
2AF
100
AcDbEntity
  8
0
100
AcDbLine
 62
7
  6
CONTINUOUS
 10
4.0200772383
 20
2.0773792579
 11
4.0200772383
 21
1.9042926874
  0
LINE
  5
2B0
100
AcDbEntity
  8
0
100
AcDbLine
 62
7
  6
CONTINUOUS
 10
3.09757157
 20
3.0210170567
 11
3.0976850018
 21
3.0210276331
  0
LINE
  5
2B1
100
AcDbEntity
  8
0
100
AcDbLine
 62
7
  6
CONTINUOUS
 10
3.127234221
 20
3.0201930703
 11
3.1314482073
 21
3.0201996004
  0
LINE
  5
2B2
100
AcDbEntity
  8
0
100
AcDbLine
 62
7
  6
CONTINUOUS
 10
3.1054782613
 20
3.0201707642
 11
3.1096695486
 21
3.020173507
  0
LINE
  5
2B3
100
AcDbEntity
  8
0
100
AcDbLine
 62
7
  6
CONTINUOUS
 10
5.7047991016
 20
3.1303394727
 11
5.4913456115
 21
3.1303394727
  0
LINE
  5
2B4
100
AcDbEntity
  8
0
100
AcDbLine
 62
7
  6
CONTINUOUS
 10
4.7477525916
 20
3.1303394727
 11
4.5342991016
 21
3.1303394727
  0
LINE
  5
2B5
100
AcDbEntity
  8
0
100
AcDbLine
 62
7
  6
CONTINUOUS
 10
4.8013337698
 20
3.1600003375
 11
5.4377644333
 21
3.1600003375
  0
LINE
  5
2B6
100
AcDbEntity
  8
0
100
AcDbLine
 62
7
  6
CONTINUOUS
 10
4.8145491016
 20
3.1984356269
 11
5.4245491016
 21
3.1984356269
  0
LINE
  5
2B7
100
AcDbEntity
  8
0
100
AcDbLine
 62
7
  6
CONTINUOUS
 10
7.1352536937
 20
3.0206758817
 11
7.1532536934
 21
3.0201005882
  0
LINE
  5
2B8
100
AcDbEntity
  8
0
100
AcDbLine
 62
7
  6
CONTINUOUS
 10
7.2195036935
 20
3.0143558889
 11
7.2376525217
 21
3.0117751769
  0
LINE
  5
2B9
100
AcDbEntity
  8
0
100
AcDbLine
 62
7
  6
CONTINUOUS
 10
6.8557536935
 20
2.6288359727
 11
6.9342536935
 21
2.6033359727
  0
LINE
  5
2BA
100
AcDbEntity
  8
0
100
AcDbLine
 62
7
  6
CONTINUOUS
 10
4.1735491016
 20
2.1358359727
 11
4.1735491016
 21
2.1558359727
  0
LINE
  5
2BB
100
AcDbEntity
  8
0
100
AcDbLine
 62
7
  6
CONTINUOUS
 10
4.1903026016
 20
2.3493359727
 11
4.1903026016
 21
2.1558359727
  0
LINE
  5
2BC
100
AcDbEntity
  8
0
100
AcDbLine
 62
7
  6
CONTINUOUS
 10
4.2205209648
 20
2.0773792579
 11
4.2205209648
 21
1.9042926874
  0
LINE
  5
2BD
100
AcDbEntity
  8
0
100
AcDbLine
 62
7
  6
CONTINUOUS
 10
4.2687991016
 20
1.8666205824
 11
4.2687991016
 21
2.115051363
  0
LWPOLYLINE
  5
2BE
100
AcDbEntity
  8
0
100
AcDbPolyline
 62
7
  6
CONTINUOUS
 90
7
 70
0
 10
4.1708433375
 20
1.7475627276
 10
4.1714026139
 20
1.7534491902
 10
4.1725370193
 20
1.7593444352
 10
4.1742306898
 20
1.7651002466
 10
4.1764669891
 20
1.7706637628
 10
4.1792245779
 20
1.7759845391
 10
4.1821031536
 20
1.7804864884
  0
LINE
  5
2BF
100
AcDbEntity
  8
0
100
AcDbLine
 62
7
  6
CONTINUOUS
 10
3.4838790754
 20
1.2686921409
 11
3.4030717011
 21
0.9646606637
  0
LINE
  5
2C0
100
AcDbEntity
  8
0
100
AcDbLine
 62
7
  6
CONTINUOUS
 10
3.3982991016
 20
2.6683359727
 11
3.3832991016
 21
2.6288359727
  0
LINE
  5
2C1
100
AcDbEntity
  8
0
100
AcDbLine
 62
7
  6
CONTINUOUS
 10
3.3982991016
 20
2.8648251496
 11
3.398206687
 21
2.8646332067
  0
LINE
  5
2C2
100
AcDbEntity
  8
0
100
AcDbLine
 62
7
  6
CONTINUOUS
 10
4.8145491016
 20
3.4528359727
 11
5.4245491016
 21
3.4528359727
  0
LINE
  5
2C3
100
AcDbEntity
  8
0
100
AcDbLine
 62
7
  6
CONTINUOUS
 10
5.4195491016
 20
3.4628359727
 11
4.8196499693
 21
3.4628359727
  0
LINE
  5
2C4
100
AcDbEntity
  8
0
100
AcDbLine
 62
7
  6
CONTINUOUS
 10
5.4310281558
 20
3.5205529587
 11
4.8080700473
 21
3.5205529587
  0
LINE
  5
2C5
100
AcDbEntity
  8
0
100
AcDbLine
 62
7
  6
CONTINUOUS
 10
5.4260570885
 20
3.5345464701
 11
4.8130411146
 21
3.5345464701
  0
LINE
  5
2C6
100
AcDbEntity
  8
0
100
AcDbLine
 62
7
  6
CONTINUOUS
 10
7.2990029523
 20
2.9997577595
 11
7.2981357556
 21
2.9999127969
  0
LINE
  5
2C7
100
AcDbEntity
  8
0
100
AcDbLine
 62
7
  6
CONTINUOUS
 10
7.2990032663
 20
2.9997576664
 11
7.2657063209
 21
3.0057843077
  0
LINE
  5
2C8
100
AcDbEntity
  8
0
100
AcDbLine
 62
7
  6
CONTINUOUS
 10
7.237728763
 20
3.0122693299
 11
7.2799210057
 21
3.0045592423
  0
LINE
  5
2C9
100
AcDbEntity
  8
0
100
AcDbLine
 62
7
  6
CONTINUOUS
 10
7.5107536935
 20
2.6300859727
 11
7.4107536935
 21
2.6723359727
  0
LINE
  5
2CA
100
AcDbEntity
  8
0
100
AcDbLine
 62
7
  6
CONTINUOUS
 10
4.5342991016
 20
2.6933324727
 11
4.5342991016
 21
3.1303394727
  0
LINE
  5
2CB
100
AcDbEntity
  8
0
100
AcDbLine
 62
7
  6
CONTINUOUS
 10
4.7477525916
 20
2.6933324727
 11
4.7477525916
 21
3.1303394727
  0
LINE
  5
2CC
100
AcDbEntity
  8
0
100
AcDbLine
 62
7
  6
CONTINUOUS
 10
4.797613456
 20
2.6685172734
 11
4.797613456
 21
3.155154672
  0
LINE
  5
2CD
100
AcDbEntity
  8
0
100
AcDbLine
 62
7
  6
CONTINUOUS
 10
4.8145491016
 20
3.4528359727
 11
4.8145491016
 21
3.1984356269
  0
LINE
  5
2CE
100
AcDbEntity
  8
0
100
AcDbLine
 62
7
  6
CONTINUOUS
 10
4.7976132078
 20
3.1216798637
 11
4.7976143212
 21
3.1247941961
  0
LINE
  5
2CF
100
AcDbEntity
  8
0
100
AcDbLine
 62
7
  6
CONTINUOUS
 10
4.7976134524
 20
2.6959062057
 11
4.797614327
 21
2.698877693
  0
LINE
  5
2D0
100
AcDbEntity
  8
0
100
AcDbLine
 62
7
  6
CONTINUOUS
 10
4.7976131098
 20
3.1305972634
 11
4.7976144608
 21
3.1332896179
  0
LINE
  5
2D1
100
AcDbEntity
  8
0
100
AcDbLine
 62
7
  6
CONTINUOUS
 10
4.7976121315
 20
2.6854246435
 11
4.7976144608
 21
2.6903822991
  0
LINE
  5
2D2
100
AcDbEntity
  8
0
100
AcDbLine
 62
7
  6
CONTINUOUS
 10
4.797611804
 20
2.679077549
 11
4.7976140818
 21
2.6831558013
  0
LINE
  5
2D3
100
AcDbEntity
  8
0
100
AcDbLine
 62
7
  6
CONTINUOUS
 10
4.7976120983
 20
2.6741395441
 11
4.7976133957
 21
2.6756185542
  0
LINE
  5
2D4
100
AcDbEntity
  8
0
100
AcDbLine
 62
7
  6
CONTINUOUS
 10
4.7976121345
 20
3.1382472678
 11
4.7976130976
 21
3.1548024458
  0
LINE
  5
2D5
100
AcDbEntity
  8
0
100
AcDbLine
 62
7
  6
CONTINUOUS
 10
4.7976123074
 20
2.670718102
 11
4.7976134682
 21
2.6716833744
  0
LINE
  5
2D6
100
AcDbEntity
  8
0
100
AcDbLine
 62
7
  6
CONTINUOUS
 10
4.7976130861
 20
3.1550660501
 11
4.797613456
 21
3.155154672
  0
LINE
  5
2D7
100
AcDbEntity
  8
0
100
AcDbLine
 62
7
  6
CONTINUOUS
 10
2.866908891
 20
2.9755878106
 11
2.8557991016
 21
2.9644780212
  0
LINE
  5
2D8
100
AcDbEntity
  8
0
100
AcDbLine
 62
7
  6
CONTINUOUS
 10
7.3467586715
 20
2.9838359727
 11
7.3721439041
 21
2.9755878106
  0
LINE
  5
2D9
100
AcDbEntity
  8
0
100
AcDbLine
 62
7
  6
CONTINUOUS
 10
6.8557536935
 20
2.9288359727
 11
6.8687536935
 21
2.9213359727
  0
LINE
  5
2DA
100
AcDbEntity
  8
0
100
AcDbLine
 62
7
  6
CONTINUOUS
 10
6.6647728223
 20
2.8733543331
 11
6.6893558573
 21
2.8562046514
  0
LWPOLYLINE
  5
2DB
100
AcDbEntity
  8
0
100
AcDbPolyline
 62
7
  6
CONTINUOUS
 90
7
 70
0
 10
6.0570091666
 20
1.7804824288
 10
6.0598875782
 20
1.7759809653
 10
6.0626453012
 20
1.7706602835
 10
6.0648817518
 20
1.7650968276
 10
6.0665755842
 20
1.7593410363
 10
6.067710153
 20
1.7534457705
 10
6.0682696029
 20
1.7475588324
  0
LINE
  5
2DC
100
AcDbEntity
  8
0
100
AcDbLine
 62
7
  6
CONTINUOUS
 10
5.9822991016
 20
1.8458359727
 11
5.9702991016
 21
1.8666205824
  0
LINE
  5
2DD
100
AcDbEntity
  8
0
100
AcDbLine
 62
7
  6
CONTINUOUS
 10
4.8695491016
 20
5.4384359727
 11
4.8983268472
 21
5.1207296609
  0
LINE
  5
2DE
100
AcDbEntity
  8
0
100
AcDbLine
 62
7
  6
CONTINUOUS
 10
4.8382991016
 20
4.1518672102
 11
4.8382991016
 21
4.0878359727
  0
LINE
  5
2DF
100
AcDbEntity
  8
0
100
AcDbLine
 62
7
  6
CONTINUOUS
 10
4.8885148757
 20
4.1128359727
 11
4.8885148757
 21
4.0878359727
  0
LINE
  5
2E0
100
AcDbEntity
  8
0
100
AcDbLine
 62
7
  6
CONTINUOUS
 10
4.9007991016
 20
5.1112416482
 11
4.9007991016
 21
4.1628359727
  0
LINE
  5
2E1
100
AcDbEntity
  8
0
100
AcDbLine
 62
7
  6
CONTINUOUS
 10
4.9007991016
 20
5.4984359727
 11
4.9007991016
 21
7.9359359727
  0
LINE
  5
2E2
100
AcDbEntity
  8
0
100
AcDbLine
 62
7
  6
CONTINUOUS
 10
5.0693333274
 20
4.1128359727
 11
5.0693333274
 21
4.0878359727
  0
LINE
  5
2E3
100
AcDbEntity
  8
0
100
AcDbLine
 62
7
  6
CONTINUOUS
 10
3.6747991016
 20
2.115051363
 11
3.6867991016
 21
2.1358359727
  0
LINE
  5
2E4
100
AcDbEntity
  8
0
100
AcDbLine
 62
7
  6
CONTINUOUS
 10
5.4195491016
 20
4.0878359727
 11
4.8195491016
 21
4.0878359727
  0
LINE
  5
2E5
100
AcDbEntity
  8
0
100
AcDbLine
 62
7
  6
CONTINUOUS
 10
5.4007991016
 20
4.1128359727
 11
5.3505833274
 21
4.1128359727
  0
LINE
  5
2E6
100
AcDbEntity
  8
0
100
AcDbLine
 62
7
  6
CONTINUOUS
 10
5.1697648757
 20
4.1128359727
 11
5.0693333274
 21
4.1128359727
  0
LINE
  5
2E7
100
AcDbEntity
  8
0
100
AcDbLine
 62
7
  6
CONTINUOUS
 10
4.8885148757
 20
4.1128359727
 11
4.8382991016
 21
4.1128359727
  0
LINE
  5
2E8
100
AcDbEntity
  8
0
100
AcDbLine
 62
7
  6
CONTINUOUS
 10
5.3695491016
 20
4.1628359727
 11
4.8695491016
 21
4.1628359727
  0
LINE
  5
2E9
100
AcDbEntity
  8
0
100
AcDbLine
 62
7
  6
CONTINUOUS
 10
7.3702536935
 20
2.9213359727
 11
7.3840998511
 21
2.9133359727
  0
LINE
  5
2EA
100
AcDbEntity
  8
0
100
AcDbLine
 62
7
  6
CONTINUOUS
 10
5.1697648757
 20
4.1128359727
 11
5.1697648757
 21
4.0878359727
  0
LINE
  5
2EB
100
AcDbEntity
  8
0
100
AcDbLine
 62
7
  6
CONTINUOUS
 10
5.3382991016
 20
5.1112416482
 11
5.3382991016
 21
4.1628359727
  0
LINE
  5
2EC
100
AcDbEntity
  8
0
100
AcDbLine
 62
7
  6
CONTINUOUS
 10
5.3382991016
 20
5.4984359727
 11
5.3382991016
 21
7.9359359727
  0
LINE
  5
2ED
100
AcDbEntity
  8
0
100
AcDbLine
 62
7
  6
CONTINUOUS
 10
5.3505833274
 20
4.1128359727
 11
5.3505833274
 21
4.0878359727
  0
LINE
  5
2EE
100
AcDbEntity
  8
0
100
AcDbLine
 62
7
  6
CONTINUOUS
 10
5.4007991016
 20
4.0878359727
 11
5.4007991016
 21
4.1518672102
  0
LINE
  5
2EF
100
AcDbEntity
  8
0
100
AcDbLine
 62
7
  6
CONTINUOUS
 10
5.4245491016
 20
3.4528359727
 11
5.4245491016
 21
3.1984356269
  0
LINE
  5
2F0
100
AcDbEntity
  8
0
100
AcDbLine
 62
7
  6
CONTINUOUS
 10
5.4414847471
 20
3.155154672
 11
5.4414847471
 21
2.6685172734
  0
LINE
  5
2F1
100
AcDbEntity
  8
0
100
AcDbLine
 62
7
  6
CONTINUOUS
 10
5.4913456115
 20
3.1303394727
 11
5.4913456115
 21
2.6933324727
  0
LINE
  5
2F2
100
AcDbEntity
  8
0
100
AcDbLine
 62
7
  6
CONTINUOUS
 10
5.4414860753
 20
2.6854564716
 11
5.4414849671
 21
2.6772816105
  0
LINE
  5
2F3
100
AcDbEntity
  8
0
100
AcDbLine
 62
7
  6
CONTINUOUS
 10
5.4414861289
 20
2.674150664
 11
5.4414854163
 21
2.6693101328
  0
LINE
  5
2F4
100
AcDbEntity
  8
0
100
AcDbLine
 62
7
  6
CONTINUOUS
 10
5.4414851778
 20
2.6686061516
 11
5.4414847471
 21
2.6685172734
  0
LINE
  5
2F5
100
AcDbEntity
  8
0
100
AcDbLine
 62
7
  6
CONTINUOUS
 10
5.3695491016
 20
5.4384359727
 11
5.3407713559
 21
5.1207296609
  0
LINE
  5
2F6
100
AcDbEntity
  8
0
100
AcDbLine
 62
7
  6
CONTINUOUS
 10
3.5742799727
 20
2.8733543331
 11
3.5496969377
 21
2.8562046514
  0
LINE
  5
2F7
100
AcDbEntity
  8
0
100
AcDbLine
 62
7
  6
CONTINUOUS
 10
2.8687991016
 20
2.9213359727
 11
2.8549529439
 21
2.9133359727
  0
LINE
  5
2F8
100
AcDbEntity
  8
0
100
AcDbLine
 62
7
  6
CONTINUOUS
 10
3.3832991016
 20
2.9288359727
 11
3.3702991016
 21
2.9213359727
  0
LINE
  5
2F9
100
AcDbEntity
  8
0
100
AcDbLine
 62
7
  6
CONTINUOUS
 10
6.5642991016
 20
2.115051363
 11
6.5522991016
 21
2.1358359727
  0
LINE
  5
2FA
100
AcDbEntity
  8
0
100
AcDbLine
 62
7
  6
CONTINUOUS
 10
5.7047991016
 20
2.6933324727
 11
5.7047991016
 21
3.1303394727
  0
LINE
  5
2FB
100
AcDbEntity
  8
0
100
AcDbLine
 62
7
  6
CONTINUOUS
 10
4.2567991016
 20
1.8458359727
 11
4.2687991016
 21
1.8666205824
  0
LINE
  5
2FC
100
AcDbEntity
  8
0
100
AcDbLine
 62
7
  6
CONTINUOUS
 10
2.7282991016
 20
2.6300859727
 11
2.8282991016
 21
2.6723359727
  0
LINE
  5
2FD
100
AcDbEntity
  8
0
100
AcDbLine
 62
7
  6
CONTINUOUS
 10
2.8922941235
 20
2.9838359727
 11
2.866908891
 21
2.9755878106
  0
LINE
  5
2FE
100
AcDbEntity
  8
0
100
AcDbLine
 62
7
  6
CONTINUOUS
 10
5.310893674
 20
5.0934359727
 11
4.9282045291
 21
5.0934359727
  0
LINE
  5
2FF
100
AcDbEntity
  8
0
100
AcDbLine
 62
7
  6
CONTINUOUS
 10
5.3407713559
 20
5.1207296609
 11
4.8983268472
 21
5.1207296609
  0
LINE
  5
300
100
AcDbEntity
  8
0
100
AcDbLine
 62
7
  6
CONTINUOUS
 10
7.3721439041
 20
2.9755878106
 11
7.3832536935
 21
2.9644780212
  0
LINE
  5
301
100
AcDbEntity
  8
0
100
AcDbLine
 62
7
  6
CONTINUOUS
 10
5.9702991016
 20
1.8666205824
 11
5.9702991016
 21
2.115051363
  0
LINE
  5
302
100
AcDbEntity
  8
0
100
AcDbLine
 62
7
  6
CONTINUOUS
 10
6.0185772383
 20
2.0773792579
 11
6.0185772383
 21
1.9042926874
  0
LINE
  5
303
100
AcDbEntity
  8
0
100
AcDbLine
 62
7
  6
CONTINUOUS
 10
6.0487956016
 20
2.1558359727
 11
6.0487956016
 21
2.3493359727
  0
LINE
  5
304
100
AcDbEntity
  8
0
100
AcDbLine
 62
7
  6
CONTINUOUS
 10
6.2190209648
 20
2.0773792579
 11
6.2190209648
 21
1.9042926874
  0
LINE
  5
305
100
AcDbEntity
  8
0
100
AcDbLine
 62
7
  6
CONTINUOUS
 10
5.3695491016
 20
5.4384359727
 11
4.8695491016
 21
5.4384359727
  0
LINE
  5
306
100
AcDbEntity
  8
0
100
AcDbLine
 62
7
  6
CONTINUOUS
 10
6.840846108
 20
2.8646332067
 11
6.8407536935
 21
2.8648251495
  0
LINE
  5
307
100
AcDbEntity
  8
0
100
AcDbLine
 62
7
  6
CONTINUOUS
 10
6.8407536935
 20
2.6683359727
 11
6.8557536935
 21
2.6288359727
  0
LINE
  5
308
100
AcDbEntity
  8
0
100
AcDbLine
 62
7
  6
CONTINUOUS
 10
6.7551953431
 20
1.2687217215
 11
6.8360086078
 21
0.96469181
  0
LWPOLYLINE
  5
309
100
AcDbEntity
  8
0
100
AcDbPolyline
 62
7
  6
CONTINUOUS
 90
9
 70
0
 10
6.4695886144
 20
1.7426996251
 10
6.4692703421
 20
1.7487585234
 10
6.4695398063
 20
1.7547976746
 10
6.4703899911
 20
1.7607706199
 10
6.4718090542
 20
1.7666203677
 10
6.4737807876
 20
1.7722953839
 10
6.4762827155
 20
1.7777419666
 10
6.479283423
 20
1.7829040936
 10
6.4797097406
 20
1.7835538401
  0
LINE
  5
30A
100
AcDbEntity
  8
0
100
AcDbLine
 62
7
  6
CONTINUOUS
 10
6.3155772383
 20
2.0773792579
 11
6.3155772383
 21
1.9042926874
  0
LINE
  5
30B
100
AcDbEntity
  8
0
100
AcDbLine
 62
7
  6
CONTINUOUS
 10
6.4858026016
 20
2.1558359727
 11
6.4858026016
 21
2.3493359727
  0
LINE
  5
30C
100
AcDbEntity
  8
0
100
AcDbLine
 62
7
  6
CONTINUOUS
 10
6.5160209648
 20
2.0773792579
 11
6.5160209648
 21
1.9042926874
  0
LINE
  5
30D
100
AcDbEntity
  8
0
100
AcDbLine
 62
7
  6
CONTINUOUS
 10
6.5642991016
 20
1.8666205824
 11
6.5642991016
 21
2.115051363
  0
LINE
  5
30E
100
AcDbEntity
  8
0
100
AcDbLine
 62
7
  6
CONTINUOUS
 10
3.3832991016
 20
2.6288359727
 11
3.3047991016
 21
2.6033359727
  0
LINE
  5
30F
100
AcDbEntity
  8
0
100
AcDbLine
 62
7
  6
CONTINUOUS
 10
5.3695491016
 20
5.4984359727
 11
4.8695491016
 21
5.4984359727
  0
LINE
  5
310
100
AcDbEntity
  8
0
100
AcDbLine
 62
7
  6
CONTINUOUS
 10
4.9007991016
 20
5.6859359727
 11
5.3382991016
 21
5.6859359727
  0
LINE
  5
311
100
AcDbEntity
  8
0
100
AcDbLine
 62
7
  6
CONTINUOUS
 10
6.6402875975
 20
0.634855741
 11
6.6402881301
 21
0.6073633271
  0
LINE
  5
312
100
AcDbEntity
  8
0
100
AcDbLine
 62
7
  6
CONTINUOUS
 10
6.6647728223
 20
2.6683176123
 11
6.6647728223
 21
2.8733543331
  0
LINE
  5
313
100
AcDbEntity
  8
0
100
AcDbLine
 62
7
  6
CONTINUOUS
 10
6.6893558573
 20
2.685467294
 11
6.6893558573
 21
2.8562046514
  0
LINE
  5
314
100
AcDbEntity
  8
0
100
AcDbLine
 62
7
  6
CONTINUOUS
 10
6.7016968219
 20
2.8608359727
 11
6.7016968219
 21
2.6808359727
  0
LINE
  5
315
100
AcDbEntity
  8
0
100
AcDbLine
 62
7
  6
CONTINUOUS
 10
6.715183793
 20
2.6750141905
 11
6.715183793
 21
2.8666577549
  0
LINE
  5
316
100
AcDbEntity
  8
0
100
AcDbLine
 62
7
  6
CONTINUOUS
 10
6.8407536935
 20
2.6683359727
 11
6.8407536935
 21
2.8733359727
  0
LINE
  5
317
100
AcDbEntity
  8
0
100
AcDbLine
 62
7
  6
CONTINUOUS
 10
6.8439256267
 20
1.768894572
 11
6.8439279022
 21
1.6514409995
  0
LINE
  5
318
100
AcDbEntity
  8
0
100
AcDbLine
 62
7
  6
CONTINUOUS
 10
6.8511588206
 20
2.8333772254
 11
6.8511588206
 21
2.70829472
  0
LINE
  5
319
100
AcDbEntity
  8
0
100
AcDbLine
 62
7
  6
CONTINUOUS
 10
6.8557536935
 20
2.9644780212
 11
6.8557536935
 21
2.9288359727
  0
LINE
  5
31A
100
AcDbEntity
  8
0
100
AcDbLine
 62
7
  6
CONTINUOUS
 10
6.8582536935
 20
2.7832456463
 11
6.8582536935
 21
2.758426299
  0
LINE
  5
31B
100
AcDbEntity
  8
0
100
AcDbLine
 62
7
  6
CONTINUOUS
 10
8.7477536935
 20
2.9115859727
 11
8.7577536935
 21
2.9015859727
  0
LINE
  5
31C
100
AcDbEntity
  8
0
100
AcDbLine
 62
7
  6
CONTINUOUS
 10
7.3840998511
 20
2.9133359727
 11
7.3982536935
 21
2.8733359727
  0
LWPOLYLINE
  5
31D
100
AcDbEntity
  8
0
100
AcDbPolyline
 62
7
  6
CONTINUOUS
 90
7
 70
0
 10
7.2195036935
 20
3.0140282021
 10
7.2195026958
 20
3.0141286128
 10
7.2195026079
 20
3.014210338
 10
7.2195036935
 20
3.0142737075
 10
7.219505372
 20
3.0143189783
 10
7.2195061731
 20
3.0143463349
 10
7.2195036935
 20
3.0143558889
  0
LINE
  5
31E
100
AcDbEntity
  8
0
100
AcDbLine
 62
7
  6
CONTINUOUS
 10
7.2376442739
 20
3.01177645
 11
7.2376446336
 21
3.011282454
  0
LINE
  5
31F
100
AcDbEntity
  8
0
100
AcDbLine
 62
7
  6
CONTINUOUS
 10
6.9477536935
 20
2.6033359727
 11
6.9477536935
 21
2.4238359727
  0
LINE
  5
320
100
AcDbEntity
  8
0
100
AcDbLine
 62
7
  6
CONTINUOUS
 10
7.2145036935
 20
3.01381477
 11
7.2145036935
 21
3.014385009
  0
LINE
  5
321
100
AcDbEntity
  8
0
100
AcDbLine
 62
7
  6
CONTINUOUS
 10
6.9109480018
 20
2.4018501786
 11
6.8573242294
 21
1.9603359727
  0
LINE
  5
322
100
AcDbEntity
  8
0
100
AcDbLine
 62
7
  6
CONTINUOUS
 10
6.8549075358
 20
2.9133359727
 11
6.8407536935
 21
2.8733359727
  0
LINE
  5
323
100
AcDbEntity
  8
0
100
AcDbLine
 62
7
  6
CONTINUOUS
 10
5.9702991016
 20
2.115051363
 11
5.9822991016
 21
2.1358359727
  0
LINE
  5
324
100
AcDbEntity
  8
0
100
AcDbLine
 62
7
  6
CONTINUOUS
 10
6.8687536935
 20
2.9213359727
 11
6.8549075358
 21
2.9133359727
  0
LINE
  5
325
100
AcDbEntity
  8
0
100
AcDbLine
 62
7
  6
CONTINUOUS
 10
6.8922487154
 20
2.9838359727
 11
6.8668634829
 21
2.9755878106
  0
LINE
  5
326
100
AcDbEntity
  8
0
100
AcDbLine
 62
7
  6
CONTINUOUS
 10
7.3280832539
 20
2.4018501786
 11
7.3817070263
 21
1.9603359727
  0
LINE
  5
327
100
AcDbEntity
  8
0
100
AcDbLine
 62
7
  6
CONTINUOUS
 10
7.2912536935
 20
2.6033359727
 11
7.2912536935
 21
2.4238359727
  0
LINE
  5
328
100
AcDbEntity
  8
0
100
AcDbLine
 62
7
  6
CONTINUOUS
 10
7.3807536935
 20
2.7549535925
 11
7.3807536935
 21
2.7867183529
  0
LINE
  5
329
100
AcDbEntity
  8
0
100
AcDbLine
 62
7
  6
CONTINUOUS
 10
7.3832536935
 20
2.9644780212
 11
7.3832536935
 21
2.9288359727
  0
LINE
  5
32A
100
AcDbEntity
  8
0
100
AcDbLine
 62
7
  6
CONTINUOUS
 10
7.3951056268
 20
1.7688945719
 11
7.3951079021
 21
1.6514516781
  0
LINE
  5
32B
100
AcDbEntity
  8
0
100
AcDbLine
 62
7
  6
CONTINUOUS
 10
7.3982536935
 20
2.8733359727
 11
7.3982536935
 21
2.8693359727
  0
LINE
  5
32C
100
AcDbEntity
  8
0
100
AcDbLine
 62
7
  6
CONTINUOUS
 10
7.3982536935
 20
2.6723359727
 11
7.3982536935
 21
2.6683359727
  0
LINE
  5
32D
100
AcDbEntity
  8
0
100
AcDbLine
 62
7
  6
CONTINUOUS
 10
7.4107536935
 20
2.6723359727
 11
7.4107536935
 21
2.8693359727
  0
LINE
  5
32E
100
AcDbEntity
  8
0
100
AcDbLine
 62
7
  6
CONTINUOUS
 10
7.5107536935
 20
2.6300859727
 11
7.5107536935
 21
2.9115859727
  0
LINE
  5
32F
100
AcDbEntity
  8
0
100
AcDbLine
 62
7
  6
CONTINUOUS
 10
7.5632536935
 20
2.6300859727
 11
7.5632536935
 21
2.9115859727
  0
LINE
  5
330
100
AcDbEntity
  8
0
100
AcDbLine
 62
7
  6
CONTINUOUS
 10
7.5987875973
 20
0.634874311
 11
7.5987881299
 21
0.6073818971
  0
LINE
  5
331
100
AcDbEntity
  8
0
100
AcDbLine
 62
7
  6
CONTINUOUS
 10
6.8407536935
 20
2.6768467958
 11
6.840846108
 21
2.6770387387
  0
LWPOLYLINE
  5
332
100
AcDbEntity
  8
0
100
AcDbPolyline
 62
7
  6
CONTINUOUS
 90
5
 70
0
 10
7.2376525217
 20
3.0117751769
 10
7.2376512908
 20
3.0117728609
 10
7.2376446336
 20
3.0117308321
 10
7.237642717
 20
3.0116356488
 10
7.2376441969
 20
3.0114866143
  0
LINE
  5
333
100
AcDbEntity
  8
0
100
AcDbLine
 62
7
  6
CONTINUOUS
 10
6.5522991016
 20
1.8458359727
 11
6.5642991016
 21
1.8666205824
  0
LINE
  5
334
100
AcDbEntity
  8
0
100
AcDbLine
 62
7
  6
CONTINUOUS
 10
6.8668634829
 20
2.9755878106
 11
6.8557536935
 21
2.9644780212
  0
LINE
  5
335
100
AcDbEntity
  8
0
100
AcDbLine
 62
7
  6
CONTINUOUS
 10
6.6647728223
 20
2.6683176123
 11
6.6893558573
 21
2.685467294
  0
LINE
  5
336
100
AcDbEntity
  8
0
100
AcDbLine
 62
7
  6
CONTINUOUS
 10
7.3832536935
 20
2.9288359727
 11
7.3702536935
 21
2.9213359727
  0
LINE
  5
337
100
AcDbEntity
  8
0
100
AcDbLine
 62
7
  6
CONTINUOUS
 10
7.5107536935
 20
2.9115859727
 11
7.4107536935
 21
2.8693359727
  0
LINE
  5
338
100
AcDbEntity
  8
0
100
AcDbLine
 62
7
  6
CONTINUOUS
 10
7.3832536935
 20
2.6288359727
 11
7.3047536935
 21
2.6033359727
  0
LINE
  5
339
100
AcDbEntity
  8
0
100
AcDbLine
 62
7
  6
CONTINUOUS
 10
7.3982536935
 20
2.8693463523
 11
7.39750699
 21
2.8671891269
  0
LINE
  5
33A
100
AcDbEntity
  8
0
100
AcDbLine
 62
7
  6
CONTINUOUS
 10
7.3982536935
 20
2.6683359727
 11
7.3832536935
 21
2.6288359727
  0
LINE
  5
33B
100
AcDbEntity
  8
0
100
AcDbLine
 62
7
  6
CONTINUOUS
 10
7.4838552907
 20
1.2687358385
 11
7.4030538067
 21
0.9647027959
  0
LINE
  5
33C
100
AcDbEntity
  8
0
100
AcDbLine
 62
7
  6
CONTINUOUS
 10
8.7077536935
 20
2.6300859727
 11
8.7077536935
 21
2.9115859727
  0
LINE
  5
33D
100
AcDbEntity
  8
0
100
AcDbLine
 62
7
  6
CONTINUOUS
 10
8.7477536935
 20
2.6300859727
 11
8.7477536935
 21
2.9115859727
  0
LINE
  5
33E
100
AcDbEntity
  8
0
100
AcDbLine
 62
7
  6
CONTINUOUS
 10
8.7577536935
 20
2.9015859727
 11
8.7577536935
 21
2.6400859727
  0
LINE
  5
33F
100
AcDbEntity
  8
0
100
AcDbLine
 62
7
  6
CONTINUOUS
 10
8.7477536935
 20
2.6300859727
 11
8.7577536935
 21
2.6400859727
  0
ARC
  5
340
100
AcDbEntity
  8
0
100
AcDbCircle
 62
7
  6
CONTINUOUS
 10
3.1195491016
 20
2.2459992767
 40
0.775336696
100
AcDbArc
 50
88.4728421397
 51
91.6159260019
  0
ARC
  5
341
100
AcDbEntity
  8
0
100
AcDbCircle
 62
7
  6
CONTINUOUS
 10
3.1195491016
 20
2.2459992767
 40
0.775336696
100
AcDbArc
 50
84.2038744368
 51
87.151920897
  0
ARC
  5
342
100
AcDbEntity
  8
0
100
AcDbCircle
 62
7
  6
CONTINUOUS
 10
3.1195491016
 20
2.2459992767
 40
0.775336696
100
AcDbArc
 50
92.9591397164
 51
94.3855590767
  0
ARC
  5
343
100
AcDbEntity
  8
0
100
AcDbCircle
 62
7
  6
CONTINUOUS
 10
3.1195491016
 20
2.2459992767
 40
0.775336696
100
AcDbArc
 50
99.227581831
 51
104.7629977426
  0
ARC
  5
344
100
AcDbEntity
  8
0
100
AcDbCircle
 62
7
  6
CONTINUOUS
 10
3.1195491016
 20
2.2459992767
 40
0.775336696
100
AcDbArc
 50
75.2370022574
 51
82.8643019772
  0
ARC
  5
345
100
AcDbEntity
  8
0
100
AcDbCircle
 62
7
  6
CONTINUOUS
 10
3.1195530216
 20
2.2459664074
 40
0.7748672145
100
AcDbArc
 50
96.0935582821
 51
97.5084614948
  0
ARC
  5
346
100
AcDbEntity
  8
0
100
AcDbCircle
 62
7
  6
CONTINUOUS
 10
3.1196154852
 20
2.2455548024
 40
0.7741195263
100
AcDbArc
 50
97.1286469367
 51
99.8603855552
  0
ARC
  5
347
100
AcDbEntity
  8
0
100
AcDbCircle
 62
7
  6
CONTINUOUS
 10
3.1195122685
 20
2.2456748441
 40
0.7739966746
100
AcDbArc
 50
82.163130585
 51
84.8826874292
  0
ARC
  5
348
100
AcDbEntity
  8
0
100
AcDbCircle
 62
7
  6
CONTINUOUS
 10
3.1194850273
 20
2.2467120478
 40
0.7729548055
100
AcDbArc
 50
93.7783967345
 51
96.4951475258
  0
ARC
  5
349
100
AcDbEntity
  8
0
100
AcDbCircle
 62
7
  6
CONTINUOUS
 10
3.0625491016
 20
1.3503762102
 40
0.318
100
AcDbArc
 50
143.450553286
 51
194.8843096077
  0
ARC
  5
34A
100
AcDbEntity
  8
0
100
AcDbCircle
 62
7
  6
CONTINUOUS
 10
3.1765491016
 20
1.3503762102
 40
0.318
100
AcDbArc
 50
345.1156903923
 51
36.549446714
  0
ARC
  5
34B
100
AcDbEntity
  8
0
100
AcDbCircle
 62
7
  6
CONTINUOUS
 10
2.5905491016
 20
0.8994161556
 40
0.254
100
AcDbArc
 50
284.6669095294
 51
14.8843096077
  0
ARC
  5
34C
100
AcDbEntity
  8
0
100
AcDbCircle
 62
6
  6
CONTINUOUS
 10
2.6245683708
 20
1.9886092241
 40
0.2345
100
AcDbArc
 50
322.0339977482
 51
353.0751017558
  0
ARC
  5
34D
100
AcDbEntity
  8
0
100
AcDbCircle
 62
7
  6
CONTINUOUS
 10
2.6564591016
 20
1.6514096998
 40
0.1875
100
AcDbArc
 50
323.450553286
 51
360.0
  0
ARC
  5
34E
100
AcDbEntity
  8
0
100
AcDbCircle
 62
6
  6
CONTINUOUS
 10
2.8623331228
 20
1.8999484326
 40
0.1246306534
100
AcDbArc
 50
267.6567781886
 51
269.0850854801
  0
ARC
  5
34F
100
AcDbEntity
  8
0
100
AcDbCircle
 62
6
  6
CONTINUOUS
 10
2.8462991016
 20
1.8155859727
 40
0.04675
100
AcDbArc
 50
142.0339977482
 51
267.1348508061
  0
ARC
  5
350
100
AcDbEntity
  8
0
100
AcDbCircle
 62
7
  6
CONTINUOUS
 10
2.6597991016
 20
0.6073359727
 40
0.0195
100
AcDbArc
 50
180.0
 51
270.0
  0
ARC
  5
351
100
AcDbEntity
  8
0
100
AcDbCircle
 62
7
  6
CONTINUOUS
 10
2.6597991016
 20
0.6348283866
 40
0.0195
100
AcDbArc
 50
104.6669095294
 51
180.0
  0
ARC
  5
352
100
AcDbEntity
  8
0
100
AcDbCircle
 62
7
  6
CONTINUOUS
 10
1.6200595182
 20
2.7708359727
 40
0.1867604167
100
AcDbArc
 50
137.9864211385
 51
222.0135788615
  0
ARC
  5
353
100
AcDbEntity
  8
0
100
AcDbCircle
 62
6
  6
CONTINUOUS
 10
2.9357991016
 20
2.3988359727
 40
0.025
100
AcDbArc
 50
90.0
 51
173.0751017558
  0
ARC
  5
354
100
AcDbEntity
  8
0
100
AcDbCircle
 62
7
  6
CONTINUOUS
 10
2.9257991016
 20
2.9812358568
 40
0.015
100
AcDbArc
 50
104.7629977426
 51
170.0178676881
  0
ARC
  5
355
100
AcDbEntity
  8
0
100
AcDbCircle
 62
7
  6
CONTINUOUS
 10
4.5342991016
 20
2.3493359727
 40
0.7810035
100
AcDbArc
 50
90.0
 51
180.0
  0
ARC
  5
356
100
AcDbEntity
  8
0
100
AcDbCircle
 62
7
  6
CONTINUOUS
 10
4.5342991016
 20
2.3493359727
 40
0.3439965
100
AcDbArc
 50
90.0
 51
180.0
  0
ARC
  5
357
100
AcDbEntity
  8
0
100
AcDbCircle
 62
7
  6
CONTINUOUS
 10
3.6485491016
 20
0.8994161556
 40
0.254
100
AcDbArc
 50
165.1156903923
 51
255.3330904706
  0
ARC
  5
358
100
AcDbEntity
  8
0
100
AcDbCircle
 62
6
  6
CONTINUOUS
 10
3.6145298323
 20
1.9886092241
 40
0.2345
100
AcDbArc
 50
186.9248982442
 51
217.9660022518
  0
ARC
  5
359
100
AcDbEntity
  8
0
100
AcDbCircle
 62
7
  6
CONTINUOUS
 10
3.5826391016
 20
1.6514096998
 40
0.1875
100
AcDbArc
 50
180.0
 51
216.549446714
  0
ARC
  5
35A
100
AcDbEntity
  8
0
100
AcDbCircle
 62
7
  6
CONTINUOUS
 10
3.8842991016
 20
1.8666202985
 40
0.15
100
AcDbArc
 50
187.9646538916
 51
213.6282289586
  0
ARC
  5
35B
100
AcDbEntity
  8
0
100
AcDbCircle
 62
7
  6
CONTINUOUS
 10
4.0592991016
 20
1.8666202985
 40
0.15
100
AcDbArc
 50
324.9544544405
 51
352.0353461084
  0
ARC
  5
35C
100
AcDbEntity
  8
0
100
AcDbCircle
 62
6
  6
CONTINUOUS
 10
3.3767511981
 20
1.9006057048
 40
0.1252879723
100
AcDbArc
 50
270.5517577613
 51
271.9958811686
  0
ARC
  5
35D
100
AcDbEntity
  8
0
100
AcDbCircle
 62
6
  6
CONTINUOUS
 10
3.3927991016
 20
1.8155859727
 40
0.04675
100
AcDbArc
 50
272.8651491939
 51
37.9660022518
  0
ARC
  5
35E
100
AcDbEntity
  8
0
100
AcDbCircle
 62
7
  6
CONTINUOUS
 10
3.5792991016
 20
0.6073359727
 40
0.0195
100
AcDbArc
 50
270.0
 51
360.0
  0
ARC
  5
35F
100
AcDbEntity
  8
0
100
AcDbCircle
 62
7
  6
CONTINUOUS
 10
3.5792991016
 20
0.6348283866
 40
0.0195
100
AcDbArc
 50
0.0
 51
75.3330904706
  0
ARC
  5
360
100
AcDbEntity
  8
0
100
AcDbCircle
 62
7
  6
CONTINUOUS
 10
4.9250074349
 20
3.8053359727
 40
0.5695416667
100
AcDbArc
 50
331.6112415984
 51
29.736562717
  0
ARC
  5
361
100
AcDbEntity
  8
0
100
AcDbCircle
 62
7
  6
CONTINUOUS
 10
3.6457991016
 20
2.7708359727
 40
0.125
100
AcDbArc
 50
235.0995
 51
124.9005
  0
ARC
  5
362
100
AcDbEntity
  8
0
100
AcDbCircle
 62
7
  6
CONTINUOUS
 10
3.4600829625
 20
2.6073359727
 40
0.093
100
AcDbArc
 50
46.6958241996
 51
131.6319105028
  0
ARC
  5
363
100
AcDbEntity
  8
0
100
AcDbCircle
 62
7
  6
CONTINUOUS
 10
3.4600829625
 20
2.9343359727
 40
0.093
100
AcDbArc
 50
228.3680894972
 51
313.3041758004
  0
ARC
  5
364
100
AcDbEntity
  8
0
100
AcDbCircle
 62
7
  6
CONTINUOUS
 10
4.7477525916
 20
3.1928394727
 40
0.0625
100
AcDbArc
 50
270.0
 51
322.9180414918
  0
ARC
  5
365
100
AcDbEntity
  8
0
100
AcDbCircle
 62
7
  6
CONTINUOUS
 10
4.7477525916
 20
2.6308324727
 40
0.0625
100
AcDbArc
 50
37.0819585082
 51
90.0
  0
ARC
  5
366
100
AcDbEntity
  8
0
100
AcDbCircle
 62
7
  6
CONTINUOUS
 10
4.7520491016
 20
3.1984356269
 40
0.0625
100
AcDbArc
 50
322.0506496105
 51
360.0
  0
ARC
  5
367
100
AcDbEntity
  8
0
100
AcDbCircle
 62
7
  6
CONTINUOUS
 10
4.8695491016
 20
4.1128359727
 40
0.05
100
AcDbArc
 50
90.0
 51
128.6821874535
  0
ARC
  5
368
100
AcDbEntity
  8
0
100
AcDbCircle
 62
7
  6
CONTINUOUS
 10
4.8195491016
 20
3.4928359727
 40
0.03
100
AcDbArc
 50
112.4970052381
 51
270.0
  0
ARC
  5
369
100
AcDbEntity
  8
0
100
AcDbCircle
 62
6
  6
CONTINUOUS
 10
3.3032991016
 20
2.3988359727
 40
0.025
100
AcDbArc
 50
6.9248982442
 51
90.0
  0
ARC
  5
36A
100
AcDbEntity
  8
0
100
AcDbCircle
 62
7
  6
CONTINUOUS
 10
3.3132991016
 20
2.9812358568
 40
0.015
100
AcDbArc
 50
9.9821323119
 51
75.2370022574
  0
ARC
  5
36B
100
AcDbEntity
  8
0
100
AcDbCircle
 62
7
  6
CONTINUOUS
 10
4.8245491016
 20
3.4528359727
 40
0.01
100
AcDbArc
 50
90.0
 51
180.0
  0
ARC
  5
36C
100
AcDbEntity
  8
0
100
AcDbCircle
 62
7
  6
CONTINUOUS
 10
4.8042436959
 20
3.529791954
 40
0.01
100
AcDbArc
 50
292.4970052377
 51
28.388758402
  0
ARC
  5
36D
100
AcDbEntity
  8
0
100
AcDbCircle
 62
7
  6
CONTINUOUS
 10
3.5451197135
 20
2.6789061189
 40
0.008
100
AcDbArc
 50
55.0995
 51
166.0407512246
  0
ARC
  5
36E
100
AcDbEntity
  8
0
100
AcDbCircle
 62
7
  6
CONTINUOUS
 10
3.5293559731
 20
2.6808359727
 40
0.008
100
AcDbArc
 50
226.6958241996
 51
360.0
  0
ARC
  5
36F
100
AcDbEntity
  8
0
100
AcDbCircle
 62
7
  6
CONTINUOUS
 10
3.5451197135
 20
2.8627658264
 40
0.008
100
AcDbArc
 50
193.9592487754
 51
304.9005
  0
ARC
  5
370
100
AcDbEntity
  8
0
100
AcDbCircle
 62
7
  6
CONTINUOUS
 10
3.5293559731
 20
2.8608359727
 40
0.008
100
AcDbArc
 50
0.0
 51
133.3041758004
  0
ARC
  5
371
100
AcDbEntity
  8
0
100
AcDbCircle
 62
7
  6
CONTINUOUS
 10
4.8695491016
 20
5.4684359727
 40
0.03
100
AcDbArc
 50
90.0
 51
270.0
  0
ARC
  5
372
100
AcDbEntity
  8
0
100
AcDbCircle
 62
7
  6
CONTINUOUS
 10
4.9282045291
 20
5.1234359727
 40
0.03
100
AcDbArc
 50
185.1757109144
 51
270.0
  0
ARC
  5
373
100
AcDbEntity
  8
0
100
AcDbCircle
 62
7
  6
CONTINUOUS
 10
5.7047991016
 20
2.3493359727
 40
0.7810035
100
AcDbArc
 50
0.0
 51
90.0
  0
ARC
  5
374
100
AcDbEntity
  8
0
100
AcDbCircle
 62
7
  6
CONTINUOUS
 10
5.7047991016
 20
2.3493359727
 40
0.3439965
100
AcDbArc
 50
0.0
 51
90.0
  0
ARC
  5
375
100
AcDbEntity
  8
0
100
AcDbCircle
 62
7
  6
CONTINUOUS
 10
6.5905324714
 20
0.899442546
 40
0.254
100
AcDbArc
 50
284.6680195805
 51
14.8854196523
  0
ARC
  5
376
100
AcDbEntity
  8
0
100
AcDbCircle
 62
7
  6
CONTINUOUS
 10
6.6245348971
 20
1.9886092241
 40
0.2345
100
AcDbArc
 50
322.0339977482
 51
353.0751017558
  0
ARC
  5
377
100
AcDbEntity
  8
0
100
AcDbCircle
 62
7
  6
CONTINUOUS
 10
6.6564279022
 20
1.6514373669
 40
0.1875
100
AcDbArc
 50
323.4516633402
 51
0.0011100479
  0
ARC
  5
378
100
AcDbEntity
  8
0
100
AcDbCircle
 62
7
  6
CONTINUOUS
 10
6.179811537
 20
1.8666186033
 40
0.15
100
AcDbArc
 50
187.9640000732
 51
215.0466424895
  0
ARC
  5
379
100
AcDbEntity
  8
0
100
AcDbCircle
 62
7
  6
CONTINUOUS
 10
6.3548115369
 20
1.8666219938
 40
0.15
100
AcDbArc
 50
326.3727842861
 51
352.0346922569
  0
ARC
  5
37A
100
AcDbEntity
  8
0
100
AcDbCircle
 62
7
  6
CONTINUOUS
 10
6.5610181286
 20
1.2604070854
 40
0.1100182483
100
AcDbArc
 50
266.2550948879
 51
269.9981780965
  0
ARC
  5
37B
100
AcDbEntity
  8
0
100
AcDbCircle
 62
7
  6
CONTINUOUS
 10
6.8462656279
 20
1.8155859727
 40
0.04675
100
AcDbArc
 50
142.0339977482
 51
267.1309467741
  0
ARC
  5
37C
100
AcDbEntity
  8
0
100
AcDbCircle
 62
7
  6
CONTINUOUS
 10
6.6597881301
 20
0.6073637049
 40
0.0195
100
AcDbArc
 50
180.0011100478
 51
270.0011100479
  0
ARC
  5
37D
100
AcDbEntity
  8
0
100
AcDbCircle
 62
7
  6
CONTINUOUS
 10
6.6597875975
 20
0.6348561188
 40
0.0195
100
AcDbArc
 50
104.6680195805
 51
180.0011100479
  0
ARC
  5
37E
100
AcDbEntity
  8
0
100
AcDbCircle
 62
7
  6
CONTINUOUS
 10
5.3140907682
 20
3.8053359727
 40
0.5695416667
100
AcDbArc
 50
150.263437283
 51
208.3887584016
  0
ARC
  5
37F
100
AcDbEntity
  8
0
100
AcDbCircle
 62
7
  6
CONTINUOUS
 10
5.1195491016
 20
2.9118359727
 40
0.4035425
100
AcDbArc
 50
37.0819585082
 51
37.9493503895
  0
ARC
  5
380
100
AcDbEntity
  8
0
100
AcDbCircle
 62
7
  6
CONTINUOUS
 10
5.1195491016
 20
2.9118359727
 40
0.4035425
100
AcDbArc
 50
142.0506496105
 51
142.9180414918
  0
ARC
  5
381
100
AcDbEntity
  8
0
100
AcDbCircle
 62
7
  6
CONTINUOUS
 10
5.1195491016
 20
2.9118359727
 40
0.4035425
100
AcDbArc
 50
217.0819585082
 51
322.9180414918
  0
ARC
  5
382
100
AcDbEntity
  8
0
100
AcDbCircle
 62
7
  6
CONTINUOUS
 10
6.5932536935
 20
2.7708359727
 40
0.125
100
AcDbArc
 50
55.0995
 51
304.9005
  0
ARC
  5
383
100
AcDbEntity
  8
0
100
AcDbCircle
 62
7
  6
CONTINUOUS
 10
6.7789698325
 20
2.6073359727
 40
0.093
100
AcDbArc
 50
48.3680894972
 51
133.3041758004
  0
ARC
  5
384
100
AcDbEntity
  8
0
100
AcDbCircle
 62
7
  6
CONTINUOUS
 10
6.7789698325
 20
2.9343359727
 40
0.093
100
AcDbArc
 50
226.6958241996
 51
311.6319105028
  0
ARC
  5
385
100
AcDbEntity
  8
0
100
AcDbCircle
 62
7
  6
CONTINUOUS
 10
5.4913456115
 20
2.6308324727
 40
0.0625
100
AcDbArc
 50
90.0
 51
142.9180414918
  0
ARC
  5
386
100
AcDbEntity
  8
0
100
AcDbCircle
 62
7
  6
CONTINUOUS
 10
5.4913456115
 20
3.1928394727
 40
0.0625
100
AcDbArc
 50
217.0819585082
 51
270.0
  0
ARC
  5
387
100
AcDbEntity
  8
0
100
AcDbCircle
 62
7
  6
CONTINUOUS
 10
5.4870491016
 20
3.1984356269
 40
0.0625
100
AcDbArc
 50
180.0
 51
217.9493503895
  0
ARC
  5
388
100
AcDbEntity
  8
0
100
AcDbCircle
 62
7
  6
CONTINUOUS
 10
5.3695491016
 20
4.1128359727
 40
0.05
100
AcDbArc
 50
51.3178125465
 51
90.0
  0
ARC
  5
389
100
AcDbEntity
  8
0
100
AcDbCircle
 62
7
  6
CONTINUOUS
 10
5.4195491016
 20
3.4928359727
 40
0.03
100
AcDbArc
 50
270.0
 51
67.5029947619
  0
ARC
  5
38A
100
AcDbEntity
  8
0
100
AcDbCircle
 62
7
  6
CONTINUOUS
 10
5.4145491016
 20
3.4528359727
 40
0.01
100
AcDbArc
 50
0.0
 51
90.0
  0
ARC
  5
38B
100
AcDbEntity
  8
0
100
AcDbCircle
 62
7
  6
CONTINUOUS
 10
5.4348545072
 20
3.529791954
 40
0.01
100
AcDbArc
 50
151.611241598
 51
247.5029947623
  0
ARC
  5
38C
100
AcDbEntity
  8
0
100
AcDbCircle
 62
7
  6
CONTINUOUS
 10
6.6939330815
 20
2.6789061189
 40
0.008
100
AcDbArc
 50
13.9592487754
 51
124.9005
  0
ARC
  5
38D
100
AcDbEntity
  8
0
100
AcDbCircle
 62
7
  6
CONTINUOUS
 10
6.7096968219
 20
2.6808359727
 40
0.008
100
AcDbArc
 50
180.0
 51
313.3041758004
  0
ARC
  5
38E
100
AcDbEntity
  8
0
100
AcDbCircle
 62
7
  6
CONTINUOUS
 10
6.6939330815
 20
2.8627658264
 40
0.008
100
AcDbArc
 50
235.0995
 51
346.0407512246
  0
ARC
  5
38F
100
AcDbEntity
  8
0
100
AcDbCircle
 62
7
  6
CONTINUOUS
 10
6.7096968219
 20
2.8608359727
 40
0.008
100
AcDbArc
 50
46.6958241996
 51
180.0
  0
ARC
  5
390
100
AcDbEntity
  8
0
100
AcDbCircle
 62
7
  6
CONTINUOUS
 10
7.1195036935
 20
2.246000965
 40
0.7753350077
100
AcDbArc
 50
103.053132852
 51
104.7630312681
  0
ARC
  5
391
100
AcDbEntity
  8
0
100
AcDbCircle
 62
7
  6
CONTINUOUS
 10
7.1195036935
 20
2.246000965
 40
0.7753350077
100
AcDbArc
 50
75.2369687319
 51
76.6050962423
  0
ARC
  5
392
100
AcDbEntity
  8
0
100
AcDbCircle
 62
7
  6
CONTINUOUS
 10
7.1195036935
 20
2.246000965
 40
0.7753350077
100
AcDbArc
 50
82.5847386306
 51
87.5035401074
  0
ARC
  5
393
100
AcDbEntity
  8
0
100
AcDbCircle
 62
7
  6
CONTINUOUS
 10
7.1195036935
 20
2.246000965
 40
0.7753350077
100
AcDbArc
 50
88.8352740814
 51
90.1109187402
  0
ARC
  5
394
100
AcDbEntity
  8
0
100
AcDbCircle
 62
7
  6
CONTINUOUS
 10
7.1195036935
 20
2.246000965
 40
0.7753350077
100
AcDbArc
 50
95.9262238177
 51
101.4638988942
  0
ARC
  5
395
100
AcDbEntity
  8
0
100
AcDbCircle
 62
7
  6
CONTINUOUS
 10
7.1194042488
 20
2.2453461886
 40
0.7743305916
100
AcDbArc
 50
79.7829096659
 51
82.9454053052
  0
ARC
  5
396
100
AcDbEntity
  8
0
100
AcDbCircle
 62
7
  6
CONTINUOUS
 10
7.1194922785
 20
2.2459329303
 40
0.7743034687
100
AcDbArc
 50
79.9528532454
 51
80.9981565209
  0
ARC
  5
397
100
AcDbEntity
  8
0
100
AcDbCircle
 62
7
  6
CONTINUOUS
 10
7.1195011596
 20
2.2459652251
 40
0.7742458556
100
AcDbArc
 50
85.49956173
 51
86.3898242421
  0
ARC
  5
398
100
AcDbEntity
  8
0
100
AcDbCircle
 62
7
  6
CONTINUOUS
 10
7.1765237344
 20
1.3504139536
 40
0.318
100
AcDbArc
 50
345.1168004434
 51
36.5505567555
  0
ARC
  5
399
100
AcDbEntity
  8
0
100
AcDbCircle
 62
7
  6
CONTINUOUS
 10
7.0625237344
 20
1.350411745
 40
0.318
100
AcDbArc
 50
143.4516633402
 51
194.8854196523
  0
ARC
  5
39A
100
AcDbEntity
  8
0
100
AcDbCircle
 62
7
  6
CONTINUOUS
 10
7.6485324712
 20
0.8994630437
 40
0.254
100
AcDbArc
 50
165.1168004434
 51
255.3342005152
  0
ARC
  5
39B
100
AcDbEntity
  8
0
100
AcDbCircle
 62
7
  6
CONTINUOUS
 10
7.6144963586
 20
1.9886092241
 40
0.2345
100
AcDbArc
 50
186.9248982442
 51
217.9660022518
  0
ARC
  5
39C
100
AcDbEntity
  8
0
100
AcDbCircle
 62
7
  6
CONTINUOUS
 10
7.5826079021
 20
1.6514553107
 40
0.1875
100
AcDbArc
 50
180.0011100479
 51
216.5505567555
  0
ARC
  5
39D
100
AcDbEntity
  8
0
100
AcDbCircle
 62
7
  6
CONTINUOUS
 10
7.3927656279
 20
1.8155859727
 40
0.04675
100
AcDbArc
 50
272.8690504396
 51
37.9660022518
  0
ARC
  5
39E
100
AcDbEntity
  8
0
100
AcDbCircle
 62
7
  6
CONTINUOUS
 10
7.5792881299
 20
0.6073815193
 40
0.0195
100
AcDbArc
 50
270.0011100479
 51
0.0011100478
  0
ARC
  5
39F
100
AcDbEntity
  8
0
100
AcDbCircle
 62
7
  6
CONTINUOUS
 10
7.5792875973
 20
0.6348739332
 40
0.0195
100
AcDbArc
 50
0.0011100478
 51
75.3342005152
  0
ARC
  5
3A0
100
AcDbEntity
  8
0
100
AcDbCircle
 62
7
  6
CONTINUOUS
 10
7.1000543454
 20
2.3634882135
 40
0.6557481036
100
AcDbArc
 50
96.2202393425
 51
96.9480749741
  0
ARC
  5
3A1
100
AcDbEntity
  8
0
100
AcDbCircle
 62
7
  6
CONTINUOUS
 10
7.1350416501
 20
2.4504011553
 40
0.5698457061
100
AcDbArc
 50
83.0490959626
 51
83.4821742598
  0
ARC
  5
3A2
100
AcDbEntity
  8
0
100
AcDbCircle
 62
7
  6
CONTINUOUS
 10
7.1838930547
 20
2.8093862116
 40
0.2077816274
100
AcDbArc
 50
85.6297847564
 51
87.4641381698
  0
ARC
  5
3A3
100
AcDbEntity
  8
0
100
AcDbCircle
 62
7
  6
CONTINUOUS
 10
8.6189932768
 20
2.7708359727
 40
0.1867604167
100
AcDbArc
 50
317.9864211385
 51
42.0135788615
  0
ARC
  5
3A4
100
AcDbEntity
  8
0
100
AcDbCircle
 62
7
  6
CONTINUOUS
 10
7.3032656279
 20
2.3988359727
 40
0.025
100
AcDbArc
 50
6.9248982442
 51
90.0
  0
ARC
  5
3A5
100
AcDbEntity
  8
0
100
AcDbCircle
 62
7
  6
CONTINUOUS
 10
6.9357656279
 20
2.3988359727
 40
0.025
100
AcDbArc
 50
90.0
 51
173.0751017558
  0
ARC
  5
3A6
100
AcDbEntity
  8
0
100
AcDbCircle
 62
7
  6
CONTINUOUS
 10
7.2041204849
 20
2.9924595618
 40
0.0235993453
100
AcDbArc
 50
90.283553879
 51
101.9281285402
  0
ARC
  5
3A7
100
AcDbEntity
  8
0
100
AcDbCircle
 62
7
  6
CONTINUOUS
 10
7.3132536935
 20
2.9812357992
 40
0.015
100
AcDbArc
 50
9.982355849
 51
75.2369687319
  0
ARC
  5
3A8
100
AcDbEntity
  8
0
100
AcDbCircle
 62
7
  6
CONTINUOUS
 10
6.9257536935
 20
2.9812357992
 40
0.015
100
AcDbArc
 50
104.7630312681
 51
170.017644151
  0
ARC
  5
3A9
100
AcDbEntity
  8
0
100
AcDbCircle
 62
7
  6
CONTINUOUS
 10
7.7290799043
 20
5.6822390056
 40
2.7151534623
100
AcDbArc
 50
259.9370990527
 51
260.1942941297
  0
ARC
  5
3AA
100
AcDbEntity
  8
0
100
AcDbCircle
 62
7
  6
CONTINUOUS
 10
7.5013400009
 20
4.3628387931
 40
1.37624263
100
AcDbArc
 50
260.1821755918
 51
260.4273994269
  0
ARC
  5
3AB
100
AcDbEntity
  8
0
100
AcDbCircle
 62
7
  6
CONTINUOUS
 10
5.1195491016
 20
7.9359359727
 40
0.21875
100
AcDbArc
 50
0.0
 51
180.0
  0
ARC
  5
3AC
100
AcDbEntity
  8
0
100
AcDbCircle
 62
7
  6
CONTINUOUS
 10
5.3695491016
 20
5.4684359727
 40
0.03
100
AcDbArc
 50
270.0
 51
90.0
  0
ARC
  5
3AD
100
AcDbEntity
  8
0
100
AcDbCircle
 62
7
  6
CONTINUOUS
 10
5.310893674
 20
5.1234359727
 40
0.03
100
AcDbArc
 50
270.0
 51
354.8242890856
  0
SPLINE
  5
3AE
100
AcDbEntity
  8
0
100
AcDbSpline
 62
7
  6
CONTINUOUS
 70
0
 71
3
 72
62
 73
58
 74
0
 42
0.0000001
 43
0.0000001
 44
0.0000000001
 40
0.0
 40
0.0
 40
0.0
 40
0.0
 40
0.0625058478
 40
0.1250116984
 40
0.1875175451
 40
0.2500233955
 40
0.3125292481
 40
0.3750350983
 40
0.4375409495
 40
0.4687944195
 40
0.5000478893
 40
0.5313013594
 40
0.5625548295
 40
0.5938082997
 40
0.6250617693
 40
0.6406885724
 40
0.6563153762
 40
0.6719421791
 40
0.6875689806
 40
0.6953823917
 40
0.7031958041
 40
0.7110092088
 40
0.7188226202
 40
0.7227293366
 40
0.7266360214
 40
0.7305427269
 40
0.7324961411
 40
0.7344495452
 40
0.7364028465
 40
0.7383560344
 40
0.7403096975
 40
0.7422631717
 40
0.7432394447
 40
0.7442161798
 40
0.7451929936
 40
0.7461696608
 40
0.7481229839
 40
0.7500763306
 40
0.7520296652
 40
0.7539830059
 40
0.7578896879
 40
0.7617963682
 40
0.7657030083
 40
0.7735159959
 40
0.7813290045
 40
0.7891419947
 40
0.7969549865
 40
0.8125784938
 40
0.8282019987
 40
0.8438255034
 40
0.8594490386
 40
0.8750724529
 40
0.9062996021
 40
0.9219232739
 40
0.9375465651
 40
0.9687732879
 40
1.0
 40
1.0
 40
1.0
 40
1.0
 10
2.6757991016
 20
2.6300859727
 30
0.0
 10
2.651229049
 20
2.6312105731
 30
0.0
 10
2.6020603993
 20
2.6328794193
 30
0.0
 10
2.5282704841
 20
2.6336409471
 30
0.0
 10
2.4544827167
 20
2.6326604649
 30
0.0
 10
2.3807388101
 20
2.629937686
 30
0.0
 10
2.3070796608
 20
2.6254745558
 30
0.0
 10
2.2335466295
 20
2.6192736859
 30
0.0
 10
2.1724073259
 20
2.6126607677
 30
0.0
 10
2.1236009998
 20
2.6065056381
 30
0.0
 10
2.0870527957
 20
2.6014573517
 30
0.0
 10
2.0505667889
 20
2.5959779681
 30
0.0
 10
2.01414799
 20
2.5900682282
 30
0.0
 10
1.9778015336
 20
2.5837289231
 30
0.0
 10
1.9475771927
 20
2.5780889162
 30
0.0
 10
1.9234390841
 20
2.5733630897
 30
0.0
 10
1.9053566728
 20
2.5697119179
 30
0.0
 10
1.8872961414
 20
2.565954063
 30
0.0
 10
1.8722644462
 20
2.5627336569
 30
0.0
 10
1.860250657
 20
2.5601041965
 30
0.0
 10
1.8512461441
 20
2.5581056224
 30
0.0
 10
1.8422476333
 20
2.5560801974
 30
0.0
 10
1.834753923
 20
2.5543700533
 30
0.0
 10
1.8287617586
 20
2.5529897636
 30
0.0
 10
1.8242694946
 20
2.5519465061
 30
0.0
 10
1.8205273811
 20
2.5510708708
 30
0.0
 10
1.817533401
 20
2.5503714665
 30
0.0
 10
1.8152884026
 20
2.5498448622
 30
0.0
 10
1.8130444588
 20
2.5493141981
 30
0.0
 10
1.8108035754
 20
2.5487700627
 30
0.0
 10
1.8085577781
 20
2.5482470835
 30
0.0
 10
1.806681574
 20
2.5478293396
 30
0.0
 10
1.8052001381
 20
2.5474176589
 30
0.0
 10
1.804098593
 20
2.547077442
 30
0.0
 10
1.8029953516
 20
2.5467422113
 30
0.0
 10
1.8015180235
 20
2.5463168582
 30
0.0
 10
1.7996681147
 20
2.5457969693
 30
0.0
 10
1.7974446034
 20
2.5451860538
 30
0.0
 10
1.7952154897
 20
2.544595826
 30
0.0
 10
1.7922359819
 20
2.543837239
 30
0.0
 10
1.7884986146
 20
2.5429407708
 30
0.0
 10
1.7839955616
 20
2.5419442039
 30
0.0
 10
1.777969216
 20
2.5407214162
 30
0.0
 10
1.7703965482
 20
2.5393958712
 30
0.0
 10
1.7612586773
 20
2.5381308383
 30
0.0
 10
1.7520813187
 20
2.5371924733
 30
0.0
 10
1.7398095608
 20
2.5363792413
 30
0.0
 10
1.724426597
 20
2.5361853487
 30
0.0
 10
1.7059997939
 20
2.5372703305
 30
0.0
 10
1.6876972465
 20
2.5396676487
 30
0.0
 10
1.66961145
 20
2.5433656343
 30
0.0
 10
1.6459234763
 20
2.5499982213
 30
0.0
 10
1.6230029263
 20
2.5591588027
 30
0.0
 10
1.6012671267
 20
2.5706783174
 30
0.0
 10
1.5804061391
 20
2.5837205365
 30
0.0
 10
1.556167744
 20
2.6027735743
 30
0.0
 10
1.5391267984
 20
2.6206143501
 30
0.0
 10
1.5312991016
 20
2.6300859727
 30
0.0
  0
SPLINE
  5
3AF
100
AcDbEntity
  8
0
100
AcDbSpline
 62
7
  6
CONTINUOUS
 70
0
 71
3
 72
62
 73
58
 74
0
 42
0.0000001
 43
0.0000001
 44
0.0000000001
 40
0.0
 40
0.0
 40
0.0
 40
0.0
 40
0.0625058478
 40
0.1250116984
 40
0.1875175451
 40
0.2500233955
 40
0.3125292481
 40
0.3750350983
 40
0.4375409495
 40
0.4687944195
 40
0.5000478893
 40
0.5313013594
 40
0.5625548295
 40
0.5938082997
 40
0.6250617693
 40
0.6406885724
 40
0.6563153762
 40
0.6719421791
 40
0.6875689806
 40
0.6953823917
 40
0.7031958041
 40
0.7110092088
 40
0.7188226202
 40
0.7227293366
 40
0.7266360214
 40
0.7305427269
 40
0.7324961411
 40
0.7344495452
 40
0.7364028465
 40
0.7383560344
 40
0.7403096975
 40
0.7422631717
 40
0.7432394447
 40
0.7442161798
 40
0.7451929936
 40
0.7461696608
 40
0.7481229839
 40
0.7500763306
 40
0.7520296652
 40
0.7539830059
 40
0.7578896879
 40
0.7617963682
 40
0.7657030083
 40
0.7735159959
 40
0.7813290045
 40
0.7891419947
 40
0.7969549865
 40
0.8125784938
 40
0.8282019987
 40
0.8438255034
 40
0.8594490386
 40
0.8750724529
 40
0.9062996021
 40
0.9219232739
 40
0.9375465651
 40
0.9687732879
 40
1.0
 40
1.0
 40
1.0
 40
1.0
 10
2.6757991016
 20
2.9115859727
 30
0.0
 10
2.651229049
 20
2.9104613723
 30
0.0
 10
2.6020603993
 20
2.908792526
 30
0.0
 10
2.5282704841
 20
2.9080309983
 30
0.0
 10
2.4544827167
 20
2.9090114804
 30
0.0
 10
2.3807388101
 20
2.9117342594
 30
0.0
 10
2.3070796608
 20
2.9161973896
 30
0.0
 10
2.2335466295
 20
2.9223982595
 30
0.0
 10
2.1724073259
 20
2.9290111777
 30
0.0
 10
2.1236009998
 20
2.9351663073
 30
0.0
 10
2.0870527957
 20
2.9402145937
 30
0.0
 10
2.0505667889
 20
2.9456939772
 30
0.0
 10
2.01414799
 20
2.9516037171
 30
0.0
 10
1.9778015336
 20
2.9579430222
 30
0.0
 10
1.9475771927
 20
2.9635830292
 30
0.0
 10
1.9234390841
 20
2.9683088557
 30
0.0
 10
1.9053566728
 20
2.9719600275
 30
0.0
 10
1.8872961414
 20
2.9757178824
 30
0.0
 10
1.8722644462
 20
2.9789382885
 30
0.0
 10
1.860250657
 20
2.9815677489
 30
0.0
 10
1.8512461441
 20
2.983566323
 30
0.0
 10
1.8422476333
 20
2.985591748
 30
0.0
 10
1.834753923
 20
2.9873018921
 30
0.0
 10
1.8287617586
 20
2.9886821818
 30
0.0
 10
1.8242694946
 20
2.9897254393
 30
0.0
 10
1.8205273811
 20
2.9906010746
 30
0.0
 10
1.817533401
 20
2.9913004789
 30
0.0
 10
1.8152884026
 20
2.9918270832
 30
0.0
 10
1.8130444588
 20
2.9923577473
 30
0.0
 10
1.8108035754
 20
2.9929018827
 30
0.0
 10
1.8085577781
 20
2.9934248619
 30
0.0
 10
1.806681574
 20
2.9938426057
 30
0.0
 10
1.8052001381
 20
2.9942542864
 30
0.0
 10
1.804098593
 20
2.9945945034
 30
0.0
 10
1.8029953516
 20
2.9949297341
 30
0.0
 10
1.8015180235
 20
2.9953550872
 30
0.0
 10
1.7996681147
 20
2.995874976
 30
0.0
 10
1.7974446034
 20
2.9964858915
 30
0.0
 10
1.7952154897
 20
2.9970761194
 30
0.0
 10
1.7922359819
 20
2.9978347064
 30
0.0
 10
1.7884986146
 20
2.9987311746
 30
0.0
 10
1.7839955616
 20
2.9997277415
 30
0.0
 10
1.777969216
 20
3.0009505292
 30
0.0
 10
1.7703965482
 20
3.0022760742
 30
0.0
 10
1.7612586773
 20
3.0035411071
 30
0.0
 10
1.7520813187
 20
3.0044794721
 30
0.0
 10
1.7398095608
 20
3.0052927041
 30
0.0
 10
1.724426597
 20
3.0054865967
 30
0.0
 10
1.7059997939
 20
3.0044016149
 30
0.0
 10
1.6876972465
 20
3.0020042967
 30
0.0
 10
1.66961145
 20
2.9983063111
 30
0.0
 10
1.6459234763
 20
2.9916737241
 30
0.0
 10
1.6230029263
 20
2.9825131427
 30
0.0
 10
1.6012671267
 20
2.970993628
 30
0.0
 10
1.5804061391
 20
2.9579514089
 30
0.0
 10
1.556167744
 20
2.9388983711
 30
0.0
 10
1.5391267984
 20
2.9210575953
 30
0.0
 10
1.5312991016
 20
2.9115859727
 30
0.0
  0
SPLINE
  5
3B0
100
AcDbEntity
  8
0
100
AcDbSpline
 62
7
  6
CONTINUOUS
 70
0
 71
3
 72
62
 73
58
 74
0
 42
0.0000001
 43
0.0000001
 44
0.0000000001
 40
0.0
 40
0.0
 40
0.0
 40
0.0
 40
0.0625058478
 40
0.1250116984
 40
0.1875175451
 40
0.2500233955
 40
0.3125292481
 40
0.3750350983
 40
0.4375409495
 40
0.4687944195
 40
0.5000478893
 40
0.5313013594
 40
0.5625548295
 40
0.5938082997
 40
0.6250617693
 40
0.6406885724
 40
0.6563153762
 40
0.6719421791
 40
0.6875689806
 40
0.6953823917
 40
0.7031958041
 40
0.7110092088
 40
0.7188226202
 40
0.7227293366
 40
0.7266360214
 40
0.7305427269
 40
0.7324961411
 40
0.7344495452
 40
0.7364028465
 40
0.7383560344
 40
0.7403096975
 40
0.7422631717
 40
0.7432394447
 40
0.7442161798
 40
0.7451929936
 40
0.7461696608
 40
0.7481229839
 40
0.7500763306
 40
0.7520296652
 40
0.7539830059
 40
0.7578896879
 40
0.7617963682
 40
0.7657030083
 40
0.7735159959
 40
0.7813290045
 40
0.7891419947
 40
0.7969549865
 40
0.8125784938
 40
0.8282019987
 40
0.8438255034
 40
0.8594490386
 40
0.8750724529
 40
0.9062996021
 40
0.9219232739
 40
0.9375465651
 40
0.9687732879
 40
1.0
 40
1.0
 40
1.0
 40
1.0
 10
7.5632536935
 20
2.6300859727
 30
0.0
 10
7.5878237461
 20
2.6312105731
 30
0.0
 10
7.6369923958
 20
2.6328794193
 30
0.0
 10
7.710782311
 20
2.6336409471
 30
0.0
 10
7.7845700784
 20
2.6326604649
 30
0.0
 10
7.8583139849
 20
2.629937686
 30
0.0
 10
7.9319731342
 20
2.6254745558
 30
0.0
 10
8.0055061655
 20
2.6192736859
 30
0.0
 10
8.0666454691
 20
2.6126607677
 30
0.0
 10
8.1154517953
 20
2.6065056381
 30
0.0
 10
8.1519999994
 20
2.6014573517
 30
0.0
 10
8.1884860061
 20
2.5959779681
 30
0.0
 10
8.224904805
 20
2.5900682282
 30
0.0
 10
8.2612512614
 20
2.5837289231
 30
0.0
 10
8.2914756024
 20
2.5780889162
 30
0.0
 10
8.3156137109
 20
2.5733630897
 30
0.0
 10
8.3336961222
 20
2.5697119179
 30
0.0
 10
8.3517566536
 20
2.565954063
 30
0.0
 10
8.3667883489
 20
2.5627336569
 30
0.0
 10
8.378802138
 20
2.5601041965
 30
0.0
 10
8.3878066509
 20
2.5581056224
 30
0.0
 10
8.3968051617
 20
2.5560801974
 30
0.0
 10
8.404298872
 20
2.5543700533
 30
0.0
 10
8.4102910364
 20
2.5529897636
 30
0.0
 10
8.4147833004
 20
2.5519465061
 30
0.0
 10
8.4185254139
 20
2.5510708708
 30
0.0
 10
8.421519394
 20
2.5503714665
 30
0.0
 10
8.4237643925
 20
2.5498448622
 30
0.0
 10
8.4260083363
 20
2.5493141981
 30
0.0
 10
8.4282492196
 20
2.5487700627
 30
0.0
 10
8.4304950169
 20
2.5482470835
 30
0.0
 10
8.432371221
 20
2.5478293396
 30
0.0
 10
8.4338526569
 20
2.5474176589
 30
0.0
 10
8.434954202
 20
2.547077442
 30
0.0
 10
8.4360574435
 20
2.5467422113
 30
0.0
 10
8.4375347716
 20
2.5463168582
 30
0.0
 10
8.4393846804
 20
2.5457969693
 30
0.0
 10
8.4416081917
 20
2.5451860538
 30
0.0
 10
8.4438373054
 20
2.544595826
 30
0.0
 10
8.4468168131
 20
2.543837239
 30
0.0
 10
8.4505541805
 20
2.5429407708
 30
0.0
 10
8.4550572334
 20
2.5419442039
 30
0.0
 10
8.461083579
 20
2.5407214162
 30
0.0
 10
8.4686562468
 20
2.5393958712
 30
0.0
 10
8.4777941177
 20
2.5381308383
 30
0.0
 10
8.4869714763
 20
2.5371924733
 30
0.0
 10
8.4992432342
 20
2.5363792413
 30
0.0
 10
8.514626198
 20
2.5361853487
 30
0.0
 10
8.5330530011
 20
2.5372703305
 30
0.0
 10
8.5513555486
 20
2.5396676487
 30
0.0
 10
8.569441345
 20
2.5433656343
 30
0.0
 10
8.5931293188
 20
2.5499982213
 30
0.0
 10
8.6160498688
 20
2.5591588027
 30
0.0
 10
8.6377856683
 20
2.5706783174
 30
0.0
 10
8.658646656
 20
2.5837205365
 30
0.0
 10
8.6828850511
 20
2.6027735743
 30
0.0
 10
8.6999259966
 20
2.6206143501
 30
0.0
 10
8.7077536935
 20
2.6300859727
 30
0.0
  0
SPLINE
  5
3B1
100
AcDbEntity
  8
0
100
AcDbSpline
 62
7
  6
CONTINUOUS
 70
0
 71
3
 72
62
 73
58
 74
0
 42
0.0000001
 43
0.0000001
 44
0.0000000001
 40
0.0
 40
0.0
 40
0.0
 40
0.0
 40
0.0625058478
 40
0.1250116984
 40
0.1875175451
 40
0.2500233955
 40
0.3125292481
 40
0.3750350983
 40
0.4375409495
 40
0.4687944195
 40
0.5000478893
 40
0.5313013594
 40
0.5625548295
 40
0.5938082997
 40
0.6250617693
 40
0.6406885724
 40
0.6563153762
 40
0.6719421791
 40
0.6875689806
 40
0.6953823917
 40
0.7031958041
 40
0.7110092088
 40
0.7188226202
 40
0.7227293366
 40
0.7266360214
 40
0.7305427269
 40
0.7324961411
 40
0.7344495452
 40
0.7364028465
 40
0.7383560344
 40
0.7403096975
 40
0.7422631717
 40
0.7432394447
 40
0.7442161798
 40
0.7451929936
 40
0.7461696608
 40
0.7481229839
 40
0.7500763306
 40
0.7520296652
 40
0.7539830059
 40
0.7578896879
 40
0.7617963682
 40
0.7657030083
 40
0.7735159959
 40
0.7813290045
 40
0.7891419947
 40
0.7969549865
 40
0.8125784938
 40
0.8282019987
 40
0.8438255034
 40
0.8594490386
 40
0.8750724529
 40
0.9062996021
 40
0.9219232739
 40
0.9375465651
 40
0.9687732879
 40
1.0
 40
1.0
 40
1.0
 40
1.0
 10
7.5632536935
 20
2.9115859727
 30
0.0
 10
7.5878237461
 20
2.9104613723
 30
0.0
 10
7.6369923958
 20
2.908792526
 30
0.0
 10
7.710782311
 20
2.9080309983
 30
0.0
 10
7.7845700784
 20
2.9090114804
 30
0.0
 10
7.8583139849
 20
2.9117342594
 30
0.0
 10
7.9319731342
 20
2.9161973896
 30
0.0
 10
8.0055061655
 20
2.9223982595
 30
0.0
 10
8.0666454691
 20
2.9290111777
 30
0.0
 10
8.1154517953
 20
2.9351663073
 30
0.0
 10
8.1519999994
 20
2.9402145937
 30
0.0
 10
8.1884860061
 20
2.9456939772
 30
0.0
 10
8.224904805
 20
2.9516037171
 30
0.0
 10
8.2612512614
 20
2.9579430222
 30
0.0
 10
8.2914756024
 20
2.9635830292
 30
0.0
 10
8.3156137109
 20
2.9683088557
 30
0.0
 10
8.3336961222
 20
2.9719600275
 30
0.0
 10
8.3517566536
 20
2.9757178824
 30
0.0
 10
8.3667883489
 20
2.9789382885
 30
0.0
 10
8.378802138
 20
2.9815677489
 30
0.0
 10
8.3878066509
 20
2.983566323
 30
0.0
 10
8.3968051617
 20
2.985591748
 30
0.0
 10
8.404298872
 20
2.9873018921
 30
0.0
 10
8.4102910364
 20
2.9886821818
 30
0.0
 10
8.4147833004
 20
2.9897254393
 30
0.0
 10
8.4185254139
 20
2.9906010746
 30
0.0
 10
8.421519394
 20
2.9913004789
 30
0.0
 10
8.4237643925
 20
2.9918270832
 30
0.0
 10
8.4260083363
 20
2.9923577473
 30
0.0
 10
8.4282492196
 20
2.9929018827
 30
0.0
 10
8.4304950169
 20
2.9934248619
 30
0.0
 10
8.432371221
 20
2.9938426057
 30
0.0
 10
8.4338526569
 20
2.9942542864
 30
0.0
 10
8.434954202
 20
2.9945945034
 30
0.0
 10
8.4360574435
 20
2.9949297341
 30
0.0
 10
8.4375347716
 20
2.9953550872
 30
0.0
 10
8.4393846804
 20
2.995874976
 30
0.0
 10
8.4416081917
 20
2.9964858915
 30
0.0
 10
8.4438373054
 20
2.9970761194
 30
0.0
 10
8.4468168131
 20
2.9978347064
 30
0.0
 10
8.4505541805
 20
2.9987311746
 30
0.0
 10
8.4550572334
 20
2.9997277415
 30
0.0
 10
8.461083579
 20
3.0009505292
 30
0.0
 10
8.4686562468
 20
3.0022760742
 30
0.0
 10
8.4777941177
 20
3.0035411071
 30
0.0
 10
8.4869714763
 20
3.0044794721
 30
0.0
 10
8.4992432342
 20
3.0052927041
 30
0.0
 10
8.514626198
 20
3.0054865967
 30
0.0
 10
8.5330530011
 20
3.0044016149
 30
0.0
 10
8.5513555486
 20
3.0020042967
 30
0.0
 10
8.569441345
 20
2.9983063111
 30
0.0
 10
8.5931293188
 20
2.9916737241
 30
0.0
 10
8.6160498688
 20
2.9825131427
 30
0.0
 10
8.6377856683
 20
2.970993628
 30
0.0
 10
8.658646656
 20
2.9579514089
 30
0.0
 10
8.6828850511
 20
2.9388983711
 30
0.0
 10
8.6999259966
 20
2.9210575953
 30
0.0
 10
8.7077536935
 20
2.9115859727
 30
0.0
  0
SPLINE
  5
3B2
100
AcDbEntity
  8
0
100
AcDbSpline
 62
7
  6
CONTINUOUS
 70
0
 71
3
 72
25
 73
21
 74
0
 42
0.0000001
 43
0.0000001
 44
0.0000000001
 40
0.0
 40
0.0
 40
0.0
 40
0.0
 40
0.0592130431
 40
0.0888089866
 40
0.1184309793
 40
0.177764091
 40
0.2075023999
 40
0.2372908754
 40
0.2970673253
 40
0.3572457911
 40
0.4179741728
 40
0.4793787031
 40
0.5415811736
 40
0.6046589965
 40
0.6686515752
 40
0.7335376878
 40
0.7992458711
 40
0.8656715852
 40
0.9326738551
 40
1.0
 40
1.0
 40
1.0
 40
1.0
 10
6.561019354
 20
1.1503888372
 30
0.0
 10
6.5441754523
 20
1.1503881131
 30
0.0
 10
6.5188747245
 20
1.1520020428
 30
0.0
 10
6.4855924278
 20
1.1573253356
 30
0.0
 10
6.4526747183
 20
1.1647386171
 30
0.0
 10
6.4204711043
 20
1.1752106053
 30
0.0
 10
6.3893781147
 20
1.1885327191
 30
0.0
 10
6.3590139476
 20
1.2037299788
 30
0.0
 10
6.3226328593
 20
1.2260758083
 30
0.0
 10
6.2819928548
 20
1.2576984592
 30
0.0
 10
6.2445326142
 20
1.2936921491
 30
0.0
 10
6.2104244377
 20
1.3336241267
 30
0.0
 10
6.1797711457
 20
1.37707622
 30
0.0
 10
6.152652857
 20
1.4236638208
 30
0.0
 10
6.1291377557
 20
1.473010449
 30
0.0
 10
6.1092852428
 20
1.5247383037
 30
0.0
 10
6.093155447
 20
1.5784641273
 30
0.0
 10
6.0808023658
 20
1.6337969077
 30
0.0
 10
6.0722830758
 20
1.6903087319
 30
0.0
 10
6.0691771071
 20
1.7284285919
 30
0.0
 10
6.0682689677
 20
1.7475588252
 30
0.0
  0
SPLINE
  5
3B3
100
AcDbEntity
  8
0
100
AcDbSpline
 62
7
  6
CONTINUOUS
 70
0
 71
3
 72
23
 73
19
 74
0
 42
0.0000001
 43
0.0000001
 44
0.0000000001
 40
0.0
 40
0.0
 40
0.0
 40
0.0
 40
0.0018111302
 40
0.0047505916
 40
0.0089851537
 40
0.0147197341
 40
0.0221780573
 40
0.0315971056
 40
0.0571443079
 40
0.0921105183
 40
0.1368809606
 40
0.1913777518
 40
0.2551841637
 40
0.3276136038
 40
0.4078053936
 40
0.5876774099
 40
0.7874113524
 40
1.0
 40
1.0
 40
1.0
 40
1.0
 10
6.5611990285
 20
1.5503846836
 30
0.0
 10
6.5610685322
 20
1.5504110218
 30
0.0
 10
6.5607291798
 20
1.5504942384
 30
0.0
 10
6.5600947165
 20
1.550678278
 30
0.0
 10
6.5591980743
 20
1.5509904677
 30
0.0
 10
6.5580159585
 20
1.5514860746
 30
0.0
 10
6.5565222193
 20
1.5522169958
 30
0.0
 10
6.5537978807
 20
1.5537369251
 30
0.0
 10
6.5495051865
 20
1.5565795677
 30
0.0
 10
6.5434582798
 20
1.5614262647
 30
0.0
 10
6.5363530238
 20
1.5682917532
 30
0.0
 10
6.5284555125
 20
1.5773269822
 30
0.0
 10
6.5201067386
 20
1.5886078544
 30
0.0
 10
6.5116177535
 20
1.6020793542
 30
0.0
 10
6.5000981641
 20
1.6236545702
 30
0.0
 10
6.4873135365
 20
1.6550529742
 30
0.0
 10
6.4758292064
 20
1.6971324401
 30
0.0
 10
6.4711677338
 20
1.7271541459
 30
0.0
 10
6.4695907422
 20
1.7427007595
 30
0.0
  0
SPLINE
  5
3B4
100
AcDbEntity
  8
0
100
AcDbSpline
 62
7
  6
CONTINUOUS
 70
0
 71
3
 72
25
 73
21
 74
0
 42
0.0000001
 43
0.0000001
 44
0.0000000001
 40
0.0
 40
0.0
 40
0.0
 40
0.0
 40
0.0592130344
 40
0.0888089957
 40
0.1184310132
 40
0.1777642109
 40
0.2075025887
 40
0.2372911511
 40
0.2970678278
 40
0.3572465743
 40
0.4179752627
 40
0.4793800911
 40
0.5415828103
 40
0.6046607968
 40
0.6686534223
 40
0.7335394458
 40
0.7992473937
 40
0.8656727272
 40
0.9326744818
 40
1.0
 40
1.0
 40
1.0
 40
1.0
 10
3.6780934103
 20
1.1503762102
 30
0.0
 10
3.6949375272
 20
1.1503762102
 30
0.0
 10
3.7202385114
 20
1.1519911796
 30
0.0
 10
3.7535210554
 20
1.1573157342
 30
0.0
 10
3.786438981
 20
1.1647301994
 30
0.0
 10
3.8186427517
 20
1.1752032558
 30
0.0
 10
3.8497358821
 20
1.1885263221
 30
0.0
 10
3.8801002094
 20
1.2037244814
 30
0.0
 10
3.9164815062
 20
1.2260713338
 30
0.0
 10
3.957121783
 20
1.257695085
 30
0.0
 10
3.9945823132
 20
1.2936897994
 30
0.0
 10
4.0286907657
 20
1.3336227495
 30
0.0
 10
4.059344279
 20
1.3770757734
 30
0.0
 10
4.0864626943
 20
1.4236642576
 30
0.0
 10
4.1099777936
 20
1.4730117084
 30
0.0
 10
4.1298301485
 20
1.5247403078
 30
0.0
 10
4.1459596125
 20
1.5784667807
 30
0.0
 10
4.1583121766
 20
1.6338001001
 30
0.0
 10
4.166830759
 20
1.6903123425
 30
0.0
 10
4.1699361319
 20
1.7284324235
 30
0.0
 10
4.1708439401
 20
1.7475627419
 30
0.0
  0
SPLINE
  5
3B5
100
AcDbEntity
  8
0
100
AcDbSpline
 62
7
  6
CONTINUOUS
 70
0
 71
3
 72
23
 73
19
 74
0
 42
0.0000001
 43
0.0000001
 44
0.0000000001
 40
0.0
 40
0.0
 40
0.0
 40
0.0
 40
0.0018125179
 40
0.0047529642
 40
0.0089879532
 40
0.0147223086
 40
0.0221797086
 40
0.0315971102
 40
0.0571398944
 40
0.0921017681
 40
0.1368679134
 40
0.1913614184
 40
0.2551655467
 40
0.3275940648
 40
0.407786161
 40
0.5876620454
 40
0.7874029643
 40
1.0
 40
1.0
 40
1.0
 40
1.0
 10
3.6779000846
 20
1.5503722992
 30
0.0
 10
3.6780306969
 20
1.5503986277
 30
0.0
 10
3.6783702614
 20
1.5504818235
 30
0.0
 10
3.6790049926
 20
1.5506658525
 30
0.0
 10
3.6799018518
 20
1.5509778936
 30
0.0
 10
3.6810841156
 20
1.551473257
 30
0.0
 10
3.6825779319
 20
1.5522038338
 30
0.0
 10
3.6853022928
 20
1.5537231449
 30
0.0
 10
3.6895950701
 20
1.5565649707
 30
0.0
 10
3.6956423641
 20
1.5614105633
 30
0.0
 10
3.7027483816
 20
1.5682750625
 30
0.0
 10
3.7106469485
 20
1.5773095887
 30
0.0
 10
3.7189971016
 20
1.5885901427
 30
0.0
 10
3.7274876083
 20
1.6020618298
 30
0.0
 10
3.739009521
 20
1.6236381325
 30
0.0
 10
3.7517967133
 20
1.6550391298
 30
0.0
 10
3.7632830958
 20
1.6971228776
 30
0.0
 10
3.7679450643
 20
1.7271479518
 30
0.0
 10
3.76952207
 20
1.7426963446
 30
0.0
  0
SPLINE
  5
3B6
100
AcDbEntity
  8
0
100
AcDbSpline
 62
7
  6
CONTINUOUS
 70
0
 71
3
 72
19
 73
15
 74
0
 42
0.0000001
 43
0.0000001
 44
0.0000000001
 40
0.0
 40
0.0
 40
0.0
 40
0.0
 40
0.1274708333
 40
0.253131025
 40
0.3153285933
 40
0.3771359092
 40
0.4386479601
 40
0.5000000001
 40
0.5613520401
 40
0.622864091
 40
0.6846714068
 40
0.746868975
 40
0.8725291667
 40
1.0
 40
1.0
 40
1.0
 40
1.0
 10
6.5160209648
 20
1.9042926874
 30
0.0
 10
6.5085368909
 20
1.8988583111
 30
0.0
 10
6.4931667589
 20
1.8887380758
 30
0.0
 10
6.4725875718
 20
1.8785486215
 30
0.0
 10
6.4554905847
 20
1.872500549
 30
0.0
 10
6.4424332356
 20
1.8691499748
 30
0.0
 10
6.4291712798
 20
1.8670859784
 30
0.0
 10
6.4157991015
 20
1.8663883593
 30
0.0
 10
6.4024269233
 20
1.8670859784
 30
0.0
 10
6.3891649675
 20
1.8691499748
 30
0.0
 10
6.3761076184
 20
1.872500549
 30
0.0
 10
6.3590106313
 20
1.8785486215
 30
0.0
 10
6.3384314442
 20
1.8887380758
 30
0.0
 10
6.3230613122
 20
1.8988583111
 30
0.0
 10
6.3155772383
 20
1.9042926874
 30
0.0
  0
SPLINE
  5
3B7
100
AcDbEntity
  8
0
100
AcDbSpline
 62
7
  6
CONTINUOUS
 70
0
 71
3
 72
30
 73
26
 74
0
 42
0.0000001
 43
0.0000001
 44
0.0000000001
 40
0.0
 40
0.0
 40
0.0
 40
0.0
 40
0.1250381127
 40
0.1875607437
 40
0.2500832961
 40
0.3126052721
 40
0.3751259664
 40
0.4376439876
 40
0.5001553879
 40
0.5626504566
 40
0.5939102517
 40
0.6251659726
 40
0.6564134218
 40
0.6876429007
 40
0.7188395538
 40
0.7344651214
 40
0.7500890673
 40
0.7657126736
 40
0.7813374029
 40
0.8125251886
 40
0.8437491664
 40
0.8749939983
 40
0.9062487477
 40
0.9375078024
 40
1.0
 40
1.0
 40
1.0
 40
1.0
 10
7.1195156279
 20
1.7753181195
 30
0.0
 10
7.12694618
 20
1.7753181195
 30
0.0
 10
7.1380948983
 20
1.7755583942
 30
0.0
 10
7.152932178
 20
1.7764300713
 30
0.0
 10
7.1640377923
 20
1.7774048997
 30
0.0
 10
7.1751036917
 20
1.7787638228
 30
0.0
 10
7.1861020884
 20
1.780597421
 30
0.0
 10
7.1969861252
 20
1.7830321425
 30
0.0
 10
7.2076673543
 20
1.7862484627
 30
0.0
 10
7.2162745587
 20
1.7898039358
 30
0.0
 10
7.2227945081
 20
1.7933813032
 30
0.0
 10
7.2274177296
 20
1.7965094525
 30
0.0
 10
7.2316377072
 20
1.8001721747
 30
0.0
 10
7.2352302688
 20
1.804462654
 30
0.0
 10
7.237399492
 20
1.8086242067
 30
0.0
 10
7.2383873057
 20
1.8122144886
 30
0.0
 10
7.238706507
 20
1.8149935925
 30
0.0
 10
7.2385761826
 20
1.8177882001
 30
0.0
 10
7.2378203594
 20
1.8214346348
 30
0.0
 10
7.2358789156
 20
1.8257129776
 30
0.0
 10
7.2324598167
 20
1.8301472355
 30
0.0
 10
7.2283500563
 20
1.8339355833
 30
0.0
 10
7.2237983208
 20
1.8371686846
 30
0.0
 10
7.2173435567
 20
1.8408620367
 30
0.0
 10
7.2122026103
 20
1.8430618102
 30
0.0
 10
7.2087181375
 20
1.844346282
 30
0.0
  0
SPLINE
  5
3B8
100
AcDbEntity
  8
0
100
AcDbSpline
 62
7
  6
CONTINUOUS
 70
0
 71
3
 72
28
 73
24
 74
0
 42
0.0000001
 43
0.0000001
 44
0.0000000001
 40
0.0
 40
0.0
 40
0.0
 40
0.0
 40
0.031418847
 40
0.065452875
 40
0.1034064087
 40
0.1469660665
 40
0.1967188138
 40
0.248187029
 40
0.2947267437
 40
0.3350438329
 40
0.3706853839
 40
0.4031740372
 40
0.4624559937
 40
0.5178177711
 40
0.571364287
 40
0.624071602
 40
0.6764126769
 40
0.7286413428
 40
0.7809437293
 40
0.833550425
 40
0.8868743189
 40
0.9417573343
 40
1.0
 40
1.0
 40
1.0
 40
1.0
 10
7.3321239179
 20
1.844346282
 30
0.0
 10
7.3307660976
 20
1.8433452227
 30
0.0
 10
7.3280597609
 20
1.8410864984
 30
0.0
 10
7.3243114239
 20
1.8369641231
 30
0.0
 10
7.3209103137
 20
1.8317381916
 30
0.0
 10
7.318223704
 20
1.8251700969
 30
0.0
 10
7.3168899212
 20
1.8174405373
 30
0.0
 10
7.3174013799
 20
1.8094465194
 30
0.0
 10
7.3195545079
 20
1.8022773437
 30
0.0
 10
7.3226907918
 20
1.7964528351
 30
0.0
 10
7.3263094376
 20
1.7918593195
 30
0.0
 10
7.3313007776
 20
1.7871528109
 30
0.0
 10
7.3380025904
 20
1.7828415848
 30
0.0
 10
7.3463980083
 20
1.7794248741
 30
0.0
 10
7.3548183557
 20
1.7772499152
 30
0.0
 10
7.3632449147
 20
1.7759522824
 30
0.0
 10
7.3716733228
 20
1.7753245953
 30
0.0
 10
7.3801020051
 20
1.7752695883
 30
0.0
 10
7.3885305599
 20
1.7757787215
 30
0.0
 10
7.3969575704
 20
1.7769307357
 30
0.0
 10
7.405380394
 20
1.778908398
 30
0.0
 10
7.4137815244
 20
1.7820368545
 30
0.0
 10
7.4190661738
 20
1.7851326448
 30
0.0
 10
7.4215698311
 20
1.7870063987
 30
0.0
  0
SPLINE
  5
3B9
100
AcDbEntity
  8
0
100
AcDbSpline
 62
7
  6
CONTINUOUS
 70
0
 71
3
 72
11
 73
7
 74
0
 42
0.0000001
 43
0.0000001
 44
0.0000000001
 40
0.0
 40
0.0
 40
0.0
 40
0.0
 40
0.2499508394
 40
0.4999338393
 40
0.7499536583
 40
1.0
 40
1.0
 40
1.0
 40
1.0
 10
7.1195156279
 20
1.8629355186
 30
0.0
 10
7.1271459965
 20
1.8629355186
 30
0.0
 10
7.1424223494
 20
1.861994425
 30
0.0
 10
7.165003668
 20
1.8579956315
 30
0.0
 10
7.1871156678
 20
1.8519624818
 30
0.0
 10
7.2015559773
 20
1.84698645
 30
0.0
 10
7.2087181375
 20
1.844346282
 30
0.0
  0
SPLINE
  5
3BA
100
AcDbEntity
  8
0
100
AcDbSpline
 62
7
  6
CONTINUOUS
 70
0
 71
3
 72
17
 73
13
 74
0
 42
0.0000001
 43
0.0000001
 44
0.0000000001
 40
0.0
 40
0.0
 40
0.0
 40
0.0
 40
0.1334584364
 40
0.2611825274
 40
0.3826754191
 40
0.441646293
 40
0.5000000101
 40
0.5583537358
 40
0.6173246187
 40
0.7388174684
 40
0.8665415468
 40
1.0
 40
1.0
 40
1.0
 40
1.0
 10
7.3321239179
 20
1.844346282
 30
0.0
 10
7.3356418789
 20
1.8469399151
 30
0.0
 10
7.3426865369
 20
1.8518099046
 30
0.0
 10
7.3536931424
 20
1.8578648529
 30
0.0
 10
7.3632572444
 20
1.8612980089
 30
0.0
 10
7.3709683225
 20
1.8626996569
 30
0.0
 10
7.3767251741
 20
1.8630528293
 30
0.0
 10
7.3824820259
 20
1.8626996566
 30
0.0
 10
7.390193103
 20
1.861298008
 30
0.0
 10
7.3997572038
 20
1.8578648529
 30
0.0
 10
7.4107638079
 20
1.8518099046
 30
0.0
 10
7.4178084662
 20
1.8469399154
 30
0.0
 10
7.4213264276
 20
1.844346282
 30
0.0
  0
SPLINE
  5
3BB
100
AcDbEntity
  8
0
100
AcDbSpline
 62
7
  6
CONTINUOUS
 70
0
 71
3
 72
9
 73
5
 74
0
 42
0.0000001
 43
0.0000001
 44
0.0000000001
 40
0.0
 40
0.0
 40
0.0
 40
0.0
 40
0.5297182003
 40
1.0
 40
1.0
 40
1.0
 40
1.0
 10
6.8582536935
 20
2.7832456463
 30
0.0
 10
6.8578290707
 20
2.792184858
 30
0.0
 10
6.8561586281
 20
2.8090300921
 30
0.0
 10
6.8529622091
 20
2.8256394517
 30
0.0
 10
6.8511588206
 20
2.8333772254
 30
0.0
  0
SPLINE
  5
3BC
100
AcDbEntity
  8
0
100
AcDbSpline
 62
7
  6
CONTINUOUS
 70
0
 71
3
 72
11
 73
7
 74
0
 42
0.0000001
 43
0.0000001
 44
0.0000000001
 40
0.0
 40
0.0
 40
0.0
 40
0.0
 40
0.4142692653
 40
0.5824984202
 40
0.7220447748
 40
1.0
 40
1.0
 40
1.0
 40
1.0
 10
6.8511588206
 20
2.8333772254
 30
0.0
 10
6.8501255436
 20
2.8378106924
 30
0.0
 10
6.8484824106
 20
2.8440033428
 30
0.0
 10
6.8460663225
 20
2.8515624229
 30
0.0
 10
6.8439083668
 20
2.8576259913
 30
0.0
 10
6.842171089
 20
2.8618811902
 30
0.0
 10
6.840846108
 20
2.8646332067
 30
0.0
  0
SPLINE
  5
3BD
100
AcDbEntity
  8
0
100
AcDbSpline
 62
7
  6
CONTINUOUS
 70
0
 71
3
 72
11
 73
7
 74
0
 42
0.0000001
 43
0.0000001
 44
0.0000000001
 40
0.0
 40
0.0
 40
0.0
 40
0.0
 40
0.2779386515
 40
0.417477598
 40
0.5857216702
 40
1.0
 40
1.0
 40
1.0
 40
1.0
 10
6.840846108
 20
2.6770387387
 30
0.0
 10
6.84217101
 20
2.6797905912
 30
0.0
 10
6.8439082719
 20
2.6840455104
 30
0.0
 10
6.8460661695
 20
2.690108996
 30
0.0
 10
6.848482197
 20
2.6976682855
 30
0.0
 10
6.850125521
 20
2.7038611559
 30
0.0
 10
6.8511588206
 20
2.70829472
 30
0.0
  0
SPLINE
  5
3BE
100
AcDbEntity
  8
0
100
AcDbSpline
 62
7
  6
CONTINUOUS
 70
0
 71
3
 72
9
 73
5
 74
0
 42
0.0000001
 43
0.0000001
 44
0.0000000001
 40
0.0
 40
0.0
 40
0.0
 40
0.0
 40
0.4702842862
 40
1.0
 40
1.0
 40
1.0
 40
1.0
 10
6.8511588206
 20
2.70829472
 30
0.0
 10
6.8529622187
 20
2.7160325347
 30
0.0
 10
6.8561586514
 20
2.7326418927
 30
0.0
 10
6.8578290727
 20
2.7494871292
 30
0.0
 10
6.8582536935
 20
2.758426299
 30
0.0
  0
SPLINE
  5
3BF
100
AcDbEntity
  8
0
100
AcDbSpline
 62
7
  6
CONTINUOUS
 70
0
 71
3
 72
19
 73
15
 74
0
 42
0.0000001
 43
0.0000001
 44
0.0000000001
 40
0.0
 40
0.0
 40
0.0
 40
0.0
 40
0.1274708333
 40
0.253131025
 40
0.3153285933
 40
0.3771359092
 40
0.4386479601
 40
0.5000000001
 40
0.5613520401
 40
0.622864091
 40
0.6846714068
 40
0.746868975
 40
0.8725291667
 40
1.0
 40
1.0
 40
1.0
 40
1.0
 10
6.5160209648
 20
2.0773792579
 30
0.0
 10
6.5085368909
 20
2.0828136343
 30
0.0
 10
6.4931667589
 20
2.0929338696
 30
0.0
 10
6.4725875718
 20
2.1031233239
 30
0.0
 10
6.4554905847
 20
2.1091713964
 30
0.0
 10
6.4424332356
 20
2.1125219706
 30
0.0
 10
6.4291712798
 20
2.114585967
 30
0.0
 10
6.4157991015
 20
2.1152835861
 30
0.0
 10
6.4024269233
 20
2.1145859669
 30
0.0
 10
6.3891649675
 20
2.1125219706
 30
0.0
 10
6.3761076184
 20
2.1091713963
 30
0.0
 10
6.3590106313
 20
2.1031233239
 30
0.0
 10
6.3384314442
 20
2.0929338696
 30
0.0
 10
6.3230613122
 20
2.0828136343
 30
0.0
 10
6.3155772383
 20
2.0773792579
 30
0.0
  0
SPLINE
  5
3C0
100
AcDbEntity
  8
0
100
AcDbSpline
 62
7
  6
CONTINUOUS
 70
0
 71
3
 72
32
 73
28
 74
0
 42
0.0000001
 43
0.0000001
 44
0.0000000001
 40
0.0
 40
0.0
 40
0.0
 40
0.0
 40
0.1998652289
 40
0.2959052568
 40
0.3882271264
 40
0.4762392283
 40
0.5593715256
 40
0.637042708
 40
0.7086833918
 40
0.7737125319
 40
0.8315539656
 40
0.8816707188
 40
0.9036646897
 40
0.9235257494
 40
0.9411976896
 40
0.9566355379
 40
0.9697946553
 40
0.980630258
 40
0.9851627102
 40
0.9890974307
 40
0.9924289528
 40
0.9951547201
 40
0.9972746797
 40
0.9987888604
 40
0.9993187927
 40
0.999697291
 40
1.0
 40
1.0
 40
1.0
 40
1.0
 10
7.3807536935
 20
2.7549535925
 30
0.0
 10
7.3810962025
 20
2.7493196457
 30
0.0
 10
7.3818762927
 20
2.7409921975
 30
0.0
 10
7.3833889606
 20
2.7301322706
 30
0.0
 10
7.3846896632
 20
2.7224352443
 30
0.0
 10
7.3861235093
 20
2.7151334402
 30
0.0
 10
7.387644694
 20
2.7082726709
 30
0.0
 10
7.3892075777
 20
2.7018965322
 30
0.0
 10
7.3907657876
 20
2.6960470008
 30
0.0
 10
7.3922732403
 20
2.6907644862
 30
0.0
 10
7.3936850827
 20
2.6860874768
 30
0.0
 10
7.3947926685
 20
2.6825885468
 30
0.0
 10
7.3955979547
 20
2.6801191727
 30
0.0
 10
7.3961266009
 20
2.6785233638
 30
0.0
 10
7.3966027942
 20
2.6771052363
 30
0.0
 10
7.3970235698
 20
2.6758681716
 30
0.0
 10
7.3973859431
 20
2.6748151567
 30
0.0
 10
7.3976504595
 20
2.6740542257
 30
0.0
 10
7.3978304395
 20
2.6735396088
 30
0.0
 10
7.397940631
 20
2.6732252925
 30
0.0
 10
7.3980342849
 20
2.6729586944
 30
0.0
 10
7.3981101907
 20
2.6727417291
 30
0.0
 10
7.398171094
 20
2.6725698421
 30
0.0
 10
7.3982070599
 20
2.672463872
 30
0.0
 10
7.3982337005
 20
2.6723926031
 30
0.0
 10
7.3982380298
 20
2.67237209
 30
0.0
 10
7.3982579115
 20
2.6723312089
 30
0.0
 10
7.3982521738
 20
2.6723375461
 30
0.0
  0
SPLINE
  5
3C1
100
AcDbEntity
  8
0
100
AcDbSpline
 62
7
  6
CONTINUOUS
 70
0
 71
3
 72
29
 73
25
 74
0
 42
0.0000001
 43
0.0000001
 44
0.0000000001
 40
0.0
 40
0.0
 40
0.0
 40
0.0
 40
0.0264998728
 40
0.0532058981
 40
0.0803130575
 40
0.107991672
 40
0.1363810876
 40
0.165584175
 40
0.2265764084
 40
0.2911339877
 40
0.3588187842
 40
0.4288027311
 40
0.5
 40
0.5711972689
 40
0.6411812158
 40
0.7088660123
 40
0.7734235916
 40
0.834415825
 40
0.8636189124
 40
0.892008328
 40
0.9196869425
 40
0.9467941019
 40
0.9735001272
 40
1.0
 40
1.0
 40
1.0
 40
1.0
 10
3.6780934103
 20
1.5503762102
 30
0.0
 10
3.6829471774
 20
1.5503762102
 30
0.0
 10
3.6927046322
 20
1.5497272208
 30
0.0
 10
3.7071655608
 20
1.5468211407
 30
0.0
 10
3.7213388906
 20
1.5420129849
 30
0.0
 10
3.7350822201
 20
1.535353997
 30
0.0
 10
3.7482647746
 20
1.5269122158
 30
0.0
 10
3.7651619932
 20
1.5132038
 30
0.0
 10
3.7841762351
 20
1.4919016102
 30
0.0
 10
3.8025138554
 20
1.4614231157
 30
0.0
 10
3.8161022221
 20
1.4267920832
 30
0.0
 10
3.8244525497
 20
1.3893110568
 30
0.0
 10
3.8272701966
 20
1.3503762102
 30
0.0
 10
3.8244525497
 20
1.3114413636
 30
0.0
 10
3.8161022221
 20
1.2739603372
 30
0.0
 10
3.8025138554
 20
1.2393293047
 30
0.0
 10
3.7841762351
 20
1.2088508101
 30
0.0
 10
3.7651619932
 20
1.1875486204
 30
0.0
 10
3.7482647746
 20
1.1738402046
 30
0.0
 10
3.7350822201
 20
1.1653984233
 30
0.0
 10
3.7213388906
 20
1.1587394355
 30
0.0
 10
3.7071655608
 20
1.1539312797
 30
0.0
 10
3.6927046322
 20
1.1510251996
 30
0.0
 10
3.6829471774
 20
1.1503762102
 30
0.0
 10
3.6780934103
 20
1.1503762102
 30
0.0
  0
LINE
  5
3C2
100
AcDbEntity
  8
0
100
AcDbLine
 62
7
  6
CONTINUOUS
 10
6.9562097253
 20
3.0033870578
 11
7.0289452939
 21
3.0158722418
  0
LINE
  5
3C3
100
AcDbEntity
  8
0
100
AcDbLine
 62
7
  6
CONTINUOUS
 10
6.9850608763
 20
3.0090074343
 11
6.9683907521
 21
3.0063126032
  0
LINE
  5
3C4
100
AcDbEntity
  8
0
100
AcDbLine
 62
7
  6
CONTINUOUS
 10
7.0433521758
 20
3.0173260654
 11
7.0701242484
 21
3.0186545453
  0
LINE
  5
3C5
100
AcDbEntity
  8
0
100
AcDbLine
 62
7
  6
CONTINUOUS
 10
7.0701242484
 20
3.0186545453
 11
7.0876312046
 21
3.0195806165
  0
LINE
  5
3C6
100
AcDbEntity
  8
0
100
AcDbLine
 62
7
  6
CONTINUOUS
 10
7.0876312046
 20
3.0195806165
 11
7.1180027255
 21
3.0213345198
  0
SPLINE
  5
3C7
100
AcDbEntity
  8
0
100
AcDbSpline
 62
7
  6
CONTINUOUS
 70
0
 71
3
 72
21
 73
17
 74
0
 42
0.0000001
 43
0.0000001
 44
0.0000000001
 40
0.0
 40
0.0
 40
0.0
 40
0.0
 40
0.0014972148
 40
0.0049687673
 40
0.0106550823
 40
0.0185724055
 40
0.0410338204
 40
0.0721688086
 40
0.1117569863
 40
0.1595628814
 40
0.2152676319
 40
0.2784989302
 40
0.4260444251
 40
0.5990415728
 40
0.7924469908
 40
1.0
 40
1.0
 40
1.0
 40
1.0
 10
7.1352638569
 20
3.0210080445
 30
0.0
 10
7.135264871
 20
3.0210027651
 30
0.0
 10
7.1352457002
 20
3.0209893602
 30
0.0
 10
7.135211949
 20
3.0209815859
 30
0.0
 10
7.1351500676
 20
3.0209682705
 30
0.0
 10
7.1350227745
 20
3.0209513601
 30
0.0
 10
7.1348020474
 20
3.0209301635
 30
0.0
 10
7.1344685945
 20
3.0209075741
 30
0.0
 10
7.1340434421
 20
3.020885023
 30
0.0
 10
7.1335301368
 20
3.0208633101
 30
0.0
 10
7.1329317746
 20
3.020842462
 30
0.0
 10
7.1319753532
 20
3.0208146713
 30
0.0
 10
7.130597688
 20
3.0207843652
 30
0.0
 10
7.1287525267
 20
3.0207554776
 30
0.0
 10
7.1266917975
 20
3.0207330498
 30
0.0
 10
7.1252521489
 20
3.0207229015
 30
0.0
 10
7.12450692
 20
3.0207189078
 30
0.0
  0
LINE
  5
3C8
100
AcDbEntity
  8
0
100
AcDbLine
 62
7
  6
CONTINUOUS
 10
7.1931337712
 20
3.0174618652
 11
7.1802928954
 21
3.0183219307
  0
SPLINE
  5
3C9
100
AcDbEntity
  8
0
100
AcDbSpline
 62
7
  6
CONTINUOUS
 70
0
 71
3
 72
21
 73
17
 74
0
 42
0.0000001
 43
0.0000001
 44
0.0000000001
 40
0.0
 40
0.0
 40
0.0
 40
0.0
 40
0.1943202517
 40
0.3822299943
 40
0.5550659747
 40
0.7063542903
 40
0.7722536818
 40
0.8307800099
 40
0.8812960039
 40
0.9231677006
 40
0.9557909522
 40
0.9791192991
 40
0.9874482613
 40
0.9936428484
 40
0.9977827648
 40
1.0
 40
1.0
 40
1.0
 40
1.0
 10
7.1682851518
 20
3.0191732423
 30
0.0
 10
7.1673108822
 20
3.019234692
 30
0.0
 10
7.1653947319
 20
3.0193595298
 30
0.0
 10
7.162612899
 20
3.0195521059
 30
0.0
 10
7.1600475954
 20
3.0197418563
 30
0.0
 10
7.1580944011
 20
3.0198974017
 30
0.0
 10
7.1567143552
 20
3.0200156707
 30
0.0
 10
7.1558390761
 20
3.0200949776
 30
0.0
 10
7.1550844898
 20
3.020168228
 30
0.0
 10
7.1544598981
 20
3.0202343517
 30
0.0
 10
7.1539720962
 20
3.0202930692
 30
0.0
 10
7.1536520806
 20
3.0203386514
 30
0.0
 10
7.1534653096
 20
3.0203727805
 30
0.0
 10
7.153373126
 20
3.0203928648
 30
0.0
 10
7.1533138133
 20
3.0204110776
 30
0.0
 10
7.1532827937
 20
3.0204238605
 30
0.0
 10
7.1532754723
 20
3.0204322551
 30
0.0
  0
LINE
  5
3CA
100
AcDbEntity
  8
0
100
AcDbLine
 62
7
  6
CONTINUOUS
 10
7.2195682233
 20
3.014523809
 11
7.2145649968
 21
3.0148808462
  0
SPLINE
  5
3CB
100
AcDbEntity
  8
0
100
AcDbSpline
 62
7
  6
CONTINUOUS
 70
0
 71
3
 72
19
 73
15
 74
0
 42
0.0000001
 43
0.0000001
 44
0.0000000001
 40
0.0
 40
0.0
 40
0.0
 40
0.0
 40
0.1575956249
 40
0.232141015
 40
0.3035421127
 40
0.4371153912
 40
0.5598368948
 40
0.6741929135
 40
0.7292229608
 40
0.7833611577
 40
0.8370599617
 40
0.8907771639
 40
0.9449558605
 40
1.0
 40
1.0
 40
1.0
 40
1.0
 10
3.5271149009
 20
1.2827682083
 30
0.0
 10
3.5249797211
 20
1.275058196
 30
0.0
 10
3.5219648478
 20
1.2636656937
 30
0.0
 10
3.5178702428
 20
1.2488101976
 30
0.0
 10
3.5139244906
 20
1.2351804668
 30
0.0
 10
3.5087956609
 20
1.2193443116
 30
0.0
 10
3.5015322193
 20
1.2019543595
 30
0.0
 10
3.494109433
 20
1.1890468423
 30
0.0
 10
3.4872445381
 20
1.179994691
 30
0.0
 10
3.4816551193
 20
1.1738850783
 30
0.0
 10
3.4755369817
 20
1.1684024982
 30
0.0
 10
3.468880723
 20
1.1635818021
 30
0.0
 10
3.4616927898
 20
1.1594589924
 30
0.0
 10
3.4566077989
 20
1.157218865
 30
0.0
 10
3.4539964172
 20
1.1562245719
 30
0.0
  0
SPLINE
  5
3CC
100
AcDbEntity
  8
0
100
AcDbSpline
 62
7
  6
CONTINUOUS
 70
0
 71
3
 72
24
 73
20
 74
0
 42
0.0000001
 43
0.0000001
 44
0.0000000001
 40
0.0
 40
0.0
 40
0.0
 40
0.0
 40
0.0028099388
 40
0.0051219752
 40
0.0096997646
 40
0.0185400397
 40
0.0496078761
 40
0.1010289338
 40
0.1762445707
 40
0.2721037957
 40
0.3831294044
 40
0.5033547457
 40
0.624356517
 40
0.7362187369
 40
0.8326295743
 40
0.9078115667
 40
0.9568197092
 40
0.9846428378
 40
1.0
 40
1.0
 40
1.0
 40
1.0
 10
7.1001412069
 20
3.0210941647
 30
0.0
 10
7.100101323
 20
3.0210931684
 30
0.0
 10
7.1000284245
 20
3.0210903246
 30
0.0
 10
7.0998929098
 20
3.0210648283
 30
0.0
 10
7.0996712868
 20
3.0210368985
 30
0.0
 10
7.0990428448
 20
3.020973327
 30
0.0
 10
7.0977510302
 20
3.0208602464
 30
0.0
 10
7.0955185263
 20
3.0206875926
 30
0.0
 10
7.0923666099
 20
3.0204743725
 30
0.0
 10
7.0883692347
 20
3.0202231462
 30
0.0
 10
7.0837327392
 20
3.0199446623
 30
0.0
 10
7.0787407217
 20
3.0196683535
 30
0.0
 10
7.0737272423
 20
3.0194158797
 30
0.0
 10
7.0690787819
 20
3.0191989536
 30
0.0
 10
7.0649936525
 20
3.0190285413
 30
0.0
 10
7.0620271942
 20
3.018911363
 30
0.0
 10
7.0595303185
 20
3.0188519756
 30
0.0
 10
7.0588136399
 20
3.0188443636
 30
0.0
 10
7.0573964316
 20
3.0188444871
 30
0.0
 10
7.0576137818
 20
3.0188618923
 30
0.0
  0
SPLINE
  5
3CD
100
AcDbEntity
  8
0
100
AcDbSpline
 62
7
  6
CONTINUOUS
 70
0
 71
3
 72
14
 73
10
 74
0
 42
0.0000001
 43
0.0000001
 44
0.0000000001
 40
0.0
 40
0.0
 40
0.0
 40
0.0
 40
0.2430192477
 40
0.3684068349
 40
0.4950429236
 40
0.6221561228
 40
0.7490567314
 40
0.8751531503
 40
1.0
 40
1.0
 40
1.0
 40
1.0
 10
3.4528385568
 20
1.5078368943
 30
0.0
 10
3.4682252615
 20
1.4947406089
 30
0.0
 10
3.4889289671
 20
1.4715392245
 30
0.0
 10
3.5099962582
 20
1.4360930188
 30
0.0
 10
3.5224296826
 20
1.4070124731
 30
0.0
 10
3.5307928521
 20
1.3763833704
 30
0.0
 10
3.5346752876
 20
1.3449011805
 30
0.0
 10
3.5337856539
 20
1.3133794922
 30
0.0
 10
3.5298861925
 20
1.2927716673
 30
0.0
 10
3.5271149009
 20
1.2827682083
 30
0.0
  0
SPLINE
  5
3CE
100
AcDbEntity
  8
0
100
AcDbSpline
 62
7
  6
CONTINUOUS
 70
0
 71
3
 72
41
 73
37
 74
0
 42
0.0000001
 43
0.0000001
 44
0.0000000001
 40
0.0
 40
0.0
 40
0.0
 40
0.0
 40
0.0679544496
 40
0.1430359685
 40
0.2234933147
 40
0.3075263478
 40
0.3933543537
 40
0.4792291495
 40
0.5634319716
 40
0.6442780929
 40
0.7201356195
 40
0.7557052199
 40
0.7894547166
 40
0.8212087924
 40
0.8508015412
 40
0.8780775118
 40
0.9028926824
 40
0.9251154129
 40
0.9446271836
 40
0.9533332207
 40
0.9613235142
 40
0.9685872074
 40
0.9751145023
 40
0.9808965812
 40
0.9859255137
 40
0.9901946068
 40
0.993697908
 40
0.9951609759
 40
0.9964309609
 40
0.9975074245
 40
0.9983901667
 40
0.9990791357
 40
0.9995745496
 40
0.999877602
 40
0.9999590022
 40
1.0
 40
1.0
 40
1.0
 40
1.0
 10
3.8340977318
 20
1.7388364704
 30
0.0
 10
3.8417284943
 20
1.7388365387
 30
0.0
 10
3.8577903874
 20
1.738978686
 30
0.0
 10
3.8828819186
 20
1.7394966746
 30
0.0
 10
3.9097736529
 20
1.7402473611
 30
0.0
 10
3.9378688097
 20
1.741124071
 30
0.0
 10
3.9665714694
 20
1.7420368397
 30
0.0
 10
3.9952941508
 20
1.7429196757
 30
0.0
 10
4.0234592341
 20
1.7437331022
 30
0.0
 10
4.0505014481
 20
1.7444592801
 30
0.0
 10
4.0720855075
 20
1.7449994915
 30
0.0
 10
4.0883830706
 20
1.7453891191
 30
0.0
 10
4.0997297183
 20
1.7456540887
 30
0.0
 10
4.110405515
 20
1.7458981568
 30
0.0
 10
4.1203546211
 20
1.7461235497
 30
0.0
 10
4.1295247559
 20
1.746330647
 30
0.0
 10
4.1378674755
 20
1.7465203829
 30
0.0
 10
4.1453384592
 20
1.7466947014
 30
0.0
 10
4.1510008886
 20
1.7468317025
 30
0.0
 10
4.155065464
 20
1.7469351729
 30
0.0
 10
4.1577550459
 20
1.7470064855
 30
0.0
 10
4.1601999711
 20
1.7470745109
 30
0.0
 10
4.1623969217
 20
1.7471393203
 30
0.0
 10
4.1643429049
 20
1.7472010066
 30
0.0
 10
4.1660352724
 20
1.7472596367
 30
0.0
 10
4.1674716908
 20
1.7473153222
 30
0.0
 10
4.1685077353
 20
1.7473615856
 30
0.0
 10
4.1692070956
 20
1.7473980226
 30
0.0
 10
4.1696341264
 20
1.7474229483
 30
0.0
 10
4.1699960116
 20
1.7474471547
 30
0.0
 10
4.1702922671
 20
1.7474704731
 30
0.0
 10
4.1705238409
 20
1.7474931405
 30
0.0
 10
4.1706883522
 20
1.7475140268
 30
0.0
 10
4.1707876004
 20
1.7475332762
 30
0.0
 10
4.1708309275
 20
1.7475480425
 30
0.0
 10
4.1708437167
 20
1.7475580681
 30
0.0
 10
4.1708439605
 20
1.7475626654
 30
0.0
  0
SPLINE
  5
3CF
100
AcDbEntity
  8
0
100
AcDbSpline
 62
7
  6
CONTINUOUS
 70
0
 71
3
 72
13
 73
9
 74
0
 42
0.0000001
 43
0.0000001
 44
0.0000000001
 40
0.0
 40
0.0
 40
0.0
 40
0.0
 40
0.2499995171
 40
0.4999972313
 40
0.6249983228
 40
0.7499963204
 40
0.8750057401
 40
1.0
 40
1.0
 40
1.0
 40
1.0
 10
7.199242865
 20
3.0155493414
 30
0.0
 10
7.1930365976
 20
3.0161970424
 30
0.0
 10
7.1806063751
 20
3.0173259989
 30
0.0
 10
7.1650401192
 20
3.0183730239
 30
0.0
 10
7.152574758
 20
3.0189805487
 30
0.0
 10
7.1432207331
 20
3.0193267779
 30
0.0
 10
7.1338631932
 20
3.0195529896
 30
0.0
 10
7.1276234459
 20
3.0196287503
 30
0.0
 10
7.1245036935
 20
3.019653367
 30
0.0
  0
LINE
  5
3D0
100
AcDbEntity
  8
0
100
AcDbLine
 62
7
  6
CONTINUOUS
 10
7.1245036935
 20
3.019653367
 11
7.1245036935
 21
3.0202193057
  0
SPLINE
  5
3D1
100
AcDbEntity
  8
0
100
AcDbSpline
 62
7
  6
CONTINUOUS
 70
0
 71
3
 72
39
 73
35
 74
0
 42
0.0000001
 43
0.0000001
 44
0.0000000001
 40
0.0
 40
0.0
 40
0.0
 40
0.0
 40
0.1430189104
 40
0.223425115
 40
0.3075060858
 40
0.3934926492
 40
0.4795981885
 40
0.5640486215
 40
0.6451099873
 40
0.7211167469
 40
0.7567297547
 40
0.7905016382
 40
0.822255876
 40
0.8518277047
 40
0.8790632986
 40
0.903818838
 40
0.9259657714
 40
0.9453868075
 40
0.9540422348
 40
0.9619790493
 40
0.969186889
 40
0.9756558458
 40
0.9813772632
 40
0.9863431968
 40
0.990547398
 40
0.9939846939
 40
0.9954142753
 40
0.9966504451
 40
0.9976927007
 40
0.998540622
 40
0.9991941373
 40
0.9996534401
 40
0.9999193793
 40
1.0
 40
1.0
 40
1.0
 40
1.0
 10
3.8283421984
 20
1.7855294984
 30
0.0
 10
3.8452092517
 20
1.785528326
 30
0.0
 10
3.8715589806
 20
1.7853256727
 30
0.0
 10
3.9078219556
 20
1.7848643024
 30
0.0
 10
3.9373585843
 20
1.7844271615
 30
0.0
 10
3.9675668054
 20
1.7839508124
 30
0.0
 10
3.9978185187
 20
1.7834685094
 30
0.0
 10
4.0274895708
 20
1.7830033041
 30
0.0
 10
4.0559699658
 20
1.7825699181
 30
0.0
 10
4.0786915173
 20
1.7822357165
 30
0.0
 10
4.095836589
 20
1.7819863898
 30
0.0
 10
4.1077632921
 20
1.7818155336
 30
0.0
 10
4.1189775899
 20
1.7816544067
 30
0.0
 10
4.1294210948
 20
1.7815036769
 30
0.0
 10
4.1390392758
 20
1.7813639783
 30
0.0
 10
4.1477818291
 20
1.7812329909
 30
0.0
 10
4.1556028155
 20
1.7811122728
 30
0.0
 10
4.1615251736
 20
1.7810160688
 30
0.0
 10
4.1657717893
 20
1.7809423225
 30
0.0
 10
4.1685782125
 20
1.7808915337
 30
0.0
 10
4.1711267689
 20
1.7808429706
 30
0.0
 10
4.1734140436
 20
1.7807965013
 30
0.0
 10
4.1754368941
 20
1.7807520031
 30
0.0
 10
4.1771926389
 20
1.7807092996
 30
0.0
 10
4.1786789081
 20
1.780668508
 30
0.0
 10
4.1797482855
 20
1.7806347119
 30
0.0
 10
4.1804674038
 20
1.7806082022
 30
0.0
 10
4.180904709
 20
1.7805899033
 30
0.0
 10
4.181271905
 20
1.780572509
 30
0.0
 10
4.1815743964
 20
1.780554369
 30
0.0
 10
4.1817974864
 20
1.7805399401
 30
0.0
 10
4.1819760623
 20
1.7805192711
 30
0.0
 10
4.1820420458
 20
1.7805136075
 30
0.0
 10
4.1821089209
 20
1.7804940646
 30
0.0
 10
4.1821035129
 20
1.7804862444
 30
0.0
  0
SPLINE
  5
3D2
100
AcDbEntity
  8
0
100
AcDbSpline
 62
7
  6
CONTINUOUS
 70
0
 71
3
 72
12
 73
8
 74
0
 42
0.0000001
 43
0.0000001
 44
0.0000000001
 40
0.0
 40
0.0
 40
0.0
 40
0.0
 40
0.1326410222
 40
0.3589806034
 40
0.6562842688
 40
0.8242003554
 40
1.0
 40
1.0
 40
1.0
 40
1.0
 10
7.3975057191
 20
2.8672008226
 30
0.0
 10
7.3963104373
 20
2.8637567938
 30
0.0
 10
7.3932172952
 20
2.8543861213
 30
0.0
 10
7.3882850106
 20
2.837027372
 30
0.0
 10
7.3843454716
 20
2.8184077375
 30
0.0
 10
7.3818844951
 20
2.8009564705
 30
0.0
 10
7.3810468917
 20
2.7915411843
 30
0.0
 10
7.3807536935
 20
2.7867183529
 30
0.0
  0
SPLINE
  5
3D3
100
AcDbEntity
  8
0
100
AcDbSpline
 62
7
  6
CONTINUOUS
 70
0
 71
3
 72
11
 73
7
 74
0
 42
0.0000001
 43
0.0000001
 44
0.0000000001
 40
0.0
 40
0.0
 40
0.0
 40
0.0
 40
0.084932907
 40
0.2778975184
 40
0.5856356231
 40
1.0
 40
1.0
 40
1.0
 40
1.0
 10
3.398206687
 20
2.8646332067
 30
0.0
 10
3.3978018101
 20
2.8637922678
 30
0.0
 10
3.3965330133
 20
2.8610137207
 30
0.0
 10
3.3941456783
 20
2.8550335525
 30
0.0
 10
3.3909610245
 20
2.8454892326
 30
0.0
 10
3.3889275178
 20
2.8378118356
 30
0.0
 10
3.3878939744
 20
2.8333772254
 30
0.0
  0
SPLINE
  5
3D4
100
AcDbEntity
  8
0
100
AcDbSpline
 62
7
  6
CONTINUOUS
 70
0
 71
3
 72
9
 73
5
 74
0
 42
0.0000001
 43
0.0000001
 44
0.0000000001
 40
0.0
 40
0.0
 40
0.0
 40
0.0
 40
0.4702842649
 40
1.0
 40
1.0
 40
1.0
 40
1.0
 10
3.3878939744
 20
2.8333772254
 30
0.0
 10
3.3860905764
 20
2.825639411
 30
0.0
 10
3.3828941436
 20
2.8090300531
 30
0.0
 10
3.3812237224
 20
2.7921848166
 30
0.0
 10
3.3807991016
 20
2.7832456463
 30
0.0
  0
SPLINE
  5
3D5
100
AcDbEntity
  8
0
100
AcDbSpline
 62
7
  6
CONTINUOUS
 70
0
 71
3
 72
9
 73
5
 74
0
 42
0.0000001
 43
0.0000001
 44
0.0000000001
 40
0.0
 40
0.0
 40
0.0
 40
0.0
 40
0.5297181686
 40
1.0
 40
1.0
 40
1.0
 40
1.0
 10
3.3807991016
 20
2.758426299
 30
0.0
 10
3.3812237243
 20
2.7494870879
 30
0.0
 10
3.382894167
 20
2.7326418539
 30
0.0
 10
3.3860905858
 20
2.7160324942
 30
0.0
 10
3.3878939744
 20
2.70829472
 30
0.0
  0
SPLINE
  5
3D6
100
AcDbEntity
  8
0
100
AcDbSpline
 62
7
  6
CONTINUOUS
 70
0
 71
3
 72
11
 73
7
 74
0
 42
0.0000001
 43
0.0000001
 44
0.0000000001
 40
0.0
 40
0.0
 40
0.0
 40
0.0
 40
0.4143698499
 40
0.722099761
 40
0.9150703187
 40
1.0
 40
1.0
 40
1.0
 40
1.0
 10
3.3878939744
 20
2.70829472
 30
0.0
 10
3.3889275314
 20
2.7038600515
 30
0.0
 10
3.3909610607
 20
2.6961826951
 30
0.0
 10
3.394145652
 20
2.6866383118
 30
0.0
 10
3.3965330892
 20
2.6806582528
 30
0.0
 10
3.3978018255
 20
2.6778796456
 30
0.0
 10
3.398206687
 20
2.6770387387
 30
0.0
  0
SPLINE
  5
3D7
100
AcDbEntity
  8
0
100
AcDbSpline
 62
7
  6
CONTINUOUS
 70
0
 71
3
 72
32
 73
28
 74
0
 42
0.0000001
 43
0.0000001
 44
0.0000000001
 40
0.0
 40
0.0
 40
0.0
 40
0.0
 40
0.1998656141
 40
0.2959060001
 40
0.3882281382
 40
0.4762403447
 40
0.5593726702
 40
0.6370438313
 40
0.7086844445
 40
0.7737134861
 40
0.8315547611
 40
0.8816713186
 40
0.9036651988
 40
0.9235261823
 40
0.9411980528
 40
0.9566358305
 40
0.9697948702
 40
0.9806303815
 40
0.9851627809
 40
0.9890974427
 40
0.9924289063
 40
0.9951546442
 40
0.9972746007
 40
0.9987887977
 40
0.9993187432
 40
0.9996972569
 40
1.0
 40
1.0
 40
1.0
 40
1.0
 10
2.8582991016
 20
2.7867183529
 30
0.0
 10
2.8579565918
 20
2.7923523108
 30
0.0
 10
2.8571764925
 20
2.8006797794
 30
0.0
 10
2.8556638242
 20
2.8115397355
 30
0.0
 10
2.8543631199
 20
2.8192367828
 30
0.0
 10
2.8529292674
 20
2.8265385976
 30
0.0
 10
2.8514080783
 20
2.8333993694
 30
0.0
 10
2.8498451935
 20
2.8397755062
 30
0.0
 10
2.848286984
 20
2.8456250324
 30
0.0
 10
2.8467795307
 20
2.8509075374
 30
0.0
 10
2.8453676912
 20
2.8555845345
 30
0.0
 10
2.8442601099
 20
2.8590834529
 30
0.0
 10
2.8434548263
 20
2.8615528172
 30
0.0
 10
2.8429261809
 20
2.8631486193
 30
0.0
 10
2.842449988
 20
2.8645667406
 30
0.0
 10
2.8420292131
 20
2.8658037991
 30
0.0
 10
2.8416668412
 20
2.8668568073
 30
0.0
 10
2.8414023273
 20
2.8676177326
 30
0.0
 10
2.8412223503
 20
2.8681323445
 30
0.0
 10
2.8411121617
 20
2.8684466568
 30
0.0
 10
2.8410185111
 20
2.8687132516
 30
0.0
 10
2.8409426068
 20
2.8689302148
 30
0.0
 10
2.840881704
 20
2.8691021015
 30
0.0
 10
2.8408457368
 20
2.8692080717
 30
0.0
 10
2.8408190958
 20
2.8692793423
 30
0.0
 10
2.8408147643
 20
2.8692998551
 30
0.0
 10
2.840794883
 20
2.8693407422
 30
0.0
 10
2.8408006189
 20
2.8693344021
 30
0.0
  0
SPLINE
  5
3D8
100
AcDbEntity
  8
0
100
AcDbSpline
 62
7
  6
CONTINUOUS
 70
0
 71
3
 72
29
 73
25
 74
0
 42
0.0000001
 43
0.0000001
 44
0.0000000001
 40
0.0
 40
0.0
 40
0.0
 40
0.0
 40
0.0265118362
 40
0.0533195316
 40
0.0806019148
 40
0.1085110265
 40
0.1371664301
 40
0.1666519864
 40
0.2281970384
 40
0.2931991735
 40
0.3611582637
 40
0.4312241984
 40
0.5023208395
 40
0.5732676621
 40
0.6428990631
 40
0.7101841151
 40
0.7743488631
 40
0.8350003392
 40
0.8640608536
 40
0.8923287681
 40
0.9199061006
 40
0.9469293625
 40
0.9735643632
 40
1.0
 40
1.0
 40
1.0
 40
1.0
 10
6.553832353
 20
1.1506237552
 30
0.0
 10
6.5490498041
 20
1.1509367239
 30
0.0
 10
6.539461295
 20
1.1521973992
 30
0.0
 10
6.5253416204
 20
1.1559439332
 30
0.0
 10
6.5115634485
 20
1.1615135851
 30
0.0
 10
6.4982599535
 20
1.1688492547
 30
0.0
 10
6.4855530347
 20
1.1778792638
 30
0.0
 10
6.4693384384
 20
1.1922583973
 30
0.0
 10
6.4512361579
 20
1.2141413735
 30
0.0
 10
6.4339651785
 20
1.244958156
 30
0.0
 10
6.4213890333
 20
1.2796001418
 30
0.0
 10
6.4139483605
 20
1.3168038801
 30
0.0
 10
6.4118987974
 20
1.3552246121
 30
0.0
 10
6.4153129483
 20
1.3934701594
 30
0.0
 10
6.4240706139
 20
1.4301548487
 30
0.0
 10
6.4378713988
 20
1.4639527218
 30
0.0
 10
6.4562338683
 20
1.4936296408
 30
0.0
 10
6.4751193603
 20
1.5143276494
 30
0.0
 10
6.491835838
 20
1.5276328651
 30
0.0
 10
6.5048570746
 20
1.5358237135
 30
0.0
 10
6.5184137854
 20
1.5422818044
 30
0.0
 10
6.5323808546
 20
1.5469432252
 30
0.0
 10
6.5466222202
 20
1.5497599105
 30
0.0
 10
6.5562278775
 20
1.550388837
 30
0.0
 10
6.5610068806
 20
1.550388837
 30
0.0
  0
SPLINE
  5
3D9
100
AcDbEntity
  8
0
100
AcDbSpline
 62
7
  6
CONTINUOUS
 70
0
 71
3
 72
32
 73
28
 74
0
 42
0.0000001
 43
0.0000001
 44
0.0000000001
 40
0.0
 40
0.0
 40
0.0
 40
0.0
 40
0.001793408
 40
0.0023642174
 40
0.0027265376
 40
0.0028884055
 40
0.0029429127
 40
0.0031757061
 40
0.0035912898
 40
0.0049485364
 40
0.0069665553
 40
0.0095956077
 40
0.0127857379
 40
0.0206491329
 40
0.0301595954
 40
0.0412152271
 40
0.0542450859
 40
0.0881664196
 40
0.13558103
 40
0.1969391077
 40
0.2702861517
 40
0.3536791401
 40
0.4452846397
 40
0.5428292908
 40
0.6427604275
 40
0.8357875748
 40
1.0
 40
1.0
 40
1.0
 40
1.0
 10
3.1402124269
 20
3.0210605769
 30
0.0
 10
3.1402336519
 20
3.0210600111
 30
0.0
 10
3.1402601023
 20
3.0210588951
 30
0.0
 10
3.1402952275
 20
3.0210577195
 30
0.0
 10
3.1403043563
 20
3.0210559038
 30
0.0
 10
3.1403163643
 20
3.0210558735
 30
0.0
 10
3.1403113925
 20
3.0210514614
 30
0.0
 10
3.1403030214
 20
3.02105245
 30
0.0
 10
3.140279496
 20
3.0210482344
 30
0.0
 10
3.1402345925
 20
3.0210471786
 30
0.0
 10
3.1401636483
 20
3.0210427599
 30
0.0
 10
3.1400709266
 20
3.0210391051
 30
0.0
 10
3.1399090768
 20
3.0210324362
 30
0.0
 10
3.1396657856
 20
3.0210232795
 30
0.0
 10
3.1393294689
 20
3.0210099403
 30
0.0
 10
3.1389320554
 20
3.0209936024
 30
0.0
 10
3.1382458195
 20
3.0209669267
 30
0.0
 10
3.1371291728
 20
3.0209307678
 30
0.0
 10
3.1354402032
 20
3.0208926039
 30
0.0
 10
3.1332843542
 20
3.0208563239
 30
0.0
 10
3.1307024699
 20
3.020822282
 30
0.0
 10
3.1277624148
 20
3.0207918951
 30
0.0
 10
3.1245358206
 20
3.0207667675
 30
0.0
 10
3.1211133781
 20
3.020748563
 30
0.0
 10
3.1164901376
 20
3.0207392297
 30
0.0
 10
3.1110776202
 20
3.0207597412
 30
0.0
 10
3.1068482889
 20
3.0207917198
 30
0.0
 10
3.1049042884
 20
3.02081512
 30
0.0
  0
LINE
  5
3DA
100
AcDbEntity
  8
0
100
AcDbLine
 62
7
  6
CONTINUOUS
 10
3.1049042884
 20
3.02081512
 11
3.0975927613
 21
3.0210176551
  0
SPLINE
  5
3DB
100
AcDbEntity
  8
0
100
AcDbSpline
 62
7
  6
CONTINUOUS
 70
0
 71
3
 72
14
 73
10
 74
0
 42
0.0000001
 43
0.0000001
 44
0.0000000001
 40
0.0
 40
0.0
 40
0.0
 40
0.0
 40
0.124953923
 40
0.2510789167
 40
0.3779535961
 40
0.5050085088
 40
0.6315759243
 40
0.7569133154
 40
1.0
 40
1.0
 40
1.0
 40
1.0
 10
6.7118087581
 20
1.282816154
 30
0.0
 10
6.7089592434
 20
1.2928517677
 30
0.0
 10
6.7049235942
 20
1.313536456
 30
0.0
 10
6.7039233611
 20
1.3451989978
 30
0.0
 10
6.7077856553
 20
1.3768149698
 30
0.0
 10
6.7162019276
 20
1.4075559101
 30
0.0
 10
6.7287582264
 20
1.4367137459
 30
0.0
 10
6.7500675423
 20
1.4722126645
 30
0.0
 10
6.7710141816
 20
1.4953829563
 30
0.0
 10
6.7865665656
 20
1.5084219823
 30
0.0
  0
SPLINE
  5
3DC
100
AcDbEntity
  8
0
100
AcDbSpline
 62
7
  6
CONTINUOUS
 70
0
 71
3
 72
18
 73
14
 74
0
 42
0.0000001
 43
0.0000001
 44
0.0000000001
 40
0.0
 40
0.0
 40
0.0
 40
0.0
 40
0.0541228562
 40
0.1076006111
 40
0.1608918569
 40
0.2144492836
 40
0.3239181898
 40
0.4391055048
 40
0.5625160828
 40
0.6964003281
 40
0.7678449191
 40
0.8424073322
 40
1.0
 40
1.0
 40
1.0
 40
1.0
 10
6.785038262
 20
1.1564372679
 30
0.0
 10
6.7824883254
 20
1.1574414747
 30
0.0
 10
6.7775174579
 20
1.1597006191
 30
0.0
 10
6.7704820796
 20
1.1638363737
 30
0.0
 10
6.7639349336
 20
1.1686611173
 30
0.0
 10
6.7557985925
 20
1.1760177884
 30
0.0
 10
6.7467599047
 20
1.1869302978
 30
0.0
 10
6.7378254887
 20
1.2021898827
 30
0.0
 10
6.7304027752
 20
1.219567343
 30
0.0
 10
6.7251988384
 20
1.235390498
 30
0.0
 10
6.7212114941
 20
1.2489903736
 30
0.0
 10
6.7170716672
 20
1.263795788
 30
0.0
 10
6.7139880861
 20
1.2751396974
 30
0.0
 10
6.7118087581
 20
1.282816154
 30
0.0
  0
SPLINE
  5
3DD
100
AcDbEntity
  8
0
100
AcDbSpline
 62
7
  6
CONTINUOUS
 70
0
 71
3
 72
19
 73
15
 74
0
 42
0.0000001
 43
0.0000001
 44
0.0000000001
 40
0.0
 40
0.0
 40
0.0
 40
0.0
 40
0.1274708333
 40
0.253131025
 40
0.3153285933
 40
0.3771359092
 40
0.4386479601
 40
0.5000000001
 40
0.5613520401
 40
0.622864091
 40
0.6846714068
 40
0.746868975
 40
0.8725291667
 40
1.0
 40
1.0
 40
1.0
 40
1.0
 10
3.9235209648
 20
1.9042926874
 30
0.0
 10
3.9160368909
 20
1.8988583111
 30
0.0
 10
3.9006667589
 20
1.8887380758
 30
0.0
 10
3.8800875718
 20
1.8785486215
 30
0.0
 10
3.8629905847
 20
1.872500549
 30
0.0
 10
3.8499332356
 20
1.8691499748
 30
0.0
 10
3.8366712798
 20
1.8670859784
 30
0.0
 10
3.8232991015
 20
1.8663883593
 30
0.0
 10
3.8099269233
 20
1.8670859784
 30
0.0
 10
3.7966649675
 20
1.8691499748
 30
0.0
 10
3.7836076184
 20
1.872500549
 30
0.0
 10
3.7665106313
 20
1.8785486215
 30
0.0
 10
3.7459314442
 20
1.8887380758
 30
0.0
 10
3.7305613122
 20
1.8988583111
 30
0.0
 10
3.7230772383
 20
1.9042926874
 30
0.0
  0
SPLINE
  5
3DE
100
AcDbEntity
  8
0
100
AcDbSpline
 62
7
  6
CONTINUOUS
 70
0
 71
3
 72
12
 73
8
 74
0
 42
0.0000001
 43
0.0000001
 44
0.0000000001
 40
0.0
 40
0.0
 40
0.0
 40
0.0
 40
0.1326878803
 40
0.3590369585
 40
0.656321551
 40
0.824220342
 40
1.0
 40
1.0
 40
1.0
 40
1.0
 10
2.8415485343
 20
2.6744753374
 30
0.0
 10
2.8427441284
 20
2.6779204124
 30
0.0
 10
2.8458374458
 20
2.6872920978
 30
0.0
 10
2.8507693366
 20
2.7046510121
 30
0.0
 10
2.8547081219
 20
2.7232689932
 30
0.0
 10
2.857168535
 20
2.7407178113
 30
0.0
 10
2.8580059525
 20
2.75013157
 30
0.0
 10
2.8582991016
 20
2.7549535925
 30
0.0
  0
SPLINE
  5
3DF
100
AcDbEntity
  8
0
100
AcDbSpline
 62
7
  6
CONTINUOUS
 70
0
 71
3
 72
19
 73
15
 74
0
 42
0.0000001
 43
0.0000001
 44
0.0000000001
 40
0.0
 40
0.0
 40
0.0
 40
0.0
 40
0.1274708333
 40
0.253131025
 40
0.3153285933
 40
0.3771359092
 40
0.4386479601
 40
0.5000000001
 40
0.5613520401
 40
0.622864091
 40
0.6846714068
 40
0.746868975
 40
0.8725291667
 40
1.0
 40
1.0
 40
1.0
 40
1.0
 10
3.9235209648
 20
2.0773792579
 30
0.0
 10
3.9160368909
 20
2.0828136343
 30
0.0
 10
3.9006667589
 20
2.0929338696
 30
0.0
 10
3.8800875718
 20
2.1031233239
 30
0.0
 10
3.8629905847
 20
2.1091713964
 30
0.0
 10
3.8499332356
 20
2.1125219706
 30
0.0
 10
3.8366712798
 20
2.114585967
 30
0.0
 10
3.8232991015
 20
2.1152835861
 30
0.0
 10
3.8099269233
 20
2.1145859669
 30
0.0
 10
3.7966649675
 20
2.1125219706
 30
0.0
 10
3.7836076184
 20
2.1091713963
 30
0.0
 10
3.7665106313
 20
2.1031233239
 30
0.0
 10
3.7459314442
 20
2.0929338696
 30
0.0
 10
3.7305613122
 20
2.0828136343
 30
0.0
 10
3.7230772383
 20
2.0773792579
 30
0.0
  0
SPLINE
  5
3E0
100
AcDbEntity
  8
0
100
AcDbSpline
 62
7
  6
CONTINUOUS
 70
0
 71
3
 72
19
 73
15
 74
0
 42
0.0000001
 43
0.0000001
 44
0.0000000001
 40
0.0
 40
0.0
 40
0.0
 40
0.0
 40
0.1274708333
 40
0.253131025
 40
0.3153285933
 40
0.3771359092
 40
0.4386479601
 40
0.5000000001
 40
0.5613520401
 40
0.622864091
 40
0.6846714068
 40
0.746868975
 40
0.8725291667
 40
1.0
 40
1.0
 40
1.0
 40
1.0
 10
4.2205209648
 20
1.9042926874
 30
0.0
 10
4.2130368909
 20
1.8988583111
 30
0.0
 10
4.1976667589
 20
1.8887380758
 30
0.0
 10
4.1770875718
 20
1.8785486215
 30
0.0
 10
4.1599905847
 20
1.872500549
 30
0.0
 10
4.1469332356
 20
1.8691499748
 30
0.0
 10
4.1336712798
 20
1.8670859784
 30
0.0
 10
4.1202991015
 20
1.8663883593
 30
0.0
 10
4.1069269233
 20
1.8670859784
 30
0.0
 10
4.0936649675
 20
1.8691499748
 30
0.0
 10
4.0806076184
 20
1.872500549
 30
0.0
 10
4.0635106313
 20
1.8785486215
 30
0.0
 10
4.0429314442
 20
1.8887380758
 30
0.0
 10
4.0275613122
 20
1.8988583111
 30
0.0
 10
4.0200772383
 20
1.9042926874
 30
0.0
  0
SPLINE
  5
3E1
100
AcDbEntity
  8
0
100
AcDbSpline
 62
7
  6
CONTINUOUS
 70
0
 71
3
 72
22
 73
18
 74
0
 42
0.0000001
 43
0.0000001
 44
0.0000000001
 40
0.0
 40
0.0
 40
0.0
 40
0.0
 40
0.2256150082
 40
0.4253973407
 40
0.5973124418
 40
0.7398006445
 40
0.7996394523
 40
0.8517226802
 40
0.8959628081
 40
0.9322969895
 40
0.9474887931
 40
0.9606956091
 40
0.9719220004
 40
0.9811811505
 40
0.9885007803
 40
0.9939440647
 40
1.0
 40
1.0
 40
1.0
 40
1.0
 10
6.4050076584
 20
1.7388423903
 30
0.0
 10
6.4098938592
 20
1.7388424341
 30
0.0
 10
6.419106941
 20
1.7388952477
 30
0.0
 10
6.4320410625
 20
1.7391516799
 30
0.0
 10
6.4431700293
 20
1.7395576703
 30
0.0
 10
6.4512632647
 20
1.7400094388
 30
0.0
 10
6.4567574802
 20
1.7404260934
 30
0.0
 10
6.4601257437
 20
1.7407328795
 30
0.0
 10
6.4629816244
 20
1.7410479589
 30
0.0
 10
6.4650370496
 20
1.741327572
 30
0.0
 10
6.4664200797
 20
1.7415585814
 30
0.0
 10
6.4672625803
 20
1.7417205465
 30
0.0
 10
6.4679753221
 20
1.7418825128
 30
0.0
 10
6.4685537196
 20
1.7420399699
 30
0.0
 10
6.4690111306
 20
1.7422033637
 30
0.0
 10
6.4693614074
 20
1.7423640906
 30
0.0
 10
6.4696022766
 20
1.7425692877
 30
0.0
 10
6.4695891569
 20
1.7426997848
 30
0.0
  0
SPLINE
  5
3E2
100
AcDbEntity
  8
0
100
AcDbSpline
 62
7
  6
CONTINUOUS
 70
0
 71
3
 72
41
 73
37
 74
0
 42
0.0000001
 43
0.0000001
 44
0.0000000001
 40
0.0
 40
0.0
 40
0.0
 40
0.0
 40
0.0000408956
 40
0.0001222353
 40
0.0004251517
 40
0.0009203648
 40
0.0016091877
 40
0.002491864
 40
0.0035682342
 40
0.004838027
 40
0.0063009203
 40
0.0098040545
 40
0.0140727948
 40
0.0191015315
 40
0.0248832588
 40
0.031410324
 40
0.0386736916
 40
0.0466637171
 40
0.0553694493
 40
0.0748806308
 40
0.0971027575
 40
0.1219173211
 40
0.1491926865
 40
0.1787848502
 40
0.2105383677
 40
0.2442873459
 40
0.2798564707
 40
0.3557132203
 40
0.4365588434
 40
0.5207615045
 40
0.60663656
 40
0.692465288
 40
0.7764995557
 40
0.8569586955
 40
0.9320426684
 40
1.0
 40
1.0
 40
1.0
 40
1.0
 10
6.0682689316
 20
1.74755878
 30
0.0
 10
6.0682691726
 20
1.7475541942
 30
0.0
 10
6.0682819783
 20
1.747544205
 30
0.0
 10
6.0683252691
 20
1.7475295042
 30
0.0
 10
6.0684244979
 20
1.7475103113
 30
0.0
 10
6.0685889479
 20
1.7474894875
 30
0.0
 10
6.0688204809
 20
1.7474668875
 30
0.0
 10
6.0691166994
 20
1.747443648
 30
0.0
 10
6.0694785431
 20
1.74741953
 30
0.0
 10
6.0699055178
 20
1.7473947047
 30
0.0
 10
6.0706048091
 20
1.7473584082
 30
0.0
 10
6.0716407576
 20
1.7473122911
 30
0.0
 10
6.0730770673
 20
1.7472567377
 30
0.0
 10
6.0747693013
 20
1.7471983133
 30
0.0
 10
6.0767151585
 20
1.747136839
 30
0.0
 10
6.0789119612
 20
1.7470722051
 30
0.0
 10
6.081356742
 20
1.747004359
 30
0.0
 10
6.0840461657
 20
1.74693325
 30
0.0
 10
6.0881105218
 20
1.7468300176
 30
0.0
 10
6.09377266
 20
1.7466933847
 30
0.0
 10
6.1012432772
 20
1.7465194853
 30
0.0
 10
6.1095856064
 20
1.7463300959
 30
0.0
 10
6.1187553373
 20
1.7461235076
 30
0.0
 10
6.1287040224
 20
1.7458984302
 30
0.0
 10
6.1393793946
 20
1.7456548384
 30
0.0
 10
6.1507256136
 20
1.7453902935
 30
0.0
 10
6.1670226098
 20
1.7450011522
 30
0.0
 10
6.1886059859
 20
1.744461588
 30
0.0
 10
6.2156474307
 20
1.7437362322
 30
0.0
 10
6.243811829
 20
1.742923358
 30
0.0
 10
6.272533948
 20
1.7420410005
 30
0.0
 10
6.3012362137
 20
1.7411290526
 30
0.0
 10
6.3293311477
 20
1.7402526687
 30
0.0
 10
6.3562228838
 20
1.7395024669
 30
0.0
 10
6.3813146295
 20
1.7389843734
 30
0.0
 10
6.39737675
 20
1.738842445
 30
0.0
 10
6.4050076584
 20
1.7388423903
 30
0.0
  0
SPLINE
  5
3E3
100
AcDbEntity
  8
0
100
AcDbSpline
 62
7
  6
CONTINUOUS
 70
0
 71
3
 72
39
 73
35
 74
0
 42
0.0000001
 43
0.0000001
 44
0.0000000001
 40
0.0
 40
0.0
 40
0.0
 40
0.0
 40
0.0000805913
 40
0.0003462895
 40
0.0008053531
 40
0.0014587241
 40
0.0023065377
 40
0.003348531
 40
0.0045843544
 40
0.0060136278
 40
0.0094505372
 40
0.013654421
 40
0.0186198824
 40
0.0243405059
 40
0.030809179
 40
0.0380166681
 40
0.045953038
 40
0.0546078969
 40
0.074028149
 40
0.0961742902
 40
0.1209289459
 40
0.1481638541
 40
0.1777349789
 40
0.2094886804
 40
0.2432599272
 40
0.2788725649
 40
0.3548785722
 40
0.4359395854
 40
0.5203901419
 40
0.6064963084
 40
0.6924839864
 40
0.7765666307
 40
0.8569750219
 40
1.0
 40
1.0
 40
1.0
 40
1.0
 10
6.0570087954
 20
1.7804821652
 30
0.0
 10
6.0570033883
 20
1.7804899816
 30
0.0
 10
6.0570700085
 20
1.7805098068
 30
0.0
 10
6.0571361288
 20
1.7805153434
 30
0.0
 10
6.0573145015
 20
1.7805362046
 30
0.0
 10
6.0575375767
 20
1.7805506211
 30
0.0
 10
6.0578399779
 20
1.7805688294
 30
0.0
 10
6.0582070832
 20
1.7805863243
 30
0.0
 10
6.0586442624
 20
1.7806047576
 30
0.0
 10
6.0593632355
 20
1.7806314679
 30
0.0
 10
6.0604324653
 20
1.7806653983
 30
0.0
 10
6.0619185625
 20
1.7807062004
 30
0.0
 10
6.0636740742
 20
1.7807491876
 30
0.0
 10
6.0656966882
 20
1.780794086
 30
0.0
 10
6.0679837419
 20
1.7808406468
 30
0.0
 10
6.0705321132
 20
1.7808892697
 30
0.0
 10
6.0733383073
 20
1.7809403818
 30
0.0
 10
6.0775846117
 20
1.7810144146
 30
0.0
 10
6.0835065797
 20
1.7811109527
 30
0.0
 10
6.0913270966
 20
1.7812320267
 30
0.0
 10
6.1000691678
 20
1.781363629
 30
0.0
 10
6.1096868626
 20
1.7815036194
 30
0.0
 10
6.1201299
 20
1.7816549107
 30
0.0
 10
6.1313437233
 20
1.7818163076
 30
0.0
 10
6.1432699704
 20
1.7819877745
 30
0.0
 10
6.1604144483
 20
1.782237459
 30
0.0
 10
6.1831353081
 20
1.7825725218
 30
0.0
 10
6.2116149424
 20
1.7830066774
 30
0.0
 10
6.2412853695
 20
1.7834726678
 30
0.0
 10
6.2715366219
 20
1.783955498
 30
0.0
 10
6.3017445675
 20
1.7844322656
 30
0.0
 10
6.3312811182
 20
1.7848699781
 30
0.0
 10
6.3675444546
 20
1.7853315339
 30
0.0
 10
6.3938945704
 20
1.7855347481
 30
0.0
 10
6.4107619644
 20
1.7855356658
 30
0.0
  0
SPLINE
  5
3E4
100
AcDbEntity
  8
0
100
AcDbSpline
 62
7
  6
CONTINUOUS
 70
0
 71
3
 72
29
 73
25
 74
0
 42
0.0000001
 43
0.0000001
 44
0.0000000001
 40
0.0
 40
0.0
 40
0.0
 40
0.0
 40
0.2266493877
 40
0.4277295812
 40
0.6010165796
 40
0.6766456714
 40
0.7446569703
 40
0.8048818966
 40
0.8571682214
 40
0.901381836
 40
0.9204290725
 40
0.9374220237
 40
0.9523524182
 40
0.9652129002
 40
0.9759991484
 40
0.9847109424
 40
0.98829054
 40
0.9913547844
 40
0.993907507
 40
0.9959555499
 40
0.9975125493
 40
0.9986107682
 40
0.9993458997
 40
1.0
 40
1.0
 40
1.0
 40
1.0
 10
6.4107619644
 20
1.7855356658
 30
0.0
 10
6.4159837273
 20
1.7855353028
 30
0.0
 10
6.4258381945
 20
1.7855096583
 30
0.0
 10
6.4396845562
 20
1.785389319
 30
0.0
 10
6.4500507524
 20
1.7852197852
 30
0.0
 10
6.4573504258
 20
1.7850476508
 30
0.0
 10
6.4620452985
 20
1.7849107325
 30
0.0
 10
6.4662017756
 20
1.784763533
 30
0.0
 10
6.4698092453
 20
1.7846081461
 30
0.0
 10
6.4724676469
 20
1.7844667315
 30
0.0
 10
6.4743128333
 20
1.7843483446
 30
0.0
 10
6.4754840624
 20
1.7842631029
 30
0.0
 10
6.4765122738
 20
1.7841771868
 30
0.0
 10
6.4773968977
 20
1.7840909231
 30
0.0
 10
6.4781374237
 20
1.7840045217
 30
0.0
 10
6.4786638208
 20
1.7839288076
 30
0.0
 10
6.4790120665
 20
1.783866243
 30
0.0
 10
6.479219426
 20
1.7838225736
 30
0.0
 10
6.4793906749
 20
1.7837790134
 30
0.0
 10
6.4795258934
 20
1.783736068
 30
0.0
 10
6.4796259187
 20
1.7836928845
 30
0.0
 10
6.4796917841
 20
1.7836514151
 30
0.0
 10
6.4797285211
 20
1.7836013633
 30
0.0
 10
6.4797186057
 20
1.7835664748
 30
0.0
 10
6.4797102665
 20
1.7835539227
 30
0.0
  0
SPLINE
  5
3E5
100
AcDbEntity
  8
0
100
AcDbSpline
 62
7
  6
CONTINUOUS
 70
0
 71
3
 72
19
 73
15
 74
0
 42
0.0000001
 43
0.0000001
 44
0.0000000001
 40
0.0
 40
0.0
 40
0.0
 40
0.0
 40
0.1274708333
 40
0.253131025
 40
0.3153285933
 40
0.3771359092
 40
0.4386479601
 40
0.5000000001
 40
0.5613520401
 40
0.622864091
 40
0.6846714068
 40
0.746868975
 40
0.8725291667
 40
1.0
 40
1.0
 40
1.0
 40
1.0
 10
4.2205209648
 20
2.0773792579
 30
0.0
 10
4.2130368909
 20
2.0828136343
 30
0.0
 10
4.1976667589
 20
2.0929338696
 30
0.0
 10
4.1770875718
 20
2.1031233239
 30
0.0
 10
4.1599905847
 20
2.1091713964
 30
0.0
 10
4.1469332356
 20
2.1125219706
 30
0.0
 10
4.1336712798
 20
2.114585967
 30
0.0
 10
4.1202991015
 20
2.1152835861
 30
0.0
 10
4.1069269233
 20
2.1145859669
 30
0.0
 10
4.0936649675
 20
2.1125219706
 30
0.0
 10
4.0806076184
 20
2.1091713963
 30
0.0
 10
4.0635106313
 20
2.1031233239
 30
0.0
 10
4.0429314442
 20
2.0929338696
 30
0.0
 10
4.0275613122
 20
2.0828136343
 30
0.0
 10
4.0200772383
 20
2.0773792579
 30
0.0
  0
SPLINE
  5
3E6
100
AcDbEntity
  8
0
100
AcDbSpline
 62
7
  6
CONTINUOUS
 70
0
 71
3
 72
11
 73
7
 74
0
 42
0.0000001
 43
0.0000001
 44
0.0000000001
 40
0.0
 40
0.0
 40
0.0
 40
0.0
 40
0.2026019751
 40
0.4358986348
 40
0.701458517
 40
1.0
 40
1.0
 40
1.0
 40
1.0
 10
6.753209263
 20
1.27724
 30
0.0
 10
6.7524165589
 20
1.2777075266
 30
0.0
 10
6.7506300207
 20
1.2785770336
 30
0.0
 10
6.7476241255
 20
1.2796465884
 30
0.0
 10
6.7441176769
 20
1.2805684218
 30
0.0
 10
6.7416000197
 20
1.2810540837
 30
0.0
 10
6.7402624074
 20
1.2812772625
 30
0.0
  0
SPLINE
  5
3E7
100
AcDbEntity
  8
0
100
AcDbSpline
 62
7
  6
CONTINUOUS
 70
0
 71
3
 72
11
 73
7
 74
0
 42
0.0000001
 43
0.0000001
 44
0.0000000001
 40
0.0
 40
0.0
 40
0.0
 40
0.0
 40
0.2106105334
 40
0.4480125914
 40
0.7114827177
 40
1.0
 40
1.0
 40
1.0
 40
1.0
 10
6.7402624074
 20
1.2812772625
 30
0.0
 10
6.7382867842
 20
1.2816068925
 30
0.0
 10
6.7340578303
 20
1.2821521854
 30
0.0
 10
6.7273080584
 20
1.2826558984
 30
0.0
 10
6.7198025911
 20
1.2828908325
 30
0.0
 10
6.7145521077
 20
1.282867863
 30
0.0
 10
6.7118087581
 20
1.282816154
 30
0.0
  0
LINE
  5
3E8
100
AcDbEntity
  8
0
100
AcDbLine
 62
7
  6
CONTINUOUS
 10
7.2774455504
 20
3.0049475427
 11
7.2724746853
 21
3.005759413
  0
LINE
  5
3E9
100
AcDbEntity
  8
0
100
AcDbLine
 62
7
  6
CONTINUOUS
 10
7.2407228057
 20
3.0111929997
 11
7.2377208698
 21
3.0117762891
  0
LINE
  5
3EA
100
AcDbEntity
  8
0
100
AcDbLine
 62
7
  6
CONTINUOUS
 10
7.2773436964
 20
3.0044581113
 11
7.279818542
 21
3.0040698676
  0
LINE
  5
3EB
100
AcDbEntity
  8
0
100
AcDbLine
 62
7
  6
CONTINUOUS
 10
3.1978495961
 20
3.0172304966
 11
3.1885936271
 21
3.0176523041
  0
LINE
  5
3EC
100
AcDbEntity
  8
0
100
AcDbLine
 62
7
  6
CONTINUOUS
 10
3.2251171804
 20
3.0135088349
 11
3.2158612114
 21
3.0151888108
  0
LINE
  5
3ED
100
AcDbEntity
  8
0
100
AcDbLine
 62
7
  6
CONTINUOUS
 10
2.9952189234
 20
3.0110637709
 11
2.9869635997
 21
3.0093056542
  0
LINE
  5
3EE
100
AcDbEntity
  8
0
100
AcDbLine
 62
7
  6
CONTINUOUS
 10
3.023487153
 20
3.0147564836
 11
3.0152318293
 21
3.0140484809
  0
LINE
  5
3EF
100
AcDbEntity
  8
0
100
AcDbLine
 62
7
  6
CONTINUOUS
 10
3.0152318293
 20
3.0142699755
 11
3.0182337652
 21
3.0146852917
  0
LINE
  5
3F0
100
AcDbEntity
  8
0
100
AcDbLine
 62
7
  6
CONTINUOUS
 10
3.0372460259
 20
3.0169527064
 11
3.0402479617
 21
3.0172536375
  0
LINE
  5
3F1
100
AcDbEntity
  8
0
100
AcDbLine
 62
7
  6
CONTINUOUS
 10
3.0402479617
 20
3.0170330001
 11
3.031992638
 21
3.0157715852
  0
LINE
  5
3F2
100
AcDbEntity
  8
0
100
AcDbLine
 62
7
  6
CONTINUOUS
 10
3.0685161914
 20
3.0190524335
 11
3.0602608677
 21
3.018829516
  0
LINE
  5
3F3
100
AcDbEntity
  8
0
100
AcDbLine
 62
7
  6
CONTINUOUS
 10
3.079523284
 20
3.0203021413
 11
3.1054782613
 21
3.0201707642
  0
LINE
  5
3F4
100
AcDbEntity
  8
0
100
AcDbLine
 62
7
  6
CONTINUOUS
 10
3.1096714327
 20
3.0201739218
 11
3.1272326937
 21
3.0201934089
  0
LINE
  5
3F5
100
AcDbEntity
  8
0
100
AcDbLine
 62
7
  6
CONTINUOUS
 10
3.1314482073
 20
3.0201996004
 11
3.1580739455
 21
3.0203782721
  0
SPLINE
  5
3F6
100
AcDbEntity
  8
0
100
AcDbSpline
 62
7
  6
CONTINUOUS
 70
0
 71
3
 72
33
 73
29
 74
0
 42
0.0000001
 43
0.0000001
 44
0.0000000001
 40
0.0
 40
0.0
 40
0.0
 40
0.0
 40
0.0174722067
 40
0.0347691971
 40
0.0684240515
 40
0.101031047
 40
0.1328831172
 40
0.1642376988
 40
0.1952651815
 40
0.2260738337
 40
0.2567334708
 40
0.3177599661
 40
0.3785847328
 40
0.4393122554
 40
0.5000000062
 40
0.5606877551
 40
0.6214152821
 40
0.6822400602
 40
0.743266522
 40
0.77392615
 40
0.8047347913
 40
0.8357622621
 40
0.867116831
 40
0.8989689173
 40
0.931575924
 40
0.9652307851
 40
0.9825277758
 40
1.0
 40
1.0
 40
1.0
 40
1.0
 10
5.1697648757
 20
4.1128359727
 30
0.0
 10
5.1697648757
 20
4.1140774218
 30
0.0
 10
5.1699968166
 20
4.1165539425
 30
0.0
 10
5.1713122056
 20
4.1212564669
 30
0.0
 10
5.1742707294
 20
4.1265056428
 30
0.0
 10
5.1790550549
 20
4.1316330997
 30
0.0
 10
5.184488591
 20
4.1357744089
 30
0.0
 10
5.1902923543
 20
4.1391392447
 30
0.0
 10
5.196321845
 20
4.1418952126
 30
0.0
 10
5.2024961477
 20
4.1441621816
 30
0.0
 10
5.2108426124
 20
4.1466451781
 30
0.0
 10
5.2214535805
 20
4.1489225193
 30
0.0
 10
5.2343156364
 20
4.1506778077
 30
0.0
 10
5.2472338582
 20
4.1516574066
 30
0.0
 10
5.2601741029
 20
4.1519723151
 30
0.0
 10
5.2731143478
 20
4.151657406
 30
0.0
 10
5.2860325707
 20
4.1506778085
 30
0.0
 10
5.2988946256
 20
4.1489225209
 30
0.0
 10
5.3095055908
 20
4.1466451774
 30
0.0
 10
5.317852052
 20
4.1441621827
 30
0.0
 10
5.3240263529
 20
4.1418952152
 30
0.0
 10
5.3300558418
 20
4.1391392492
 30
0.0
 10
5.335859604
 20
4.1357744129
 30
0.0
 10
5.3412931431
 20
4.1316331059
 30
0.0
 10
5.3460774703
 20
4.1265056472
 30
0.0
 10
5.349035996
 20
4.1212564709
 30
0.0
 10
5.3503513859
 20
4.116553945
 30
0.0
 10
5.3505833274
 20
4.1140774231
 30
0.0
 10
5.3505833274
 20
4.1128359727
 30
0.0
  0
SPLINE
  5
3F7
100
AcDbEntity
  8
0
100
AcDbSpline
 62
7
  6
CONTINUOUS
 70
0
 71
3
 72
33
 73
29
 74
0
 42
0.0000001
 43
0.0000001
 44
0.0000000001
 40
0.0
 40
0.0
 40
0.0
 40
0.0
 40
0.0174722072
 40
0.0347691975
 40
0.0684240519
 40
0.1010310477
 40
0.1328831182
 40
0.1642376996
 40
0.1952651819
 40
0.2260738337
 40
0.2567334704
 40
0.3177599648
 40
0.3785847314
 40
0.4393122537
 40
0.5000000042
 40
0.5606877532
 40
0.6214152805
 40
0.6822400589
 40
0.7432665209
 40
0.7739261489
 40
0.8047347901
 40
0.8357622608
 40
0.8671168297
 40
0.8989689165
 40
0.9315759236
 40
0.9652307847
 40
0.9825277755
 40
1.0
 40
1.0
 40
1.0
 40
1.0
 10
4.8885148757
 20
4.1128359727
 30
0.0
 10
4.8885148757
 20
4.1140774218
 30
0.0
 10
4.8887468167
 20
4.1165539425
 30
0.0
 10
4.8900622056
 20
4.121256467
 30
0.0
 10
4.8930207295
 20
4.1265056429
 30
0.0
 10
4.897805055
 20
4.1316330998
 30
0.0
 10
4.9032385912
 20
4.135774409
 30
0.0
 10
4.9090423544
 20
4.1391392448
 30
0.0
 10
4.915071845
 20
4.1418952127
 30
0.0
 10
4.9212461477
 20
4.1441621816
 30
0.0
 10
4.9295926123
 20
4.1466451781
 30
0.0
 10
4.9402035802
 20
4.1489225193
 30
0.0
 10
4.9530656361
 20
4.1506778077
 30
0.0
 10
4.9659838579
 20
4.1516574065
 30
0.0
 10
4.9789241025
 20
4.1519723152
 30
0.0
 10
4.9918643474
 20
4.151657406
 30
0.0
 10
5.0047825704
 20
4.1506778086
 30
0.0
 10
5.0176446253
 20
4.1489225209
 30
0.0
 10
5.0282555906
 20
4.1466451775
 30
0.0
 10
5.0366020518
 20
4.1441621828
 30
0.0
 10
5.0427763527
 20
4.1418952153
 30
0.0
 10
5.0488058415
 20
4.1391392493
 30
0.0
 10
5.0546096037
 20
4.135774413
 30
0.0
 10
5.060043143
 20
4.1316331061
 30
0.0
 10
5.0648274702
 20
4.1265056473
 30
0.0
 10
5.067785996
 20
4.121256471
 30
0.0
 10
5.0691013859
 20
4.116553945
 30
0.0
 10
5.0693333274
 20
4.1140774231
 30
0.0
 10
5.0693333274
 20
4.1128359727
 30
0.0
  0
SPLINE
  5
3F8
100
AcDbEntity
  8
0
100
AcDbSpline
 62
7
  6
CONTINUOUS
 70
0
 71
3
 72
21
 73
17
 74
0
 42
0.0000001
 43
0.0000001
 44
0.0000000001
 40
0.0
 40
0.0
 40
0.0
 40
0.0
 40
0.0060570624
 40
0.0115003423
 40
0.0188197932
 40
0.0280784863
 40
0.0393049241
 40
0.0525113064
 40
0.067702336
 40
0.10403589
 40
0.1482752442
 40
0.2601930011
 40
0.4026809187
 40
0.5745973306
 40
0.7743809225
 40
1.0
 40
1.0
 40
1.0
 40
1.0
 10
3.7695236804
 20
1.7426955587
 30
0.0
 10
3.7695105376
 20
1.7425650541
 30
0.0
 10
3.7697511908
 20
1.7423596848
 30
0.0
 10
3.7701014877
 20
1.7421989548
 30
0.0
 10
3.7705587557
 20
1.7420354222
 30
0.0
 10
3.7711370256
 20
1.7418777677
 30
0.0
 10
3.7718496241
 20
1.7417156231
 30
0.0
 10
3.7726920004
 20
1.7415536331
 30
0.0
 10
3.7740748468
 20
1.7413227194
 30
0.0
 10
3.7761299334
 20
1.7410426801
 30
0.0
 10
3.7802734735
 20
1.7405856772
 30
0.0
 10
3.786721088
 20
1.7400683655
 30
0.0
 10
3.7959390734
 20
1.7395514837
 30
0.0
 10
3.8070670209
 20
1.7391460797
 30
0.0
 10
3.8199997901
 20
1.738889094
 30
0.0
 10
3.829211984
 20
1.7388365054
 30
0.0
 10
3.8340977318
 20
1.7388364704
 30
0.0
  0
SPLINE
  5
3F9
100
AcDbEntity
  8
0
100
AcDbSpline
 62
7
  6
CONTINUOUS
 70
0
 71
3
 72
29
 73
25
 74
0
 42
0.0000001
 43
0.0000001
 44
0.0000000001
 40
0.0
 40
0.0
 40
0.0
 40
0.0
 40
0.0006535643
 40
0.0013880831
 40
0.0024857491
 40
0.0040423233
 40
0.0060901016
 40
0.008642749
 40
0.0117070531
 40
0.0152865008
 40
0.0239973032
 40
0.0347828574
 40
0.0476435333
 40
0.0625740023
 40
0.0795670239
 40
0.0986139899
 40
0.1428267807
 40
0.1951128167
 40
0.2553379649
 40
0.3233501117
 40
0.3989784351
 40
0.5722677275
 40
0.7733461671
 40
1.0
 40
1.0
 40
1.0
 40
1.0
 10
3.7594018431
 20
1.7835499982
 30
0.0
 10
3.7593935048
 20
1.783562534
 30
0.0
 10
3.7593835861
 20
1.7835973958
 30
0.0
 10
3.7594203396
 20
1.7836473866
 30
0.0
 10
3.7594861998
 20
1.7836887705
 30
0.0
 10
3.7595862192
 20
1.7837318642
 30
0.0
 10
3.7597214295
 20
1.7837747173
 30
0.0
 10
3.7598926709
 20
1.7838181944
 30
0.0
 10
3.7601000141
 20
1.7838617968
 30
0.0
 10
3.7604482019
 20
1.7839243011
 30
0.0
 10
3.7609744946
 20
1.7839999935
 30
0.0
 10
3.761714903
 20
1.7840863429
 30
0.0
 10
3.7625994243
 20
1.7841724625
 30
0.0
 10
3.7636275343
 20
1.7842582022
 30
0.0
 10
3.7647986284
 20
1.7843433173
 30
0.0
 10
3.7666435728
 20
1.7844616483
 30
0.0
 10
3.7693016305
 20
1.7846029366
 30
0.0
 10
3.7729086541
 20
1.7847581547
 30
0.0
 10
3.7770646563
 20
1.784905214
 30
0.0
 10
3.7817589832
 20
1.7850417904
 30
0.0
 10
3.7890578331
 20
1.7852140885
 30
0.0
 10
3.7994227956
 20
1.7853828509
 30
0.0
 10
3.8132676047
 20
1.7855041056
 30
0.0
 10
3.8231209581
 20
1.7855292143
 30
0.0
 10
3.8283421984
 20
1.7855294984
 30
0.0
  0
SPLINE
  5
3FA
100
AcDbEntity
  8
0
100
AcDbSpline
 62
7
  6
CONTINUOUS
 70
0
 71
3
 72
19
 73
15
 74
0
 42
0.0000001
 43
0.0000001
 44
0.0000000001
 40
0.0
 40
0.0
 40
0.0
 40
0.0
 40
0.1274708333
 40
0.253131025
 40
0.3153285933
 40
0.3771359092
 40
0.4386479601
 40
0.5000000001
 40
0.5613520401
 40
0.622864091
 40
0.6846714068
 40
0.746868975
 40
0.8725291667
 40
1.0
 40
1.0
 40
1.0
 40
1.0
 10
6.2190209648
 20
1.9042926874
 30
0.0
 10
6.2115368909
 20
1.8988583111
 30
0.0
 10
6.1961667589
 20
1.8887380758
 30
0.0
 10
6.1755875718
 20
1.8785486215
 30
0.0
 10
6.1584905847
 20
1.872500549
 30
0.0
 10
6.1454332356
 20
1.8691499748
 30
0.0
 10
6.1321712798
 20
1.8670859784
 30
0.0
 10
6.1187991015
 20
1.8663883593
 30
0.0
 10
6.1054269233
 20
1.8670859784
 30
0.0
 10
6.0921649675
 20
1.8691499748
 30
0.0
 10
6.0791076184
 20
1.872500549
 30
0.0
 10
6.0620106313
 20
1.8785486215
 30
0.0
 10
6.0414314442
 20
1.8887380758
 30
0.0
 10
6.0260613122
 20
1.8988583111
 30
0.0
 10
6.0185772383
 20
1.9042926874
 30
0.0
  0
SPLINE
  5
3FB
100
AcDbEntity
  8
0
100
AcDbSpline
 62
7
  6
CONTINUOUS
 70
0
 71
3
 72
19
 73
15
 74
0
 42
0.0000001
 43
0.0000001
 44
0.0000000001
 40
0.0
 40
0.0
 40
0.0
 40
0.0
 40
0.1274708333
 40
0.253131025
 40
0.3153285933
 40
0.3771359092
 40
0.4386479601
 40
0.5000000001
 40
0.5613520401
 40
0.622864091
 40
0.6846714068
 40
0.746868975
 40
0.8725291667
 40
1.0
 40
1.0
 40
1.0
 40
1.0
 10
6.2190209648
 20
2.0773792579
 30
0.0
 10
6.2115368909
 20
2.0828136343
 30
0.0
 10
6.1961667589
 20
2.0929338696
 30
0.0
 10
6.1755875718
 20
2.1031233239
 30
0.0
 10
6.1584905847
 20
2.1091713964
 30
0.0
 10
6.1454332356
 20
2.1125219706
 30
0.0
 10
6.1321712798
 20
2.114585967
 30
0.0
 10
6.1187991015
 20
2.1152835861
 30
0.0
 10
6.1054269233
 20
2.1145859669
 30
0.0
 10
6.0921649675
 20
2.1125219706
 30
0.0
 10
6.0791076184
 20
2.1091713963
 30
0.0
 10
6.0620106313
 20
2.1031233239
 30
0.0
 10
6.0414314442
 20
2.0929338696
 30
0.0
 10
6.0260613122
 20
2.0828136343
 30
0.0
 10
6.0185772383
 20
2.0773792579
 30
0.0
  0
SPLINE
  5
3FC
100
AcDbEntity
  8
0
100
AcDbSpline
 62
7
  6
CONTINUOUS
 70
0
 71
3
 72
28
 73
24
 74
0
 42
0.0000001
 43
0.0000001
 44
0.0000000001
 40
0.0
 40
0.0
 40
0.0
 40
0.0
 40
0.0314188468
 40
0.0654528742
 40
0.1034064066
 40
0.146966062
 40
0.1967188068
 40
0.2481870232
 40
0.2947267421
 40
0.3350438356
 40
0.3706853898
 40
0.4031740455
 40
0.4624560051
 40
0.517817784
 40
0.5713643007
 40
0.624071616
 40
0.676412691
 40
0.7286413568
 40
0.7809437429
 40
0.8335504379
 40
0.8868743303
 40
0.9417573422
 40
1.0
 40
1.0
 40
1.0
 40
1.0
 10
6.8177048281
 20
1.844346282
 30
0.0
 10
6.8163470079
 20
1.8433452228
 30
0.0
 10
6.8136406715
 20
1.8410864988
 30
0.0
 10
6.8098923349
 20
1.8369641241
 30
0.0
 10
6.8064912249
 20
1.8317381934
 30
0.0
 10
6.8038046151
 20
1.8251700999
 30
0.0
 10
6.8024708316
 20
1.8174405414
 30
0.0
 10
6.8029822892
 20
1.8094465242
 30
0.0
 10
6.8051354161
 20
1.8022773483
 30
0.0
 10
6.8082716992
 20
1.7964528393
 30
0.0
 10
6.8118903443
 20
1.7918593233
 30
0.0
 10
6.8168816835
 20
1.7871528142
 30
0.0
 10
6.8235834954
 20
1.7828415874
 30
0.0
 10
6.8319789125
 20
1.7794248761
 30
0.0
 10
6.8403992589
 20
1.7772499166
 30
0.0
 10
6.8488258171
 20
1.7759522833
 30
0.0
 10
6.8572542242
 20
1.7753245956
 30
0.0
 10
6.8656829057
 20
1.7752695881
 30
0.0
 10
6.8741114596
 20
1.7757787205
 30
0.0
 10
6.8825384693
 20
1.7769307337
 30
0.0
 10
6.890961292
 20
1.7789083945
 30
0.0
 10
6.8993624215
 20
1.7820368485
 30
0.0
 10
6.9046470708
 20
1.7851326365
 30
0.0
 10
6.9071507283
 20
1.787006389
 30
0.0
  0
SPLINE
  5
3FD
100
AcDbEntity
  8
0
100
AcDbSpline
 62
7
  6
CONTINUOUS
 70
0
 71
3
 72
30
 73
26
 74
0
 42
0.0000001
 43
0.0000001
 44
0.0000000001
 40
0.0
 40
0.0
 40
0.0
 40
0.0
 40
0.0624921981
 40
0.0937512549
 40
0.1250060079
 40
0.1562508479
 40
0.1874748282
 40
0.218662614
 40
0.2342873414
 40
0.2499109453
 40
0.2655348896
 40
0.2811604565
 40
0.3123571111
 40
0.3435865904
 40
0.3748340442
 40
0.4060897657
 40
0.4373495616
 40
0.4998446335
 40
0.5623560335
 40
0.6248740599
 40
0.6873947585
 40
0.7499167383
 40
0.8124392916
 40
0.8749619216
 40
1.0
 40
1.0
 40
1.0
 40
1.0
 10
7.0303131182
 20
1.844346282
 30
0.0
 10
7.0268286453
 20
1.8430618102
 30
0.0
 10
7.0216876988
 20
1.8408620366
 30
0.0
 10
7.0152329343
 20
1.8371686844
 30
0.0
 10
7.0106811984
 20
1.8339355823
 30
0.0
 10
7.0065714374
 20
1.830147234
 30
0.0
 10
7.0031523385
 20
1.8257129752
 30
0.0
 10
7.0012108955
 20
1.8214346319
 30
0.0
 10
7.0004550728
 20
1.8177881975
 30
0.0
 10
7.0003247486
 20
1.8149935902
 30
0.0
 10
7.0006439505
 20
1.8122144866
 30
0.0
 10
7.0016317645
 20
1.8086242049
 30
0.0
 10
7.0038009882
 20
1.8044626523
 30
0.0
 10
7.00739355
 20
1.8001721727
 30
0.0
 10
7.0116135286
 20
1.7965094511
 30
0.0
 10
7.0162367503
 20
1.7933813015
 30
0.0
 10
7.0227567
 20
1.7898039342
 30
0.0
 10
7.0313639052
 20
1.7862484624
 30
0.0
 10
7.0420451342
 20
1.7830321404
 30
0.0
 10
7.0529291719
 20
1.7805974202
 30
0.0
 10
7.0639275695
 20
1.7787638225
 30
0.0
 10
7.0749934695
 20
1.7774049
 30
0.0
 10
7.0860990837
 20
1.7764300681
 30
0.0
 10
7.1009363616
 20
1.7755583948
 30
0.0
 10
7.1120850778
 20
1.7753181195
 30
0.0
 10
7.1195156279
 20
1.7753181195
 30
0.0
  0
SPLINE
  5
3FE
100
AcDbEntity
  8
0
100
AcDbSpline
 62
7
  6
CONTINUOUS
 70
0
 71
3
 72
11
 73
7
 74
0
 42
0.0000001
 43
0.0000001
 44
0.0000000001
 40
0.0
 40
0.0
 40
0.0
 40
0.0
 40
0.2500463416
 40
0.5000661606
 40
0.7500491604
 40
1.0
 40
1.0
 40
1.0
 40
1.0
 10
7.0303131182
 20
1.844346282
 30
0.0
 10
7.0374752784
 20
1.84698645
 30
0.0
 10
7.0519155879
 20
1.8519624818
 30
0.0
 10
7.0740275877
 20
1.8579956315
 30
0.0
 10
7.0966089063
 20
1.861994425
 30
0.0
 10
7.1118852592
 20
1.8629355186
 30
0.0
 10
7.1195156279
 20
1.8629355186
 30
0.0
  0
SPLINE
  5
3FF
100
AcDbEntity
  8
0
100
AcDbSpline
 62
7
  6
CONTINUOUS
 70
0
 71
3
 72
11
 73
7
 74
0
 42
0.0000001
 43
0.0000001
 44
0.0000000001
 40
0.0
 40
0.0
 40
0.0
 40
0.0
 40
0.2028066483
 40
0.4362468218
 40
0.7017638717
 40
1.0
 40
1.0
 40
1.0
 40
1.0
 10
3.4858282799
 20
1.2770651143
 30
0.0
 10
3.4866081552
 20
1.2775183163
 30
0.0
 10
3.4883615569
 20
1.2783635874
 30
0.0
 10
3.4913056701
 20
1.2794112807
 30
0.0
 10
3.4947353046
 20
1.2803230504
 30
0.0
 10
3.4971964523
 20
1.2808101136
 30
0.0
 10
3.4985035647
 20
1.2810356384
 30
0.0
  0
SPLINE
  5
400
100
AcDbEntity
  8
0
100
AcDbSpline
 62
7
  6
CONTINUOUS
 70
0
 71
3
 72
11
 73
7
 74
0
 42
0.0000001
 43
0.0000001
 44
0.0000000001
 40
0.0
 40
0.0
 40
0.0
 40
0.0
 40
0.2101243429
 40
0.4473867071
 40
0.7110356344
 40
1.0
 40
1.0
 40
1.0
 40
1.0
 10
3.4985035647
 20
1.2810356384
 30
0.0
 10
3.5004843694
 20
1.2813773998
 30
0.0
 10
3.504729042
 20
1.2819492911
 30
0.0
 10
3.5115109555
 20
1.282497655
 30
0.0
 10
3.5190634446
 20
1.2827847772
 30
0.0
 10
3.5243508174
 20
1.2827997558
 30
0.0
 10
3.5271149009
 20
1.2827682083
 30
0.0
  0
SPLINE
  5
401
100
AcDbEntity
  8
0
100
AcDbSpline
 62
7
  6
CONTINUOUS
 70
0
 71
3
 72
17
 73
13
 74
0
 42
0.0000001
 43
0.0000001
 44
0.0000000001
 40
0.0
 40
0.0
 40
0.0
 40
0.0
 40
0.1334584552
 40
0.2611825344
 40
0.3826753833
 40
0.4416462653
 40
0.4999999898
 40
0.5583537058
 40
0.6173245787
 40
0.7388174699
 40
0.8665415618
 40
1.0
 40
1.0
 40
1.0
 40
1.0
 10
6.8177048281
 20
1.844346282
 30
0.0
 10
6.8212227896
 20
1.8469399155
 30
0.0
 10
6.828267448
 20
1.8518099047
 30
0.0
 10
6.8392740521
 20
1.8578648531
 30
0.0
 10
6.8488381529
 20
1.8612980081
 30
0.0
 10
6.8565492299
 20
1.8626996566
 30
0.0
 10
6.8623060816
 20
1.8630528293
 30
0.0
 10
6.8680629331
 20
1.8626996569
 30
0.0
 10
6.8757740111
 20
1.8612980089
 30
0.0
 10
6.8853381132
 20
1.857864853
 30
0.0
 10
6.8963447187
 20
1.8518099047
 30
0.0
 10
6.9033893767
 20
1.8469399151
 30
0.0
 10
6.9069073378
 20
1.844346282
 30
0.0
  0
LINE
  5
402
100
AcDbEntity
  8
0
100
AcDbLine
 62
7
  6
CONTINUOUS
 10
7.2657063209
 20
3.0057843077
 11
7.2567536935
 21
3.0073980208
  0
SPLINE
  5
403
100
AcDbEntity
  8
0
100
AcDbSpline
 62
7
  6
CONTINUOUS
 70
0
 71
3
 72
15
 73
11
 74
0
 42
0.0000001
 43
0.0000001
 44
0.0000000001
 40
0.0
 40
0.0
 40
0.0
 40
0.0
 40
0.0998906454
 40
0.2121940968
 40
0.3448825046
 40
0.5016037571
 40
0.6574720267
 40
0.7889961735
 40
0.9005511122
 40
1.0
 40
1.0
 40
1.0
 40
1.0
 10
6.9071507283
 20
1.787006389
 30
0.0
 10
6.9089328515
 20
1.7883401409
 30
0.0
 10
6.9124991178
 20
1.7914844909
 30
0.0
 10
6.9172326046
 20
1.7976080077
 30
0.0
 10
6.9209568126
 20
1.8058566711
 30
0.0
 10
6.922399146
 20
1.8158306516
 30
0.0
 10
6.9208205217
 20
1.8257555009
 30
0.0
 10
6.9170229372
 20
1.8338998419
 30
0.0
 10
6.9122622757
 20
1.8399337843
 30
0.0
 10
6.908691076
 20
1.8430312128
 30
0.0
 10
6.9069073378
 20
1.844346282
 30
0.0
  0
SPLINE
  5
404
100
AcDbEntity
  8
0
100
AcDbSpline
 62
7
  6
CONTINUOUS
 70
0
 71
3
 72
15
 73
11
 74
0
 42
0.0000001
 43
0.0000001
 44
0.0000000001
 40
0.0
 40
0.0
 40
0.0
 40
0.0
 40
0.0998906601
 40
0.2121941357
 40
0.3448825765
 40
0.501603843
 40
0.6574720811
 40
0.7889961985
 40
0.9005511213
 40
1.0
 40
1.0
 40
1.0
 40
1.0
 10
7.4215698311
 20
1.7870063987
 30
0.0
 10
7.4233519537
 20
1.7883401512
 30
0.0
 10
7.4269182185
 20
1.7914845025
 30
0.0
 10
7.4316517025
 20
1.7976080212
 30
0.0
 10
7.4353759066
 20
1.8058566857
 30
0.0
 10
7.4368182355
 20
1.8158306647
 30
0.0
 10
7.4352396084
 20
1.8257555099
 30
0.0
 10
7.431442024
 20
1.8338998465
 30
0.0
 10
7.4266813637
 20
1.8399337859
 30
0.0
 10
7.4231101653
 20
1.8430312132
 30
0.0
 10
7.4213264276
 20
1.844346282
 30
0.0
  0
SPLINE
  5
405
100
AcDbEntity
  8
0
100
AcDbSpline
 62
6
  6
CONTINUOUS
 70
0
 71
3
 72
18
 73
14
 74
0
 42
0.0000001
 43
0.0000001
 44
0.0000000001
 40
0.0
 40
0.0
 40
0.0
 40
0.0
 40
0.1333848832
 40
0.2610741792
 40
0.3226302022
 40
0.3827295243
 40
0.4416969468
 40
0.5000777404
 40
0.558468184
 40
0.6174427168
 40
0.7389357743
 40
0.8666263014
 40
1.0
 40
1.0
 40
1.0
 40
1.0
 10
3.3321573916
 20
1.844346282
 30
0.0
 10
3.3356737759
 20
1.8469387527
 30
0.0
 10
3.3427103345
 20
1.8518117299
 30
0.0
 10
3.3520042484
 20
1.856912449
 30
0.0
 10
3.3595886521
 20
1.859966991
 30
0.0
 10
3.3652680851
 20
1.8616592366
 30
0.0
 10
3.3710000993
 20
1.8626973059
 30
0.0
 10
3.3767599889
 20
1.8630357431
 30
0.0
 10
3.3825192578
 20
1.8626895216
 30
0.0
 10
3.3902360272
 20
1.8613036162
 30
0.0
 10
3.3997960818
 20
1.8578561337
 30
0.0
 10
3.4108038301
 20
1.8518108678
 30
0.0
 10
3.4178438119
 20
1.8469385353
 30
0.0
 10
3.4213599013
 20
1.844346282
 30
0.0
  0
SPLINE
  5
406
100
AcDbEntity
  8
0
100
AcDbSpline
 62
6
  6
CONTINUOUS
 70
0
 71
3
 72
11
 73
7
 74
0
 42
0.0000001
 43
0.0000001
 44
0.0000000001
 40
0.0
 40
0.0
 40
0.0
 40
0.0
 40
0.249976112
 40
0.4999720852
 40
0.7499876914
 40
1.0
 40
1.0
 40
1.0
 40
1.0
 10
3.1195491016
 20
1.8629355186
 30
0.0
 10
3.1271802425
 20
1.8629355186
 30
0.0
 10
3.1424577555
 20
1.8619941384
 30
0.0
 10
3.1650400928
 20
1.8579951412
 30
0.0
 10
3.1871512799
 20
1.8519619033
 30
0.0
 10
3.2015904251
 20
1.8469860909
 30
0.0
 10
3.2087516112
 20
1.844346282
 30
0.0
  0
SPLINE
  5
407
100
AcDbEntity
  8
0
100
AcDbSpline
 62
6
  6
CONTINUOUS
 70
0
 71
3
 72
20
 73
16
 74
0
 42
0.0000001
 43
0.0000001
 44
0.0000000001
 40
0.0
 40
0.0
 40
0.0
 40
0.0
 40
0.0597377011
 40
0.1271349034
 40
0.2073412914
 40
0.3021627436
 40
0.3945417954
 40
0.4715022448
 40
0.536880341
 40
0.5954476804
 40
0.6500534674
 40
0.7023201772
 40
0.8031436855
 40
0.9018929795
 40
1.0
 40
1.0
 40
1.0
 40
1.0
 10
3.3321573916
 20
1.844346282
 30
0.0
 10
3.3303122977
 20
1.842985978
 30
0.0
 10
3.3266142433
 20
1.8397609539
 30
0.0
 10
3.3217144064
 20
1.8334159495
 30
0.0
 10
3.3179234175
 20
1.8247989758
 30
0.0
 10
3.3166496584
 20
1.8144410799
 30
0.0
 10
3.318578562
 20
1.8043230196
 30
0.0
 10
3.3227130618
 20
1.7962110515
 30
0.0
 10
3.3277351232
 20
1.7902899977
 30
0.0
 10
3.3330858229
 20
1.7859601574
 30
0.0
 10
3.3385810239
 20
1.782742952
 30
0.0
 10
3.3459100436
 20
1.7795738676
 30
0.0
 10
3.3552881748
 20
1.7770500536
 30
0.0
 10
3.3666311018
 20
1.7755486659
 30
0.0
 10
3.3741931822
 20
1.7752873215
 30
0.0
 10
3.3779577014
 20
1.7753235419
 30
0.0
  0
SPLINE
  5
408
100
AcDbEntity
  8
0
100
AcDbSpline
 62
6
  6
CONTINUOUS
 70
0
 71
3
 72
12
 73
8
 74
0
 42
0.0000001
 43
0.0000001
 44
0.0000000001
 40
0.0
 40
0.0
 40
0.0
 40
0.0
 40
0.2405363802
 40
0.4834952717
 40
0.7330154911
 40
0.8632231503
 40
1.0
 40
1.0
 40
1.0
 40
1.0
 10
3.3811146842
 20
1.7753937406
 30
0.0
 10
3.3845841254
 20
1.7755146195
 30
0.0
 10
3.3915530054
 20
1.7760470495
 30
0.0
 10
3.40198847
 20
1.7778999642
 30
0.0
 10
3.4105835385
 20
1.7806851619
 30
0.0
 10
3.4172685284
 20
1.7840131729
 30
0.0
 10
3.4204939405
 20
1.786147287
 30
0.0
 10
3.4220579915
 20
1.787351678
 30
0.0
  0
SPLINE
  5
409
100
AcDbEntity
  8
0
100
AcDbSpline
 62
6
  6
CONTINUOUS
 70
0
 71
3
 72
32
 73
28
 74
0
 42
0.0000001
 43
0.0000001
 44
0.0000000001
 40
0.0
 40
0.0
 40
0.0
 40
0.0
 40
0.1249517543
 40
0.1874310758
 40
0.2499109559
 40
0.3123910374
 40
0.3748707487
 40
0.4373495273
 40
0.4998254593
 40
0.5310712011
 40
0.5623207551
 40
0.5935721458
 40
0.624823401
 40
0.65608022
 40
0.6873401675
 40
0.7185867417
 40
0.7342372853
 40
0.7498978023
 40
0.765550673
 40
0.7812093418
 40
0.7968634604
 40
0.8125157178
 40
0.84377028
 40
0.8750291834
 40
0.9062847867
 40
0.9375340639
 40
1.0
 40
1.0
 40
1.0
 40
1.0
 10
3.1195491016
 20
1.7753181195
 30
0.0
 10
3.1269752353
 20
1.7753181195
 30
0.0
 10
3.1381173173
 20
1.7755581263
 30
0.0
 10
3.1529458148
 20
1.7764287668
 30
0.0
 10
3.1640450275
 20
1.7774020826
 30
0.0
 10
3.1751046255
 20
1.7787590945
 30
0.0
 10
3.1860975413
 20
1.7805899016
 30
0.0
 10
3.1969751499
 20
1.7830210355
 30
0.0
 10
3.2058779923
 20
1.785696614
 30
0.0
 10
3.2128139401
 20
1.7883628289
 30
0.0
 10
3.2178886413
 20
1.790672656
 30
0.0
 10
3.2227808915
 20
1.7933525108
 30
0.0
 10
3.2274072443
 20
1.7964763442
 30
0.0
 10
3.2316344244
 20
1.8001345674
 30
0.0
 10
3.2352385241
 20
1.8044232081
 30
0.0
 10
3.2374170892
 20
1.8085872785
 30
0.0
 10
3.2384149541
 20
1.8121821525
 30
0.0
 10
3.2387374851
 20
1.8149666146
 30
0.0
 10
3.2386130998
 20
1.8177676168
 30
0.0
 10
3.2380442488
 20
1.8205116103
 30
0.0
 10
3.2370824415
 20
1.8231417332
 30
0.0
 10
3.235347455
 20
1.8264403974
 30
0.0
 10
3.2324936087
 20
1.8301499793
 30
0.0
 10
3.2283813247
 20
1.8339377614
 30
0.0
 10
3.2238281106
 20
1.8371709401
 30
0.0
 10
3.2173746855
 20
1.8408635592
 30
0.0
 10
3.2122349545
 20
1.8430622266
 30
0.0
 10
3.2087516112
 20
1.844346282
 30
0.0
  0
SPLINE
  5
40A
100
AcDbEntity
  8
0
100
AcDbSpline
 62
6
  6
CONTINUOUS
 70
0
 71
3
 72
18
 73
14
 74
0
 42
0.0000001
 43
0.0000001
 44
0.0000000001
 40
0.0
 40
0.0
 40
0.0
 40
0.0
 40
0.1333736923
 40
0.2610642085
 40
0.3825572137
 40
0.4415317663
 40
0.4999222129
 40
0.5583029729
 40
0.6172703924
 40
0.6773697508
 40
0.7389257941
 40
0.8666150775
 40
1.0
 40
1.0
 40
1.0
 40
1.0
 10
2.8177383018
 20
1.844346282
 30
0.0
 10
2.8212543911
 20
1.8469385352
 30
0.0
 10
2.8282943744
 20
1.8518108643
 30
0.0
 10
2.8393021166
 20
1.8578561359
 30
0.0
 10
2.848862172
 20
1.8613036163
 30
0.0
 10
2.8565789416
 20
1.862689511
 30
0.0
 10
2.8623382082
 20
1.8630357524
 30
0.0
 10
2.8680980988
 20
1.8626973246
 30
0.0
 10
2.8738301084
 20
1.8616592287
 30
0.0
 10
2.8795095423
 20
1.8599669836
 30
0.0
 10
2.8870939521
 20
1.8569124521
 30
0.0
 10
2.8963878697
 20
1.8518117351
 30
0.0
 10
2.9034244261
 20
1.8469387534
 30
0.0
 10
2.9069408115
 20
1.844346282
 30
0.0
  0
SPLINE
  5
40B
100
AcDbEntity
  8
0
100
AcDbSpline
 62
6
  6
CONTINUOUS
 70
0
 71
3
 72
11
 73
7
 74
0
 42
0.0000001
 43
0.0000001
 44
0.0000000001
 40
0.0
 40
0.0
 40
0.0
 40
0.0
 40
0.2500122746
 40
0.5000278334
 40
0.750023821
 40
1.0
 40
1.0
 40
1.0
 40
1.0
 10
3.0303465919
 20
1.844346282
 30
0.0
 10
3.0375077771
 20
1.8469860905
 30
0.0
 10
3.0519469202
 20
1.8519619013
 30
0.0
 10
3.0740581049
 20
1.8579951399
 30
0.0
 10
3.096640443
 20
1.8619941391
 30
0.0
 10
3.1119179586
 20
1.8629355186
 30
0.0
 10
3.1195491016
 20
1.8629355186
 30
0.0
  0
SPLINE
  5
40C
100
AcDbEntity
  8
0
100
AcDbSpline
 62
6
  6
CONTINUOUS
 70
0
 71
3
 72
20
 73
16
 74
0
 42
0.0000001
 43
0.0000001
 44
0.0000000001
 40
0.0
 40
0.0
 40
0.0
 40
0.0
 40
0.0585714809
 40
0.1238762188
 40
0.2001777268
 40
0.2908113007
 40
0.3851002388
 40
0.4666612446
 40
0.5354390815
 40
0.5961030584
 40
0.6518811226
 40
0.7046910491
 40
0.8054306219
 40
0.9032533723
 40
1.0
 40
1.0
 40
1.0
 40
1.0
 10
2.8177383018
 20
1.844346282
 30
0.0
 10
2.8160278697
 20
1.843085258
 30
0.0
 10
2.8126062726
 20
1.8401371009
 30
0.0
 10
2.8080088894
 20
1.8344563302
 30
0.0
 10
2.804221948
 20
1.8268388256
 30
0.0
 10
2.8023326422
 20
1.8174182273
 30
0.0
 10
2.8032362496
 20
1.8076465776
 30
0.0
 10
2.8064746819
 20
1.799277908
 30
0.0
 10
2.8108591634
 20
1.7929330413
 30
0.0
 10
2.815692969
 20
1.7882168071
 30
0.0
 10
2.8207245946
 20
1.7846607753
 30
0.0
 10
2.8274540527
 20
1.781105698
 30
0.0
 10
2.8361331823
 20
1.7781357339
 30
0.0
 10
2.8466837819
 20
1.7761518736
 30
0.0
 10
2.8537304032
 20
1.7755655127
 30
0.0
 10
2.8572375317
 20
1.7754219908
 30
0.0
  0
SPLINE
  5
40D
100
AcDbEntity
  8
0
100
AcDbSpline
 62
6
  6
CONTINUOUS
 70
0
 71
3
 72
13
 73
9
 74
0
 42
0.0000001
 43
0.0000001
 44
0.0000000001
 40
0.0
 40
0.0
 40
0.0
 40
0.0
 40
0.2413288061
 40
0.4843239773
 40
0.6076333245
 40
0.7333206773
 40
0.8631073818
 40
1.0
 40
1.0
 40
1.0
 40
1.0
 10
2.8603430713
 20
1.7753336684
 30
0.0
 10
2.8643368494
 20
1.7752698806
 30
0.0
 10
2.8723619856
 20
1.775517416
 30
0.0
 10
2.8823561097
 20
1.7768587465
 30
0.0
 10
2.8902746831
 20
1.7787910631
 30
0.0
 10
2.8962209458
 20
1.7808099096
 30
0.0
 10
2.902119289
 20
1.7835615763
 30
0.0
 10
2.9058436597
 20
1.7859692651
 30
0.0
 10
2.9076388354
 20
1.787351627
 30
0.0
  0
SPLINE
  5
40E
100
AcDbEntity
  8
0
100
AcDbSpline
 62
6
  6
CONTINUOUS
 70
0
 71
3
 72
32
 73
28
 74
0
 42
0.0000001
 43
0.0000001
 44
0.0000000001
 40
0.0
 40
0.0
 40
0.0
 40
0.0
 40
0.0624662798
 40
0.093715841
 40
0.1249718037
 40
0.1562309427
 40
0.1874854336
 40
0.2031382915
 40
0.2187915227
 40
0.2344499358
 40
0.2501022501
 40
0.2657623109
 40
0.2814126822
 40
0.3126592292
 40
0.3439192421
 40
0.3751759914
 40
0.4064272649
 40
0.4376787168
 40
0.4689282631
 40
0.5001740374
 40
0.5626500207
 40
0.6251288596
 40
0.6876086345
 40
0.7500887798
 40
0.8125687243
 40
0.8750481121
 40
1.0
 40
1.0
 40
1.0
 40
1.0
 10
3.0303465919
 20
1.844346282
 30
0.0
 10
3.0268632294
 20
1.8430622195
 30
0.0
 10
3.0217234699
 20
1.8408635234
 30
0.0
 10
3.0152699875
 20
1.8371708897
 30
0.0
 10
3.010716723
 20
1.8339376831
 30
0.0
 10
3.0066044828
 20
1.830149815
 30
0.0
 10
3.0037505984
 20
1.8264401895
 30
0.0
 10
3.0020157454
 20
1.8231414925
 30
0.0
 10
3.0010537667
 20
1.8205114565
 30
0.0
 10
3.0004852096
 20
1.8177675088
 30
0.0
 10
3.0003606011
 20
1.814966598
 30
0.0
 10
3.0006832993
 20
1.812182217
 30
0.0
 10
3.0016810318
 20
1.8085873602
 30
0.0
 10
3.0038596251
 20
1.8044232925
 30
0.0
 10
3.0074637108
 20
1.8001346536
 30
0.0
 10
3.0116908744
 20
1.7964764077
 30
0.0
 10
3.0163172166
 20
1.7933525562
 30
0.0
 10
3.0212094764
 20
1.7906727096
 30
0.0
 10
3.0262841734
 20
1.7883628615
 30
0.0
 10
3.0332201259
 20
1.7856966449
 30
0.0
 10
3.0421229733
 20
1.7830210538
 30
0.0
 10
3.053000592
 20
1.7805899149
 30
0.0
 10
3.0639935185
 20
1.7787591033
 30
0.0
 10
3.075053128
 20
1.7774020887
 30
0.0
 10
3.0861523521
 20
1.7764287693
 30
0.0
 10
3.1009808656
 20
1.7755581265
 30
0.0
 10
3.1121229597
 20
1.7753181195
 30
0.0
 10
3.1195491016
 20
1.7753181195
 30
0.0
  0
SPLINE
  5
40F
100
AcDbEntity
  8
0
100
AcDbSpline
 62
6
  6
CONTINUOUS
 70
0
 71
3
 72
15
 73
11
 74
0
 42
0.0000001
 43
0.0000001
 44
0.0000000001
 40
0.0
 40
0.0
 40
0.0
 40
0.0
 40
0.1003210129
 40
0.2134016395
 40
0.3472560267
 40
0.5046529582
 40
0.6596025361
 40
0.7900735877
 40
0.9009719562
 40
1.0
 40
1.0
 40
1.0
 40
1.0
 10
3.4220579915
 20
1.787351678
 30
0.0
 10
3.4238142234
 20
1.7887040571
 30
0.0
 10
3.4273254541
 20
1.7918900632
 30
0.0
 10
3.4319594149
 20
1.7980737274
 30
0.0
 10
3.4355480201
 20
1.8063626579
 30
0.0
 10
3.4368357639
 20
1.8162911865
 30
0.0
 10
3.4351588496
 20
1.8260794297
 30
0.0
 10
3.4313594472
 20
1.8340703002
 30
0.0
 10
3.4266464544
 20
1.8399964073
 30
0.0
 10
3.4231210356
 20
1.8430478776
 30
0.0
 10
3.4213599013
 20
1.844346282
 30
0.0
  0
SPLINE
  5
410
100
AcDbEntity
  8
0
100
AcDbSpline
 62
6
  6
CONTINUOUS
 70
0
 71
3
 72
15
 73
11
 74
0
 42
0.0000001
 43
0.0000001
 44
0.0000000001
 40
0.0
 40
0.0
 40
0.0
 40
0.0
 40
0.1003209319
 40
0.2134014271
 40
0.3472556389
 40
0.5046525109
 40
0.6596022574
 40
0.7900734607
 40
0.9009719103
 40
1.0
 40
1.0
 40
1.0
 40
1.0
 10
2.9076388354
 20
1.787351627
 30
0.0
 10
2.9093950708
 20
1.7887040031
 30
0.0
 10
2.9129063091
 20
1.7918900026
 30
0.0
 10
2.9175402844
 20
1.7980736572
 30
0.0
 10
2.9211289101
 20
1.8063625821
 30
0.0
 10
2.9224166771
 20
1.8162911191
 30
0.0
 10
2.9207397763
 20
1.8260793839
 30
0.0
 10
2.9169403735
 20
1.834070277
 30
0.0
 10
2.9122273737
 20
1.8399963989
 30
0.0
 10
2.9087019488
 20
1.8430478754
 30
0.0
 10
2.9069408115
 20
1.844346282
 30
0.0
  0
ENDSEC
  0
SECTION
  2
OBJECTS
  0
DICTIONARY
  5
C
100
AcDbDictionary
280
0
281
1
  3
ACAD_GROUP
350
D
  3
ACAD_MLINESTYLE
350
17
  3
ACAD_LAYOUT
350
1A
  3
ACAD_PLOTSETTINGS
350
19
  3
ACAD_PLOTSTYLENAME
350
E
  0
DICTIONARY
  5
D
102
{ACAD_REACTORS
330
C
102
}
100
AcDbDictionary
280
0
281
1
  0
ACDBDICTIONARYWDFLT
  5
E
102
{ACAD_REACTORS
330
C
102
}
100
AcDbDictionary
281
1
  3
Normal
350
F
100
AcDbDictionaryWithDefault
340
F
  0
DICTIONARY
  5
17
102
{ACAD_REACTORS
330
C
102
}
100
AcDbDictionary
280
0
281
1
  3
Standard
350
18
  0
DICTIONARY
  5
19
102
{ACAD_REACTORS
330
C
102
}
100
AcDbDictionary
281
1
  0
DICTIONARY
  5
1A
102
{ACAD_REACTORS
330
C
102
}
100
AcDbDictionary
281
1
  3
Model
350
411
  3
Layout1
350
412
  0
ACDBPLACEHOLDER
  5
F
102
{ACAD_REACTORS
330
E
102
}
  0
MLINESTYLE
  5
18
102
{ACAD_REACTORS
330
17
102
}
100
AcDbMlineStyle
  2
STANDARD
 70
0
  3

 62
256
 51
90.0
 52
90.0
 71
2
 49
0.5
 62
256
  6
BYLAYER
 49
-0.5
 62
256
  6
BYLAYER
  0
LAYOUT
  5
411
102
{ACAD_REACTORS
330
1A
102
}
100
AcDbPlotSettings
  1

  2
none_device
  4
ANSI_A_(11.00_x_8.50_Inches)
  6

 40
0.0
 41
0.0
 42
0.0
 43
0.0
 44
279.4
 45
215.9
 46
0.0
 47
0.0
 48
0.0
 49
0.0
140
0.0
141
0.0
142
1.0
143
1.0
 70
1024
 72
0
 73
0
 74
0
  7

 75
0
147
1.0
148
0.0
149
0.0
100
AcDbLayout
  1
Model
 70
0
 71
0
 10
0.0
 20
0.0
 11
11.0
 21
8.5
 12
0.0
 22
0.0
 32
0.0
 14
0.0
 24
0.0
 34
0.0
 15
0.0
 25
0.0
 35
0.0
146
0.0
 13
0.0
 23
0.0
 33
0.0
 16
1.0
 26
0.0
 36
0.0
 17
0.0
 27
1.0
 37
0.0
 76
0
330
202
345
0
346
0
  0
LAYOUT
  5
412
102
{ACAD_REACTORS
330
1A
102
}
100
AcDbPlotSettings
  1

  2
none_device
  4
ANSI_A_(11.00_x_8.50_Inches)
  6

 40
0.0
 41
0.0
 42
0.0
 43
0.0
 44
279.4
 45
215.9
 46
0.0
 47
0.0
 48
0.0
 49
0.0
140
0.0
141
0.0
142
1.0
143
1.0
 70
0
 72
0
 73
0
 74
0
  7

 75
0
147
1.0
148
0.0
149
0.0
100
AcDbLayout
  1
Layout1
 70
0
 71
1
 10
0.0
 20
0.0
 11
11.0
 21
8.5
 12
0.0
 22
0.0
 32
0.0
 14
0.0
 24
0.0
 34
0.0
 15
0.0
 25
0.0
 35
0.0
146
0.0
 13
0.0
 23
0.0
 33
0.0
 16
1.0
 26
0.0
 36
0.0
 17
0.0
 27
1.0
 37
0.0
 76
0
330
203
345
0
346
0
  0
ENDSEC
  0
EOF
