999
DXF file: 9463_right.dxf
999
Pro/ENGINEER 2018400 by Parametric Technology Corporation
  0
SECTION
  2
HEADER
  9
$ACADVER
  1
AC1027
  9
$DWGCODEPAGE
  3
ANSI_1252
  9
$EXTMAX
 10
11.0
 20
8.5
 30
0.0
  9
$EXTMIN
 10
0.0
 20
0.0
 30
0.0
  9
$LIMMIN
 10
0.0
 20
0.0
  9
$LIMMAX
 10
11.0
 20
8.5
  9
$VIEWCTR
 10
5.5
 20
4.25
  9
$VIEWSIZE
 40
8.5
  9
$CLAYER
  8
0
  9
$LTSCALE
 40
0.605
  9
$CELTYPE
  6
BYLAYER
  9
$DIMSCALE
 40
1.0
  9
$DIMASZ
 40
0.1
  9
$DIMEXO
 40
0.0625
  9
$DIMDLI
 40
0.418
  9
$DIMEXE
 40
0.125
  9
$DIMCEN
 40
0.099
  9
$DIMLFAC
 40
1.0
  9
$DIMBLK
  1
_FILLED
  9
$DIMALT
 70
1
  9
$DIMALTD
 70
1
  9
$DIMALTTD
 70
2
  9
$DIMALTF
 40
25.4
  9
$DIMTXT
 40
0.08
  9
$DIMTOL
 70
1
  9
$DIMLIM
 70
0
  9
$DIMTFAC
 40
1.0
  9
$DIMTP
 40
0.01
  9
$DIMTM
 40
0.01
  9
$DIMGAP
 40
0.09
  9
$DIMDSEP
 70
46
  9
$AUNITS
 70
0
  9
$PDMODE
 70
3
  9
$PDSIZE
 40
0.3125
  9
$HANDSEED
  5
30E
  9
$TILEMODE
 70
1
  9
$MEASUREMENT
 70
0
  9
$INSUNITS
 70
1
  0
ENDSEC
  0
SECTION
  2
CLASSES
  0
CLASS
  1
ACDBDICTIONARYWDFLT
  2
AcDbDictionaryWithDefault
  3
AutoCAD 2000
 90
0
 91
1
280
0
281
0
  0
CLASS
  1
ACDBPLACEHOLDER
  2
AcDbPlaceHolder
  3
AutoCAD 2000
 90
0
 91
1
280
0
281
0
  0
CLASS
  1
LAYOUT
  2
AcDbLayout
  3
AutoCAD 2000
 90
0
 91
0
280
0
281
0
  0
ENDSEC
  0
SECTION
  2
TABLES
  0
TABLE
  2
VPORT
  5
8
100
AcDbSymbolTable
 70
2
  0
VPORT
  5
1F4
100
AcDbSymbolTableRecord
100
AcDbViewportTableRecord
  2
*ACTIVE
 70
0
 10
0.0
 20
0.0
 11
1.0
 21
1.0
 12
5.5
 22
4.25
 13
0.0
 23
0.0
 14
1.0
 24
1.0
 15
0.0
 25
0.0
 16
0.0
 26
0.0
 36
1.0
 17
0.0
 27
0.0
 37
0.0
 40
8.5
 41
1.2941176471
 42
50.0
 43
0.0
 44
0.0
 50
0.0
 51
0.0
 71
0
 72
100
 73
1
 74
1
 75
0
 76
0
 77
0
 78
0
  0
ENDTAB
  0
TABLE
  2
LTYPE
  5
5
100
AcDbSymbolTable
 70
6
  0
LTYPE
  5
14
100
AcDbSymbolTableRecord
100
AcDbLinetypeTableRecord
  2
BYBLOCK
 70
0
  3

 72
65
 73
0
 40
0.0
  0
LTYPE
  5
15
100
AcDbSymbolTableRecord
100
AcDbLinetypeTableRecord
  2
BYLAYER
 70
0
  3

 72
65
 73
0
 40
0.0
  0
LTYPE
  5
16
100
AcDbSymbolTableRecord
100
AcDbLinetypeTableRecord
  2
CONTINUOUS
 70
64
  3
Solid line
 72
65
 73
0
 40
0.0
  0
LTYPE
  5
1F5
100
AcDbSymbolTableRecord
100
AcDbLinetypeTableRecord
  2
CENTER
 70
64
  3
____ _ ____ _ ____ _ ____ _ ____ _ ____ _ ____
 72
65
 73
4
 40
0.6
 49
0.375
 74
0
 49
-0.075
 74
0
 49
0.075
 74
0
 49
-0.075
 74
0
  0
LTYPE
  5
1F6
100
AcDbSymbolTableRecord
100
AcDbLinetypeTableRecord
  2
HIDDEN
 70
64
  3
- - - - - - - - - - - - - - - - - - - -
 72
65
 73
2
 40
0.2
 49
0.1
 74
0
 49
-0.1
 74
0
  0
LTYPE
  5
1F7
100
AcDbSymbolTableRecord
100
AcDbLinetypeTableRecord
  2
PHANTOM
 70
64
  3
_____ _ _ _____ _ _ _____ _ _ _____
 72
65
 73
6
 40
0.8
 49
0.45
 74
0
 49
-0.05
 74
0
 49
0.1
 74
0
 49
-0.05
 74
0
 49
0.1
 74
0
 49
-0.05
 74
0
  0
LTYPE
  5
1F8
100
AcDbSymbolTableRecord
100
AcDbLinetypeTableRecord
  2
DOT
 70
64
  3
. . . . . . . . . . . . . . . . . . . .
 72
65
 73
2
 40
0.2
 49
0.1
 74
0
 49
-0.1
 74
0
  0
LTYPE
  5
1F9
100
AcDbSymbolTableRecord
100
AcDbLinetypeTableRecord
  2
DASHED
 70
64
  3
- - - - - - - - - - - - - - - - - - - -
 72
65
 73
2
 40
0.2
 49
0.1
 74
0
 49
-0.1
 74
0
  0
ENDTAB
  0
TABLE
  2
LAYER
  5
2
100
AcDbSymbolTable
 70
36
  0
LAYER
  5
10
100
AcDbSymbolTableRecord
100
AcDbLayerTableRecord
  2
0
 70
0
 62
7
  6
CONTINUOUS
370
-3
390
F
  0
LAYER
  5
1FA
100
AcDbSymbolTableRecord
100
AcDbLayerTableRecord
  2
DEFAULT_1
 70
0
 62
7
  6
CENTER
370
-3
390
F
  0
LAYER
  5
1FB
100
AcDbSymbolTableRecord
100
AcDbLayerTableRecord
  2
DEFAULT_2
 70
0
 62
8
  6
HIDDEN
370
-3
390
F
  0
LAYER
  5
1FC
100
AcDbSymbolTableRecord
100
AcDbLayerTableRecord
  2
DEFAULT_3
 70
0
 62
7
  6
PHANTOM
370
-3
390
F
  0
LAYER
  5
1FD
100
AcDbSymbolTableRecord
100
AcDbLayerTableRecord
  2
DEFAULT_COORDINATE_SYSTEM
 70
0
 62
7
  6
CONTINUOUS
370
-3
390
F
  0
LAYER
  5
1FE
100
AcDbSymbolTableRecord
100
AcDbLayerTableRecord
  2
DEFAULT_DATUM_AXES
 70
0
 62
7
  6
CONTINUOUS
370
-3
390
F
  0
LAYER
  5
1FF
100
AcDbSymbolTableRecord
100
AcDbLayerTableRecord
  2
DEFAULT_DATUM_PLANES
 70
0
 62
7
  6
CONTINUOUS
370
-3
390
F
  0
ENDTAB
  0
TABLE
  2
STYLE
  5
3
100
AcDbSymbolTable
 70
1
  0
STYLE
  5
11
100
AcDbSymbolTableRecord
100
AcDbTextStyleTableRecord
  2
STANDARD
 70
0
 40
0.0
 41
0.8
 50
0.0
 71
0
 42
0.2
  3
txt
  4

  0
STYLE
  5
200
100
AcDbSymbolTableRecord
100
AcDbTextStyleTableRecord
  2
TEXTSTYLE_1
 70
0
 40
0.0
 41
0.8
 50
0.0
 71
0
 42
0.2
  3
gdt
  4

  0
ENDTAB
  0
TABLE
  2
VIEW
  5
6
100
AcDbSymbolTable
 70
0
  0
ENDTAB
  0
TABLE
  2
UCS
  5
7
100
AcDbSymbolTable
 70
0
  0
ENDTAB
  0
TABLE
  2
APPID
  5
9
100
AcDbSymbolTable
 70
1
  0
APPID
  5
201
100
AcDbSymbolTableRecord
100
AcDbRegAppTableRecord
  2
ACAD
 70
0
  0
ENDTAB
  0
TABLE
  2
BLOCK_RECORD
  5
1
100
AcDbSymbolTable
 70
0
  0
BLOCK_RECORD
  5
202
100
AcDbSymbolTableRecord
100
AcDbBlockTableRecord
  2
*Model_Space
  0
BLOCK_RECORD
  5
203
100
AcDbSymbolTableRecord
100
AcDbBlockTableRecord
  2
*Paper_Space
  0
BLOCK_RECORD
  5
204
100
AcDbSymbolTableRecord
100
AcDbBlockTableRecord
  2
_FILLED
  0
ENDTAB
  0
TABLE
  2
DIMSTYLE
  5
A
100
AcDbSymbolTable
 70
1
100
AcDbDimStyleTable
 71
0
  0
DIMSTYLE
105
205
100
AcDbSymbolTableRecord
100
AcDbDimStyleTableRecord
  2
STANDARD
 70
0
  3

  4

 40
1.0
 41
0.1
 42
0.0625
 43
0.38
 44
0.125
 45
0.0
 46
0.0
 47
0.01
 48
0.01
140
0.08
141
0.09
142
0.0
143
25.4
144
1.0
145
0.0
146
1.0
147
0.09
 71
1.0
 72
0.0
 73
1
 74
1
 75
0
 76
0
 77
0
 78
4
 79
1
170
1
171
1
172
0
173
0
174
0
175
0
176
0
177
0
178
0
270
2
179
2
271
2
272
2
273
2
274
2
275
0
280
0
281
0
282
0
283
1
284
4
285
0
286
0
287
3
288
0
340
11
278
46
341
204
342
204
343
204
344
204
  0
ENDTAB
  0
ENDSEC
  0
SECTION
  2
BLOCKS
  0
BLOCK
  5
20
100
AcDbEntity
  8
0
100
AcDbBlockBegin
  2
*Model_Space
 70
0
 10
0.0
 20
0.0
 30
0.0
  3
*Model_Space
  1

  0
ENDBLK
  5
21
100
AcDbEntity
  8
0
100
AcDbBlockEnd
  0
BLOCK
  5
1C
100
AcDbEntity
  8
0
100
AcDbBlockBegin
  2
*Paper_Space
 70
0
 10
0.0
 20
0.0
 30
0.0
  3
*Paper_Space
  1

  0
ENDBLK
  5
1D
100
AcDbEntity
  8
0
100
AcDbBlockEnd
  0
BLOCK
  5
206
100
AcDbEntity
  8
0
100
AcDbBlockBegin
  2
_FILLED
 70
64
 10
0.0
 20
0.0
  3
_FILLED
  1

  0
SOLID
  5
207
100
AcDbEntity
  8
0
  6
BYBLOCK
 62
0
100
AcDbTrace
 10
0.0
 20
0.0
 11
-1.0
 21
0.2
 12
-1.0
 22
-0.2
 13
-1.0
 23
-0.2
  0
ENDBLK
  5
208
100
AcDbEntity
  8
0
  6
BYBLOCK
 62
0
100
AcDbBlockEnd
  0
ENDSEC
  0
SECTION
  2
ENTITIES
  0
MTEXT
  5
209
100
AcDbEntity
  8
0
100
AcDbMText
 62
2
  6
CONTINUOUS
  7
STANDARD
 71
3
 72
1
 10
5.1195263975
 20
0.4928359727
 30
0.0
 11
1.0
 21
0.0
 31
0.0
 73
2
 44
0.9
  1
SCALE  .500
 40
0.08
 41
0.704
  0
LINE
  5
20A
100
AcDbEntity
  8
0
100
AcDbLine
 62
7
  6
CONTINUOUS
 10
0.0
 20
0.0
 11
0.0
 21
8.5
  0
LINE
  5
20B
100
AcDbEntity
  8
0
100
AcDbLine
 62
7
  6
CONTINUOUS
 10
0.0
 20
0.0
 11
11.0
 21
0.0
  0
LINE
  5
20C
100
AcDbEntity
  8
0
100
AcDbLine
 62
7
  6
CONTINUOUS
 10
0.0
 20
8.5
 11
11.0
 21
8.5
  0
LINE
  5
20D
100
AcDbEntity
  8
0
100
AcDbLine
 62
7
  6
CONTINUOUS
 10
11.0
 20
0.0
 11
11.0
 21
8.5
  0
LINE
  5
20E
100
AcDbEntity
  8
0
100
AcDbLine
 62
7
  6
CONTINUOUS
 10
6.8460172615
 20
0.6073623602
 11
5.8875172617
 21
0.607382864
  0
LINE
  5
20F
100
AcDbEntity
  8
0
100
AcDbLine
 62
7
  6
CONTINUOUS
 10
6.8460178496
 20
0.6348547741
 11
5.8875178498
 21
0.6348752779
  0
LINE
  5
210
100
AcDbEntity
  8
0
100
AcDbLine
 62
7
  6
CONTINUOUS
 10
6.8314556389
 20
0.6537196615
 11
5.9020808676
 21
0.6537395422
  0
LINE
  5
211
100
AcDbEntity
  8
0
100
AcDbLine
 62
7
  6
CONTINUOUS
 10
6.8265168394
 20
0.5878627774
 11
5.9070168495
 21
0.5878824469
  0
LINE
  5
212
100
AcDbEntity
  8
0
100
AcDbLine
 62
7
  6
CONTINUOUS
 10
6.6502975047
 20
0.964691238
 11
6.0832523059
 21
0.964703368
  0
LINE
  5
213
100
AcDbEntity
  8
0
100
AcDbLine
 62
7
  6
CONTINUOUS
 10
6.6996605563
 20
1.1503998875
 11
6.9834532262
 21
1.1503888371
  0
LINE
  5
214
100
AcDbEntity
  8
0
100
AcDbLine
 62
7
  6
CONTINUOUS
 10
6.7311113828
 20
1.2687209865
 11
6.0024514352
 21
1.2687365736
  0
LINE
  5
215
100
AcDbEntity
  8
0
100
AcDbLine
 62
7
  6
CONTINUOUS
 10
6.6792503527
 20
1.5397803486
 11
6.054324062
 21
1.5397937167
  0
LINE
  5
216
100
AcDbEntity
  8
0
100
AcDbLine
 62
7
  6
CONTINUOUS
 10
6.671946157
 20
1.5504009669
 11
6.9834617828
 21
1.550388837
  0
LINE
  5
217
100
AcDbEntity
  8
0
100
AcDbLine
 62
7
  6
CONTINUOUS
 10
6.6423795958
 20
1.6514404435
 11
6.091199596
 21
1.6514522341
  0
LINE
  5
218
100
AcDbEntity
  8
0
100
AcDbLine
 62
7
  6
CONTINUOUS
 10
2.5577551475
 20
5.4384359727
 11
2.5865328931
 21
5.1207296609
  0
LINE
  5
219
100
AcDbEntity
  8
0
100
AcDbLine
 62
7
  6
CONTINUOUS
 10
2.5890051475
 20
5.4984359727
 11
2.5890051475
 21
5.6859359727
  0
LINE
  5
21A
100
AcDbEntity
  8
0
100
AcDbLine
 62
7
  6
CONTINUOUS
 10
6.6423821082
 20
1.7688886767
 11
6.0912021082
 21
1.7688945719
  0
LINE
  5
21B
100
AcDbEntity
  8
0
100
AcDbLine
 62
7
  6
CONTINUOUS
 10
6.069792107
 20
1.844346282
 11
6.1410404676
 21
1.844346282
  0
LINE
  5
21C
100
AcDbEntity
  8
0
100
AcDbLine
 62
7
  6
CONTINUOUS
 10
6.2955437465
 20
1.844346282
 11
6.4380404676
 21
1.844346282
  0
LINE
  5
21D
100
AcDbEntity
  8
0
100
AcDbLine
 62
7
  6
CONTINUOUS
 10
6.5925437465
 20
1.844346282
 11
6.663792107
 21
1.844346282
  0
LINE
  5
21E
100
AcDbEntity
  8
0
100
AcDbLine
 62
7
  6
CONTINUOUS
 10
7.0227551475
 20
1.8458359727
 11
7.5927551475
 21
1.8458359727
  0
LINE
  5
21F
100
AcDbEntity
  8
0
100
AcDbLine
 62
7
  6
CONTINUOUS
 10
7.1920289081
 20
1.9042926874
 11
7.1084087223
 21
1.9042926874
  0
LINE
  5
220
100
AcDbEntity
  8
0
100
AcDbLine
 62
7
  6
CONTINUOUS
 10
6.9926824829
 20
1.9042926874
 11
6.9890051475
 21
1.9042926874
  0
LINE
  5
221
100
AcDbEntity
  8
0
100
AcDbLine
 62
7
  6
CONTINUOUS
 10
7.423481387
 20
1.9042926874
 11
7.5071015727
 21
1.9042926874
  0
LINE
  5
222
100
AcDbEntity
  8
0
100
AcDbLine
 62
7
  6
CONTINUOUS
 10
7.6228278122
 20
1.9042926874
 11
7.6265051475
 21
1.9042926874
  0
LINE
  5
223
100
AcDbEntity
  8
0
100
AcDbLine
 62
7
  6
CONTINUOUS
 10
6.1046007086
 20
1.9603359727
 11
6.6289835054
 21
1.9603359727
  0
LINE
  5
224
100
AcDbEntity
  8
0
100
AcDbLine
 62
7
  6
CONTINUOUS
 10
3.0577551475
 20
5.4384359727
 11
3.0289774019
 21
5.1207296609
  0
LINE
  5
225
100
AcDbEntity
  8
0
100
AcDbLine
 62
7
  6
CONTINUOUS
 10
7.1920289081
 20
2.0773792579
 11
7.1084087223
 21
2.0773792579
  0
LINE
  5
226
100
AcDbEntity
  8
0
100
AcDbLine
 62
7
  6
CONTINUOUS
 10
6.9926824829
 20
2.0773792579
 11
6.9890051475
 21
2.0773792579
  0
LINE
  5
227
100
AcDbEntity
  8
0
100
AcDbLine
 62
7
  6
CONTINUOUS
 10
7.423481387
 20
2.0773792579
 11
7.5071015727
 21
2.0773792579
  0
LINE
  5
228
100
AcDbEntity
  8
0
100
AcDbLine
 62
7
  6
CONTINUOUS
 10
7.6228278122
 20
2.0773792579
 11
7.6265051475
 21
2.0773792579
  0
LINE
  5
229
100
AcDbEntity
  8
0
100
AcDbLine
 62
7
  6
CONTINUOUS
 10
7.0227551475
 20
2.1358359727
 11
7.5927551475
 21
2.1358359727
  0
LINE
  5
22A
100
AcDbEntity
  8
0
100
AcDbLine
 62
7
  6
CONTINUOUS
 10
7.0892524733
 20
2.1558359727
 11
7.5262578217
 21
2.1558359727
  0
LINE
  5
22B
100
AcDbEntity
  8
0
100
AcDbLine
 62
7
  6
CONTINUOUS
 10
3.0265051475
 20
5.4984359727
 11
3.0265051475
 21
5.6859359727
  0
LINE
  5
22C
100
AcDbEntity
  8
0
100
AcDbLine
 62
7
  6
CONTINUOUS
 10
7.0892516475
 20
2.3493359727
 11
7.5262586475
 21
2.3493359727
  0
LINE
  5
22D
100
AcDbEntity
  8
0
100
AcDbLine
 62
7
  6
CONTINUOUS
 10
6.158224481
 20
2.4018501786
 11
6.5753597331
 21
2.4018501786
  0
LINE
  5
22E
100
AcDbEntity
  8
0
100
AcDbLine
 62
7
  6
CONTINUOUS
 10
6.183042107
 20
2.4238359727
 11
6.550542107
 21
2.4238359727
  0
LINE
  5
22F
100
AcDbEntity
  8
0
100
AcDbLine
 62
7
  6
CONTINUOUS
 10
6.1815552842
 20
2.6033359727
 11
6.2028176826
 21
2.6033359727
  0
LINE
  5
230
100
AcDbEntity
  8
0
100
AcDbLine
 62
7
  6
CONTINUOUS
 10
6.5308442213
 20
2.6033359727
 11
6.5520552842
 21
2.6033359727
  0
LINE
  5
231
100
AcDbEntity
  8
0
100
AcDbLine
 62
7
  6
CONTINUOUS
 10
6.1030552842
 20
2.6288359727
 11
6.1802968546
 21
2.6288359727
  0
LINE
  5
232
100
AcDbEntity
  8
0
100
AcDbLine
 62
7
  6
CONTINUOUS
 10
6.5533599611
 20
2.6288359727
 11
6.6305552842
 21
2.6288359727
  0
LINE
  5
233
100
AcDbEntity
  8
0
100
AcDbLine
 62
7
  6
CONTINUOUS
 10
6.0880552842
 20
2.6683359727
 11
6.155961312
 21
2.6683359727
  0
LINE
  5
234
100
AcDbEntity
  8
0
100
AcDbLine
 62
7
  6
CONTINUOUS
 10
6.5776096713
 20
2.6683359727
 11
6.6455552842
 21
2.6683359727
  0
LINE
  5
235
100
AcDbEntity
  8
0
100
AcDbLine
 62
7
  6
CONTINUOUS
 10
6.0880552842
 20
2.8733359727
 11
6.1560008971
 21
2.8733359727
  0
LINE
  5
236
100
AcDbEntity
  8
0
100
AcDbLine
 62
7
  6
CONTINUOUS
 10
6.5776492564
 20
2.8733359727
 11
6.6455552842
 21
2.8733359727
  0
LINE
  5
237
100
AcDbEntity
  8
0
100
AcDbLine
 62
7
  6
CONTINUOUS
 10
6.3506802078
 20
3.0210080445
 11
6.3362856026
 21
3.0207189078
  0
LINE
  5
238
100
AcDbEntity
  8
0
100
AcDbLine
 62
7
  6
CONTINUOUS
 10
6.1022091266
 20
2.9133359727
 11
6.1806080488
 21
2.9133359727
  0
LINE
  5
239
100
AcDbEntity
  8
0
100
AcDbLine
 62
7
  6
CONTINUOUS
 10
6.552951783
 20
2.9133359727
 11
6.6314014419
 21
2.9133359727
  0
LINE
  5
23A
100
AcDbEntity
  8
0
100
AcDbLine
 62
7
  6
CONTINUOUS
 10
6.1160552842
 20
2.9213359727
 11
6.1871726755
 21
2.9213359727
  0
LINE
  5
23B
100
AcDbEntity
  8
0
100
AcDbLine
 62
7
  6
CONTINUOUS
 10
6.5464362316
 20
2.9213359727
 11
6.6175552842
 21
2.9213359727
  0
LINE
  5
23C
100
AcDbEntity
  8
0
100
AcDbLine
 62
7
  6
CONTINUOUS
 10
6.1030552842
 20
2.9288359727
 11
6.1936212322
 21
2.9288359727
  0
LINE
  5
23D
100
AcDbEntity
  8
0
100
AcDbLine
 62
7
  6
CONTINUOUS
 10
6.5400469215
 20
2.9288359727
 11
6.6305552842
 21
2.9288359727
  0
LINE
  5
23E
100
AcDbEntity
  8
0
100
AcDbLine
 62
7
  6
CONTINUOUS
 10
6.1030552842
 20
2.9644780212
 11
6.2347875403
 21
2.9644780212
  0
LINE
  5
23F
100
AcDbEntity
  8
0
100
AcDbLine
 62
7
  6
CONTINUOUS
 10
6.4988622316
 20
2.9644780212
 11
6.6305552842
 21
2.9644780212
  0
LINE
  5
240
100
AcDbEntity
  8
0
100
AcDbLine
 62
7
  6
CONTINUOUS
 10
6.1141650736
 20
2.9755878106
 11
6.2528081779
 21
2.9755878106
  0
LINE
  5
241
100
AcDbEntity
  8
0
100
AcDbLine
 62
7
  6
CONTINUOUS
 10
6.4807966495
 20
2.9755878106
 11
6.6194454948
 21
2.9755878106
  0
LINE
  5
242
100
AcDbEntity
  8
0
100
AcDbLine
 62
7
  6
CONTINUOUS
 10
6.1395503062
 20
2.9838359727
 11
6.2690623192
 21
2.9838359727
  0
LINE
  5
243
100
AcDbEntity
  8
0
100
AcDbLine
 62
7
  6
CONTINUOUS
 10
6.464525354
 20
2.9838359727
 11
6.5940602623
 21
2.9838359727
  0
LINE
  5
244
100
AcDbEntity
  8
0
100
AcDbLine
 62
7
  6
CONTINUOUS
 10
6.3009258039
 20
2.9957406193
 11
6.1692329559
 21
2.9957406193
  0
LINE
  5
245
100
AcDbEntity
  8
0
100
AcDbLine
 62
7
  6
CONTINUOUS
 10
6.4326531154
 20
2.9957406193
 11
6.5643776125
 21
2.9957406193
  0
LINE
  5
246
100
AcDbEntity
  8
0
100
AcDbLine
 62
7
  6
CONTINUOUS
 10
6.9895398158
 20
3.1600003375
 11
7.6259704793
 21
3.1600003375
  0
LINE
  5
247
100
AcDbEntity
  8
0
100
AcDbLine
 62
7
  6
CONTINUOUS
 10
6.3998265791
 20
3.0206163121
 11
6.3668512271
 21
3.0213359727
  0
LINE
  5
248
100
AcDbEntity
  8
0
100
AcDbLine
 62
7
  6
CONTINUOUS
 10
6.1815552842
 20
2.6033359727
 11
6.1030552842
 21
2.6288359727
  0
LINE
  5
249
100
AcDbEntity
  8
0
100
AcDbLine
 62
7
  6
CONTINUOUS
 10
7.0027551475
 20
3.1984356269
 11
7.6127551475
 21
3.1984356269
  0
LINE
  5
24A
100
AcDbEntity
  8
0
100
AcDbLine
 62
7
  6
CONTINUOUS
 10
7.0027551475
 20
3.4528359727
 11
7.6127551475
 21
3.4528359727
  0
LINE
  5
24B
100
AcDbEntity
  8
0
100
AcDbLine
 62
7
  6
CONTINUOUS
 10
7.6077551475
 20
3.4628359727
 11
7.0078581789
 21
3.4628359727
  0
LINE
  5
24C
100
AcDbEntity
  8
0
100
AcDbLine
 62
7
  6
CONTINUOUS
 10
7.6192342018
 20
3.5205529587
 11
6.9962760933
 21
3.5205529587
  0
LINE
  5
24D
100
AcDbEntity
  8
0
100
AcDbLine
 62
7
  6
CONTINUOUS
 10
7.6142631345
 20
3.5345464701
 11
7.0012471606
 21
3.5345464701
  0
LINE
  5
24E
100
AcDbEntity
  8
0
100
AcDbLine
 62
7
  6
CONTINUOUS
 10
6.6194454948
 20
2.9755878106
 11
6.5940602623
 21
2.9838359727
  0
LINE
  5
24F
100
AcDbEntity
  8
0
100
AcDbLine
 62
7
  6
CONTINUOUS
 10
6.1160552842
 20
2.9213359727
 11
6.1030552842
 21
2.9288359727
  0
LINE
  5
250
100
AcDbEntity
  8
0
100
AcDbLine
 62
7
  6
CONTINUOUS
 10
7.0077551475
 20
4.0878359727
 11
7.6077551475
 21
4.0878359727
  0
LINE
  5
251
100
AcDbEntity
  8
0
100
AcDbLine
 62
7
  6
CONTINUOUS
 10
6.6314014419
 20
2.9133359727
 11
6.6175552842
 21
2.9213359727
  0
LINE
  5
252
100
AcDbEntity
  8
0
100
AcDbLine
 62
7
  6
CONTINUOUS
 10
7.2033595657
 20
4.1128359727
 11
7.1163832936
 21
4.1128359727
  0
LINE
  5
253
100
AcDbEntity
  8
0
100
AcDbLine
 62
7
  6
CONTINUOUS
 10
7.0119877118
 20
4.1128359727
 11
7.0077551475
 21
4.1128359727
  0
LINE
  5
254
100
AcDbEntity
  8
0
100
AcDbLine
 62
7
  6
CONTINUOUS
 10
7.4121507293
 20
4.1128359727
 11
7.4991270014
 21
4.1128359727
  0
LINE
  5
255
100
AcDbEntity
  8
0
100
AcDbLine
 62
7
  6
CONTINUOUS
 10
7.6035225832
 20
4.1128359727
 11
7.6077551475
 21
4.1128359727
  0
LINE
  5
256
100
AcDbEntity
  8
0
100
AcDbLine
 62
7
  6
CONTINUOUS
 10
7.5577551475
 20
4.1628359727
 11
7.0577552465
 21
4.1628359727
  0
LINE
  5
257
100
AcDbEntity
  8
0
100
AcDbLine
 62
7
  6
CONTINUOUS
 10
6.6305552842
 20
2.9644780212
 11
6.6194454948
 21
2.9755878106
  0
LWPOLYLINE
  5
258
100
AcDbEntity
  8
0
100
AcDbPolyline
 62
7
  6
CONTINUOUS
 90
9
 70
0
 10
7.0951216574
 20
1.7838876252
 10
7.0960528874
 20
1.7824360825
 10
7.0989626144
 20
1.7772178011
 10
7.1013672464
 20
1.7717254706
 10
7.1032369833
 20
1.7660154086
 10
7.104550702
 20
1.760141666
 10
7.1052934328
 20
1.7541562836
 10
7.1054547391
 20
1.7481164558
 10
7.1050304421
 20
1.7420822532
  0
LINE
  5
259
100
AcDbEntity
  8
0
100
AcDbLine
 62
7
  6
CONTINUOUS
 10
6.0024514352
 20
1.2687365736
 11
6.0832523059
 21
0.964703368
  0
LINE
  5
25A
100
AcDbEntity
  8
0
100
AcDbLine
 62
7
  6
CONTINUOUS
 10
6.9890051475
 20
1.9042926874
 11
7.0227551475
 21
1.8458359727
  0
LINE
  5
25B
100
AcDbEntity
  8
0
100
AcDbLine
 62
7
  6
CONTINUOUS
 10
5.8875178498
 20
0.6348752779
 11
5.8875172617
 21
0.607382864
  0
LINE
  5
25C
100
AcDbEntity
  8
0
100
AcDbLine
 62
7
  6
CONTINUOUS
 10
6.069792107
 20
1.7753181195
 11
6.069792107
 21
1.8629355186
  0
LINE
  5
25D
100
AcDbEntity
  8
0
100
AcDbLine
 62
7
  6
CONTINUOUS
 10
2.99909972
 20
5.0934359727
 11
2.6164105751
 21
5.0934359727
  0
LINE
  5
25E
100
AcDbEntity
  8
0
100
AcDbLine
 62
7
  6
CONTINUOUS
 10
3.0289774019
 20
5.1207296609
 11
2.5865328931
 21
5.1207296609
  0
LINE
  5
25F
100
AcDbEntity
  8
0
100
AcDbLine
 62
7
  6
CONTINUOUS
 10
6.0880552842
 20
2.6683359727
 11
6.0880552842
 21
2.8733359727
  0
LINE
  5
260
100
AcDbEntity
  8
0
100
AcDbLine
 62
7
  6
CONTINUOUS
 10
6.0912021082
 20
1.7688945719
 11
6.091199596
 21
1.6514522341
  0
LINE
  5
261
100
AcDbEntity
  8
0
100
AcDbLine
 62
7
  6
CONTINUOUS
 10
6.1030552842
 20
2.9288359727
 11
6.1030552842
 21
2.9644780212
  0
LINE
  5
262
100
AcDbEntity
  8
0
100
AcDbLine
 62
7
  6
CONTINUOUS
 10
6.1950552842
 20
2.4238359727
 11
6.1950552842
 21
2.6033359727
  0
LINE
  5
263
100
AcDbEntity
  8
0
100
AcDbLine
 62
7
  6
CONTINUOUS
 10
6.3356906066
 20
3.0186746371
 11
6.3356906066
 21
3.0178238744
  0
LINE
  5
264
100
AcDbEntity
  8
0
100
AcDbLine
 62
7
  6
CONTINUOUS
 10
6.3363052842
 20
3.0106995408
 11
6.3363052842
 21
3.0083620917
  0
LINE
  5
265
100
AcDbEntity
  8
0
100
AcDbLine
 62
7
  6
CONTINUOUS
 10
3.0577551475
 20
5.4384359727
 11
2.5577551475
 21
5.4384359727
  0
LINE
  5
266
100
AcDbEntity
  8
0
100
AcDbLine
 62
7
  6
CONTINUOUS
 10
3.0577551475
 20
5.4984359727
 11
2.5577552463
 21
5.4984359727
  0
LINE
  5
267
100
AcDbEntity
  8
0
100
AcDbLine
 62
7
  6
CONTINUOUS
 10
7.5927551475
 20
2.1358359727
 11
7.6265051475
 21
2.0773792579
  0
LINE
  5
268
100
AcDbEntity
  8
0
100
AcDbLine
 62
7
  6
CONTINUOUS
 10
6.6289835054
 20
1.9603359727
 11
6.5753597331
 21
2.4018501786
  0
LINE
  5
269
100
AcDbEntity
  8
0
100
AcDbLine
 62
7
  6
CONTINUOUS
 10
6.7415861982
 20
1.3616020709
 11
6.7415951062
 21
1.3613461865
  0
LINE
  5
26A
100
AcDbEntity
  8
0
100
AcDbLine
 62
7
  6
CONTINUOUS
 10
6.3998052842
 20
3.0082579673
 11
6.3998052842
 21
3.0105957346
  0
LINE
  5
26B
100
AcDbEntity
  8
0
100
AcDbLine
 62
7
  6
CONTINUOUS
 10
6.5385552842
 20
2.4238359727
 11
6.5385552842
 21
2.6033359727
  0
LINE
  5
26C
100
AcDbEntity
  8
0
100
AcDbLine
 62
7
  6
CONTINUOUS
 10
6.6305552842
 20
2.9288359727
 11
6.6305552842
 21
2.9644780212
  0
LINE
  5
26D
100
AcDbEntity
  8
0
100
AcDbLine
 62
7
  6
CONTINUOUS
 10
6.6423821084
 20
1.7688945721
 11
6.6423795958
 21
1.6514404435
  0
LINE
  5
26E
100
AcDbEntity
  8
0
100
AcDbLine
 62
7
  6
CONTINUOUS
 10
6.6455552842
 20
2.6683359727
 11
6.6455552842
 21
2.8733359727
  0
LINE
  5
26F
100
AcDbEntity
  8
0
100
AcDbLine
 62
7
  6
CONTINUOUS
 10
6.663792107
 20
1.7753181195
 11
6.663792107
 21
1.8629355186
  0
LINE
  5
270
100
AcDbEntity
  8
0
100
AcDbLine
 62
7
  6
CONTINUOUS
 10
6.1046007086
 20
1.9603359727
 11
6.158224481
 21
2.4018501786
  0
LINE
  5
271
100
AcDbEntity
  8
0
100
AcDbLine
 62
7
  6
CONTINUOUS
 10
7.5265051475
 20
5.6859359727
 11
7.0890051475
 21
5.6859359727
  0
LINE
  5
272
100
AcDbEntity
  8
0
100
AcDbLine
 62
7
  6
CONTINUOUS
 10
2.5890051475
 20
5.6859359727
 11
3.0265051475
 21
5.6859359727
  0
LINE
  5
273
100
AcDbEntity
  8
0
100
AcDbLine
 62
7
  6
CONTINUOUS
 10
6.8460178496
 20
0.6348547741
 11
6.8460172615
 21
0.6073623602
  0
LINE
  5
274
100
AcDbEntity
  8
0
100
AcDbLine
 62
7
  6
CONTINUOUS
 10
6.9890051475
 20
2.0773792579
 11
6.9890051475
 21
1.9042926874
  0
LINE
  5
275
100
AcDbEntity
  8
0
100
AcDbLine
 62
7
  6
CONTINUOUS
 10
6.9926824829
 20
2.0773792579
 11
6.9926824829
 21
1.9042926874
  0
LINE
  5
276
100
AcDbEntity
  8
0
100
AcDbLine
 62
7
  6
CONTINUOUS
 10
6.1030552842
 20
2.9644780212
 11
6.1141650736
 21
2.9755878106
  0
LINE
  5
277
100
AcDbEntity
  8
0
100
AcDbLine
 62
7
  6
CONTINUOUS
 10
6.1022091266
 20
2.9133359727
 11
6.1160552842
 21
2.9213359727
  0
LINE
  5
278
100
AcDbEntity
  8
0
100
AcDbLine
 62
7
  6
CONTINUOUS
 10
6.1141650736
 20
2.9755878106
 11
6.1395503062
 21
2.9838359727
  0
LINE
  5
279
100
AcDbEntity
  8
0
100
AcDbLine
 62
7
  6
CONTINUOUS
 10
7.0027551475
 20
3.1984356269
 11
7.0027551475
 21
3.4528359727
  0
LINE
  5
27A
100
AcDbEntity
  8
0
100
AcDbLine
 62
7
  6
CONTINUOUS
 10
7.0077551475
 20
4.1128359727
 11
7.0077551475
 21
4.0878359727
  0
LINE
  5
27B
100
AcDbEntity
  8
0
100
AcDbLine
 62
7
  6
CONTINUOUS
 10
7.0119877118
 20
4.1128359727
 11
7.0119877118
 21
4.0878359727
  0
LINE
  5
27C
100
AcDbEntity
  8
0
100
AcDbLine
 62
7
  6
CONTINUOUS
 10
7.0890051475
 20
5.6859359727
 11
7.0890051475
 21
4.1628359727
  0
LINE
  5
27D
100
AcDbEntity
  8
0
100
AcDbLine
 62
7
  6
CONTINUOUS
 10
7.0892516475
 20
2.1558359727
 11
7.0892516475
 21
2.9118359727
  0
LINE
  5
27E
100
AcDbEntity
  8
0
100
AcDbLine
 62
7
  6
CONTINUOUS
 10
7.1060051475
 20
2.1558359727
 11
7.1060051475
 21
2.1358359727
  0
LINE
  5
27F
100
AcDbEntity
  8
0
100
AcDbLine
 62
7
  6
CONTINUOUS
 10
7.1084087223
 20
2.0773792579
 11
7.1084087223
 21
1.9042926874
  0
LINE
  5
280
100
AcDbEntity
  8
0
100
AcDbLine
 62
7
  6
CONTINUOUS
 10
7.1163832936
 20
4.1128359727
 11
7.1163832936
 21
4.0878359727
  0
LINE
  5
281
100
AcDbEntity
  8
0
100
AcDbLine
 62
7
  6
CONTINUOUS
 10
7.1920289081
 20
2.0773792579
 11
7.1920289081
 21
1.9042926874
  0
LINE
  5
282
100
AcDbEntity
  8
0
100
AcDbLine
 62
7
  6
CONTINUOUS
 10
7.2033595657
 20
4.1128359727
 11
7.2033595657
 21
4.0878359727
  0
LINE
  5
283
100
AcDbEntity
  8
0
100
AcDbLine
 62
7
  6
CONTINUOUS
 10
6.7379012497
 20
1.3008755484
 11
6.7378867674
 21
1.3007838002
  0
LINE
  5
284
100
AcDbEntity
  8
0
100
AcDbLine
 62
7
  6
CONTINUOUS
 10
6.6175552842
 20
2.9213359727
 11
6.6305552842
 21
2.9288359727
  0
LINE
  5
285
100
AcDbEntity
  8
0
100
AcDbLine
 62
7
  6
CONTINUOUS
 10
6.5520552842
 20
2.6033359727
 11
6.6305552842
 21
2.6288359727
  0
LINE
  5
286
100
AcDbEntity
  8
0
100
AcDbLine
 62
7
  6
CONTINUOUS
 10
7.4121507293
 20
4.1128359727
 11
7.4121507293
 21
4.0878359727
  0
LINE
  5
287
100
AcDbEntity
  8
0
100
AcDbLine
 62
7
  6
CONTINUOUS
 10
7.423481387
 20
2.0773792579
 11
7.423481387
 21
1.9042926874
  0
LINE
  5
288
100
AcDbEntity
  8
0
100
AcDbLine
 62
7
  6
CONTINUOUS
 10
7.4991270014
 20
4.1128359727
 11
7.4991270014
 21
4.0878359727
  0
LINE
  5
289
100
AcDbEntity
  8
0
100
AcDbLine
 62
7
  6
CONTINUOUS
 10
7.5071015727
 20
2.0773792579
 11
7.5071015727
 21
1.9042926874
  0
LINE
  5
28A
100
AcDbEntity
  8
0
100
AcDbLine
 62
7
  6
CONTINUOUS
 10
7.5095051475
 20
2.1558359727
 11
7.5095051475
 21
2.1358359727
  0
LINE
  5
28B
100
AcDbEntity
  8
0
100
AcDbLine
 62
7
  6
CONTINUOUS
 10
7.5262586475
 20
2.1558359727
 11
7.5262586475
 21
2.9118359727
  0
LINE
  5
28C
100
AcDbEntity
  8
0
100
AcDbLine
 62
7
  6
CONTINUOUS
 10
7.5265051475
 20
5.6859359727
 11
7.5265051475
 21
4.1628359727
  0
LINE
  5
28D
100
AcDbEntity
  8
0
100
AcDbLine
 62
7
  6
CONTINUOUS
 10
7.6035225832
 20
4.1128359727
 11
7.6035225832
 21
4.0878359727
  0
LINE
  5
28E
100
AcDbEntity
  8
0
100
AcDbLine
 62
7
  6
CONTINUOUS
 10
6.7311113827
 20
1.2687209864
 11
6.6502975047
 21
0.964691238
  0
LINE
  5
28F
100
AcDbEntity
  8
0
100
AcDbLine
 62
7
  6
CONTINUOUS
 10
7.6077551475
 20
4.1128359727
 11
7.6077551475
 21
4.0878359727
  0
LINE
  5
290
100
AcDbEntity
  8
0
100
AcDbLine
 62
7
  6
CONTINUOUS
 10
7.6127551475
 20
3.1984356269
 11
7.6127551475
 21
3.4528359727
  0
LINE
  5
291
100
AcDbEntity
  8
0
100
AcDbLine
 62
7
  6
CONTINUOUS
 10
7.6228278122
 20
2.0773792579
 11
7.6228278122
 21
1.9042926874
  0
LINE
  5
292
100
AcDbEntity
  8
0
100
AcDbLine
 62
7
  6
CONTINUOUS
 10
7.6265051475
 20
2.0773792579
 11
7.6265051475
 21
1.9042926874
  0
LWPOLYLINE
  5
293
100
AcDbEntity
  8
0
100
AcDbPolyline
 62
7
  6
CONTINUOUS
 90
7
 70
0
 10
7.5067313042
 20
1.7476697221
 10
7.5073097006
 20
1.7535426052
 10
7.5084632389
 20
1.7594316349
 10
7.5101753619
 20
1.7651802451
 10
7.5124295022
 20
1.7707356399
 10
7.5152043306
 20
1.7760472934
 10
7.5180038885
 20
1.7804069233
  0
LINE
  5
294
100
AcDbEntity
  8
0
100
AcDbLine
 62
7
  6
CONTINUOUS
 10
7.0227551475
 20
2.1358359727
 11
6.9890051475
 21
2.0773792579
  0
LINE
  5
295
100
AcDbEntity
  8
0
100
AcDbLine
 62
7
  6
CONTINUOUS
 10
7.6265051475
 20
1.9042926874
 11
7.5927551475
 21
1.8458359727
  0
ARC
  5
296
100
AcDbEntity
  8
0
100
AcDbCircle
 62
7
  6
CONTINUOUS
 10
5.0577551475
 20
5.6859359727
 40
2.46875
100
AcDbArc
 50
0.0
 51
180.0
  0
ARC
  5
297
100
AcDbEntity
  8
0
100
AcDbCircle
 62
7
  6
CONTINUOUS
 10
5.0577551475
 20
5.6859359727
 40
2.03125
100
AcDbArc
 50
0.0
 51
180.0
  0
ARC
  5
298
100
AcDbEntity
  8
0
100
AcDbCircle
 62
7
  6
CONTINUOUS
 10
2.99909972
 20
5.1234359727
 40
0.03
100
AcDbArc
 50
270.0
 51
354.8242890856
  0
ARC
  5
299
100
AcDbEntity
  8
0
100
AcDbCircle
 62
7
  6
CONTINUOUS
 10
2.6164105751
 20
5.1234359727
 40
0.03
100
AcDbArc
 50
185.1757109144
 51
270.0
  0
ARC
  5
29A
100
AcDbEntity
  8
0
100
AcDbCircle
 62
7
  6
CONTINUOUS
 10
3.0577551475
 20
5.4684359727
 40
0.03
100
AcDbArc
 50
270.0
 51
90.0
  0
ARC
  5
29B
100
AcDbEntity
  8
0
100
AcDbCircle
 62
7
  6
CONTINUOUS
 10
2.5577551475
 20
5.4684359727
 40
0.03
100
AcDbArc
 50
90.0
 51
270.0
  0
ARC
  5
29C
100
AcDbEntity
  8
0
100
AcDbCircle
 62
7
  6
CONTINUOUS
 10
6.4232747224
 20
1.3504426599
 40
0.3185070625
100
AcDbArc
 50
351.0470578797
 51
1.9617970082
  0
ARC
  5
29D
100
AcDbEntity
  8
0
100
AcDbCircle
 62
7
  6
CONTINUOUS
 10
6.4237831563
 20
1.35041163
 40
0.318
100
AcDbArc
 50
345.114464751
 51
351.0215473983
  0
ARC
  5
29E
100
AcDbEntity
  8
0
100
AcDbCircle
 62
7
  6
CONTINUOUS
 10
6.4237831563
 20
1.35041163
 40
0.318
100
AcDbArc
 50
1.970527392
 51
36.5482210649
  0
ARC
  5
29F
100
AcDbEntity
  8
0
100
AcDbCircle
 62
7
  6
CONTINUOUS
 10
6.3097831563
 20
1.3504140686
 40
0.318
100
AcDbArc
 50
143.4493276473
 51
194.8830839612
  0
ARC
  5
2A0
100
AcDbEntity
  8
0
100
AcDbCircle
 62
7
  6
CONTINUOUS
 10
5.8377735097
 20
0.899464111
 40
0.254
100
AcDbArc
 50
284.6656838882
 51
14.8830839612
  0
ARC
  5
2A1
100
AcDbEntity
  8
0
100
AcDbCircle
 62
7
  6
CONTINUOUS
 10
5.903699596
 20
1.651456245
 40
0.1875
100
AcDbArc
 50
323.4493276473
 51
359.9987743561
  0
ARC
  5
2A2
100
AcDbEntity
  8
0
100
AcDbCircle
 62
7
  6
CONTINUOUS
 10
5.9070172617
 20
0.6073824469
 40
0.0195
100
AcDbArc
 50
179.9987743561
 51
269.9987743561
  0
ARC
  5
2A3
100
AcDbEntity
  8
0
100
AcDbCircle
 62
7
  6
CONTINUOUS
 10
5.9070178498
 20
0.6348748607
 40
0.0195
100
AcDbArc
 50
104.6656838881
 51
179.9987743561
  0
ARC
  5
2A4
100
AcDbEntity
  8
0
100
AcDbCircle
 62
7
  6
CONTINUOUS
 10
5.8718113763
 20
1.9886092241
 40
0.2345
100
AcDbArc
 50
327.5935402047
 51
353.0751017558
  0
ARC
  5
2A5
100
AcDbEntity
  8
0
100
AcDbCircle
 62
7
  6
CONTINUOUS
 10
6.093542107
 20
1.8155859727
 40
0.04675
100
AcDbArc
 50
239.4678748052
 51
267.1309496916
  0
ARC
  5
2A6
100
AcDbEntity
  8
0
100
AcDbCircle
 62
7
  6
CONTINUOUS
 10
6.0026558938
 20
2.8898768804
 40
0.68
100
AcDbArc
 50
337.4255442891
 51
340.9862257999
  0
ARC
  5
2A7
100
AcDbEntity
  8
0
100
AcDbCircle
 62
7
  6
CONTINUOUS
 10
5.9977392618
 20
2.6666129669
 40
0.68
100
AcDbArc
 50
17.6982774827
 51
21.2739720086
  0
ARC
  5
2A8
100
AcDbEntity
  8
0
100
AcDbCircle
 62
7
  6
CONTINUOUS
 10
6.183042107
 20
2.3988359727
 40
0.025
100
AcDbArc
 50
90.0
 51
173.0751017558
  0
ARC
  5
2A9
100
AcDbEntity
  8
0
100
AcDbCircle
 62
7
  6
CONTINUOUS
 10
6.1730552842
 20
2.9812357992
 40
0.015
100
AcDbArc
 50
104.7630312681
 51
170.017644151
  0
ARC
  5
2AA
100
AcDbEntity
  8
0
100
AcDbCircle
 62
7
  6
CONTINUOUS
 10
6.3666448409
 20
2.2326586845
 40
0.78744192
100
AcDbArc
 50
88.6337568355
 51
89.9883255655
  0
ARC
  5
2AB
100
AcDbEntity
  8
0
100
AcDbCircle
 62
7
  6
CONTINUOUS
 10
6.3669251429
 20
2.2344869218
 40
0.7856136755
100
AcDbArc
 50
90.008741171
 51
91.1840891493
  0
ARC
  5
2AC
100
AcDbEntity
  8
0
100
AcDbCircle
 62
7
  6
CONTINUOUS
 10
6.366754256
 20
2.2417543685
 40
0.7789215149
100
AcDbArc
 50
88.6268596664
 51
89.9962446598
  0
ARC
  5
2AD
100
AcDbEntity
  8
0
100
AcDbCircle
 62
7
  6
CONTINUOUS
 10
6.3668300604
 20
2.2436191098
 40
0.7770567724
100
AcDbArc
 50
90.0018250331
 51
91.1901177838
  0
ARC
  5
2AE
100
AcDbEntity
  8
0
100
AcDbCircle
 62
7
  6
CONTINUOUS
 10
6.3668052842
 20
2.246000965
 40
0.7753350077
100
AcDbArc
 50
75.2369687319
 51
104.7630312681
  0
ARC
  5
2AF
100
AcDbEntity
  8
0
100
AcDbCircle
 62
7
  6
CONTINUOUS
 10
6.3668177826
 20
2.2457359533
 40
0.7750841734
100
AcDbArc
 50
92.2561281795
 51
93.1441871428
  0
ARC
  5
2B0
100
AcDbEntity
  8
0
100
AcDbCircle
 62
7
  6
CONTINUOUS
 10
6.3667984871
 20
2.2458606911
 40
0.7749593112
100
AcDbArc
 50
86.8927499449
 51
87.558939698
  0
ARC
  5
2B1
100
AcDbEntity
  8
0
100
AcDbCircle
 62
7
  6
CONTINUOUS
 10
6.3668354272
 20
2.2466220187
 40
0.7729343253
100
AcDbArc
 50
86.8873436727
 51
87.5552813371
  0
ARC
  5
2B2
100
AcDbEntity
  8
0
100
AcDbCircle
 62
7
  6
CONTINUOUS
 10
6.3667337253
 20
2.2415925343
 40
0.7727633579
100
AcDbArc
 50
88.1453861047
 51
89.9946949427
  0
ARC
  5
2B3
100
AcDbEntity
  8
0
100
AcDbCircle
 62
7
  6
CONTINUOUS
 10
6.3668589081
 20
2.2423291709
 40
0.7720267199
100
AcDbArc
 50
90.0039802909
 51
91.6694275971
  0
ARC
  5
2B4
100
AcDbEntity
  8
0
100
AcDbCircle
 62
7
  6
CONTINUOUS
 10
6.3668080647
 20
2.2460579145
 40
0.7689321183
100
AcDbArc
 50
86.869084636
 51
87.5405083038
  0
ARC
  5
2B5
100
AcDbEntity
  8
0
100
AcDbCircle
 62
7
  6
CONTINUOUS
 10
6.366800873
 20
2.2460937931
 40
0.7688962046
100
AcDbArc
 50
92.2730336461
 51
93.1682548818
  0
ARC
  5
2B6
100
AcDbEntity
  8
0
100
AcDbCircle
 62
7
  6
CONTINUOUS
 10
6.3668037501
 20
2.2450617756
 40
0.7667139582
100
AcDbArc
 50
87.7574423458
 51
92.0553740961
  0
ARC
  5
2B7
100
AcDbEntity
  8
0
100
AcDbCircle
 62
7
  6
CONTINUOUS
 10
6.3519052412
 20
2.2682754944
 40
0.7477833644
100
AcDbArc
 50
90.0459692051
 51
92.115211955
  0
ARC
  5
2B8
100
AcDbEntity
  8
0
100
AcDbCircle
 62
7
  6
CONTINUOUS
 10
6.3278085076
 20
2.4526851891
 40
0.5644815819
100
AcDbArc
 50
87.351312718
 51
88.4655983325
  0
CIRCLE
  5
2B9
100
AcDbEntity
  8
0
100
AcDbCircle
 62
7
  6
CONTINUOUS
 10
6.3668052842
 20
2.7708359727
 40
0.2344999982
  0
ARC
  5
2BA
100
AcDbEntity
  8
0
100
AcDbCircle
 62
7
  6
CONTINUOUS
 10
6.3940008658
 20
2.8041021202
 40
0.2162139443
100
AcDbArc
 50
100.6899971764
 51
101.3890000914
  0
CIRCLE
  5
2BB
100
AcDbEntity
  8
0
100
AcDbCircle
 62
7
  6
CONTINUOUS
 10
6.3668052842
 20
2.7708359727
 40
0.14075
  0
CIRCLE
  5
2BC
100
AcDbEntity
  8
0
100
AcDbCircle
 62
7
  6
CONTINUOUS
 10
6.3668052842
 20
2.7708359727
 40
0.13075
  0
CIRCLE
  5
2BD
100
AcDbEntity
  8
0
100
AcDbCircle
 62
7
  6
CONTINUOUS
 10
6.3668052842
 20
2.7708359727
 40
0.125
  0
ARC
  5
2BE
100
AcDbEntity
  8
0
100
AcDbCircle
 62
7
  6
CONTINUOUS
 10
6.550542107
 20
2.3988359727
 40
0.025
100
AcDbArc
 50
6.9248982442
 51
90.0
  0
ARC
  5
2BF
100
AcDbEntity
  8
0
100
AcDbCircle
 62
7
  6
CONTINUOUS
 10
6.5605552842
 20
2.9812357992
 40
0.015
100
AcDbArc
 50
9.982355849
 51
75.2369687319
  0
ARC
  5
2C0
100
AcDbEntity
  8
0
100
AcDbCircle
 62
7
  6
CONTINUOUS
 10
6.8957735095
 20
0.8994414787
 40
0.254
100
AcDbArc
 50
165.114464751
 51
255.331864824
  0
ARC
  5
2C1
100
AcDbEntity
  8
0
100
AcDbCircle
 62
7
  6
CONTINUOUS
 10
6.8298795958
 20
1.6514364326
 40
0.1875
100
AcDbArc
 50
179.9987743561
 51
216.5482210649
  0
ARC
  5
2C2
100
AcDbEntity
  8
0
100
AcDbCircle
 62
7
  6
CONTINUOUS
 10
6.8265178496
 20
0.6348551912
 40
0.0195
100
AcDbArc
 50
359.9987743561
 51
75.331864824
  0
ARC
  5
2C3
100
AcDbEntity
  8
0
100
AcDbCircle
 62
7
  6
CONTINUOUS
 10
6.8266012271
 20
0.6073359727
 40
0.0195
100
AcDbArc
 50
270.0
 51
360.0
  0
ARC
  5
2C4
100
AcDbEntity
  8
0
100
AcDbCircle
 62
7
  6
CONTINUOUS
 10
6.7309546746
 20
2.8898768804
 40
0.68
100
AcDbArc
 50
199.0137742001
 51
202.5744557109
  0
ARC
  5
2C5
100
AcDbEntity
  8
0
100
AcDbCircle
 62
7
  6
CONTINUOUS
 10
6.7358713066
 20
2.6666129669
 40
0.68
100
AcDbArc
 50
158.7260279914
 51
162.3017225173
  0
ARC
  5
2C6
100
AcDbEntity
  8
0
100
AcDbCircle
 62
7
  6
CONTINUOUS
 10
7.3077551475
 20
2.9118359727
 40
0.4035425
100
AcDbArc
 50
302.7960153474
 51
37.9493503895
  0
ARC
  5
2C7
100
AcDbEntity
  8
0
100
AcDbCircle
 62
7
  6
CONTINUOUS
 10
7.3077551475
 20
2.9118359727
 40
0.4035425
100
AcDbArc
 50
142.0506496105
 51
237.2039846526
  0
ARC
  5
2C8
100
AcDbEntity
  8
0
100
AcDbCircle
 62
7
  6
CONTINUOUS
 10
7.3077554045
 20
2.9118362158
 40
0.2433184561
100
AcDbArc
 50
333.9107790528
 51
206.0894558882
  0
ARC
  5
2C9
100
AcDbEntity
  8
0
100
AcDbCircle
 62
7
  6
CONTINUOUS
 10
6.8617728378
 20
1.9886092241
 40
0.2345
100
AcDbArc
 50
186.9248982442
 51
212.4064597953
  0
ARC
  5
2CA
100
AcDbEntity
  8
0
100
AcDbCircle
 62
7
  6
CONTINUOUS
 10
7.3077551475
 20
2.9118359727
 40
0.2185035
100
AcDbArc
 50
0.0
 51
180.0
  0
ARC
  5
2CB
100
AcDbEntity
  8
0
100
AcDbCircle
 62
7
  6
CONTINUOUS
 10
7.2202414172
 20
1.8666221703
 40
0.15
100
AcDbArc
 50
187.965375831
 51
213.4744255162
  0
ARC
  5
2CC
100
AcDbEntity
  8
0
100
AcDbCircle
 62
7
  6
CONTINUOUS
 10
7.3952414171
 20
1.8666184268
 40
0.15
100
AcDbArc
 50
324.9162128448
 51
352.0360680146
  0
ARC
  5
2CD
100
AcDbEntity
  8
0
100
AcDbCircle
 62
7
  6
CONTINUOUS
 10
6.640042107
 20
1.8155859727
 40
0.04675
100
AcDbArc
 50
272.8690533849
 51
300.5321251948
  0
ARC
  5
2CE
100
AcDbEntity
  8
0
100
AcDbCircle
 62
7
  6
CONTINUOUS
 10
7.1132134808
 20
3.8053359727
 40
0.5695416667
100
AcDbArc
 50
331.6112415984
 51
29.736562717
  0
ARC
  5
2CF
100
AcDbEntity
  8
0
100
AcDbCircle
 62
7
  6
CONTINUOUS
 10
7.5022968142
 20
3.8053359727
 40
0.5695416667
100
AcDbArc
 50
150.263437283
 51
208.3887584016
  0
ARC
  5
2D0
100
AcDbEntity
  8
0
100
AcDbCircle
 62
7
  6
CONTINUOUS
 10
7.6752551475
 20
3.1984356269
 40
0.0625
100
AcDbArc
 50
180.0
 51
217.9493503895
  0
ARC
  5
2D1
100
AcDbEntity
  8
0
100
AcDbCircle
 62
7
  6
CONTINUOUS
 10
6.9402551475
 20
3.1984356269
 40
0.0625
100
AcDbArc
 50
322.0506496105
 51
360.0
  0
ARC
  5
2D2
100
AcDbEntity
  8
0
100
AcDbCircle
 62
7
  6
CONTINUOUS
 10
7.5577551475
 20
4.1128359727
 40
0.05
100
AcDbArc
 50
0.0
 51
90.0
  0
ARC
  5
2D3
100
AcDbEntity
  8
0
100
AcDbCircle
 62
7
  6
CONTINUOUS
 10
7.0577551475
 20
4.1128359727
 40
0.05
100
AcDbArc
 50
90.0
 51
180.0
  0
ARC
  5
2D4
100
AcDbEntity
  8
0
100
AcDbCircle
 62
7
  6
CONTINUOUS
 10
7.6077551475
 20
3.4928359727
 40
0.03
100
AcDbArc
 50
270.0
 51
67.5029947619
  0
ARC
  5
2D5
100
AcDbEntity
  8
0
100
AcDbCircle
 62
7
  6
CONTINUOUS
 10
7.0077551475
 20
3.4928359727
 40
0.03
100
AcDbArc
 50
112.4970052381
 51
270.0
  0
ARC
  5
2D6
100
AcDbEntity
  8
0
100
AcDbCircle
 62
7
  6
CONTINUOUS
 10
7.6230605532
 20
3.529791954
 40
0.01
100
AcDbArc
 50
151.6112415984
 51
247.502994762
  0
ARC
  5
2D7
100
AcDbEntity
  8
0
100
AcDbCircle
 62
7
  6
CONTINUOUS
 10
6.9924497418
 20
3.529791954
 40
0.01
100
AcDbArc
 50
292.497005238
 51
28.3887584016
  0
ARC
  5
2D8
100
AcDbEntity
  8
0
100
AcDbCircle
 62
7
  6
CONTINUOUS
 10
7.6027551475
 20
3.4528359727
 40
0.01
100
AcDbArc
 50
0.0
 51
82.5
  0
ARC
  5
2D9
100
AcDbEntity
  8
0
100
AcDbCircle
 62
7
  6
CONTINUOUS
 10
7.0127551475
 20
3.4528359727
 40
0.01
100
AcDbArc
 50
97.5
 51
180.0
  0
SPLINE
  5
2DA
100
AcDbEntity
  8
0
100
AcDbSpline
 62
7
  6
CONTINUOUS
 70
0
 71
3
 72
20
 73
16
 74
0
 42
0.0000001
 43
0.0000001
 44
0.0000000001
 40
0.0
 40
0.0
 40
0.0
 40
0.0
 40
0.0189078035
 40
0.0405504821
 40
0.0659795616
 40
0.096349972
 40
0.1330001777
 40
0.1772946869
 40
0.2296483754
 40
0.2901532194
 40
0.3585586821
 40
0.4343591543
 40
0.6051389157
 40
0.7959899696
 40
1.0
 40
1.0
 40
1.0
 40
1.0
 10
6.9834652922
 20
1.5503888369
 30
0.0
 10
6.9849865919
 20
1.5503887777
 30
0.0
 10
6.9882524072
 20
1.5505676547
 30
0.0
 10
6.9934921744
 20
1.5514929536
 30
0.0
 10
6.9994757536
 20
1.5532757725
 30
0.0
 10
7.0063454864
 20
1.5561680908
 30
0.0
 10
7.0141686056
 20
1.5605651201
 30
0.0
 10
7.0229501933
 20
1.5667515293
 30
0.0
 10
7.0325530714
 20
1.5750078052
 30
0.0
 10
7.0426649601
 20
1.585546483
 30
0.0
 10
7.052978873
 20
1.5984155351
 30
0.0
 10
7.0670932635
 20
1.6194967544
 30
0.0
 10
7.0829493222
 20
1.6510942299
 30
0.0
 10
7.0972833496
 20
1.6944335827
 30
0.0
 10
7.1030854703
 20
1.7257851716
 30
0.0
 10
7.1050283256
 20
1.7420841937
 30
0.0
  0
SPLINE
  5
2DB
100
AcDbEntity
  8
0
100
AcDbSpline
 62
7
  6
CONTINUOUS
 70
0
 71
3
 72
23
 73
19
 74
0
 42
0.0000001
 43
0.0000001
 44
0.0000000001
 40
0.0
 40
0.0
 40
0.0
 40
0.0
 40
0.0595988547
 40
0.0894126773
 40
0.1192546839
 40
0.179043703
 40
0.2390455108
 40
0.2993488163
 40
0.3600469442
 40
0.4212411813
 40
0.4830120184
 40
0.5454331343
 40
0.6085468086
 40
0.6723688293
 40
0.7368732677
 40
0.8675653113
 40
0.9336670338
 40
1.0
 40
1.0
 40
1.0
 40
1.0
 10
6.9834497169
 20
1.1503888372
 30
0.0
 10
7.0008355282
 20
1.1503881602
 30
0.0
 10
7.0269524237
 20
1.1519400232
 30
0.0
 10
7.061375905
 20
1.1570619924
 30
0.0
 10
7.0954972275
 20
1.1642091919
 30
0.0
 10
7.137379352
 20
1.1768730703
 30
0.0
 10
7.1857100482
 20
1.1977423336
 30
0.0
 10
7.2316733915
 20
1.2239414701
 30
0.0
 10
7.2748602482
 20
1.2550860634
 30
0.0
 10
7.3149587136
 20
1.2907543253
 30
0.0
 10
7.3517096697
 20
1.3305403824
 30
0.0
 10
7.3849196852
 20
1.3740253356
 30
0.0
 10
7.4144247739
 20
1.4208056981
 30
0.0
 10
7.4400924509
 20
1.4704810292
 30
0.0
 10
7.4691621047
 20
1.5402950463
 30
0.0
 10
7.4899494014
 20
1.6140122889
 30
0.0
 10
7.5023352209
 20
1.6898113808
 30
0.0
 10
7.5057289809
 20
1.7283403696
 30
0.0
 10
7.5067149736
 20
1.7476654776
 30
0.0
  0
SPLINE
  5
2DC
100
AcDbEntity
  8
0
100
AcDbSpline
 62
7
  6
CONTINUOUS
 70
0
 71
3
 72
21
 73
17
 74
0
 42
0.0000001
 43
0.0000001
 44
0.0000000001
 40
0.0
 40
0.0
 40
0.0
 40
0.0
 40
0.0312193875
 40
0.0624468543
 40
0.0936864481
 40
0.1249356857
 40
0.187370263
 40
0.2498538632
 40
0.3123577493
 40
0.374869444
 40
0.4373850599
 40
0.4999025824
 40
0.6249154567
 40
0.749940327
 40
0.8749694865
 40
1.0
 40
1.0
 40
1.0
 40
1.0
 10
7.2033595657
 20
4.1128359727
 30
0.0
 10
7.2033595657
 20
4.1140791423
 30
0.0
 10
7.2036305048
 20
4.1165735208
 30
0.0
 10
7.2047903655
 20
4.1201425959
 30
0.0
 10
7.2065664755
 20
4.1234441954
 30
0.0
 10
7.2095578665
 20
4.1274366301
 30
0.0
 10
7.2141608133
 20
4.1316896023
 30
0.0
 10
7.2204123581
 20
4.1358024323
 30
0.0
 10
7.2270984833
 20
4.1391548197
 30
0.0
 10
7.2340493997
 20
4.1419036693
 30
0.0
 10
7.2411713199
 20
4.1441669621
 30
0.0
 10
7.2508174766
 20
4.1466508827
 30
0.0
 10
7.263068462
 20
4.1489259614
 30
0.0
 10
7.2779080949
 20
4.1506786223
 30
0.0
 10
7.2928175785
 20
4.1516574003
 30
0.0
 10
7.3027763779
 20
4.1518672102
 30
0.0
 10
7.3077551475
 20
4.1518672102
 30
0.0
  0
SPLINE
  5
2DD
100
AcDbEntity
  8
0
100
AcDbSpline
 62
7
  6
CONTINUOUS
 70
0
 71
3
 72
29
 73
25
 74
0
 42
0.0000001
 43
0.0000001
 44
0.0000000001
 40
0.0
 40
0.0
 40
0.0
 40
0.0
 40
0.0501378893
 40
0.095455381
 40
0.1352949302
 40
0.170879353
 40
0.203450348
 40
0.2339192467
 40
0.2908152125
 40
0.3447008844
 40
0.3970662489
 40
0.4486859995
 40
0.5000000045
 40
0.5513140079
 40
0.6029337616
 40
0.6552991359
 40
0.7091847811
 40
0.7660807261
 40
0.7965496114
 40
0.8291205928
 40
0.8647050269
 40
0.9045445874
 40
0.9498620855
 40
1.0
 40
1.0
 40
1.0
 40
1.0
 10
7.0119877118
 20
4.1128359727
 30
0.0
 10
7.0119877118
 20
4.115269959
 30
0.0
 10
7.0124773164
 20
4.1199194332
 30
0.0
 10
7.0144675871
 20
4.126218369
 30
0.0
 10
7.0172162125
 20
4.1314269808
 30
0.0
 10
7.0203687633
 20
4.1356389365
 30
0.0
 10
7.0237426679
 20
4.1390544623
 30
0.0
 10
7.0283061874
 20
4.1426877624
 30
0.0
 10
7.0342969104
 20
4.1461113437
 30
0.0
 10
7.0417370946
 20
4.1488965315
 30
0.0
 10
7.0492096364
 20
4.1506702099
 30
0.0
 10
7.0566950443
 20
4.1516561698
 30
0.0
 10
7.0641855035
 20
4.1519726543
 30
0.0
 10
7.0716759628
 20
4.1516561692
 30
0.0
 10
7.0791613713
 20
4.1506702108
 30
0.0
 10
7.0866339128
 20
4.1488965329
 30
0.0
 10
7.0940740941
 20
4.1461113428
 30
0.0
 10
7.1000648152
 20
4.1426877647
 30
0.0
 10
7.1046283335
 20
4.1390544666
 30
0.0
 10
7.108002237
 20
4.135638941
 30
0.0
 10
7.1111547903
 20
4.1314269866
 30
0.0
 10
7.1139034163
 20
4.1262183734
 30
0.0
 10
7.1158936887
 20
4.119919436
 30
0.0
 10
7.1163832936
 20
4.1152699602
 30
0.0
 10
7.1163832936
 20
4.1128359727
 30
0.0
  0
SPLINE
  5
2DE
100
AcDbEntity
  8
0
100
AcDbSpline
 62
7
  6
CONTINUOUS
 70
0
 71
3
 72
23
 73
19
 74
0
 42
0.0000001
 43
0.0000001
 44
0.0000000001
 40
0.0
 40
0.0
 40
0.0
 40
0.0
 40
0.0028813956
 40
0.0067695254
 40
0.0122460229
 40
0.019520787
 40
0.0286789857
 40
0.0397615217
 40
0.0527903638
 40
0.0677767424
 40
0.1036396971
 40
0.1473608102
 40
0.1989124269
 40
0.2582436071
 40
0.3999414409
 40
0.5716450364
 40
0.7721830484
 40
1.0
 40
1.0
 40
1.0
 40
1.0
 10
7.1050303591
 20
1.7420820178
 30
0.0
 10
7.1050246746
 20
1.742033297
 30
0.0
 10
7.1050611168
 20
1.7419137578
 30
0.0
 10
7.1052197463
 20
1.7417719971
 30
0.0
 10
7.1054662528
 20
1.7416315195
 30
0.0
 10
7.1058128536
 20
1.7414912173
 30
0.0
 10
7.10625955
 20
1.7413497206
 30
0.0
 10
7.1068081871
 20
1.7412081478
 30
0.0
 10
7.1074586959
 20
1.7410668291
 30
0.0
 10
7.108527804
 20
1.7408673765
 30
0.0
 10
7.1101203589
 20
1.7406286062
 30
0.0
 10
7.1123370662
 20
1.7403629643
 30
0.0
 10
7.1149567156
 20
1.7401075052
 30
0.0
 10
7.1192430139
 20
1.7397649886
 30
0.0
 10
7.1255785692
 20
1.7394018965
 30
0.0
 10
7.1343221738
 20
1.7390818231
 30
0.0
 10
7.1445357292
 20
1.738882674
 30
0.0
 10
7.1518279239
 20
1.738842421
 30
0.0
 10
7.1557061572
 20
1.7388423903
 30
0.0
  0
SPLINE
  5
2DF
100
AcDbEntity
  8
0
100
AcDbSpline
 62
7
  6
CONTINUOUS
 70
0
 71
3
 72
29
 73
25
 74
0
 42
0.0000001
 43
0.0000001
 44
0.0000000001
 40
0.0
 40
0.0
 40
0.0
 40
0.0
 40
0.0501378899
 40
0.0954553816
 40
0.1352949311
 40
0.170879354
 40
0.2034503488
 40
0.233919247
 40
0.2908152121
 40
0.3447008833
 40
0.3970662478
 40
0.448685998
 40
0.5000000028
 40
0.5513140063
 40
0.6029337602
 40
0.6552991348
 40
0.7091847801
 40
0.7660807249
 40
0.7965496101
 40
0.8291205914
 40
0.864705026
 40
0.9045445869
 40
0.9498620851
 40
1.0
 40
1.0
 40
1.0
 40
1.0
 10
7.4991270014
 20
4.1128359727
 30
0.0
 10
7.4991270014
 20
4.115269959
 30
0.0
 10
7.4996166061
 20
4.1199194333
 30
0.0
 10
7.5016068768
 20
4.1262183691
 30
0.0
 10
7.5043555022
 20
4.1314269809
 30
0.0
 10
7.5075080531
 20
4.1356389366
 30
0.0
 10
7.5108819576
 20
4.1390544623
 30
0.0
 10
7.515445477
 20
4.1426877625
 30
0.0
 10
7.5214362
 20
4.1461113436
 30
0.0
 10
7.5288763841
 20
4.1488965315
 30
0.0
 10
7.5363489258
 20
4.1506702099
 30
0.0
 10
7.5438343337
 20
4.1516561697
 30
0.0
 10
7.5513247929
 20
4.1519726543
 30
0.0
 10
7.5588152522
 20
4.1516561692
 30
0.0
 10
7.5663006608
 20
4.1506702108
 30
0.0
 10
7.5737732022
 20
4.1488965329
 30
0.0
 10
7.5812133836
 20
4.1461113429
 30
0.0
 10
7.5872041047
 20
4.1426877648
 30
0.0
 10
7.591767623
 20
4.1390544668
 30
0.0
 10
7.5951415265
 20
4.1356389411
 30
0.0
 10
7.5982940799
 20
4.1314269867
 30
0.0
 10
7.6010427059
 20
4.1262183735
 30
0.0
 10
7.6030329783
 20
4.1199194361
 30
0.0
 10
7.6035225832
 20
4.1152699602
 30
0.0
 10
7.6035225832
 20
4.1128359727
 30
0.0
  0
SPLINE
  5
2E0
100
AcDbEntity
  8
0
100
AcDbSpline
 62
7
  6
CONTINUOUS
 70
0
 71
3
 72
21
 73
17
 74
0
 42
0.0000001
 43
0.0000001
 44
0.0000000001
 40
0.0
 40
0.0
 40
0.0
 40
0.0
 40
0.1250306066
 40
0.2500597565
 40
0.3750844758
 40
0.5000972041
 40
0.5626146479
 40
0.6251302025
 40
0.6876418821
 40
0.7501457728
 40
0.8126294142
 40
0.8750640896
 40
0.9063133683
 40
0.9375530161
 40
0.968780523
 40
1.0
 40
1.0
 40
1.0
 40
1.0
 10
7.3077551475
 20
4.1518672102
 30
0.0
 10
7.3127339207
 20
4.1518672102
 30
0.0
 10
7.3226927234
 20
4.151657398
 30
0.0
 10
7.337602204
 20
4.1506786179
 30
0.0
 10
7.3524418245
 20
4.1489259586
 30
0.0
 10
7.3646927961
 20
4.1466508876
 30
0.0
 10
7.374338941
 20
4.1441669673
 30
0.0
 10
7.3814608559
 20
4.1419036785
 30
0.0
 10
7.3884117715
 20
4.1391548358
 30
0.0
 10
7.3950979035
 20
4.1358024584
 30
0.0
 10
7.4013494507
 20
4.1316896219
 30
0.0
 10
7.4059524087
 20
4.1274366518
 30
0.0
 10
7.4089438078
 20
4.1234442135
 30
0.0
 10
7.410719924
 20
4.1201426111
 30
0.0
 10
7.4118797881
 20
4.1165735294
 30
0.0
 10
7.4121507293
 20
4.1140791459
 30
0.0
 10
7.4121507293
 20
4.1128359727
 30
0.0
  0
LINE
  5
2E1
100
AcDbEntity
  8
0
100
AcDbLine
 62
7
  6
CONTINUOUS
 10
6.3869402981
 20
3.0209034585
 11
6.3668512271
 21
3.0210605769
  0
SPLINE
  5
2E2
100
AcDbEntity
  8
0
100
AcDbSpline
 62
7
  6
CONTINUOUS
 70
0
 71
3
 72
27
 73
23
 74
0
 42
0.0000001
 43
0.0000001
 44
0.0000000001
 40
0.0
 40
0.0
 40
0.0
 40
0.0
 40
0.0007478287
 40
0.0015271903
 40
0.002621668
 40
0.0041482818
 40
0.0061496013
 40
0.0086439838
 40
0.0151436634
 40
0.0236832903
 40
0.0342741244
 40
0.0469199287
 40
0.061619815
 40
0.0783703215
 40
0.097167023
 40
0.1408670454
 40
0.1926387547
 40
0.2523865758
 40
0.3953492606
 40
0.5686109209
 40
0.7707405173
 40
1.0
 40
1.0
 40
1.0
 40
1.0
 10
7.0951215902
 20
1.783887481
 30
0.0
 10
7.0951141185
 20
1.7838987954
 30
0.0
 10
7.0951040632
 20
1.7839276854
 30
0.0
 10
7.0951278106
 20
1.7839728544
 30
0.0
 10
7.0951773543
 20
1.7840103546
 30
0.0
 10
7.095252402
 20
1.7840482966
 30
0.0
 10
7.0953550274
 20
1.7840859908
 30
0.0
 10
7.0955465583
 20
1.7841416415
 30
0.0
 10
7.0958579269
 20
1.7842073724
 30
0.0
 10
7.0963166643
 20
1.7842817929
 30
0.0
 10
7.0968880898
 20
1.7843559569
 30
0.0
 10
7.0975719626
 20
1.7844297939
 30
0.0
 10
7.0983681455
 20
1.784502856
 30
0.0
 10
7.0992763308
 20
1.7845748815
 30
0.0
 10
7.1007097311
 20
1.7846741613
 30
0.0
 10
7.1027782668
 20
1.784791314
 30
0.0
 10
7.1055896263
 20
1.784919686
 30
0.0
 10
7.1102004804
 20
1.7850903941
 30
0.0
 10
7.117015038
 20
1.7852673953
 30
0.0
 10
7.1264120298
 20
1.7854219983
 30
0.0
 10
7.1373745207
 20
1.7855155396
 30
0.0
 10
7.1451959641
 20
1.7855354161
 30
0.0
 10
7.1493526202
 20
1.7855356658
 30
0.0
  0
SPLINE
  5
2E3
100
AcDbEntity
  8
0
100
AcDbSpline
 62
7
  6
CONTINUOUS
 70
0
 71
3
 72
19
 73
15
 74
0
 42
0.0000001
 43
0.0000001
 44
0.0000000001
 40
0.0
 40
0.0
 40
0.0
 40
0.0
 40
0.02856632
 40
0.0594330661
 40
0.0937370468
 40
0.132284119
 40
0.1756089434
 40
0.2240492464
 40
0.2778045211
 40
0.3369766764
 40
0.4716089327
 40
0.6276533231
 40
0.8042104248
 40
1.0
 40
1.0
 40
1.0
 40
1.0
 10
6.7313223489
 20
1.2696469135
 30
0.0
 10
6.7315117685
 20
1.2701999501
 30
0.0
 10
6.7320519678
 20
1.2713041994
 30
0.0
 10
6.7332564266
 20
1.272812237
 30
0.0
 10
6.7348610054
 20
1.2742153519
 30
0.0
 10
6.7368585817
 20
1.2755156331
 30
0.0
 10
6.7392452655
 20
1.2767148391
 30
0.0
 10
6.7420168776
 20
1.2778123011
 30
0.0
 10
6.7451682131
 20
1.2788066594
 30
0.0
 10
6.7500828456
 20
1.2800453359
 30
0.0
 10
6.757146124
 20
1.2812704089
 30
0.0
 10
6.7666620504
 20
1.2822511924
 30
0.0
 10
6.7774659651
 20
1.2827845712
 30
0.0
 10
6.785087586
 20
1.2828348732
 30
0.0
 10
6.7890939733
 20
1.2827933234
 30
0.0
  0
SPLINE
  5
2E4
100
AcDbEntity
  8
0
100
AcDbSpline
 62
7
  6
CONTINUOUS
 70
0
 71
3
 72
9
 73
5
 74
0
 42
0.0000001
 43
0.0000001
 44
0.0000000001
 40
0.0
 40
0.0
 40
0.0
 40
0.0
 40
0.2415742566
 40
1.0
 40
1.0
 40
1.0
 40
1.0
 10
6.695216806
 20
1.5158050411
 30
0.0
 10
6.6962020384
 20
1.5156467382
 30
0.0
 10
6.7003042616
 20
1.5151422564
 30
0.0
 10
6.7044710569
 20
1.5152323831
 30
0.0
 10
6.7075852846
 20
1.5155732233
 30
0.0
  0
SPLINE
  5
2E5
100
AcDbEntity
  8
0
100
AcDbSpline
 62
7
  6
CONTINUOUS
 70
0
 71
3
 72
33
 73
29
 74
0
 42
0.0000001
 43
0.0000001
 44
0.0000000001
 40
0.0
 40
0.0
 40
0.0
 40
0.0
 40
0.0311754967
 40
0.0627555809
 40
0.0949864891
 40
0.1282248017
 40
0.1453765308
 40
0.1628083616
 40
0.1803467588
 40
0.1977606252
 40
0.2148855712
 40
0.2316731579
 40
0.2481502214
 40
0.2643691886
 40
0.2962102175
 40
0.3275482747
 40
0.3585706085
 40
0.3893907156
 40
0.4506586782
 40
0.5116900838
 40
0.5726141873
 40
0.6334915904
 40
0.6943545887
 40
0.7552270179
 40
0.8161382781
 40
0.8771412414
 40
0.9383461994
 40
1.0
 40
1.0
 40
1.0
 40
1.0
 10
6.1410404676
 20
1.844346282
 30
0.0
 10
6.138751306
 20
1.8433718909
 30
0.0
 10
6.134225189
 20
1.8412069276
 30
0.0
 10
6.1277870493
 20
1.8371638558
 30
0.0
 10
6.1219148113
 20
1.8320552447
 30
0.0
 10
6.117969867
 20
1.8266568778
 30
0.0
 10
6.1159031533
 20
1.821625438
 30
0.0
 10
6.1150723635
 20
1.8175205609
 30
0.0
 10
6.1151087995
 20
1.8133090245
 30
0.0
 10
6.1160057331
 20
1.809222488
 30
0.0
 10
6.1176250219
 20
1.8054374245
 30
0.0
 10
6.1197850737
 20
1.8020286466
 30
0.0
 10
6.1223297911
 20
1.7989962372
 30
0.0
 10
6.1260609182
 20
1.7954343195
 30
0.0
 10
6.1312200689
 20
1.7917059617
 30
0.0
 10
6.1378488788
 20
1.7881304136
 30
0.0
 10
6.1447173623
 20
1.785256005
 30
0.0
 10
6.1540509255
 20
1.782166337
 30
0.0
 10
6.1659746201
 20
1.7793884027
 30
0.0
 10
6.1804474316
 20
1.7772394534
 30
0.0
 10
6.1949877001
 20
1.7759498249
 30
0.0
 10
6.2095555564
 20
1.775324495
 30
0.0
 10
6.2241320752
 20
1.7752696485
 30
0.0
 10
6.2387030577
 20
1.7757770044
 30
0.0
 10
6.2532503482
 20
1.7769227138
 30
0.0
 10
6.2677434143
 20
1.7788795474
 30
0.0
 10
6.2821073959
 20
1.7819466727
 30
0.0
 10
6.2914487509
 20
1.7850548157
 30
0.0
 10
6.2959653338
 20
1.7870063987
 30
0.0
  0
SPLINE
  5
2E6
100
AcDbEntity
  8
0
100
AcDbSpline
 62
7
  6
CONTINUOUS
 70
0
 71
3
 72
33
 73
29
 74
0
 42
0.0000001
 43
0.0000001
 44
0.0000000001
 40
0.0
 40
0.0
 40
0.0
 40
0.0
 40
0.0311754967
 40
0.0627555808
 40
0.0949864887
 40
0.1282248008
 40
0.1453765297
 40
0.1628083602
 40
0.1803467574
 40
0.1977606242
 40
0.2148855705
 40
0.2316731577
 40
0.2481502216
 40
0.2643691892
 40
0.2962102186
 40
0.3275482761
 40
0.3585706101
 40
0.3893907174
 40
0.4506586802
 40
0.5116900859
 40
0.5726141894
 40
0.6334915925
 40
0.6943545907
 40
0.7552270198
 40
0.8161382799
 40
0.877141243
 40
0.9383462005
 40
1.0
 40
1.0
 40
1.0
 40
1.0
 10
6.4380404676
 20
1.844346282
 30
0.0
 10
6.4357513063
 20
1.843371891
 30
0.0
 10
6.4312251897
 20
1.8412069279
 30
0.0
 10
6.4247870506
 20
1.8371638567
 30
0.0
 10
6.4189148131
 20
1.8320552464
 30
0.0
 10
6.4149698687
 20
1.8266568806
 30
0.0
 10
6.4129031544
 20
1.8216254416
 30
0.0
 10
6.412072364
 20
1.8175205652
 30
0.0
 10
6.412108799
 20
1.8133090292
 30
0.0
 10
6.4130057315
 20
1.8092224929
 30
0.0
 10
6.4146250194
 20
1.8054374293
 30
0.0
 10
6.4167850703
 20
1.8020286512
 30
0.0
 10
6.4193297869
 20
1.7989962416
 30
0.0
 10
6.4230609132
 20
1.7954343236
 30
0.0
 10
6.428220063
 20
1.7917059655
 30
0.0
 10
6.4348488718
 20
1.788130417
 30
0.0
 10
6.4417173544
 20
1.7852560079
 30
0.0
 10
6.4510509165
 20
1.7821663394
 30
0.0
 10
6.4629746097
 20
1.7793884047
 30
0.0
 10
6.4774474196
 20
1.7772394548
 30
0.0
 10
6.4919876866
 20
1.7759498257
 30
0.0
 10
6.5065555414
 20
1.7753244953
 30
0.0
 10
6.5211320586
 20
1.7752696482
 30
0.0
 10
6.5357030397
 20
1.7757770034
 30
0.0
 10
6.5502503287
 20
1.7769227118
 30
0.0
 10
6.5647433935
 20
1.7788795439
 30
0.0
 10
6.5791073738
 20
1.7819466669
 30
0.0
 10
6.5884487283
 20
1.7850548075
 30
0.0
 10
6.5929653113
 20
1.787006389
 30
0.0
  0
SPLINE
  5
2E7
100
AcDbEntity
  8
0
100
AcDbSpline
 62
7
  6
CONTINUOUS
 70
0
 71
3
 72
15
 73
11
 74
0
 42
0.0000001
 43
0.0000001
 44
0.0000000001
 40
0.0
 40
0.0
 40
0.0
 40
0.0
 40
0.1261044761
 40
0.2514484744
 40
0.37599497
 40
0.4999999891
 40
0.6240049903
 40
0.7485515295
 40
0.8738955409
 40
1.0
 40
1.0
 40
1.0
 40
1.0
 10
6.4380404676
 20
1.844346282
 30
0.0
 10
6.4442273211
 20
1.846979742
 30
0.0
 10
6.4566921431
 20
1.8519417747
 30
0.0
 10
6.4758360504
 20
1.8579794088
 30
0.0
 10
6.4954125838
 20
1.8619893152
 30
0.0
 10
6.5152921043
 20
1.8634075894
 30
0.0
 10
6.5351716273
 20
1.861989316
 30
0.0
 10
6.5547481627
 20
1.8579794088
 30
0.0
 10
6.5738920722
 20
1.8519417747
 30
0.0
 10
6.5863568938
 20
1.8469797417
 30
0.0
 10
6.5925437465
 20
1.844346282
 30
0.0
  0
SPLINE
  5
2E8
100
AcDbEntity
  8
0
100
AcDbSpline
 62
7
  6
CONTINUOUS
 70
0
 71
3
 72
15
 73
11
 74
0
 42
0.0000001
 43
0.0000001
 44
0.0000000001
 40
0.0
 40
0.0
 40
0.0
 40
0.0
 40
0.1261044573
 40
0.2514484678
 40
0.3759950074
 40
0.5000000108
 40
0.6240050321
 40
0.7485515284
 40
0.8738955258
 40
1.0
 40
1.0
 40
1.0
 40
1.0
 10
6.1410404676
 20
1.844346282
 30
0.0
 10
6.1472273202
 20
1.8469797416
 30
0.0
 10
6.1596921417
 20
1.8519417747
 30
0.0
 10
6.178836051
 20
1.8579794086
 30
0.0
 10
6.1984125866
 20
1.861989316
 30
0.0
 10
6.2182921097
 20
1.8634075895
 30
0.0
 10
6.2381716305
 20
1.8619893152
 30
0.0
 10
6.2577481641
 20
1.8579794086
 30
0.0
 10
6.2768920712
 20
1.8519417746
 30
0.0
 10
6.289356893
 20
1.846979742
 30
0.0
 10
6.2955437465
 20
1.844346282
 30
0.0
  0
SPLINE
  5
2E9
100
AcDbEntity
  8
0
100
AcDbSpline
 62
7
  6
CONTINUOUS
 70
0
 71
3
 72
15
 73
11
 74
0
 42
0.0000001
 43
0.0000001
 44
0.0000000001
 40
0.0
 40
0.0
 40
0.0
 40
0.0
 40
0.4083586149
 40
0.5790108365
 40
0.7226422815
 40
0.8369261154
 40
0.9199956111
 40
0.9499898795
 40
0.9727910314
 40
1.0
 40
1.0
 40
1.0
 40
1.0
 10
6.3429083106
 20
3.0174618652
 30
0.0
 10
6.3419063213
 20
3.0174892075
 30
0.0
 10
6.3404858275
 20
3.0175438882
 30
0.0
 10
6.3387159978
 20
3.0176664806
 30
0.0
 10
6.337668981
 20
3.0177673509
 30
0.0
 10
6.3368386799
 20
3.0178812567
 30
0.0
 10
6.3362925461
 20
3.0179904219
 30
0.0
 10
6.3359715575
 20
3.0180937192
 30
0.0
 10
6.335798068
 20
3.0181708968
 30
0.0
 10
6.3356819275
 20
3.0182561232
 30
0.0
 10
6.3356705283
 20
3.0183219307
 30
0.0
  0
SPLINE
  5
2EA
100
AcDbEntity
  8
0
100
AcDbSpline
 62
7
  6
CONTINUOUS
 70
0
 71
3
 72
19
 73
15
 74
0
 42
0.0000001
 43
0.0000001
 44
0.0000000001
 40
0.0
 40
0.0
 40
0.0
 40
0.0
 40
0.0078472461
 40
0.0146312772
 40
0.023582282
 40
0.0481371006
 40
0.081570986
 40
0.1237452894
 40
0.1743001269
 40
0.2982870963
 40
0.4488409932
 40
0.6204414269
 40
0.806803307
 40
1.0
 40
1.0
 40
1.0
 40
1.0
 10
6.3356705283
 20
3.0191732423
 30
0.0
 10
6.3356702162
 20
3.0192128299
 30
0.0
 10
6.3357400228
 20
3.0192706769
 30
0.0
 10
6.3358419816
 20
3.019320715
 30
0.0
 10
6.3360350703
 20
3.019392961
 30
0.0
 10
6.3363613681
 20
3.0194752551
 30
0.0
 10
6.3368584001
 20
3.0195710521
 30
0.0
 10
6.3374876613
 20
3.0196657466
 30
0.0
 10
6.338572881
 20
3.019800163
 30
0.0
 10
6.3402060092
 20
3.0199535297
 30
0.0
 10
6.3424512097
 20
3.0201132951
 30
0.0
 10
6.3450130541
 20
3.0202510017
 30
0.0
 10
6.3477915746
 20
3.0203595016
 30
0.0
 10
6.3497057719
 20
3.0204111633
 30
0.0
 10
6.3506802078
 20
3.0204322551
 30
0.0
  0
SPLINE
  5
2EB
100
AcDbEntity
  8
0
100
AcDbSpline
 62
7
  6
CONTINUOUS
 70
0
 71
3
 72
11
 73
7
 74
0
 42
0.0000001
 43
0.0000001
 44
0.0000000001
 40
0.0
 40
0.0
 40
0.0
 40
0.0
 40
0.3052778684
 40
0.5877651782
 40
0.8245359916
 40
1.0
 40
1.0
 40
1.0
 40
1.0
 10
6.3443530629
 20
3.014523809
 30
0.0
 10
6.3435304256
 20
3.0145006495
 30
0.0
 10
6.3419458322
 20
3.0144794548
 30
0.0
 10
6.3397227875
 20
3.0145243732
 30
0.0
 10
6.3378536169
 20
3.0146453734
 30
0.0
 10
6.3367491856
 20
3.0147868666
 30
0.0
 10
6.3362856026
 20
3.0148808462
 30
0.0
  0
LINE
  5
2EC
100
AcDbEntity
  8
0
100
AcDbLine
 62
7
  6
CONTINUOUS
 10
6.4088052842
 20
3.0196806721
 11
6.4088052842
 21
3.0184160342
  0
LINE
  5
2ED
100
AcDbEntity
  8
0
100
AcDbLine
 62
7
  6
CONTINUOUS
 10
6.3243052842
 20
3.0155493414
 11
6.3243052842
 21
3.019653367
  0
SPLINE
  5
2EE
100
AcDbEntity
  8
0
100
AcDbSpline
 62
7
  6
CONTINUOUS
 70
0
 71
3
 72
31
 73
27
 74
0
 42
0.0000001
 43
0.0000001
 44
0.0000000001
 40
0.0
 40
0.0
 40
0.0
 40
0.0
 40
0.0249095657
 40
0.0501064638
 40
0.0758588228
 40
0.1023965436
 40
0.1299014876
 40
0.1585019599
 40
0.2191637635
 40
0.2512996787
 40
0.2845445917
 40
0.3538949273
 40
0.4261767833
 40
0.4999967478
 40
0.5738169201
 40
0.6460993808
 40
0.7154506596
 40
0.7486961401
 40
0.7808326658
 40
0.8414957413
 40
0.8700968215
 40
0.8976023196
 40
0.9241405116
 40
0.9498932315
 40
0.9750903567
 40
1.0
 40
1.0
 40
1.0
 40
1.0
 10
6.9834617828
 20
1.550388837
 30
0.0
 10
6.9878600673
 20
1.550388837
 30
0.0
 10
6.9967207315
 20
1.5497369487
 30
0.0
 10
7.0098383931
 20
1.5468208836
 30
0.0
 10
7.0226888838
 20
1.5419993915
 30
0.0
 10
7.0351418563
 20
1.5353270216
 30
0.0
 10
7.0470806141
 20
1.5268743814
 30
0.0
 10
7.0624566534
 20
1.5130839766
 30
0.0
 10
7.0760048044
 20
1.496259867
 30
0.0
 10
7.0875503777
 20
1.4772143137
 30
0.0
 10
7.0981364364
 20
1.455880099
 30
0.0
 10
7.1084953346
 20
1.4266567078
 30
0.0
 10
7.1160270982
 20
1.3892502622
 30
0.0
 10
7.1185689088
 20
1.3503887818
 30
0.0
 10
7.1160254214
 20
1.3115273051
 30
0.0
 10
7.1084920451
 20
1.2741208707
 30
0.0
 10
7.0981319023
 20
1.2448975303
 30
0.0
 10
7.0875449437
 20
1.2235633458
 30
0.0
 10
7.0759985489
 20
1.2045177856
 30
0.0
 10
7.0624496895
 20
1.1876936954
 30
0.0
 10
7.0470730697
 20
1.173903298
 30
0.0
 10
7.0351339584
 20
1.1654506618
 30
0.0
 10
7.0226807097
 20
1.1587782936
 30
0.0
 10
7.0098300216
 20
1.1539568005
 30
0.0
 10
6.9967122419
 20
1.1510407313
 30
0.0
 10
6.9878515244
 20
1.1503888371
 30
0.0
 10
6.9834532262
 20
1.1503888371
 30
0.0
  0
SPLINE
  5
2EF
100
AcDbEntity
  8
0
100
AcDbSpline
 62
7
  6
CONTINUOUS
 70
0
 71
3
 72
10
 73
6
 74
0
 42
0.0000001
 43
0.0000001
 44
0.0000000001
 40
0.0
 40
0.0
 40
0.0
 40
0.0
 40
0.230106521
 40
0.5947930265
 40
1.0
 40
1.0
 40
1.0
 40
1.0
 10
6.6782030871
 20
1.5413092548
 30
0.0
 10
6.679532328
 20
1.5404222924
 30
0.0
 10
6.6828754746
 20
1.5379887871
 30
0.0
 10
6.6881400438
 20
1.5334490083
 30
0.0
 10
6.6920003271
 20
1.5297494457
 30
0.0
 10
6.6940317345
 20
1.527802155
 30
0.0
  0
SPLINE
  5
2F0
100
AcDbEntity
  8
0
100
AcDbSpline
 62
7
  6
CONTINUOUS
 70
0
 71
3
 72
9
 73
5
 74
0
 42
0.0000001
 43
0.0000001
 44
0.0000000001
 40
0.0
 40
0.0
 40
0.0
 40
0.0
 40
0.4630132216
 40
1.0
 40
1.0
 40
1.0
 40
1.0
 10
6.6940317345
 20
1.527802155
 30
0.0
 10
6.6960661124
 20
1.5258520167
 30
0.0
 10
6.7004588202
 20
1.5216394177
 30
0.0
 10
6.705038302
 20
1.5176213826
 30
0.0
 10
6.7075852846
 20
1.5155732233
 30
0.0
  0
SPLINE
  5
2F1
100
AcDbEntity
  8
0
100
AcDbSpline
 62
7
  6
CONTINUOUS
 70
0
 71
3
 72
23
 73
19
 74
0
 42
0.0000001
 43
0.0000001
 44
0.0000000001
 40
0.0
 40
0.0
 40
0.0
 40
0.0
 40
0.0848467377
 40
0.1659171975
 40
0.2427163648
 40
0.3151068199
 40
0.3832442516
 40
0.4474436938
 40
0.5081080689
 40
0.5657140245
 40
0.6208315387
 40
0.6741360287
 40
0.7264027989
 40
0.7784714764
 40
0.8311794367
 40
0.8852840875
 40
0.9414036327
 40
1.0
 40
1.0
 40
1.0
 40
1.0
 10
6.7890939733
 20
1.2827933234
 30
0.0
 10
6.7878759989
 20
1.2779787513
 30
0.0
 10
6.7856286771
 20
1.2685300159
 30
0.0
 10
6.7825099713
 20
1.2546699935
 30
0.0
 10
6.7795659766
 20
1.2415178757
 30
0.0
 10
6.7766463841
 20
1.2291362083
 30
0.0
 10
6.7735805012
 20
1.217549461
 30
0.0
 10
6.7702077356
 20
1.2067624515
 30
0.0
 10
6.7663842548
 20
1.196780183
 30
0.0
 10
6.7619854634
 20
1.1876186838
 30
0.0
 10
6.7569046166
 20
1.1793115946
 30
0.0
 10
6.751058926
 20
1.1719108583
 30
0.0
 10
6.7443964918
 20
1.1654835203
 30
0.0
 10
6.7369023735
 20
1.1601034141
 30
0.0
 10
6.7286000197
 20
1.1558394559
 30
0.0
 10
6.7195448315
 20
1.1527459894
 30
0.0
 10
6.7098168615
 20
1.1508588478
 30
0.0
 10
6.7030966981
 20
1.1504273364
 30
0.0
 10
6.6996670313
 20
1.1504023218
 30
0.0
  0
SPLINE
  5
2F2
100
AcDbEntity
  8
0
100
AcDbSpline
 62
7
  6
CONTINUOUS
 70
0
 71
3
 72
15
 73
11
 74
0
 42
0.0000001
 43
0.0000001
 44
0.0000000001
 40
0.0
 40
0.0
 40
0.0
 40
0.0
 40
0.1164185164
 40
0.2376976377
 40
0.3625282296
 40
0.4897020044
 40
0.6180707316
 40
0.7465475657
 40
0.8741344231
 40
1.0
 40
1.0
 40
1.0
 40
1.0
 10
6.7075852846
 20
1.5155732233
 30
0.0
 10
6.7154347799
 20
1.5092614472
 30
0.0
 10
6.7305358819
 20
1.4951865582
 30
0.0
 10
6.7504688173
 20
1.4708582938
 30
0.0
 10
6.7675492618
 20
1.4433381267
 30
0.0
 10
6.7811242697
 20
1.4132523399
 30
0.0
 10
6.7906014983
 20
1.3812968831
 30
0.0
 10
6.7954627308
 20
1.3482720166
 30
0.0
 10
6.7953415984
 20
1.3151040227
 30
0.0
 10
6.7917657574
 20
1.2933502184
 30
0.0
 10
6.7890939733
 20
1.2827933234
 30
0.0
  0
LINE
  5
2F3
100
AcDbEntity
  8
0
100
AcDbLine
 62
7
  6
CONTINUOUS
 10
6.3668512271
 20
3.0210605769
 11
6.3465397014
 21
3.0209005654
  0
SPLINE
  5
2F4
100
AcDbEntity
  8
0
100
AcDbSpline
 62
7
  6
CONTINUOUS
 70
0
 71
3
 72
42
 73
38
 74
0
 42
0.0000001
 43
0.0000001
 44
0.0000000001
 40
0.0
 40
0.0
 40
0.0
 40
0.0
 40
0.0626143555
 40
0.1336599152
 40
0.2113153944
 40
0.293678267
 40
0.3788466504
 40
0.4649345222
 40
0.5500686279
 40
0.632395905
 40
0.7101076535
 40
0.746688392
 40
0.7814757392
 40
0.8142730739
 40
0.8448940252
 40
0.8731637054
 40
0.8989199234
 40
0.9220141936
 40
0.9423128562
 40
0.9513762931
 40
0.9596978862
 40
0.9672653568
 40
0.9740677329
 40
0.9800949203
 40
0.9853381339
 40
0.9897895292
 40
0.9934426475
 40
0.9949680793
 40
0.9962920695
 40
0.9974141532
 40
0.998333915
 40
0.999051178
 40
0.9995660594
 40
0.9997478248
 40
0.9998794784
 40
0.9999619374
 40
1.0
 40
1.0
 40
1.0
 40
1.0
 10
7.1557061572
 20
1.7388423903
 30
0.0
 10
7.1630348354
 20
1.7388424628
 30
0.0
 10
7.1786790212
 20
1.7390027086
 30
0.0
 10
7.2034062574
 20
1.7395642234
 30
0.0
 10
7.230439248
 20
1.7403671991
 30
0.0
 10
7.259122139
 20
1.7412919576
 30
0.0
 10
7.2887917601
 20
1.7422405709
 30
0.0
 10
7.318787269
 20
1.7431455049
 30
0.0
 10
7.3484524878
 20
1.7439683
 30
0.0
 10
7.3771395574
 20
1.7446937612
 30
0.0
 10
7.400146724
 20
1.7452257005
 30
0.0
 10
7.4175915511
 20
1.7456075226
 30
0.0
 10
7.4297808436
 20
1.7458649753
 30
0.0
 10
7.4412728475
 20
1.7461020415
 30
0.0
 10
7.4520022412
 20
1.7463191641
 30
0.0
 10
7.4619077231
 20
1.7465173776
 30
0.0
 10
7.4709324054
 20
1.7466988528
 30
0.0
 10
7.47902427
 20
1.7468636017
 30
0.0
 10
7.4851626486
 20
1.7469929364
 30
0.0
 10
7.4895722558
 20
1.7470900638
 30
0.0
 10
7.4924920543
 20
1.7471566769
 30
0.0
 10
7.4951472143
 20
1.7472199248
 30
0.0
 10
7.4975338234
 20
1.7472800275
 30
0.0
 10
7.4996483762
 20
1.7473371401
 30
0.0
 10
7.5014877378
 20
1.7473912054
 30
0.0
 10
7.5030491859
 20
1.7474422479
 30
0.0
 10
7.5041755436
 20
1.7474843889
 30
0.0
 10
7.5049359102
 20
1.747517456
 30
0.0
 10
7.5054002193
 20
1.7475400444
 30
0.0
 10
7.5057935347
 20
1.747561909
 30
0.0
 10
7.5061158862
 20
1.7475830374
 30
0.0
 10
7.506366707
 20
1.747603259
 30
0.0
 10
7.5065318161
 20
1.7476208079
 30
0.0
 10
7.5066270566
 20
1.7476349974
 30
0.0
 10
7.5066735602
 20
1.7476448286
 30
0.0
 10
7.5066998316
 20
1.7476523189
 30
0.0
 10
7.5067147682
 20
1.7476610909
 30
0.0
 10
7.5067150005
 20
1.7476655399
 30
0.0
  0
SPLINE
  5
2F5
100
AcDbEntity
  8
0
100
AcDbSpline
 62
7
  6
CONTINUOUS
 70
0
 71
3
 72
40
 73
36
 74
0
 42
0.0000001
 43
0.0000001
 44
0.0000000001
 40
0.0
 40
0.0
 40
0.0
 40
0.0
 40
0.0626453082
 40
0.1335785038
 40
0.2111332004
 40
0.2935051119
 40
0.3788087809
 40
0.4651176509
 40
0.5504990813
 40
0.6330471734
 40
0.7109177123
 40
0.7475484949
 40
0.7823650128
 40
0.8151701483
 40
0.8457794027
 40
0.8740174934
 40
0.8997250176
 40
0.9227549089
 40
0.9429745804
 40
0.951994521
 40
0.9602697579
 40
0.9677880264
 40
0.9745388905
 40
0.9805127817
 40
0.9857012105
 40
0.9900964177
 40
0.9936916118
 40
0.995187449
 40
0.9964815492
 40
0.9975735365
 40
0.9984630609
 40
0.9991498813
 40
0.9996339059
 40
0.999915499
 40
1.0
 40
1.0
 40
1.0
 40
1.0
 10
7.1493526202
 20
1.7855356658
 30
0.0
 10
7.1570512854
 20
1.785535075
 30
0.0
 10
7.1734671433
 20
1.7854630202
 30
0.0
 10
7.1994126694
 20
1.7852010451
 30
0.0
 10
7.2277810999
 20
1.7848139879
 30
0.0
 10
7.2579145849
 20
1.7843491716
 30
0.0
 10
7.2891234628
 20
1.783848575
 30
0.0
 10
7.3207022364
 20
1.7833479501
 30
0.0
 10
7.3519426897
 20
1.7828704434
 30
0.0
 10
7.3821465775
 20
1.7824305186
 30
0.0
 10
7.4063602287
 20
1.782094638
 30
0.0
 10
7.4247086696
 20
1.7818474128
 30
0.0
 10
7.437519433
 20
1.7816777451
 30
0.0
 10
7.4495902632
 20
1.7815182631
 30
0.0
 10
7.4608527478
 20
1.7813714414
 30
0.0
 10
7.4712430319
 20
1.7812338244
 30
0.0
 10
7.4807019307
 20
1.7811072802
 30
0.0
 10
7.4891754711
 20
1.7809909666
 30
0.0
 10
7.4955983467
 20
1.7808976767
 30
0.0
 10
7.5002081299
 20
1.7808280069
 30
0.0
 10
7.5032571471
 20
1.7807798523
 30
0.0
 10
7.5060273033
 20
1.780733531
 30
0.0
 10
7.5085146369
 20
1.7806892976
 30
0.0
 10
7.5107156342
 20
1.7806472705
 30
0.0
 10
7.5126271489
 20
1.7806074732
 30
0.0
 10
7.5142462478
 20
1.7805698525
 30
0.0
 10
7.5154117452
 20
1.7805384412
 30
0.0
 10
7.516195838
 20
1.7805135452
 30
0.0
 10
7.5166730624
 20
1.7804964653
 30
0.0
 10
7.5170739204
 20
1.7804801405
 30
0.0
 10
7.5174051898
 20
1.7804639223
 30
0.0
 10
7.5176484984
 20
1.7804498671
 30
0.0
 10
7.5178474151
 20
1.7804334402
 30
0.0
 10
7.5179158093
 20
1.7804247844
 30
0.0
 10
7.5179941855
 20
1.7804108276
 30
0.0
 10
7.517988233
 20
1.7804023184
 30
0.0
  0
SPLINE
  5
2F6
100
AcDbEntity
  8
0
100
AcDbSpline
 62
7
  6
CONTINUOUS
 70
0
 71
3
 72
23
 73
19
 74
0
 42
0.0000001
 43
0.0000001
 44
0.0000000001
 40
0.0
 40
0.0
 40
0.0
 40
0.0
 40
0.0722558147
 40
0.1418644583
 40
0.2085666479
 40
0.272188191
 40
0.3327106338
 40
0.3903826005
 40
0.4458149397
 40
0.5000000001
 40
0.5541850606
 40
0.6096173997
 40
0.6672893663
 40
0.727811809
 40
0.7914333521
 40
0.8581355417
 40
0.9277441854
 40
1.0
 40
1.0
 40
1.0
 40
1.0
 10
7.1084087223
 20
1.9042926874
 30
0.0
 10
7.1062700425
 20
1.9016028995
 30
0.0
 10
7.1019469247
 20
1.8964183796
 30
0.0
 10
7.0951614427
 20
1.8891743085
 30
0.0
 10
7.0881794988
 20
1.8827051006
 30
0.0
 10
7.0809979594
 20
1.8771316484
 30
0.0
 10
7.0736194807
 20
1.8725841417
 30
0.0
 10
7.0660577264
 20
1.8691969335
 30
0.0
 10
7.0583456767
 20
1.8670975954
 30
0.0
 10
7.0505456026
 20
1.8663849611
 30
0.0
 10
7.0427455284
 20
1.8670975954
 30
0.0
 10
7.0350334788
 20
1.8691969335
 30
0.0
 10
7.0274717245
 20
1.8725841417
 30
0.0
 10
7.0200932458
 20
1.8771316484
 30
0.0
 10
7.0129117064
 20
1.8827051006
 30
0.0
 10
7.0059297625
 20
1.8891743085
 30
0.0
 10
6.9991442805
 20
1.8964183796
 30
0.0
 10
6.9948211627
 20
1.9016028995
 30
0.0
 10
6.9926824829
 20
1.9042926874
 30
0.0
  0
SPLINE
  5
2F7
100
AcDbEntity
  8
0
100
AcDbSpline
 62
7
  6
CONTINUOUS
 70
0
 71
3
 72
23
 73
19
 74
0
 42
0.0000001
 43
0.0000001
 44
0.0000000001
 40
0.0
 40
0.0
 40
0.0
 40
0.0
 40
0.0722558147
 40
0.1418644583
 40
0.2085666479
 40
0.272188191
 40
0.3327106338
 40
0.3903826005
 40
0.4458149397
 40
0.5000000001
 40
0.5541850606
 40
0.6096173997
 40
0.6672893663
 40
0.727811809
 40
0.7914333521
 40
0.8581355417
 40
0.9277441854
 40
1.0
 40
1.0
 40
1.0
 40
1.0
 10
7.1084087223
 20
2.0773792579
 30
0.0
 10
7.1062700425
 20
2.0800690459
 30
0.0
 10
7.1019469247
 20
2.0852535658
 30
0.0
 10
7.0951614427
 20
2.0924976369
 30
0.0
 10
7.0881794988
 20
2.0989668448
 30
0.0
 10
7.0809979594
 20
2.104540297
 30
0.0
 10
7.0736194807
 20
2.1090878036
 30
0.0
 10
7.0660577264
 20
2.1124750119
 30
0.0
 10
7.0583456767
 20
2.11457435
 30
0.0
 10
7.0505456026
 20
2.1152869843
 30
0.0
 10
7.0427455284
 20
2.11457435
 30
0.0
 10
7.0350334788
 20
2.1124750118
 30
0.0
 10
7.0274717245
 20
2.1090878036
 30
0.0
 10
7.0200932458
 20
2.104540297
 30
0.0
 10
7.0129117064
 20
2.0989668448
 30
0.0
 10
7.0059297625
 20
2.0924976369
 30
0.0
 10
6.9991442805
 20
2.0852535658
 30
0.0
 10
6.9948211627
 20
2.0800690459
 30
0.0
 10
6.9926824829
 20
2.0773792579
 30
0.0
  0
SPLINE
  5
2F8
100
AcDbEntity
  8
0
100
AcDbSpline
 62
7
  6
CONTINUOUS
 70
0
 71
3
 72
13
 73
9
 74
0
 42
0.0000001
 43
0.0000001
 44
0.0000000001
 40
0.0
 40
0.0
 40
0.0
 40
0.0
 40
0.1250184866
 40
0.2500364751
 40
0.375058675
 40
0.5000833416
 40
0.7500127727
 40
1.0
 40
1.0
 40
1.0
 40
1.0
 10
7.3077551475
 20
1.8666205824
 30
0.0
 10
7.3026166346
 20
1.8666205824
 30
0.0
 10
7.292333722
 20
1.8670844259
 30
0.0
 10
7.2770376265
 20
1.869143644
 30
0.0
 10
7.2619706845
 20
1.8724881597
 30
0.0
 10
7.2423034093
 20
1.8785075898
 30
0.0
 10
7.2186149194
 20
1.88863896
 30
0.0
 10
7.2007270179
 20
1.8988229414
 30
0.0
 10
7.1920289081
 20
1.9042926874
 30
0.0
  0
SPLINE
  5
2F9
100
AcDbEntity
  8
0
100
AcDbSpline
 62
7
  6
CONTINUOUS
 70
0
 71
3
 72
13
 73
9
 74
0
 42
0.0000001
 43
0.0000001
 44
0.0000000001
 40
0.0
 40
0.0
 40
0.0
 40
0.0
 40
0.1250184866
 40
0.2500364751
 40
0.375058675
 40
0.5000833416
 40
0.7500127727
 40
1.0
 40
1.0
 40
1.0
 40
1.0
 10
7.3077551475
 20
2.115051363
 30
0.0
 10
7.3026166346
 20
2.115051363
 30
0.0
 10
7.292333722
 20
2.1145875195
 30
0.0
 10
7.2770376265
 20
2.1125283014
 30
0.0
 10
7.2619706845
 20
2.1091837857
 30
0.0
 10
7.2423034093
 20
2.1031643555
 30
0.0
 10
7.2186149194
 20
2.0930329854
 30
0.0
 10
7.2007270179
 20
2.082849004
 30
0.0
 10
7.1920289081
 20
2.0773792579
 30
0.0
  0
SPLINE
  5
2FA
100
AcDbEntity
  8
0
100
AcDbSpline
 62
7
  6
CONTINUOUS
 70
0
 71
3
 72
13
 73
9
 74
0
 42
0.0000001
 43
0.0000001
 44
0.0000000001
 40
0.0
 40
0.0
 40
0.0
 40
0.0
 40
0.2499875094
 40
0.4999170301
 40
0.6249416727
 40
0.749963796
 40
0.874981655
 40
1.0
 40
1.0
 40
1.0
 40
1.0
 10
7.423481387
 20
2.0773792579
 30
0.0
 10
7.4147832674
 20
2.0828490101
 30
0.0
 10
7.3968953526
 20
2.0930329994
 30
0.0
 10
7.3732068469
 20
2.1031643695
 30
0.0
 10
7.3535395709
 20
2.1091837951
 30
0.0
 10
7.3384726374
 20
2.1125283055
 30
0.0
 10
7.323176556
 20
2.1145875201
 30
0.0
 10
7.3128936546
 20
2.115051363
 30
0.0
 10
7.3077551475
 20
2.115051363
 30
0.0
  0
SPLINE
  5
2FB
100
AcDbEntity
  8
0
100
AcDbSpline
 62
7
  6
CONTINUOUS
 70
0
 71
3
 72
13
 73
9
 74
0
 42
0.0000001
 43
0.0000001
 44
0.0000000001
 40
0.0
 40
0.0
 40
0.0
 40
0.0
 40
0.2499875094
 40
0.4999170301
 40
0.6249416727
 40
0.749963796
 40
0.874981655
 40
1.0
 40
1.0
 40
1.0
 40
1.0
 10
7.423481387
 20
1.9042926874
 30
0.0
 10
7.4147832674
 20
1.8988229353
 30
0.0
 10
7.3968953526
 20
1.888638946
 30
0.0
 10
7.3732068469
 20
1.8785075759
 30
0.0
 10
7.3535395709
 20
1.8724881503
 30
0.0
 10
7.3384726374
 20
1.8691436399
 30
0.0
 10
7.323176556
 20
1.8670844253
 30
0.0
 10
7.3128936546
 20
1.8666205824
 30
0.0
 10
7.3077551475
 20
1.8666205824
 30
0.0
  0
SPLINE
  5
2FC
100
AcDbEntity
  8
0
100
AcDbSpline
 62
7
  6
CONTINUOUS
 70
0
 71
3
 72
23
 73
19
 74
0
 42
0.0000001
 43
0.0000001
 44
0.0000000001
 40
0.0
 40
0.0
 40
0.0
 40
0.0
 40
0.0722558147
 40
0.1418644583
 40
0.2085666479
 40
0.272188191
 40
0.3327106338
 40
0.3903826005
 40
0.4458149397
 40
0.5000000001
 40
0.5541850606
 40
0.6096173997
 40
0.6672893663
 40
0.727811809
 40
0.7914333521
 40
0.8581355417
 40
0.9277441854
 40
1.0
 40
1.0
 40
1.0
 40
1.0
 10
7.6228278122
 20
1.9042926874
 30
0.0
 10
7.6206891324
 20
1.9016028995
 30
0.0
 10
7.6163660145
 20
1.8964183796
 30
0.0
 10
7.6095805326
 20
1.8891743085
 30
0.0
 10
7.6025985887
 20
1.8827051006
 30
0.0
 10
7.5954170492
 20
1.8771316484
 30
0.0
 10
7.5880385705
 20
1.8725841417
 30
0.0
 10
7.5804768162
 20
1.8691969335
 30
0.0
 10
7.5727647666
 20
1.8670975954
 30
0.0
 10
7.5649646924
 20
1.8663849611
 30
0.0
 10
7.5571646183
 20
1.8670975954
 30
0.0
 10
7.5494525686
 20
1.8691969335
 30
0.0
 10
7.5418908144
 20
1.8725841417
 30
0.0
 10
7.5345123356
 20
1.8771316484
 30
0.0
 10
7.5273307962
 20
1.8827051006
 30
0.0
 10
7.5203488523
 20
1.8891743085
 30
0.0
 10
7.5135633704
 20
1.8964183796
 30
0.0
 10
7.5092402525
 20
1.9016028995
 30
0.0
 10
7.5071015727
 20
1.9042926874
 30
0.0
  0
SPLINE
  5
2FD
100
AcDbEntity
  8
0
100
AcDbSpline
 62
7
  6
CONTINUOUS
 70
0
 71
3
 72
23
 73
19
 74
0
 42
0.0000001
 43
0.0000001
 44
0.0000000001
 40
0.0
 40
0.0
 40
0.0
 40
0.0
 40
0.0722558147
 40
0.1418644583
 40
0.2085666479
 40
0.272188191
 40
0.3327106338
 40
0.3903826005
 40
0.4458149397
 40
0.5000000001
 40
0.5541850606
 40
0.6096173997
 40
0.6672893663
 40
0.727811809
 40
0.7914333521
 40
0.8581355417
 40
0.9277441854
 40
1.0
 40
1.0
 40
1.0
 40
1.0
 10
7.6228278122
 20
2.0773792579
 30
0.0
 10
7.6206891324
 20
2.0800690459
 30
0.0
 10
7.6163660145
 20
2.0852535658
 30
0.0
 10
7.6095805326
 20
2.0924976369
 30
0.0
 10
7.6025985887
 20
2.0989668448
 30
0.0
 10
7.5954170492
 20
2.104540297
 30
0.0
 10
7.5880385705
 20
2.1090878036
 30
0.0
 10
7.5804768162
 20
2.1124750119
 30
0.0
 10
7.5727647666
 20
2.11457435
 30
0.0
 10
7.5649646924
 20
2.1152869843
 30
0.0
 10
7.5571646183
 20
2.11457435
 30
0.0
 10
7.5494525686
 20
2.1124750118
 30
0.0
 10
7.5418908144
 20
2.1090878036
 30
0.0
 10
7.5345123356
 20
2.104540297
 30
0.0
 10
7.5273307962
 20
2.0989668448
 30
0.0
 10
7.5203488523
 20
2.0924976369
 30
0.0
 10
7.5135633704
 20
2.0852535658
 30
0.0
 10
7.5092402525
 20
2.0800690459
 30
0.0
 10
7.5071015727
 20
2.0773792579
 30
0.0
  0
SPLINE
  5
2FE
100
AcDbEntity
  8
0
100
AcDbSpline
 62
7
  6
CONTINUOUS
 70
0
 71
3
 72
11
 73
7
 74
0
 42
0.0000001
 43
0.0000001
 44
0.0000000001
 40
0.0
 40
0.0
 40
0.0
 40
0.0
 40
0.1754171971
 40
0.4121976077
 40
0.6947003699
 40
1.0
 40
1.0
 40
1.0
 40
1.0
 10
6.3998265791
 20
3.0147774714
 30
0.0
 10
6.399362906
 20
3.0146849071
 30
0.0
 10
6.3982582564
 20
3.0145470581
 30
0.0
 10
6.3963890257
 20
3.0144321258
 30
0.0
 10
6.3941660209
 20
3.0143944565
 30
0.0
 10
6.3925816226
 20
3.0144208195
 30
0.0
 10
6.3917591188
 20
3.0144466496
 30
0.0
  0
SPLINE
  5
2FF
100
AcDbEntity
  8
0
100
AcDbSpline
 62
7
  6
CONTINUOUS
 70
0
 71
3
 72
13
 73
9
 74
0
 42
0.0000001
 43
0.0000001
 44
0.0000000001
 40
0.0
 40
0.0
 40
0.0
 40
0.0
 40
0.3279883716
 40
0.622653397
 40
0.7480740534
 40
0.8543415928
 40
0.9387820532
 40
1.0
 40
1.0
 40
1.0
 40
1.0
 10
6.3854319739
 20
3.0203761244
 30
0.0
 10
6.3870105739
 20
3.020337111
 30
0.0
 10
6.390006824
 20
3.0202373772
 30
0.0
 10
6.3936034366
 20
3.0200395689
 30
0.0
 10
6.3961298814
 20
3.0198419237
 30
0.0
 10
6.3976448186
 20
3.0196930682
 30
0.0
 10
6.3988477764
 20
3.0195382835
 30
0.0
 10
6.3995395594
 20
3.019418548
 30
0.0
 10
6.3998265791
 20
3.0193515722
 30
0.0
  0
SPLINE
  5
300
100
AcDbEntity
  8
0
100
AcDbSpline
 62
7
  6
CONTINUOUS
 70
0
 71
3
 72
12
 73
8
 74
0
 42
0.0000001
 43
0.0000001
 44
0.0000000001
 40
0.0
 40
0.0
 40
0.0
 40
0.0
 40
0.3713012683
 40
0.688556782
 40
0.9015817539
 40
0.9627740823
 40
1.0
 40
1.0
 40
1.0
 40
1.0
 10
6.3968246432
 20
3.0116823031
 30
0.0
 10
6.3972097136
 20
3.0116654009
 30
0.0
 10
6.3979243592
 20
3.0116175635
 30
0.0
 10
6.398849148
 20
3.011491881
 30
0.0
 10
6.3994554531
 20
3.0113519989
 30
0.0
 10
6.3997435309
 20
3.0112088337
 30
0.0
 10
6.3998183245
 20
3.0111268783
 30
0.0
 10
6.3998265791
 20
3.0110891266
 30
0.0
  0
SPLINE
  5
301
100
AcDbEntity
  8
0
100
AcDbSpline
 62
7
  6
CONTINUOUS
 70
0
 71
3
 72
18
 73
14
 74
0
 42
0.0000001
 43
0.0000001
 44
0.0000000001
 40
0.0
 40
0.0
 40
0.0
 40
0.0
 40
0.019573365
 40
0.0421206633
 40
0.0694954615
 40
0.1030170652
 40
0.1435397523
 40
0.1912174874
 40
0.3072930274
 40
0.4491916083
 40
0.6143847018
 40
0.799730896
 40
1.0
 40
1.0
 40
1.0
 40
1.0
 10
6.3998265791
 20
3.0087498507
 30
0.0
 10
6.3998163239
 20
3.0086370841
 30
0.0
 10
6.3997463078
 20
3.0083974421
 30
0.0
 10
6.3995123539
 20
3.008064407
 30
0.0
 10
6.3991482279
 20
3.0077428211
 30
0.0
 10
6.3986486185
 20
3.0074316663
 30
0.0
 10
6.3980099706
 20
3.0071323872
 30
0.0
 10
6.3969014717
 20
3.0067202363
 30
0.0
 10
6.3951909149
 20
3.0062601321
 30
0.0
 10
6.3927867803
 20
3.0057932942
 30
0.0
 10
6.3899641617
 20
3.0053994658
 30
0.0
 10
6.3867918863
 20
3.0050924448
 30
0.0
 10
6.384565046
 20
3.004952618
 30
0.0
 10
6.3834078276
 20
3.0048969391
 30
0.0
  0
SPLINE
  5
302
100
AcDbEntity
  8
0
100
AcDbSpline
 62
7
  6
CONTINUOUS
 70
0
 71
3
 72
18
 73
14
 74
0
 42
0.0000001
 43
0.0000001
 44
0.0000000001
 40
0.0
 40
0.0
 40
0.0
 40
0.0
 40
0.2001944332
 40
0.3854802094
 40
0.5506387491
 40
0.6925344106
 40
0.8086406491
 40
0.8563436073
 40
0.8968957004
 40
0.9304474184
 40
0.9578503539
 40
0.9804195474
 40
1.0
 40
1.0
 40
1.0
 40
1.0
 10
6.352704354
 20
3.0049475427
 30
0.0
 10
6.3515470545
 20
3.0050070212
 30
0.0
 10
6.3493201155
 20
3.0051541813
 30
0.0
 10
6.3461479159
 20
3.005471652
 30
0.0
 10
6.3433254334
 20
3.0058747207
 30
0.0
 10
6.3409213637
 20
3.0063493976
 30
0.0
 10
6.339210885
 20
3.0068150274
 30
0.0
 10
6.3381024212
 20
3.0072307215
 30
0.0
 10
6.3374637308
 20
3.0075320563
 30
0.0
 10
6.3369641165
 20
3.0078448193
 30
0.0
 10
6.3366000245
 20
3.0081675638
 30
0.0
 10
6.3363660862
 20
3.0085012698
 30
0.0
 10
6.336295931
 20
3.0087411723
 30
0.0
 10
6.3362856026
 20
3.0088540423
 30
0.0
  0
SPLINE
  5
303
100
AcDbEntity
  8
0
100
AcDbSpline
 62
7
  6
CONTINUOUS
 70
0
 71
3
 72
12
 73
8
 74
0
 42
0.0000001
 43
0.0000001
 44
0.0000000001
 40
0.0
 40
0.0
 40
0.0
 40
0.0
 40
0.0371562899
 40
0.0982982302
 40
0.3112923576
 40
0.6285873781
 40
1.0
 40
1.0
 40
1.0
 40
1.0
 10
6.3362856026
 20
3.0111929997
 30
0.0
 10
6.3362937513
 20
3.0112306787
 30
0.0
 10
6.3363685731
 20
3.011312486
 30
0.0
 10
6.3366567686
 20
3.0114545875
 30
0.0
 10
6.3372631571
 20
3.0115925112
 30
0.0
 10
6.3381879411
 20
3.0117151961
 30
0.0
 10
6.3389025079
 20
3.0117607325
 30
0.0
 10
6.3392875385
 20
3.0117762891
 30
0.0
  0
LINE
  5
304
100
AcDbEntity
  8
0
100
AcDbLine
 62
7
  6
CONTINUOUS
 10
6.4088052842
 20
3.0138422827
 11
6.4088052842
 21
3.0074257654
  0
SPLINE
  5
305
100
AcDbEntity
  8
0
100
AcDbSpline
 62
7
  6
CONTINUOUS
 70
0
 71
3
 72
14
 73
10
 74
0
 42
0.0000001
 43
0.0000001
 44
0.0000000001
 40
0.0
 40
0.0
 40
0.0
 40
0.0
 40
0.0625708114
 40
0.1352931859
 40
0.2241478193
 40
0.3334529206
 40
0.4658355269
 40
0.6215273527
 40
1.0
 40
1.0
 40
1.0
 40
1.0
 10
6.4088052842
 20
3.0074257654
 30
0.0
 10
6.4087844467
 20
3.0072136764
 30
0.0
 10
6.4086477068
 20
3.006761732
 30
0.0
 10
6.408198303
 20
3.0061331845
 30
0.0
 10
6.4074987615
 20
3.0055228184
 30
0.0
 10
6.4065372952
 20
3.0049304284
 30
0.0
 10
6.4053083258
 20
3.0043585402
 30
0.0
 10
6.4031786906
 20
3.0035677273
 30
0.0
 10
6.4014185232
 20
3.0030924256
 30
0.0
 10
6.4001644409
 20
3.0027942565
 30
0.0
  0
SPLINE
  5
306
100
AcDbEntity
  8
0
100
AcDbSpline
 62
7
  6
CONTINUOUS
 70
0
 71
3
 72
14
 73
10
 74
0
 42
0.0000001
 43
0.0000001
 44
0.0000000001
 40
0.0
 40
0.0
 40
0.0
 40
0.0
 40
0.3788749343
 40
0.5347103153
 40
0.667163274
 40
0.7764445229
 40
0.8651823325
 40
0.9377011766
 40
1.0
 40
1.0
 40
1.0
 40
1.0
 10
6.3330717444
 20
3.002742339
 30
0.0
 10
6.3317999677
 20
3.0030408381
 30
0.0
 10
6.3300148459
 20
3.0035171276
 30
0.0
 10
6.3278542607
 20
3.0043111693
 30
0.0
 10
6.3266074393
 20
3.0048858527
 30
0.0
 10
6.3256319962
 20
3.0054816253
 30
0.0
 10
6.3249222071
 20
3.00609583
 30
0.0
 10
6.3244659027
 20
3.006728659
 30
0.0
 10
6.3243266353
 20
3.0071842821
 30
0.0
 10
6.3243052842
 20
3.0073980208
 30
0.0
  0
LINE
  5
307
100
AcDbEntity
  8
0
100
AcDbLine
 62
7
  6
CONTINUOUS
 10
6.3243052842
 20
3.0073980208
 11
6.3243052842
 21
3.01381477
  0
SPLINE
  5
308
100
AcDbEntity
  8
0
100
AcDbSpline
 62
7
  6
CONTINUOUS
 70
0
 71
3
 72
11
 73
7
 74
0
 42
0.0000001
 43
0.0000001
 44
0.0000000001
 40
0.0
 40
0.0
 40
0.0
 40
0.0
 40
0.1841659016
 40
0.421611759
 40
0.7006879735
 40
1.0
 40
1.0
 40
1.0
 40
1.0
 10
6.3363315455
 20
3.0135088349
 30
0.0
 10
6.3372707833
 20
3.0137654116
 30
0.0
 10
6.3394572199
 20
3.0142187341
 30
0.0
 10
6.3431318613
 20
3.0147012207
 30
0.0
 10
6.3474334136
 20
3.0150388953
 30
0.0
 10
6.3504897923
 20
3.0151550739
 30
0.0
 10
6.3520718423
 20
3.0151888108
 30
0.0
  0
LINE
  5
309
100
AcDbEntity
  8
0
100
AcDbLine
 62
7
  6
CONTINUOUS
 10
6.3855038379
 20
3.020316024
 11
6.4066434451
 21
3.0202014485
  0
SPLINE
  5
30A
100
AcDbEntity
  8
0
100
AcDbSpline
 62
7
  6
CONTINUOUS
 70
0
 71
3
 72
19
 73
15
 74
0
 42
0.0000001
 43
0.0000001
 44
0.0000000001
 40
0.0
 40
0.0
 40
0.0
 40
0.0
 40
0.1194974611
 40
0.2413673643
 40
0.3039101771
 40
0.3679065382
 40
0.433535913
 40
0.5003593961
 40
0.5671140909
 40
0.6325936338
 40
0.6964383993
 40
0.7588616915
 40
0.8805826293
 40
1.0
 40
1.0
 40
1.0
 40
1.0
 10
6.2959653338
 20
1.7870063987
 30
0.0
 10
6.2989397552
 20
1.7882916249
 30
0.0
 10
6.3048051872
 20
1.7912371452
 30
0.0
 10
6.3115182674
 20
1.7961299022
 30
0.0
 10
6.3161329828
 20
1.8010670094
 30
0.0
 10
6.3190392722
 20
1.8054275957
 30
0.0
 10
6.321028689
 20
1.8104210587
 30
0.0
 10
6.3217074272
 20
1.8158472311
 30
0.0
 10
6.3208903084
 20
1.8212490082
 30
0.0
 10
6.3187965581
 20
1.8261865104
 30
0.0
 10
6.315822442
 20
1.830485513
 30
0.0
 10
6.3111498465
 20
1.8353506234
 30
0.0
 10
6.3044012003
 20
1.8401732081
 30
0.0
 10
6.2985231153
 20
1.8430781013
 30
0.0
 10
6.2955437465
 20
1.844346282
 30
0.0
  0
SPLINE
  5
30B
100
AcDbEntity
  8
0
100
AcDbSpline
 62
7
  6
CONTINUOUS
 70
0
 71
3
 72
19
 73
15
 74
0
 42
0.0000001
 43
0.0000001
 44
0.0000000001
 40
0.0
 40
0.0
 40
0.0
 40
0.0
 40
0.119497459
 40
0.2413673576
 40
0.3039101668
 40
0.3679065236
 40
0.4335358945
 40
0.5003593769
 40
0.5671140745
 40
0.6325936216
 40
0.6964383909
 40
0.7588616859
 40
0.8805826271
 40
1.0
 40
1.0
 40
1.0
 40
1.0
 10
6.5929653113
 20
1.787006389
 30
0.0
 10
6.595939734
 20
1.7882916147
 30
0.0
 10
6.6018051685
 20
1.7912371339
 30
0.0
 10
6.6085182524
 20
1.7961298893
 30
0.0
 10
6.6131329715
 20
1.8010669953
 30
0.0
 10
6.6160392644
 20
1.8054275808
 30
0.0
 10
6.6180286852
 20
1.8104210437
 30
0.0
 10
6.6187074276
 20
1.8158472171
 30
0.0
 10
6.6178903119
 20
1.8212489967
 30
0.0
 10
6.6157965631
 20
1.8261865016
 30
0.0
 10
6.6128224473
 20
1.8304855068
 30
0.0
 10
6.6081498511
 20
1.8353506197
 30
0.0
 10
6.6014012032
 20
1.8401732066
 30
0.0
 10
6.5955231162
 20
1.8430781009
 30
0.0
 10
6.5925437465
 20
1.844346282
 30
0.0
  0
ENDSEC
  0
SECTION
  2
OBJECTS
  0
DICTIONARY
  5
C
100
AcDbDictionary
280
0
281
1
  3
ACAD_GROUP
350
D
  3
ACAD_MLINESTYLE
350
17
  3
ACAD_LAYOUT
350
1A
  3
ACAD_PLOTSETTINGS
350
19
  3
ACAD_PLOTSTYLENAME
350
E
  0
DICTIONARY
  5
D
102
{ACAD_REACTORS
330
C
102
}
100
AcDbDictionary
280
0
281
1
  0
ACDBDICTIONARYWDFLT
  5
E
102
{ACAD_REACTORS
330
C
102
}
100
AcDbDictionary
281
1
  3
Normal
350
F
100
AcDbDictionaryWithDefault
340
F
  0
DICTIONARY
  5
17
102
{ACAD_REACTORS
330
C
102
}
100
AcDbDictionary
280
0
281
1
  3
Standard
350
18
  0
DICTIONARY
  5
19
102
{ACAD_REACTORS
330
C
102
}
100
AcDbDictionary
281
1
  0
DICTIONARY
  5
1A
102
{ACAD_REACTORS
330
C
102
}
100
AcDbDictionary
281
1
  3
Model
350
30C
  3
Layout1
350
30D
  0
ACDBPLACEHOLDER
  5
F
102
{ACAD_REACTORS
330
E
102
}
  0
MLINESTYLE
  5
18
102
{ACAD_REACTORS
330
17
102
}
100
AcDbMlineStyle
  2
STANDARD
 70
0
  3

 62
256
 51
90.0
 52
90.0
 71
2
 49
0.5
 62
256
  6
BYLAYER
 49
-0.5
 62
256
  6
BYLAYER
  0
LAYOUT
  5
30C
102
{ACAD_REACTORS
330
1A
102
}
100
AcDbPlotSettings
  1

  2
none_device
  4
ANSI_A_(11.00_x_8.50_Inches)
  6

 40
0.0
 41
0.0
 42
0.0
 43
0.0
 44
279.4
 45
215.9
 46
0.0
 47
0.0
 48
0.0
 49
0.0
140
0.0
141
0.0
142
1.0
143
1.0
 70
1024
 72
0
 73
0
 74
0
  7

 75
0
147
1.0
148
0.0
149
0.0
100
AcDbLayout
  1
Model
 70
0
 71
0
 10
0.0
 20
0.0
 11
11.0
 21
8.5
 12
0.0
 22
0.0
 32
0.0
 14
0.0
 24
0.0
 34
0.0
 15
0.0
 25
0.0
 35
0.0
146
0.0
 13
0.0
 23
0.0
 33
0.0
 16
1.0
 26
0.0
 36
0.0
 17
0.0
 27
1.0
 37
0.0
 76
0
330
202
345
0
346
0
  0
LAYOUT
  5
30D
102
{ACAD_REACTORS
330
1A
102
}
100
AcDbPlotSettings
  1

  2
none_device
  4
ANSI_A_(11.00_x_8.50_Inches)
  6

 40
0.0
 41
0.0
 42
0.0
 43
0.0
 44
279.4
 45
215.9
 46
0.0
 47
0.0
 48
0.0
 49
0.0
140
0.0
141
0.0
142
1.0
143
1.0
 70
0
 72
0
 73
0
 74
0
  7

 75
0
147
1.0
148
0.0
149
0.0
100
AcDbLayout
  1
Layout1
 70
0
 71
1
 10
0.0
 20
0.0
 11
11.0
 21
8.5
 12
0.0
 22
0.0
 32
0.0
 14
0.0
 24
0.0
 34
0.0
 15
0.0
 25
0.0
 35
0.0
146
0.0
 13
0.0
 23
0.0
 33
0.0
 16
1.0
 26
0.0
 36
0.0
 17
0.0
 27
1.0
 37
0.0
 76
0
330
203
345
0
346
0
  0
ENDSEC
  0
EOF
