999
DXF file: 9463_top.dxf
999
Pro/ENGINEER 2018400 by Parametric Technology Corporation
  0
SECTION
  2
HEADER
  9
$ACADVER
  1
AC1027
  9
$DWGCODEPAGE
  3
ANSI_1252
  9
$EXTMAX
 10
11.0
 20
8.5
 30
0.0
  9
$EXTMIN
 10
0.0
 20
0.0
 30
0.0
  9
$LIMMIN
 10
0.0
 20
0.0
  9
$LIMMAX
 10
11.0
 20
8.5
  9
$VIEWCTR
 10
5.5
 20
4.25
  9
$VIEWSIZE
 40
8.5
  9
$CLAYER
  8
0
  9
$LTSCALE
 40
0.605
  9
$CELTYPE
  6
BYLAYER
  9
$DIMSCALE
 40
1.0
  9
$DIMASZ
 40
0.1
  9
$DIMEXO
 40
0.0625
  9
$DIMDLI
 40
0.418
  9
$DIMEXE
 40
0.125
  9
$DIMCEN
 40
0.099
  9
$DIMLFAC
 40
1.0
  9
$DIMBLK
  1
_FILLED
  9
$DIMALT
 70
1
  9
$DIMALTD
 70
1
  9
$DIMALTTD
 70
2
  9
$DIMALTF
 40
25.4
  9
$DIMTXT
 40
0.08
  9
$DIMTOL
 70
1
  9
$DIMLIM
 70
0
  9
$DIMTFAC
 40
1.0
  9
$DIMTP
 40
0.01
  9
$DIMTM
 40
0.01
  9
$DIMGAP
 40
0.09
  9
$DIMDSEP
 70
46
  9
$AUNITS
 70
0
  9
$PDMODE
 70
3
  9
$PDSIZE
 40
0.3125
  9
$HANDSEED
  5
37D
  9
$TILEMODE
 70
1
  9
$MEASUREMENT
 70
0
  9
$INSUNITS
 70
1
  0
ENDSEC
  0
SECTION
  2
CLASSES
  0
CLASS
  1
ACDBDICTIONARYWDFLT
  2
AcDbDictionaryWithDefault
  3
AutoCAD 2000
 90
0
 91
1
280
0
281
0
  0
CLASS
  1
ACDBPLACEHOLDER
  2
AcDbPlaceHolder
  3
AutoCAD 2000
 90
0
 91
1
280
0
281
0
  0
CLASS
  1
LAYOUT
  2
AcDbLayout
  3
AutoCAD 2000
 90
0
 91
0
280
0
281
0
  0
ENDSEC
  0
SECTION
  2
TABLES
  0
TABLE
  2
VPORT
  5
8
100
AcDbSymbolTable
 70
2
  0
VPORT
  5
1F4
100
AcDbSymbolTableRecord
100
AcDbViewportTableRecord
  2
*ACTIVE
 70
0
 10
0.0
 20
0.0
 11
1.0
 21
1.0
 12
5.5
 22
4.25
 13
0.0
 23
0.0
 14
1.0
 24
1.0
 15
0.0
 25
0.0
 16
0.0
 26
0.0
 36
1.0
 17
0.0
 27
0.0
 37
0.0
 40
8.5
 41
1.2941176471
 42
50.0
 43
0.0
 44
0.0
 50
0.0
 51
0.0
 71
0
 72
100
 73
1
 74
1
 75
0
 76
0
 77
0
 78
0
  0
ENDTAB
  0
TABLE
  2
LTYPE
  5
5
100
AcDbSymbolTable
 70
6
  0
LTYPE
  5
14
100
AcDbSymbolTableRecord
100
AcDbLinetypeTableRecord
  2
BYBLOCK
 70
0
  3

 72
65
 73
0
 40
0.0
  0
LTYPE
  5
15
100
AcDbSymbolTableRecord
100
AcDbLinetypeTableRecord
  2
BYLAYER
 70
0
  3

 72
65
 73
0
 40
0.0
  0
LTYPE
  5
16
100
AcDbSymbolTableRecord
100
AcDbLinetypeTableRecord
  2
CONTINUOUS
 70
64
  3
Solid line
 72
65
 73
0
 40
0.0
  0
LTYPE
  5
1F5
100
AcDbSymbolTableRecord
100
AcDbLinetypeTableRecord
  2
CENTER
 70
64
  3
____ _ ____ _ ____ _ ____ _ ____ _ ____ _ ____
 72
65
 73
4
 40
0.6
 49
0.375
 74
0
 49
-0.075
 74
0
 49
0.075
 74
0
 49
-0.075
 74
0
  0
LTYPE
  5
1F6
100
AcDbSymbolTableRecord
100
AcDbLinetypeTableRecord
  2
HIDDEN
 70
64
  3
- - - - - - - - - - - - - - - - - - - -
 72
65
 73
2
 40
0.2
 49
0.1
 74
0
 49
-0.1
 74
0
  0
LTYPE
  5
1F7
100
AcDbSymbolTableRecord
100
AcDbLinetypeTableRecord
  2
PHANTOM
 70
64
  3
_____ _ _ _____ _ _ _____ _ _ _____
 72
65
 73
6
 40
0.8
 49
0.45
 74
0
 49
-0.05
 74
0
 49
0.1
 74
0
 49
-0.05
 74
0
 49
0.1
 74
0
 49
-0.05
 74
0
  0
LTYPE
  5
1F8
100
AcDbSymbolTableRecord
100
AcDbLinetypeTableRecord
  2
DOT
 70
64
  3
. . . . . . . . . . . . . . . . . . . .
 72
65
 73
2
 40
0.2
 49
0.1
 74
0
 49
-0.1
 74
0
  0
LTYPE
  5
1F9
100
AcDbSymbolTableRecord
100
AcDbLinetypeTableRecord
  2
DASHED
 70
64
  3
- - - - - - - - - - - - - - - - - - - -
 72
65
 73
2
 40
0.2
 49
0.1
 74
0
 49
-0.1
 74
0
  0
ENDTAB
  0
TABLE
  2
LAYER
  5
2
100
AcDbSymbolTable
 70
36
  0
LAYER
  5
10
100
AcDbSymbolTableRecord
100
AcDbLayerTableRecord
  2
0
 70
0
 62
7
  6
CONTINUOUS
370
-3
390
F
  0
LAYER
  5
1FA
100
AcDbSymbolTableRecord
100
AcDbLayerTableRecord
  2
DEFAULT_1
 70
0
 62
7
  6
CENTER
370
-3
390
F
  0
LAYER
  5
1FB
100
AcDbSymbolTableRecord
100
AcDbLayerTableRecord
  2
DEFAULT_2
 70
0
 62
8
  6
HIDDEN
370
-3
390
F
  0
LAYER
  5
1FC
100
AcDbSymbolTableRecord
100
AcDbLayerTableRecord
  2
DEFAULT_3
 70
0
 62
7
  6
PHANTOM
370
-3
390
F
  0
LAYER
  5
1FD
100
AcDbSymbolTableRecord
100
AcDbLayerTableRecord
  2
DEFAULT_COORDINATE_SYSTEM
 70
0
 62
7
  6
CONTINUOUS
370
-3
390
F
  0
LAYER
  5
1FE
100
AcDbSymbolTableRecord
100
AcDbLayerTableRecord
  2
DEFAULT_DATUM_AXES
 70
0
 62
7
  6
CONTINUOUS
370
-3
390
F
  0
LAYER
  5
1FF
100
AcDbSymbolTableRecord
100
AcDbLayerTableRecord
  2
DEFAULT_DATUM_PLANES
 70
0
 62
7
  6
CONTINUOUS
370
-3
390
F
  0
ENDTAB
  0
TABLE
  2
STYLE
  5
3
100
AcDbSymbolTable
 70
1
  0
STYLE
  5
11
100
AcDbSymbolTableRecord
100
AcDbTextStyleTableRecord
  2
STANDARD
 70
0
 40
0.0
 41
0.8
 50
0.0
 71
0
 42
0.2
  3
txt
  4

  0
STYLE
  5
200
100
AcDbSymbolTableRecord
100
AcDbTextStyleTableRecord
  2
TEXTSTYLE_1
 70
0
 40
0.0
 41
0.8
 50
0.0
 71
0
 42
0.2
  3
gdt
  4

  0
ENDTAB
  0
TABLE
  2
VIEW
  5
6
100
AcDbSymbolTable
 70
0
  0
ENDTAB
  0
TABLE
  2
UCS
  5
7
100
AcDbSymbolTable
 70
0
  0
ENDTAB
  0
TABLE
  2
APPID
  5
9
100
AcDbSymbolTable
 70
1
  0
APPID
  5
201
100
AcDbSymbolTableRecord
100
AcDbRegAppTableRecord
  2
ACAD
 70
0
  0
ENDTAB
  0
TABLE
  2
BLOCK_RECORD
  5
1
100
AcDbSymbolTable
 70
0
  0
BLOCK_RECORD
  5
202
100
AcDbSymbolTableRecord
100
AcDbBlockTableRecord
  2
*Model_Space
  0
BLOCK_RECORD
  5
203
100
AcDbSymbolTableRecord
100
AcDbBlockTableRecord
  2
*Paper_Space
  0
BLOCK_RECORD
  5
204
100
AcDbSymbolTableRecord
100
AcDbBlockTableRecord
  2
_FILLED
  0
ENDTAB
  0
TABLE
  2
DIMSTYLE
  5
A
100
AcDbSymbolTable
 70
1
100
AcDbDimStyleTable
 71
0
  0
DIMSTYLE
105
205
100
AcDbSymbolTableRecord
100
AcDbDimStyleTableRecord
  2
STANDARD
 70
0
  3

  4

 40
1.0
 41
0.1
 42
0.0625
 43
0.38
 44
0.125
 45
0.0
 46
0.0
 47
0.01
 48
0.01
140
0.08
141
0.09
142
0.0
143
25.4
144
1.0
145
0.0
146
1.0
147
0.09
 71
1.0
 72
0.0
 73
1
 74
1
 75
0
 76
0
 77
0
 78
4
 79
1
170
1
171
1
172
0
173
0
174
0
175
0
176
0
177
0
178
0
270
2
179
2
271
2
272
2
273
2
274
2
275
0
280
0
281
0
282
0
283
1
284
4
285
0
286
0
287
3
288
0
340
11
278
46
341
204
342
204
343
204
344
204
  0
ENDTAB
  0
ENDSEC
  0
SECTION
  2
BLOCKS
  0
BLOCK
  5
20
100
AcDbEntity
  8
0
100
AcDbBlockBegin
  2
*Model_Space
 70
0
 10
0.0
 20
0.0
 30
0.0
  3
*Model_Space
  1

  0
ENDBLK
  5
21
100
AcDbEntity
  8
0
100
AcDbBlockEnd
  0
BLOCK
  5
1C
100
AcDbEntity
  8
0
100
AcDbBlockBegin
  2
*Paper_Space
 70
0
 10
0.0
 20
0.0
 30
0.0
  3
*Paper_Space
  1

  0
ENDBLK
  5
1D
100
AcDbEntity
  8
0
100
AcDbBlockEnd
  0
BLOCK
  5
206
100
AcDbEntity
  8
0
100
AcDbBlockBegin
  2
_FILLED
 70
64
 10
0.0
 20
0.0
  3
_FILLED
  1

  0
SOLID
  5
207
100
AcDbEntity
  8
0
  6
BYBLOCK
 62
0
100
AcDbTrace
 10
0.0
 20
0.0
 11
-1.0
 21
0.2
 12
-1.0
 22
-0.2
 13
-1.0
 23
-0.2
  0
ENDBLK
  5
208
100
AcDbEntity
  8
0
  6
BYBLOCK
 62
0
100
AcDbBlockEnd
  0
ENDSEC
  0
SECTION
  2
ENTITIES
  0
MTEXT
  5
209
100
AcDbEntity
  8
0
100
AcDbMText
 62
2
  6
CONTINUOUS
  7
STANDARD
 71
3
 72
1
 10
5.1195263975
 20
1.6842885326
 30
0.0
 11
1.0
 21
0.0
 31
0.0
 73
2
 44
0.9
  1
SCALE  .500
 40
0.08
 41
0.704
  0
LINE
  5
20A
100
AcDbEntity
  8
0
100
AcDbLine
 62
7
  6
CONTINUOUS
 10
0.0
 20
0.0
 11
0.0
 21
8.5
  0
LINE
  5
20B
100
AcDbEntity
  8
0
100
AcDbLine
 62
7
  6
CONTINUOUS
 10
0.0
 20
0.0
 11
11.0
 21
0.0
  0
LINE
  5
20C
100
AcDbEntity
  8
0
100
AcDbLine
 62
7
  6
CONTINUOUS
 10
0.0
 20
8.5
 11
11.0
 21
8.5
  0
LINE
  5
20D
100
AcDbEntity
  8
0
100
AcDbLine
 62
7
  6
CONTINUOUS
 10
11.0
 20
0.0
 11
11.0
 21
8.5
  0
LINE
  5
20E
100
AcDbEntity
  8
0
100
AcDbLine
 62
7
  6
CONTINUOUS
 10
1.4812991016
 20
5.4876346122
 11
1.4812991016
 21
5.7491346122
  0
LINE
  5
20F
100
AcDbEntity
  8
0
100
AcDbLine
 62
7
  6
CONTINUOUS
 10
1.4912991016
 20
5.7591346122
 11
1.4912991016
 21
5.4776346122
  0
LINE
  5
210
100
AcDbEntity
  8
0
100
AcDbLine
 62
7
  6
CONTINUOUS
 10
1.5312991016
 20
5.7591346122
 11
1.5312991016
 21
5.4776346122
  0
LINE
  5
211
100
AcDbEntity
  8
0
100
AcDbLine
 62
7
  6
CONTINUOUS
 10
1.4812991016
 20
5.7491346122
 11
1.4912991016
 21
5.7591346122
  0
LINE
  5
212
100
AcDbEntity
  8
0
100
AcDbLine
 62
7
  6
CONTINUOUS
 10
3.7230772383
 20
6.7586349578
 11
3.9235209648
 21
6.8743611973
  0
LINE
  5
213
100
AcDbEntity
  8
0
100
AcDbLine
 62
7
  6
CONTINUOUS
 10
2.6757991016
 20
5.7591346122
 11
2.6757991016
 21
5.4776346122
  0
LINE
  5
214
100
AcDbEntity
  8
0
100
AcDbLine
 62
7
  6
CONTINUOUS
 10
2.7282991016
 20
5.7591346122
 11
2.7282991016
 21
5.4776346122
  0
LINE
  5
215
100
AcDbEntity
  8
0
100
AcDbLine
 62
6
  6
CONTINUOUS
 10
2.8334720432
 20
5.7168846122
 11
2.9219027929
 21
5.8700511637
  0
LINE
  5
216
100
AcDbEntity
  8
0
100
AcDbLine
 62
7
  6
CONTINUOUS
 10
3.2375785181
 20
6.0466091223
 11
3.6747991016
 21
6.5293108683
  0
LWPOLYLINE
  5
217
100
AcDbEntity
  8
0
100
AcDbPolyline
 62
7
  6
CONTINUOUS
 90
14
 70
0
 10
3.2375786744
 20
6.0466092924
 10
3.2300009632
 20
6.0387921499
 10
3.2214821876
 20
6.0311426132
 10
3.2125306037
 20
6.0241779203
 10
3.2032102225
 20
6.0179164095
 10
3.1935775685
 20
6.0123665518
 10
3.183694227
 20
6.0075360151
 10
3.1736242245
 20
6.0034284288
 10
3.1634245903
 20
6.0000396969
 10
3.1531515492
 20
5.9973618551
 10
3.1428664363
 20
5.9953839909
 10
3.1326350428
 20
5.9940902236
 10
3.1225185589
 20
5.9934577881
 10
3.1181537907
 20
5.9933820103
  0
LINE
  5
218
100
AcDbEntity
  8
0
100
AcDbLine
 62
7
  6
CONTINUOUS
 10
2.8282991016
 20
5.7168846122
 11
2.8282991016
 21
5.5198846122
  0
LINE
  5
219
100
AcDbEntity
  8
0
100
AcDbLine
 62
7
  6
CONTINUOUS
 10
2.8582991016
 20
5.7168846122
 11
2.8582991016
 21
5.7155957226
  0
LINE
  5
21A
100
AcDbEntity
  8
0
100
AcDbLine
 62
7
  6
CONTINUOUS
 10
2.8582991016
 20
5.5211735017
 11
2.8582991016
 21
5.5198846122
  0
LINE
  5
21B
100
AcDbEntity
  8
0
100
AcDbLine
 62
7
  6
CONTINUOUS
 10
2.9870491016
 20
5.5758846122
 11
2.9870491016
 21
5.5878846122
  0
LINE
  5
21C
100
AcDbEntity
  8
0
100
AcDbLine
 62
7
  6
CONTINUOUS
 10
2.9870491016
 20
5.6513846122
 11
2.9870491016
 21
5.6603846122
  0
LINE
  5
21D
100
AcDbEntity
  8
0
100
AcDbLine
 62
7
  6
CONTINUOUS
 10
2.9952991016
 20
5.5992836253
 11
2.9952991016
 21
5.6399855991
  0
LINE
  5
21E
100
AcDbEntity
  8
0
100
AcDbLine
 62
7
  6
CONTINUOUS
 10
3.0152991016
 20
5.6133846122
 11
3.0152991016
 21
5.5992836253
  0
LINE
  5
21F
100
AcDbEntity
  8
0
100
AcDbLine
 62
7
  6
CONTINUOUS
 10
3.0157991016
 20
5.6401624243
 11
3.0157991016
 21
5.6281624243
  0
LINE
  5
220
100
AcDbEntity
  8
0
100
AcDbLine
 62
7
  6
CONTINUOUS
 10
3.0235491016
 20
5.6603846122
 11
3.0235491016
 21
5.6513846122
  0
LINE
  5
221
100
AcDbEntity
  8
0
100
AcDbLine
 62
7
  6
CONTINUOUS
 10
3.0235491016
 20
5.5878846122
 11
3.0235491016
 21
5.5758846122
  0
LINE
  5
222
100
AcDbEntity
  8
0
100
AcDbLine
 62
7
  6
CONTINUOUS
 10
3.0320491016
 20
5.5758846122
 11
3.0320491016
 21
5.5878846122
  0
LINE
  5
223
100
AcDbEntity
  8
0
100
AcDbLine
 62
7
  6
CONTINUOUS
 10
3.0320491016
 20
5.6513846122
 11
3.0320491016
 21
5.6603846122
  0
LINE
  5
224
100
AcDbEntity
  8
0
100
AcDbLine
 62
7
  6
CONTINUOUS
 10
3.0397991016
 20
5.6281624243
 11
3.0397991016
 21
5.6401624243
  0
LINE
  5
225
100
AcDbEntity
  8
0
100
AcDbLine
 62
7
  6
CONTINUOUS
 10
3.0402991016
 20
5.5992836253
 11
3.0402991016
 21
5.6133846122
  0
LINE
  5
226
100
AcDbEntity
  8
0
100
AcDbLine
 62
7
  6
CONTINUOUS
 10
3.1645491016
 20
5.6496272529
 11
3.1690491016
 21
5.6603846122
  0
LINE
  5
227
100
AcDbEntity
  8
0
100
AcDbLine
 62
7
  6
CONTINUOUS
 10
3.5335465781
 20
5.7775302252
 11
3.9534277699
 21
6.2410888753
  0
LINE
  5
228
100
AcDbEntity
  8
0
100
AcDbLine
 62
7
  6
CONTINUOUS
 10
3.2490491016
 20
5.6496272529
 11
3.2448064609
 21
5.6453846122
  0
LINE
  5
229
100
AcDbEntity
  8
0
100
AcDbLine
 62
7
  6
CONTINUOUS
 10
5.0693333274
 20
6.8550559683
 11
4.8885148757
 21
6.7506603865
  0
LINE
  5
22A
100
AcDbEntity
  8
0
100
AcDbLine
 62
7
  6
CONTINUOUS
 10
4.1873399379
 20
6.3407850326
 11
4.0200772383
 21
6.244215868
  0
LINE
  5
22B
100
AcDbEntity
  8
0
100
AcDbLine
 62
7
  6
CONTINUOUS
 10
3.0685491016
 20
5.6603846122
 11
3.0685491016
 21
5.6513846122
  0
LINE
  5
22C
100
AcDbEntity
  8
0
100
AcDbLine
 62
7
  6
CONTINUOUS
 10
3.0685491016
 20
5.5878846122
 11
3.0685491016
 21
5.5758846122
  0
LINE
  5
22D
100
AcDbEntity
  8
0
100
AcDbLine
 62
7
  6
CONTINUOUS
 10
3.1885491016
 20
5.5758846122
 11
3.1885491016
 21
5.5878846122
  0
LINE
  5
22E
100
AcDbEntity
  8
0
100
AcDbLine
 62
7
  6
CONTINUOUS
 10
3.1977991016
 20
5.6036147584
 11
3.1977991016
 21
5.6183846164
  0
LINE
  5
22F
100
AcDbEntity
  8
0
100
AcDbLine
 62
7
  6
CONTINUOUS
 10
3.2157991016
 20
5.6499346122
 11
3.2157991016
 21
5.6036147584
  0
LINE
  5
230
100
AcDbEntity
  8
0
100
AcDbLine
 62
7
  6
CONTINUOUS
 10
3.2250491016
 20
5.5878846122
 11
3.2250491016
 21
5.5758846122
  0
LINE
  5
231
100
AcDbEntity
  8
0
100
AcDbLine
 62
7
  6
CONTINUOUS
 10
3.140311929
 20
5.6219250523
 11
3.1402124269
 21
5.6183846122
  0
LINE
  5
232
100
AcDbEntity
  8
0
100
AcDbLine
 62
7
  6
CONTINUOUS
 10
3.09757157
 20
5.6150051336
 11
3.0976850018
 21
5.6183846122
  0
LWPOLYLINE
  5
233
100
AcDbEntity
  8
0
100
AcDbPolyline
 62
7
  6
CONTINUOUS
 90
10
 70
0
 10
3.4942132194
 20
5.6954548362
 10
3.4948392085
 20
5.6995050768
 10
3.4971589959
 20
5.7099157795
 10
3.5002065935
 20
5.72028062
 10
3.5039935597
 20
5.7305420491
 10
3.5085241028
 20
5.7406341951
 10
3.5137981498
 20
5.7504935869
 10
3.5198144281
 20
5.760061936
 10
3.526561958
 20
5.7692715382
 10
3.5335445553
 20
5.7775279971
  0
LINE
  5
234
100
AcDbEntity
  8
0
100
AcDbLine
 62
6
  6
CONTINUOUS
 10
3.3171954102
 20
5.3667180607
 11
3.4150244703
 21
5.5361629632
  0
LINE
  5
235
100
AcDbEntity
  8
0
100
AcDbLine
 62
7
  6
CONTINUOUS
 10
3.5496969377
 20
5.7037532909
 11
3.5742799727
 21
5.7209029725
  0
LINE
  5
236
100
AcDbEntity
  8
0
100
AcDbLine
 62
7
  6
CONTINUOUS
 10
2.8282991016
 20
5.5198846122
 11
2.7282991016
 21
5.4776346122
  0
LINE
  5
237
100
AcDbEntity
  8
0
100
AcDbLine
 62
7
  6
CONTINUOUS
 10
1.4812991016
 20
5.4876346122
 11
1.4912991016
 21
5.4776346122
  0
LINE
  5
238
100
AcDbEntity
  8
0
100
AcDbLine
 62
7
  6
CONTINUOUS
 10
3.3807991016
 20
5.5203847341
 11
3.3807991016
 21
5.5208618898
  0
LINE
  5
239
100
AcDbEntity
  8
0
100
AcDbLine
 62
7
  6
CONTINUOUS
 10
3.3878939744
 20
5.5203846122
 11
3.3878939744
 21
5.5429353464
  0
LINE
  5
23A
100
AcDbEntity
  8
0
100
AcDbLine
 62
7
  6
CONTINUOUS
 10
3.3878939744
 20
5.6938338779
 11
3.3878939744
 21
5.7162803065
  0
LINE
  5
23B
100
AcDbEntity
  8
0
100
AcDbLine
 62
7
  6
CONTINUOUS
 10
3.398206687
 20
5.7124560407
 11
3.398206687
 21
5.625561838
  0
LINE
  5
23C
100
AcDbEntity
  8
0
100
AcDbLine
 62
7
  6
CONTINUOUS
 10
3.398206687
 20
5.6112073863
 11
3.398206687
 21
5.5243131836
  0
LINE
  5
23D
100
AcDbEntity
  8
0
100
AcDbLine
 62
7
  6
CONTINUOUS
 10
3.523869002
 20
5.52256283
 11
3.523869002
 21
5.7142063943
  0
LINE
  5
23E
100
AcDbEntity
  8
0
100
AcDbLine
 62
7
  6
CONTINUOUS
 10
3.5373559731
 20
5.5283846122
 11
3.5373559731
 21
5.7083846122
  0
LINE
  5
23F
100
AcDbEntity
  8
0
100
AcDbLine
 62
7
  6
CONTINUOUS
 10
3.5496969377
 20
5.5330159335
 11
3.5496969377
 21
5.7037532909
  0
LINE
  5
240
100
AcDbEntity
  8
0
100
AcDbLine
 62
7
  6
CONTINUOUS
 10
3.5742799727
 20
5.5158662518
 11
3.5742799727
 21
5.7209029725
  0
LINE
  5
241
100
AcDbEntity
  8
0
100
AcDbLine
 62
7
  6
CONTINUOUS
 10
6.0517582652
 20
6.7777920326
 11
6.2190209648
 21
6.8743611973
  0
LINE
  5
242
100
AcDbEntity
  8
0
100
AcDbLine
 62
7
  6
CONTINUOUS
 10
5.3382991016
 20
6.3608243776
 11
5.3505833274
 21
6.3679166787
  0
LINE
  5
243
100
AcDbEntity
  8
0
100
AcDbLine
 62
7
  6
CONTINUOUS
 10
3.6747991016
 20
6.4435622931
 11
3.6747991016
 21
6.6750147721
  0
LINE
  5
244
100
AcDbEntity
  8
0
100
AcDbLine
 62
6
  6
CONTINUOUS
 10
2.9219028292
 20
5.3667179979
 11
2.8334720432
 21
5.5198846122
  0
LINE
  5
245
100
AcDbEntity
  8
0
100
AcDbLine
 62
7
  6
CONTINUOUS
 10
3.2445491016
 20
5.6603846122
 11
3.2490491016
 21
5.6496272529
  0
LINE
  5
246
100
AcDbEntity
  8
0
100
AcDbLine
 62
7
  6
CONTINUOUS
 10
6.5160209648
 20
6.3599421074
 11
6.3155772383
 21
6.244215868
  0
LINE
  5
247
100
AcDbEntity
  8
0
100
AcDbLine
 62
7
  6
CONTINUOUS
 10
4.5342991016
 20
6.3407850326
 11
4.5342991016
 21
6.7777920326
  0
LINE
  5
248
100
AcDbEntity
  8
0
100
AcDbLine
 62
7
  6
CONTINUOUS
 10
7.0290036935
 20
5.6323087165
 11
7.0203492803
 21
5.6298386693
  0
LINE
  5
249
100
AcDbEntity
  8
0
100
AcDbLine
 62
6
  6
CONTINUOUS
 10
3.4150244703
 20
5.7006062611
 11
3.317195374
 21
5.8700512265
  0
LINE
  5
24A
100
AcDbEntity
  8
0
100
AcDbLine
 62
7
  6
CONTINUOUS
 10
4.7477525916
 20
6.3407850326
 11
4.7477525916
 21
6.5103887975
  0
LINE
  5
24B
100
AcDbEntity
  8
0
100
AcDbLine
 62
7
  6
CONTINUOUS
 10
4.7477525916
 20
6.6081882677
 11
4.7477525916
 21
6.7777920326
  0
LINE
  5
24C
100
AcDbEntity
  8
0
100
AcDbLine
 62
7
  6
CONTINUOUS
 10
4.7976126473
 20
6.7513284019
 11
4.7976127634
 21
6.8026063155
  0
LINE
  5
24D
100
AcDbEntity
  8
0
100
AcDbLine
 62
7
  6
CONTINUOUS
 10
4.797613456
 20
6.3159698334
 11
4.7976131658
 21
6.3672344307
  0
LINE
  5
24E
100
AcDbEntity
  8
0
100
AcDbLine
 62
7
  6
CONTINUOUS
 10
4.8382991016
 20
6.6636841144
 11
4.8382991016
 21
6.4548929508
  0
LINE
  5
24F
100
AcDbEntity
  8
0
100
AcDbLine
 62
7
  6
CONTINUOUS
 10
6.4127717293
 20
6.1007329619
 11
6.7092497814
 21
6.3692488173
  0
LINE
  5
250
100
AcDbEntity
  8
0
100
AcDbLine
 62
7
  6
CONTINUOUS
 10
7.4107536935
 20
5.7168386693
 11
7.5107536935
 21
5.7590886693
  0
LINE
  5
251
100
AcDbEntity
  8
0
100
AcDbLine
 62
7
  6
CONTINUOUS
 10
3.1687917422
 20
5.6453846122
 11
3.1645491016
 21
5.6496272529
  0
LINE
  5
252
100
AcDbEntity
  8
0
100
AcDbLine
 62
7
  6
CONTINUOUS
 10
4.9007991016
 20
2.0592885326
 11
4.9007991016
 21
6.5592885326
  0
LINE
  5
253
100
AcDbEntity
  8
0
100
AcDbLine
 62
7
  6
CONTINUOUS
 10
6.6893558573
 20
5.5329699906
 11
6.6647728223
 21
5.5158203089
  0
LINE
  5
254
100
AcDbEntity
  8
0
100
AcDbLine
 62
7
  6
CONTINUOUS
 10
5.3382991016
 20
2.0592885326
 11
5.3382991016
 21
6.5592885326
  0
LINE
  5
255
100
AcDbEntity
  8
0
100
AcDbLine
 62
7
  6
CONTINUOUS
 10
5.4007991016
 20
6.4548929508
 11
5.4007991016
 21
6.6636841144
  0
LINE
  5
256
100
AcDbEntity
  8
0
100
AcDbLine
 62
7
  6
CONTINUOUS
 10
5.4414855558
 20
6.3672486632
 11
5.4414854408
 21
6.3159707511
  0
LINE
  5
257
100
AcDbEntity
  8
0
100
AcDbLine
 62
7
  6
CONTINUOUS
 10
5.4414847471
 20
6.8026072319
 11
5.4414850377
 21
6.7513426338
  0
LINE
  5
258
100
AcDbEntity
  8
0
100
AcDbLine
 62
7
  6
CONTINUOUS
 10
3.5496969377
 20
5.5330159335
 11
3.5742799727
 21
5.5158662518
  0
LINE
  5
259
100
AcDbEntity
  8
0
100
AcDbLine
 62
7
  6
CONTINUOUS
 10
5.4913456115
 20
6.7777920326
 11
5.4913456115
 21
6.6081882677
  0
LINE
  5
25A
100
AcDbEntity
  8
0
100
AcDbLine
 62
7
  6
CONTINUOUS
 10
5.4913456115
 20
6.5103887975
 11
5.4913456115
 21
6.3407850326
  0
LINE
  5
25B
100
AcDbEntity
  8
0
100
AcDbLine
 62
7
  6
CONTINUOUS
 10
5.7047991016
 20
6.3407850326
 11
5.7047991016
 21
6.7777920326
  0
LINE
  5
25C
100
AcDbEntity
  8
0
100
AcDbLine
 62
7
  6
CONTINUOUS
 10
2.8282991016
 20
5.7168846122
 11
2.7282991016
 21
5.7591346122
  0
LINE
  5
25D
100
AcDbEntity
  8
0
100
AcDbLine
 62
7
  6
CONTINUOUS
 10
3.5298612055
 20
6.3692960433
 11
3.8263256152
 21
6.1007651256
  0
LINE
  5
25E
100
AcDbEntity
  8
0
100
AcDbLine
 62
7
  6
CONTINUOUS
 10
6.8240575797
 20
5.7005771412
 11
6.9218691311
 21
5.8699917179
  0
LINE
  5
25F
100
AcDbEntity
  8
0
100
AcDbLine
 62
7
  6
CONTINUOUS
 10
7.1930862884
 20
5.5944571065
 11
7.1997261618
 21
5.6054276311
  0
LINE
  5
260
100
AcDbEntity
  8
0
100
AcDbLine
 62
7
  6
CONTINUOUS
 10
7.0003896549
 20
5.3213254921
 11
7.2386416002
 21
5.3213254921
  0
LINE
  5
261
100
AcDbEntity
  8
0
100
AcDbLine
 62
6
  6
CONTINUOUS
 10
3.0004203215
 20
5.3213846122
 11
3.2386780092
 21
5.3213846122
  0
LINE
  5
262
100
AcDbEntity
  8
0
100
AcDbLine
 62
7
  6
CONTINUOUS
 10
7.5107536935
 20
5.4775886693
 11
7.5632536935
 21
5.4775886693
  0
LINE
  5
263
100
AcDbEntity
  8
0
100
AcDbLine
 62
7
  6
CONTINUOUS
 10
8.7077536935
 20
5.4775886693
 11
8.7477536935
 21
5.4775886693
  0
LINE
  5
264
100
AcDbEntity
  8
0
100
AcDbLine
 62
7
  6
CONTINUOUS
 10
2.7282991016
 20
5.4776346122
 11
2.6757991016
 21
5.4776346122
  0
LINE
  5
265
100
AcDbEntity
  8
0
100
AcDbLine
 62
7
  6
CONTINUOUS
 10
1.5312991016
 20
5.4776346122
 11
1.4912991016
 21
5.4776346122
  0
LINE
  5
266
100
AcDbEntity
  8
0
100
AcDbLine
 62
7
  6
CONTINUOUS
 10
7.3807536935
 20
5.5198386693
 11
7.4107536935
 21
5.5198386693
  0
LINE
  5
267
100
AcDbEntity
  8
0
100
AcDbLine
 62
7
  6
CONTINUOUS
 10
2.8582991016
 20
5.5198846122
 11
2.8282991016
 21
5.5198846122
  0
LINE
  5
268
100
AcDbEntity
  8
0
100
AcDbLine
 62
7
  6
CONTINUOUS
 10
6.8511588206
 20
5.5203386693
 11
6.8582536935
 21
5.5203386693
  0
LINE
  5
269
100
AcDbEntity
  8
0
100
AcDbLine
 62
7
  6
CONTINUOUS
 10
3.3878939744
 20
5.5203846122
 11
3.3807991016
 21
5.5203846122
  0
LINE
  5
26A
100
AcDbEntity
  8
0
100
AcDbLine
 62
7
  6
CONTINUOUS
 10
7.1682536935
 20
5.5872239917
 11
7.1802536935
 21
5.5872239917
  0
LINE
  5
26B
100
AcDbEntity
  8
0
100
AcDbLine
 62
7
  6
CONTINUOUS
 10
7.2406446336
 20
5.5878386693
 11
7.2545760875
 21
5.5878386693
  0
LINE
  5
26C
100
AcDbEntity
  8
0
100
AcDbLine
 62
7
  6
CONTINUOUS
 10
3.9235209648
 20
6.244215868
 11
3.7230772383
 21
6.3599421074
  0
LINE
  5
26D
100
AcDbEntity
  8
0
100
AcDbLine
 62
7
  6
CONTINUOUS
 10
6.5642991016
 20
6.6750147721
 11
6.5642991016
 21
6.4435622931
  0
LINE
  5
26E
100
AcDbEntity
  8
0
100
AcDbLine
 62
7
  6
CONTINUOUS
 10
7.3171621246
 20
5.3666592664
 11
7.4056002941
 21
5.5198386693
  0
LINE
  5
26F
100
AcDbEntity
  8
0
100
AcDbLine
 62
7
  6
CONTINUOUS
 10
3.0372991016
 20
5.6163846122
 11
3.0182991016
 21
5.6163846122
  0
LINE
  5
270
100
AcDbEntity
  8
0
100
AcDbLine
 62
7
  6
CONTINUOUS
 10
3.0187991016
 20
5.6251624243
 11
3.0367991016
 21
5.6251624243
  0
LINE
  5
271
100
AcDbEntity
  8
0
100
AcDbLine
 62
7
  6
CONTINUOUS
 10
7.2545760875
 20
5.6513386693
 11
7.2406446336
 21
5.6513386693
  0
LINE
  5
272
100
AcDbEntity
  8
0
100
AcDbLine
 62
7
  6
CONTINUOUS
 10
3.2302004688
 20
5.6514346122
 11
3.2172991016
 21
5.6514346122
  0
LINE
  5
273
100
AcDbEntity
  8
0
100
AcDbLine
 62
7
  6
CONTINUOUS
 10
3.1962991016
 20
5.6514346122
 11
3.1833977343
 21
5.6514346122
  0
LINE
  5
274
100
AcDbEntity
  8
0
100
AcDbLine
 62
7
  6
CONTINUOUS
 10
7.0120036935
 20
5.6603386693
 11
7.0210036935
 21
5.6603386693
  0
LINE
  5
275
100
AcDbEntity
  8
0
100
AcDbLine
 62
7
  6
CONTINUOUS
 10
6.8511588206
 20
5.7163386693
 11
6.8582536935
 21
5.7163386693
  0
LINE
  5
276
100
AcDbEntity
  8
0
100
AcDbLine
 62
7
  6
CONTINUOUS
 10
3.3878939744
 20
5.7163846122
 11
3.3807991016
 21
5.7163846122
  0
LINE
  5
277
100
AcDbEntity
  8
0
100
AcDbLine
 62
7
  6
CONTINUOUS
 10
7.3807536935
 20
5.7168386693
 11
7.4107536935
 21
5.7168386693
  0
LINE
  5
278
100
AcDbEntity
  8
0
100
AcDbLine
 62
7
  6
CONTINUOUS
 10
2.8582991016
 20
5.7168846122
 11
2.8282991016
 21
5.7168846122
  0
LINE
  5
279
100
AcDbEntity
  8
0
100
AcDbLine
 62
7
  6
CONTINUOUS
 10
7.5107536935
 20
5.7590886693
 11
7.5632536935
 21
5.7590886693
  0
LINE
  5
27A
100
AcDbEntity
  8
0
100
AcDbLine
 62
7
  6
CONTINUOUS
 10
8.7077536935
 20
5.7590886693
 11
8.7477536935
 21
5.7590886693
  0
LINE
  5
27B
100
AcDbEntity
  8
0
100
AcDbLine
 62
7
  6
CONTINUOUS
 10
2.7282991016
 20
5.7591346122
 11
2.6757991016
 21
5.7591346122
  0
LINE
  5
27C
100
AcDbEntity
  8
0
100
AcDbLine
 62
7
  6
CONTINUOUS
 10
1.5312991016
 20
5.7591346122
 11
1.4912991016
 21
5.7591346122
  0
LINE
  5
27D
100
AcDbEntity
  8
0
100
AcDbLine
 62
7
  6
CONTINUOUS
 10
6.6647728223
 20
5.7208570297
 11
6.6647728223
 21
5.5158203089
  0
LINE
  5
27E
100
AcDbEntity
  8
0
100
AcDbLine
 62
7
  6
CONTINUOUS
 10
6.6893558573
 20
5.703707348
 11
6.6893558573
 21
5.5329699906
  0
LINE
  5
27F
100
AcDbEntity
  8
0
100
AcDbLine
 62
7
  6
CONTINUOUS
 10
6.7016968219
 20
5.7083386693
 11
6.7016968219
 21
5.5283386693
  0
LINE
  5
280
100
AcDbEntity
  8
0
100
AcDbLine
 62
7
  6
CONTINUOUS
 10
6.715183793
 20
5.7141604515
 11
6.715183793
 21
5.5225168871
  0
LINE
  5
281
100
AcDbEntity
  8
0
100
AcDbLine
 62
7
  6
CONTINUOUS
 10
6.840846108
 20
5.5242672407
 11
6.840846108
 21
5.6111614434
  0
LINE
  5
282
100
AcDbEntity
  8
0
100
AcDbLine
 62
7
  6
CONTINUOUS
 10
6.840846108
 20
5.6255158952
 11
6.840846108
 21
5.7124100979
  0
LINE
  5
283
100
AcDbEntity
  8
0
100
AcDbLine
 62
7
  6
CONTINUOUS
 10
6.8511588206
 20
5.7163386693
 11
6.8511588206
 21
5.6937879351
  0
LINE
  5
284
100
AcDbEntity
  8
0
100
AcDbLine
 62
7
  6
CONTINUOUS
 10
6.8511588206
 20
5.5428894035
 11
6.8511588206
 21
5.520442975
  0
LINE
  5
285
100
AcDbEntity
  8
0
100
AcDbLine
 62
7
  6
CONTINUOUS
 10
6.8582536935
 20
5.7163385473
 11
6.8582536935
 21
5.7158613917
  0
LINE
  5
286
100
AcDbEntity
  8
0
100
AcDbLine
 62
7
  6
CONTINUOUS
 10
7.2040036935
 20
5.6028386693
 11
7.199242865
 21
5.5758386693
  0
LINE
  5
287
100
AcDbEntity
  8
0
100
AcDbLine
 62
7
  6
CONTINUOUS
 10
8.7577536935
 20
5.4875886693
 11
8.7477536935
 21
5.4775886693
  0
LINE
  5
288
100
AcDbEntity
  8
0
100
AcDbLine
 62
7
  6
CONTINUOUS
 10
3.11814972
 20
5.9933820011
 11
3.118153857
 21
5.9933820094
  0
LINE
  5
289
100
AcDbEntity
  8
0
100
AcDbLine
 62
7
  6
CONTINUOUS
 10
7.0003896555
 20
5.9153254921
 11
7.2386416008
 21
5.9153254921
  0
LINE
  5
28A
100
AcDbEntity
  8
0
100
AcDbLine
 62
6
  6
CONTINUOUS
 10
3.0004201939
 20
5.9153846122
 11
3.2386778816
 21
5.9153846122
  0
LINE
  5
28B
100
AcDbEntity
  8
0
100
AcDbLine
 62
7
  6
CONTINUOUS
 10
7.1204181608
 20
5.9933154675
 11
7.1204229805
 21
5.9933154631
  0
LWPOLYLINE
  5
28C
100
AcDbEntity
  8
0
100
AcDbPolyline
 62
7
  6
CONTINUOUS
 90
14
 70
0
 10
7.1204182278
 20
5.9933154684
 10
7.1163226337
 20
5.9933782812
 10
7.1063371166
 20
5.993974702
 10
7.0962187385
 20
5.9952247385
 10
7.0860299282
 20
5.9971537289
 10
7.0758387207
 20
5.999779654
 10
7.0657078623
 20
6.003115366
 10
7.0556943582
 20
6.00717084
 10
7.045856632
 20
6.011951914
 10
7.0362606616
 20
6.0174562898
 10
7.0269696105
 20
6.0236776478
 10
7.0180413682
 20
6.0306089856
 10
7.0095422406
 20
6.0382327101
 10
7.0020144129
 20
6.0459968108
  0
LINE
  5
28D
100
AcDbEntity
  8
0
100
AcDbLine
 62
7
  6
CONTINUOUS
 10
4.8885148757
 20
6.3679166787
 11
4.9007991016
 21
6.3608243776
  0
LINE
  5
28E
100
AcDbEntity
  8
0
100
AcDbLine
 62
7
  6
CONTINUOUS
 10
4.0200772383
 20
6.8743611973
 11
4.1873399379
 21
6.7777920326
  0
LINE
  5
28F
100
AcDbEntity
  8
0
100
AcDbLine
 62
7
  6
CONTINUOUS
 10
7.1640036935
 20
5.6603386693
 11
7.1640036935
 21
5.6513386693
  0
LINE
  5
290
100
AcDbEntity
  8
0
100
AcDbLine
 62
7
  6
CONTINUOUS
 10
7.2145036935
 20
5.5758386693
 11
7.2145036935
 21
5.5878386693
  0
LINE
  5
291
100
AcDbEntity
  8
0
100
AcDbLine
 62
7
  6
CONTINUOUS
 10
7.2145036935
 20
5.6513386693
 11
7.2145036935
 21
5.6603386693
  0
LINE
  5
292
100
AcDbEntity
  8
0
100
AcDbLine
 62
7
  6
CONTINUOUS
 10
7.2195036935
 20
5.5959009271
 11
7.2195036935
 21
5.6183386611
  0
LINE
  5
293
100
AcDbEntity
  8
0
100
AcDbLine
 62
7
  6
CONTINUOUS
 10
7.2376446336
 20
5.6483386693
 11
7.2376446336
 21
5.5908386693
  0
LINE
  5
294
100
AcDbEntity
  8
0
100
AcDbLine
 62
7
  6
CONTINUOUS
 10
6.2672991016
 20
6.3407850326
 11
5.4913456115
 21
6.3407850326
  0
LINE
  5
295
100
AcDbEntity
  8
0
100
AcDbLine
 62
7
  6
CONTINUOUS
 10
4.7477525916
 20
6.3407850326
 11
3.9717991016
 21
6.3407850326
  0
LINE
  5
296
100
AcDbEntity
  8
0
100
AcDbLine
 62
7
  6
CONTINUOUS
 10
7.4107536935
 20
5.5198386693
 11
7.5107536935
 21
5.4775886693
  0
LINE
  5
297
100
AcDbEntity
  8
0
100
AcDbLine
 62
7
  6
CONTINUOUS
 10
7.0207286377
 20
5.6063386693
 11
7.0290036935
 21
5.6027998204
  0
LINE
  5
298
100
AcDbEntity
  8
0
100
AcDbLine
 62
7
  6
CONTINUOUS
 10
7.1997261618
 20
5.6054276311
 11
7.2040036935
 21
5.6028386693
  0
LINE
  5
299
100
AcDbEntity
  8
0
100
AcDbLine
 62
7
  6
CONTINUOUS
 10
6.6893558573
 20
5.703707348
 11
6.6647728223
 21
5.7208570297
  0
LINE
  5
29A
100
AcDbEntity
  8
0
100
AcDbLine
 62
7
  6
CONTINUOUS
 10
6.7050380174
 20
5.7780312018
 11
6.2856543462
 21
6.2410878548
  0
LWPOLYLINE
  5
29B
100
AcDbEntity
  8
0
100
AcDbPolyline
 62
7
  6
CONTINUOUS
 90
10
 70
0
 10
6.7050378699
 20
5.778031367
 10
6.7120699841
 20
5.7697179428
 10
6.7188417551
 20
5.7604852036
 10
6.7248891742
 20
5.7508894126
 10
6.730200327
 20
5.7409960965
 10
6.7347723819
 20
5.7308623535
 10
6.7386038062
 20
5.7205502363
 10
6.7416973259
 20
5.7101238315
 10
6.7440626647
 20
5.6996395016
 10
6.7447209973
 20
5.6954569251
  0
LINE
  5
29C
100
AcDbEntity
  8
0
100
AcDbLine
 62
7
  6
CONTINUOUS
 10
6.9218691312
 20
5.3666592662
 11
6.8240348016
 21
5.5361132959
  0
LINE
  5
29D
100
AcDbEntity
  8
0
100
AcDbLine
 62
7
  6
CONTINUOUS
 10
7.3807536935
 20
5.5198386693
 11
7.3807536935
 21
5.5211275588
  0
LINE
  5
29E
100
AcDbEntity
  8
0
100
AcDbLine
 62
7
  6
CONTINUOUS
 10
7.3807536935
 20
5.7155497798
 11
7.3807536935
 21
5.7168386693
  0
LINE
  5
29F
100
AcDbEntity
  8
0
100
AcDbLine
 62
7
  6
CONTINUOUS
 10
7.4107536935
 20
5.5198386693
 11
7.4107536935
 21
5.7168386693
  0
LINE
  5
2A0
100
AcDbEntity
  8
0
100
AcDbLine
 62
7
  6
CONTINUOUS
 10
7.5107536935
 20
5.4775886693
 11
7.5107536935
 21
5.7590886693
  0
LINE
  5
2A1
100
AcDbEntity
  8
0
100
AcDbLine
 62
7
  6
CONTINUOUS
 10
6.2672991016
 20
6.7777920326
 11
5.4913456115
 21
6.7777920326
  0
LINE
  5
2A2
100
AcDbEntity
  8
0
100
AcDbLine
 62
7
  6
CONTINUOUS
 10
4.7477525916
 20
6.7777920326
 11
3.9717991016
 21
6.7777920326
  0
LINE
  5
2A3
100
AcDbEntity
  8
0
100
AcDbLine
 62
7
  6
CONTINUOUS
 10
6.2190209648
 20
6.244215868
 11
6.0517582652
 21
6.3407850326
  0
LINE
  5
2A4
100
AcDbEntity
  8
0
100
AcDbLine
 62
7
  6
CONTINUOUS
 10
5.3505833274
 20
6.7506603865
 11
5.1697648757
 21
6.8550559683
  0
LINE
  5
2A5
100
AcDbEntity
  8
0
100
AcDbLine
 62
7
  6
CONTINUOUS
 10
7.0210036935
 20
5.6603386693
 11
7.0290036935
 21
5.6323087165
  0
LINE
  5
2A6
100
AcDbEntity
  8
0
100
AcDbLine
 62
7
  6
CONTINUOUS
 10
7.5632536935
 20
5.4775886693
 11
7.5632536935
 21
5.7590886693
  0
LINE
  5
2A7
100
AcDbEntity
  8
0
100
AcDbLine
 62
7
  6
CONTINUOUS
 10
7.002012396
 20
6.0459990428
 11
6.5642991016
 21
6.5292940972
  0
LINE
  5
2A8
100
AcDbEntity
  8
0
100
AcDbLine
 62
7
  6
CONTINUOUS
 10
7.4055850784
 20
5.7168386693
 11
7.3171621245
 21
5.8699917181
  0
LINE
  5
2A9
100
AcDbEntity
  8
0
100
AcDbLine
 62
7
  6
CONTINUOUS
 10
6.3155772383
 20
6.8743611973
 11
6.5160209648
 21
6.7586349578
  0
LINE
  5
2AA
100
AcDbEntity
  8
0
100
AcDbLine
 62
7
  6
CONTINUOUS
 10
8.7077536935
 20
5.4775886693
 11
8.7077536935
 21
5.7590886693
  0
LINE
  5
2AB
100
AcDbEntity
  8
0
100
AcDbLine
 62
7
  6
CONTINUOUS
 10
8.7477536935
 20
5.4775886693
 11
8.7477536935
 21
5.7590886693
  0
LINE
  5
2AC
100
AcDbEntity
  8
0
100
AcDbLine
 62
7
  6
CONTINUOUS
 10
8.7577536935
 20
5.7490886693
 11
8.7577536935
 21
5.4875886693
  0
LINE
  5
2AD
100
AcDbEntity
  8
0
100
AcDbLine
 62
7
  6
CONTINUOUS
 10
8.7577536935
 20
5.7490886693
 11
8.7477536935
 21
5.7590886693
  0
ARC
  5
2AE
100
AcDbEntity
  8
0
100
AcDbCircle
 62
7
  6
CONTINUOUS
 10
1.6200595182
 20
5.6183846122
 40
0.1867604167
100
AcDbArc
 50
137.9864211385
 51
222.0135788615
  0
ARC
  5
2AF
100
AcDbEntity
  8
0
100
AcDbCircle
 62
7
  6
CONTINUOUS
 10
3.1195491016
 20
5.6183846122
 40
0.47925
100
AcDbArc
 50
13.2319401321
 51
23.1635658491
  0
ARC
  5
2B0
100
AcDbEntity
  8
0
100
AcDbCircle
 62
7
  6
CONTINUOUS
 10
3.1195491016
 20
5.6183846122
 40
0.47925
100
AcDbArc
 50
72.4972564783
 51
163.0304111637
  0
ARC
  5
2B1
100
AcDbEntity
  8
0
100
AcDbCircle
 62
7
  6
CONTINUOUS
 10
3.1195491016
 20
5.6183846122
 40
0.47925
100
AcDbArc
 50
197.0064212551
 51
346.7679484792
  0
ARC
  5
2B2
100
AcDbEntity
  8
0
100
AcDbCircle
 62
7
  6
CONTINUOUS
 10
3.1195491016
 20
5.6183846122
 40
0.4646873857
100
AcDbArc
 50
12.6303920433
 51
22.3365452022
  0
ARC
  5
2B3
100
AcDbEntity
  8
0
100
AcDbCircle
 62
7
  6
CONTINUOUS
 10
3.1195491016
 20
5.6183846122
 40
0.4646873857
100
AcDbArc
 50
73.3242771251
 51
162.3676401061
  0
ARC
  5
2B4
100
AcDbEntity
  8
0
100
AcDbCircle
 62
7
  6
CONTINUOUS
 10
3.1195491016
 20
5.6183846122
 40
0.4646873857
100
AcDbArc
 50
197.631917834
 51
347.3696702632
  0
ARC
  5
2B5
100
AcDbEntity
  8
0
100
AcDbCircle
 62
7
  6
CONTINUOUS
 10
3.1195491016
 20
5.6183846122
 40
0.375
100
AcDbArc
 50
199.446110573
 51
348.531032127
  0
ARC
  5
2B6
100
AcDbEntity
  8
0
100
AcDbCircle
 62
7
  6
CONTINUOUS
 10
3.1195491016
 20
5.6183846122
 40
0.375
100
AcDbArc
 50
90.2138189299
 51
160.5545435656
  0
ARC
  5
2B7
100
AcDbEntity
  8
0
100
AcDbCircle
 62
6
  6
CONTINUOUS
 10
3.1195491016
 20
5.6183846122
 40
0.32
100
AcDbArc
 50
291.8556020443
 51
308.1443979557
  0
ARC
  5
2B8
100
AcDbEntity
  8
0
100
AcDbCircle
 62
6
  6
CONTINUOUS
 10
3.1195491016
 20
5.6183846122
 40
0.32
100
AcDbArc
 50
51.8556020443
 51
68.1443979557
  0
ARC
  5
2B9
100
AcDbEntity
  8
0
100
AcDbCircle
 62
6
  6
CONTINUOUS
 10
3.1195491016
 20
5.6183846122
 40
0.32
100
AcDbArc
 50
111.8556020443
 51
128.1443979557
  0
ARC
  5
2BA
100
AcDbEntity
  8
0
100
AcDbCircle
 62
6
  6
CONTINUOUS
 10
3.1195491016
 20
5.6183846122
 40
0.32
100
AcDbArc
 50
231.8556020443
 51
248.1443979557
  0
ARC
  5
2BB
100
AcDbEntity
  8
0
100
AcDbCircle
 62
7
  6
CONTINUOUS
 10
3.1195491016
 20
5.6183846122
 40
0.3124631454
100
AcDbArc
 50
14.6026623046
 51
22.1432424753
  0
ARC
  5
2BC
100
AcDbEntity
  8
0
100
AcDbCircle
 62
7
  6
CONTINUOUS
 10
3.1195491016
 20
5.6183846122
 40
0.3124631454
100
AcDbArc
 50
311.9080782684
 51
345.3983980823
  0
ARC
  5
2BD
100
AcDbEntity
  8
0
100
AcDbCircle
 62
7
  6
CONTINUOUS
 10
3.1195491016
 20
5.6183846122
 40
0.3124631454
100
AcDbArc
 50
251.9081847063
 51
288.0907147459
  0
ARC
  5
2BE
100
AcDbEntity
  8
0
100
AcDbCircle
 62
7
  6
CONTINUOUS
 10
3.1195491016
 20
5.6183846122
 40
0.3124631454
100
AcDbArc
 50
198.7530684787
 51
227.8304111639
  0
ARC
  5
2BF
100
AcDbEntity
  8
0
100
AcDbCircle
 62
7
  6
CONTINUOUS
 10
3.1195491016
 20
5.6183846122
 40
0.3124631454
100
AcDbArc
 50
131.9075606931
 51
161.2471403817
  0
ARC
  5
2C0
100
AcDbEntity
  8
0
100
AcDbCircle
 62
7
  6
CONTINUOUS
 10
3.1195491016
 20
5.6183846122
 40
0.3124631454
100
AcDbArc
 50
73.6049676567
 51
108.0942997117
  0
ARC
  5
2C1
100
AcDbEntity
  8
0
100
AcDbCircle
 62
6
  6
CONTINUOUS
 10
3.1195491016
 20
5.6183846122
 40
0.3101065748
100
AcDbArc
 50
286.7173853211
 51
313.2826146789
  0
ARC
  5
2C2
100
AcDbEntity
  8
0
100
AcDbCircle
 62
6
  6
CONTINUOUS
 10
3.1195491016
 20
5.6183846122
 40
0.3101065748
100
AcDbArc
 50
106.7173853211
 51
133.2826146789
  0
ARC
  5
2C3
100
AcDbEntity
  8
0
100
AcDbCircle
 62
6
  6
CONTINUOUS
 10
3.1195491016
 20
5.6183846122
 40
0.3101065748
100
AcDbArc
 50
226.7173853211
 51
253.2826146789
  0
ARC
  5
2C4
100
AcDbEntity
  8
0
100
AcDbCircle
 62
6
  6
CONTINUOUS
 10
3.1195491016
 20
5.6183846122
 40
0.3101065748
100
AcDbArc
 50
46.7173853211
 51
73.2826146789
  0
CIRCLE
  5
2C5
100
AcDbEntity
  8
0
100
AcDbCircle
 62
7
  6
CONTINUOUS
 10
3.1195491016
 20
5.6183846122
 40
0.27875
  0
CIRCLE
  5
2C6
100
AcDbEntity
  8
0
100
AcDbCircle
 62
7
  6
CONTINUOUS
 10
3.1195491016
 20
5.6183846122
 40
0.2645961576
  0
CIRCLE
  5
2C7
100
AcDbEntity
  8
0
100
AcDbCircle
 62
7
  6
CONTINUOUS
 10
3.1195491016
 20
5.6183846122
 40
0.26375
  0
CIRCLE
  5
2C8
100
AcDbEntity
  8
0
100
AcDbCircle
 62
7
  6
CONTINUOUS
 10
3.1195491016
 20
5.6183846122
 40
0.2526402106
  0
CIRCLE
  5
2C9
100
AcDbEntity
  8
0
100
AcDbCircle
 62
7
  6
CONTINUOUS
 10
3.1195491016
 20
5.6183846122
 40
0.2272549781
  0
CIRCLE
  5
2CA
100
AcDbEntity
  8
0
100
AcDbCircle
 62
7
  6
CONTINUOUS
 10
3.1195491016
 20
5.6183846122
 40
0.2085229279
  0
CIRCLE
  5
2CB
100
AcDbEntity
  8
0
100
AcDbCircle
 62
7
  6
CONTINUOUS
 10
3.1195491016
 20
5.6183846122
 40
0.1975723198
  0
ARC
  5
2CC
100
AcDbEntity
  8
0
100
AcDbCircle
 62
7
  6
CONTINUOUS
 10
3.1603107547
 20
6.0586967389
 40
0.1483583678
100
AcDbArc
 50
291.6623211277
 51
292.7030016974
  0
ARC
  5
2CD
100
AcDbEntity
  8
0
100
AcDbCircle
 62
7
  6
CONTINUOUS
 10
3.1661045336
 20
6.043699118
 40
0.1322813425
100
AcDbArc
 50
288.3477186643
 51
291.7279673369
  0
ARC
  5
2CE
100
AcDbEntity
  8
0
100
AcDbCircle
 62
7
  6
CONTINUOUS
 10
3.6457991016
 20
5.6183846122
 40
0.125
100
AcDbArc
 50
235.0995
 51
124.9005
  0
ARC
  5
2CF
100
AcDbEntity
  8
0
100
AcDbCircle
 62
7
  6
CONTINUOUS
 10
3.2971630497
 20
5.946066772
 40
0.0936774067
100
AcDbArc
 50
197.3428893324
 51
199.1214851453
  0
ARC
  5
2D0
100
AcDbEntity
  8
0
100
AcDbCircle
 62
7
  6
CONTINUOUS
 10
3.4600829625
 20
5.4548846122
 40
0.093
100
AcDbArc
 50
46.6958241996
 51
131.7081302521
  0
ARC
  5
2D1
100
AcDbEntity
  8
0
100
AcDbCircle
 62
7
  6
CONTINUOUS
 10
3.4600829625
 20
5.7818846122
 40
0.093
100
AcDbArc
 50
228.2918697479
 51
313.3041758004
  0
ARC
  5
2D2
100
AcDbEntity
  8
0
100
AcDbCircle
 62
7
  6
CONTINUOUS
 10
3.3878939744
 20
5.5358846122
 40
0.0155
100
AcDbArc
 50
270.0
 51
311.7081302521
  0
ARC
  5
2D3
100
AcDbEntity
  8
0
100
AcDbCircle
 62
7
  6
CONTINUOUS
 10
3.3878939744
 20
5.7008846122
 40
0.0155
100
AcDbArc
 50
48.2918697479
 51
90.0
  0
ARC
  5
2D4
100
AcDbEntity
  8
0
100
AcDbCircle
 62
7
  6
CONTINUOUS
 10
3.5293559731
 20
5.5283846122
 40
0.008
100
AcDbArc
 50
226.6958241996
 51
360.0
  0
ARC
  5
2D5
100
AcDbEntity
  8
0
100
AcDbCircle
 62
7
  6
CONTINUOUS
 10
3.5293559731
 20
5.7083846122
 40
0.008
100
AcDbArc
 50
0.0
 51
133.3041758004
  0
ARC
  5
2D6
100
AcDbEntity
  8
0
100
AcDbCircle
 62
7
  6
CONTINUOUS
 10
3.5451197135
 20
5.5264547584
 40
0.008
100
AcDbArc
 50
55.0995
 51
166.0407512246
  0
ARC
  5
2D7
100
AcDbEntity
  8
0
100
AcDbCircle
 62
7
  6
CONTINUOUS
 10
3.5451197135
 20
5.7103144659
 40
0.008
100
AcDbArc
 50
193.9592487754
 51
304.9005
  0
ARC
  5
2D8
100
AcDbEntity
  8
0
100
AcDbCircle
 62
7
  6
CONTINUOUS
 10
3.9717991016
 20
6.5592885326
 40
0.31875
100
AcDbArc
 50
261.2884072271
 51
278.7115927729
  0
ARC
  5
2D9
100
AcDbEntity
  8
0
100
AcDbCircle
 62
7
  6
CONTINUOUS
 10
3.9717991016
 20
6.5592885326
 40
0.31875
100
AcDbArc
 50
201.2884072271
 51
218.7115927729
  0
ARC
  5
2DA
100
AcDbEntity
  8
0
100
AcDbCircle
 62
7
  6
CONTINUOUS
 10
3.9717991016
 20
6.5592885326
 40
0.31875
100
AcDbArc
 50
81.2884072271
 51
98.7115927729
  0
ARC
  5
2DB
100
AcDbEntity
  8
0
100
AcDbCircle
 62
7
  6
CONTINUOUS
 10
3.9717991016
 20
6.5592885326
 40
0.31875
100
AcDbArc
 50
141.2884072271
 51
158.7115927729
  0
ARC
  5
2DC
100
AcDbEntity
  8
0
100
AcDbCircle
 62
7
  6
CONTINUOUS
 10
3.9717991016
 20
6.5592885326
 40
0.285
100
AcDbArc
 50
50.0630391907
 51
309.9369608093
  0
ARC
  5
2DD
100
AcDbEntity
  8
0
100
AcDbCircle
 62
7
  6
CONTINUOUS
 10
3.9717991016
 20
6.5592885326
 40
0.2185035
100
AcDbArc
 50
90.0
 51
270.0
  0
ARC
  5
2DE
100
AcDbEntity
  8
0
100
AcDbCircle
 62
7
  6
CONTINUOUS
 10
4.7477525916
 20
6.2782850326
 40
0.0625
100
AcDbArc
 50
37.0819585086
 51
90.0
  0
ARC
  5
2DF
100
AcDbEntity
  8
0
100
AcDbCircle
 62
7
  6
CONTINUOUS
 10
4.7477525916
 20
6.8402907215
 40
0.0624997084
100
AcDbArc
 50
270.0
 51
322.9179473889
  0
ARC
  5
2E0
100
AcDbEntity
  8
0
100
AcDbCircle
 62
7
  6
CONTINUOUS
 10
5.1195491016
 20
2.0592885326
 40
0.28
100
AcDbArc
 50
141.4153739014
 51
38.5846260986
  0
ARC
  5
2E1
100
AcDbEntity
  8
0
100
AcDbCircle
 62
7
  6
CONTINUOUS
 10
5.1195491016
 20
2.0592885326
 40
0.25
100
AcDbArc
 50
151.0501682893
 51
28.9498317107
  0
ARC
  5
2E2
100
AcDbEntity
  8
0
100
AcDbCircle
 62
7
  6
CONTINUOUS
 10
5.1195491016
 20
2.0592885326
 40
0.21875
100
AcDbArc
 50
180.0
 51
360.0
  0
ARC
  5
2E3
100
AcDbEntity
  8
0
100
AcDbCircle
 62
7
  6
CONTINUOUS
 10
6.5932536935
 20
5.6183386693
 40
0.125
100
AcDbArc
 50
55.0995
 51
304.9005
  0
ARC
  5
2E4
100
AcDbEntity
  8
0
100
AcDbCircle
 62
7
  6
CONTINUOUS
 10
6.7789698325
 20
5.7818386693
 40
0.093
100
AcDbArc
 50
226.6958241996
 51
311.7081302521
  0
ARC
  5
2E5
100
AcDbEntity
  8
0
100
AcDbCircle
 62
7
  6
CONTINUOUS
 10
6.7789698325
 20
5.4548386693
 40
0.093
100
AcDbArc
 50
48.2918697479
 51
133.3041758004
  0
ARC
  5
2E6
100
AcDbEntity
  8
0
100
AcDbCircle
 62
7
  6
CONTINUOUS
 10
6.8511588206
 20
5.7008386693
 40
0.0155
100
AcDbArc
 50
90.0
 51
131.7081302521
  0
ARC
  5
2E7
100
AcDbEntity
  8
0
100
AcDbCircle
 62
7
  6
CONTINUOUS
 10
6.8511588206
 20
5.5358386693
 40
0.0155
100
AcDbArc
 50
228.2918697479
 51
270.0
  0
ARC
  5
2E8
100
AcDbEntity
  8
0
100
AcDbCircle
 62
7
  6
CONTINUOUS
 10
6.7096968219
 20
5.7083386693
 40
0.008
100
AcDbArc
 50
46.6958241996
 51
180.0
  0
ARC
  5
2E9
100
AcDbEntity
  8
0
100
AcDbCircle
 62
7
  6
CONTINUOUS
 10
6.7096968219
 20
5.5283386693
 40
0.008
100
AcDbArc
 50
180.0
 51
313.3041758004
  0
ARC
  5
2EA
100
AcDbEntity
  8
0
100
AcDbCircle
 62
7
  6
CONTINUOUS
 10
6.6939330815
 20
5.7102685231
 40
0.008
100
AcDbArc
 50
235.0995
 51
346.0407512246
  0
ARC
  5
2EB
100
AcDbEntity
  8
0
100
AcDbCircle
 62
7
  6
CONTINUOUS
 10
6.6939330815
 20
5.5264088156
 40
0.008
100
AcDbArc
 50
13.9592487754
 51
124.9005
  0
ARC
  5
2EC
100
AcDbEntity
  8
0
100
AcDbCircle
 62
7
  6
CONTINUOUS
 10
5.1195491016
 20
6.5592885326
 40
0.4035425
100
AcDbArc
 50
37.0819585113
 51
142.9182045806
  0
ARC
  5
2ED
100
AcDbEntity
  8
0
100
AcDbCircle
 62
7
  6
CONTINUOUS
 10
5.1195491016
 20
6.5592885326
 40
0.4035425
100
AcDbArc
 50
217.0819585073
 51
237.1607379126
  0
ARC
  5
2EE
100
AcDbEntity
  8
0
100
AcDbCircle
 62
7
  6
CONTINUOUS
 10
5.1195491016
 20
6.5592885326
 40
0.4035425
100
AcDbArc
 50
302.8392620874
 51
322.9182048286
  0
ARC
  5
2EF
100
AcDbEntity
  8
0
100
AcDbCircle
 62
7
  6
CONTINUOUS
 10
5.1195491016
 20
6.5592885326
 40
0.375
100
AcDbArc
 50
305.7073093675
 51
234.2926906325
  0
ARC
  5
2F0
100
AcDbEntity
  8
0
100
AcDbCircle
 62
7
  6
CONTINUOUS
 10
6.2672991016
 20
6.5592885326
 40
0.31875
100
AcDbArc
 50
321.2884072271
 51
338.7115927729
  0
ARC
  5
2F1
100
AcDbEntity
  8
0
100
AcDbCircle
 62
7
  6
CONTINUOUS
 10
6.2672991016
 20
6.5592885326
 40
0.31875
100
AcDbArc
 50
261.2884072271
 51
278.7115927729
  0
ARC
  5
2F2
100
AcDbEntity
  8
0
100
AcDbCircle
 62
7
  6
CONTINUOUS
 10
6.2672991016
 20
6.5592885326
 40
0.31875
100
AcDbArc
 50
81.2884072271
 51
98.7115927729
  0
ARC
  5
2F3
100
AcDbEntity
  8
0
100
AcDbCircle
 62
7
  6
CONTINUOUS
 10
6.2672991016
 20
6.5592885326
 40
0.31875
100
AcDbArc
 50
21.2884072271
 51
38.7115927729
  0
ARC
  5
2F4
100
AcDbEntity
  8
0
100
AcDbCircle
 62
7
  6
CONTINUOUS
 10
5.1195491016
 20
6.5592885326
 40
0.3
100
AcDbArc
 50
316.820612715
 51
223.179387285
  0
ARC
  5
2F5
100
AcDbEntity
  8
0
100
AcDbCircle
 62
7
  6
CONTINUOUS
 10
6.2672991016
 20
6.5592885326
 40
0.285
100
AcDbArc
 50
230.0620397287
 51
129.9379602713
  0
ARC
  5
2F6
100
AcDbEntity
  8
0
100
AcDbCircle
 62
7
  6
CONTINUOUS
 10
5.1195491016
 20
6.5592885326
 40
0.25
100
AcDbArc
 50
331.050234361
 51
208.949765639
  0
ARC
  5
2F7
100
AcDbEntity
  8
0
100
AcDbCircle
 62
7
  6
CONTINUOUS
 10
5.1195491016
 20
6.5592885326
 40
0.21875
100
AcDbArc
 50
0.0
 51
180.0
  0
ARC
  5
2F8
100
AcDbEntity
  8
0
100
AcDbCircle
 62
7
  6
CONTINUOUS
 10
6.2672991016
 20
6.5592885326
 40
0.2185035
100
AcDbArc
 50
270.0
 51
90.0
  0
ARC
  5
2F9
100
AcDbEntity
  8
0
100
AcDbCircle
 62
7
  6
CONTINUOUS
 10
5.4913456115
 20
6.8402920326
 40
0.0625
100
AcDbArc
 50
217.0819585064
 51
270.0
  0
ARC
  5
2FA
100
AcDbEntity
  8
0
100
AcDbCircle
 62
7
  6
CONTINUOUS
 10
5.4913456115
 20
6.2782863458
 40
0.0624997079
100
AcDbArc
 50
90.0
 51
142.9179472451
  0
ARC
  5
2FB
100
AcDbEntity
  8
0
100
AcDbCircle
 62
7
  6
CONTINUOUS
 10
7.1195375974
 20
5.6183012348
 40
0.47925
100
AcDbArc
 50
156.8333594937
 51
166.7820625388
  0
ARC
  5
2FC
100
AcDbEntity
  8
0
100
AcDbCircle
 62
7
  6
CONTINUOUS
 10
7.11953813
 20
5.6183006467
 40
0.47925
100
AcDbArc
 50
17.0107055673
 51
107.4999963308
  0
ARC
  5
2FD
100
AcDbEntity
  8
0
100
AcDbCircle
 62
7
  6
CONTINUOUS
 10
7.11953813
 20
5.6183006467
 40
0.47925
100
AcDbArc
 50
193.2261067096
 51
342.9987494626
  0
ARC
  5
2FE
100
AcDbEntity
  8
0
100
AcDbCircle
 62
7
  6
CONTINUOUS
 10
7.1195372319
 20
5.6183016383
 40
0.4646873857
100
AcDbArc
 50
17.6370338078
 51
106.6726608902
  0
ARC
  5
2FF
100
AcDbEntity
  8
0
100
AcDbCircle
 62
7
  6
CONTINUOUS
 10
7.1195372319
 20
5.6183016383
 40
0.4646873857
100
AcDbArc
 50
157.6606949343
 51
167.367324674
  0
ARC
  5
300
100
AcDbEntity
  8
0
100
AcDbCircle
 62
7
  6
CONTINUOUS
 10
7.1195372319
 20
5.6183016383
 40
0.4646873857
100
AcDbArc
 50
192.6237676465
 51
342.3725680584
  0
ARC
  5
301
100
AcDbEntity
  8
0
100
AcDbCircle
 62
7
  6
CONTINUOUS
 10
7.1195237344
 20
5.6183165414
 40
0.375
100
AcDbArc
 50
19.4498692227
 51
89.8625964412
  0
ARC
  5
302
100
AcDbEntity
  8
0
100
AcDbCircle
 62
7
  6
CONTINUOUS
 10
7.1195237344
 20
5.6183165414
 40
0.375
100
AcDbArc
 50
191.4646102336
 51
340.5559213146
  0
ARC
  5
303
100
AcDbEntity
  8
0
100
AcDbCircle
 62
7
  6
CONTINUOUS
 10
7.1195156279
 20
5.6183254921
 40
0.32
100
AcDbArc
 50
291.8556020443
 51
308.1443979557
  0
ARC
  5
304
100
AcDbEntity
  8
0
100
AcDbCircle
 62
7
  6
CONTINUOUS
 10
7.1195156279
 20
5.6183254921
 40
0.32
100
AcDbArc
 50
51.8556020443
 51
68.1443979557
  0
ARC
  5
305
100
AcDbEntity
  8
0
100
AcDbCircle
 62
7
  6
CONTINUOUS
 10
7.1195156279
 20
5.6183254921
 40
0.32
100
AcDbArc
 50
111.8556020443
 51
128.1443979557
  0
ARC
  5
306
100
AcDbEntity
  8
0
100
AcDbCircle
 62
7
  6
CONTINUOUS
 10
7.1195156279
 20
5.6183254921
 40
0.32
100
AcDbArc
 50
231.8556020443
 51
248.1443979557
  0
ARC
  5
307
100
AcDbEntity
  8
0
100
AcDbCircle
 62
7
  6
CONTINUOUS
 10
7.1195200654
 20
5.6183205924
 40
0.3124631454
100
AcDbArc
 50
71.9067269056
 51
106.4795092138
  0
ARC
  5
308
100
AcDbEntity
  8
0
100
AcDbCircle
 62
7
  6
CONTINUOUS
 10
7.1195200654
 20
5.6183205924
 40
0.3124631454
100
AcDbArc
 50
18.7571802942
 51
48.0908438113
  0
ARC
  5
309
100
AcDbEntity
  8
0
100
AcDbCircle
 62
7
  6
CONTINUOUS
 10
7.1195200654
 20
5.6183205924
 40
0.3124631454
100
AcDbArc
 50
312.166677912
 51
341.2489968194
  0
ARC
  5
30A
100
AcDbEntity
  8
0
100
AcDbCircle
 62
7
  6
CONTINUOUS
 10
7.1195200654
 20
5.6183205924
 40
0.3124631454
100
AcDbArc
 50
251.9006995399
 51
288.0948751648
  0
ARC
  5
30B
100
AcDbEntity
  8
0
100
AcDbCircle
 62
7
  6
CONTINUOUS
 10
7.1195200654
 20
5.6183205924
 40
0.3124631454
100
AcDbArc
 50
194.6008378056
 51
228.0891023063
  0
ARC
  5
30C
100
AcDbEntity
  8
0
100
AcDbCircle
 62
7
  6
CONTINUOUS
 10
7.1195200654
 20
5.6183205924
 40
0.3124631454
100
AcDbArc
 50
157.9412344147
 51
165.3923992102
  0
ARC
  5
30D
100
AcDbEntity
  8
0
100
AcDbCircle
 62
7
  6
CONTINUOUS
 10
7.1195156279
 20
5.6183254921
 40
0.3101065748
100
AcDbArc
 50
226.7173853211
 51
253.2826146789
  0
ARC
  5
30E
100
AcDbEntity
  8
0
100
AcDbCircle
 62
7
  6
CONTINUOUS
 10
7.1195156279
 20
5.6183254921
 40
0.3101065748
100
AcDbArc
 50
106.7173853211
 51
133.2826146789
  0
ARC
  5
30F
100
AcDbEntity
  8
0
100
AcDbCircle
 62
7
  6
CONTINUOUS
 10
7.1195156279
 20
5.6183254921
 40
0.3101065748
100
AcDbArc
 50
46.7173853211
 51
73.2826146789
  0
ARC
  5
310
100
AcDbEntity
  8
0
100
AcDbCircle
 62
7
  6
CONTINUOUS
 10
7.1195156279
 20
5.6183254921
 40
0.3101065748
100
AcDbArc
 50
286.7173853211
 51
313.2826146789
  0
CIRCLE
  5
311
100
AcDbEntity
  8
0
100
AcDbCircle
 62
7
  6
CONTINUOUS
 10
7.1195036935
 20
5.6183386693
 40
0.27875
  0
CIRCLE
  5
312
100
AcDbEntity
  8
0
100
AcDbCircle
 62
7
  6
CONTINUOUS
 10
7.1195036935
 20
5.6183386693
 40
0.2645961576
  0
CIRCLE
  5
313
100
AcDbEntity
  8
0
100
AcDbCircle
 62
7
  6
CONTINUOUS
 10
7.1195036935
 20
5.6183386693
 40
0.26375
  0
CIRCLE
  5
314
100
AcDbEntity
  8
0
100
AcDbCircle
 62
7
  6
CONTINUOUS
 10
7.1195036935
 20
5.6183386693
 40
0.2526402106
  0
CIRCLE
  5
315
100
AcDbEntity
  8
0
100
AcDbCircle
 62
7
  6
CONTINUOUS
 10
7.1195036935
 20
5.6183386693
 40
0.2272549781
  0
CIRCLE
  5
316
100
AcDbEntity
  8
0
100
AcDbCircle
 62
7
  6
CONTINUOUS
 10
7.1195036935
 20
5.6183386693
 40
0.2085229177
  0
CIRCLE
  5
317
100
AcDbEntity
  8
0
100
AcDbCircle
 62
7
  6
CONTINUOUS
 10
7.1195036935
 20
5.6183386693
 40
0.1975723283
  0
ARC
  5
318
100
AcDbEntity
  8
0
100
AcDbCircle
 62
7
  6
CONTINUOUS
 10
7.0905099769
 20
5.6189850149
 40
0.0510620031
100
AcDbArc
 50
168.7223909513
 51
180.7252724697
  0
ARC
  5
319
100
AcDbEntity
  8
0
100
AcDbCircle
 62
7
  6
CONTINUOUS
 10
7.2313437523
 20
5.6195886693
 40
0.0484904022
100
AcDbArc
 50
341.5554984784
 51
18.4445015219
  0
ARC
  5
31A
100
AcDbEntity
  8
0
100
AcDbCircle
 62
7
  6
CONTINUOUS
 10
7.0080036833
 20
5.6186489819
 40
0.0424999898
100
AcDbArc
 50
158.3999630144
 51
201.6000370117
  0
ARC
  5
31B
100
AcDbEntity
  8
0
100
AcDbCircle
 62
7
  6
CONTINUOUS
 10
6.9867578044
 20
5.6202797152
 40
0.0348655737
100
AcDbArc
 50
15.9249994076
 51
31.267890197
  0
ARC
  5
31C
100
AcDbEntity
  8
0
100
AcDbCircle
 62
7
  6
CONTINUOUS
 10
7.0764590764
 20
6.0550403784
 40
0.1444854884
100
AcDbArc
 50
246.9412049079
 51
248.8529038342
  0
ARC
  5
31D
100
AcDbEntity
  8
0
100
AcDbCircle
 62
7
  6
CONTINUOUS
 10
7.0705760282
 20
6.0395292573
 40
0.127896585
100
AcDbArc
 50
248.8040826687
 51
251.9193925971
  0
ARC
  5
31E
100
AcDbEntity
  8
0
100
AcDbCircle
 62
7
  6
CONTINUOUS
 10
6.9413846861
 20
5.9460781242
 40
0.0938146944
100
AcDbArc
 50
340.918215381
 51
342.5517916015
  0
ARC
  5
31F
100
AcDbEntity
  8
0
100
AcDbCircle
 62
7
  6
CONTINUOUS
 10
8.6189932768
 20
5.6183386693
 40
0.1867604167
100
AcDbArc
 50
317.9864211385
 51
42.0135788615
  0
SPLINE
  5
320
100
AcDbEntity
  8
0
100
AcDbSpline
 62
7
  6
CONTINUOUS
 70
0
 71
3
 72
62
 73
58
 74
0
 42
0.0000001
 43
0.0000001
 44
0.0000000001
 40
0.0
 40
0.0
 40
0.0
 40
0.0
 40
0.0625058478
 40
0.1250116984
 40
0.1875175451
 40
0.2500233955
 40
0.3125292481
 40
0.3750350983
 40
0.4375409495
 40
0.4687944195
 40
0.5000478893
 40
0.5313013594
 40
0.5625548295
 40
0.5938082997
 40
0.6250617693
 40
0.6406885724
 40
0.6563153762
 40
0.6719421791
 40
0.6875689806
 40
0.6953823917
 40
0.7031958041
 40
0.7110092088
 40
0.7188226202
 40
0.7227293366
 40
0.7266360214
 40
0.7305427269
 40
0.7324961411
 40
0.7344495452
 40
0.7364028465
 40
0.7383560344
 40
0.7403096975
 40
0.7422631717
 40
0.7432394447
 40
0.7442161798
 40
0.7451929936
 40
0.7461696608
 40
0.7481229839
 40
0.7500763306
 40
0.7520296652
 40
0.7539830059
 40
0.7578896879
 40
0.7617963682
 40
0.7657030083
 40
0.7735159959
 40
0.7813290045
 40
0.7891419947
 40
0.7969549865
 40
0.8125784938
 40
0.8282019987
 40
0.8438255034
 40
0.8594490386
 40
0.8750724529
 40
0.9062996021
 40
0.9219232739
 40
0.9375465651
 40
0.9687732879
 40
1.0
 40
1.0
 40
1.0
 40
1.0
 10
7.5632536935
 20
5.4775886693
 30
0.0
 10
7.5878237461
 20
5.4787132697
 30
0.0
 10
7.6369923958
 20
5.480382116
 30
0.0
 10
7.710782311
 20
5.4811436437
 30
0.0
 10
7.7845700784
 20
5.4801631616
 30
0.0
 10
7.8583139849
 20
5.4774403826
 30
0.0
 10
7.9319731342
 20
5.4729772524
 30
0.0
 10
8.0055061655
 20
5.4667763825
 30
0.0
 10
8.0666454691
 20
5.4601634643
 30
0.0
 10
8.1154517953
 20
5.4540083347
 30
0.0
 10
8.1519999994
 20
5.4489600483
 30
0.0
 10
8.1884860061
 20
5.4434806648
 30
0.0
 10
8.224904805
 20
5.4375709249
 30
0.0
 10
8.2612512614
 20
5.4312316198
 30
0.0
 10
8.2914756024
 20
5.4255916128
 30
0.0
 10
8.3156137109
 20
5.4208657863
 30
0.0
 10
8.3336961222
 20
5.4172146145
 30
0.0
 10
8.3517566536
 20
5.4134567597
 30
0.0
 10
8.3667883489
 20
5.4102363535
 30
0.0
 10
8.378802138
 20
5.4076068931
 30
0.0
 10
8.3878066509
 20
5.405608319
 30
0.0
 10
8.3968051617
 20
5.403582894
 30
0.0
 10
8.404298872
 20
5.4018727499
 30
0.0
 10
8.4102910364
 20
5.4004924602
 30
0.0
 10
8.4147833004
 20
5.3994492027
 30
0.0
 10
8.4185254139
 20
5.3985735674
 30
0.0
 10
8.421519394
 20
5.3978741631
 30
0.0
 10
8.4237643925
 20
5.3973475588
 30
0.0
 10
8.4260083363
 20
5.3968168947
 30
0.0
 10
8.4282492196
 20
5.3962727593
 30
0.0
 10
8.4304950169
 20
5.3957497801
 30
0.0
 10
8.432371221
 20
5.3953320363
 30
0.0
 10
8.4338526569
 20
5.3949203556
 30
0.0
 10
8.434954202
 20
5.3945801386
 30
0.0
 10
8.4360574435
 20
5.3942449079
 30
0.0
 10
8.4375347716
 20
5.3938195549
 30
0.0
 10
8.4393846804
 20
5.393299666
 30
0.0
 10
8.4416081917
 20
5.3926887505
 30
0.0
 10
8.4438373054
 20
5.3920985226
 30
0.0
 10
8.4468168131
 20
5.3913399356
 30
0.0
 10
8.4505541805
 20
5.3904434674
 30
0.0
 10
8.4550572334
 20
5.3894469005
 30
0.0
 10
8.461083579
 20
5.3882241128
 30
0.0
 10
8.4686562468
 20
5.3868985678
 30
0.0
 10
8.4777941177
 20
5.3856335349
 30
0.0
 10
8.4869714763
 20
5.3846951699
 30
0.0
 10
8.4992432342
 20
5.383881938
 30
0.0
 10
8.514626198
 20
5.3836880453
 30
0.0
 10
8.5330530011
 20
5.3847730271
 30
0.0
 10
8.5513555486
 20
5.3871703453
 30
0.0
 10
8.569441345
 20
5.3908683309
 30
0.0
 10
8.5931293188
 20
5.3975009179
 30
0.0
 10
8.6160498688
 20
5.4066614993
 30
0.0
 10
8.6377856683
 20
5.418181014
 30
0.0
 10
8.658646656
 20
5.4312232331
 30
0.0
 10
8.6828850511
 20
5.4502762709
 30
0.0
 10
8.6999259966
 20
5.4681170467
 30
0.0
 10
8.7077536935
 20
5.4775886693
 30
0.0
  0
SPLINE
  5
321
100
AcDbEntity
  8
0
100
AcDbSpline
 62
7
  6
CONTINUOUS
 70
0
 71
3
 72
62
 73
58
 74
0
 42
0.0000001
 43
0.0000001
 44
0.0000000001
 40
0.0
 40
0.0
 40
0.0
 40
0.0
 40
0.0625058478
 40
0.1250116984
 40
0.1875175451
 40
0.2500233955
 40
0.3125292481
 40
0.3750350983
 40
0.4375409495
 40
0.4687944195
 40
0.5000478893
 40
0.5313013594
 40
0.5625548295
 40
0.5938082997
 40
0.6250617693
 40
0.6406885724
 40
0.6563153762
 40
0.6719421791
 40
0.6875689806
 40
0.6953823917
 40
0.7031958041
 40
0.7110092088
 40
0.7188226202
 40
0.7227293366
 40
0.7266360214
 40
0.7305427269
 40
0.7324961411
 40
0.7344495452
 40
0.7364028465
 40
0.7383560344
 40
0.7403096975
 40
0.7422631717
 40
0.7432394447
 40
0.7442161798
 40
0.7451929936
 40
0.7461696608
 40
0.7481229839
 40
0.7500763306
 40
0.7520296652
 40
0.7539830059
 40
0.7578896879
 40
0.7617963682
 40
0.7657030083
 40
0.7735159959
 40
0.7813290045
 40
0.7891419947
 40
0.7969549865
 40
0.8125784938
 40
0.8282019987
 40
0.8438255034
 40
0.8594490386
 40
0.8750724529
 40
0.9062996021
 40
0.9219232739
 40
0.9375465651
 40
0.9687732879
 40
1.0
 40
1.0
 40
1.0
 40
1.0
 10
7.5632536935
 20
5.7590886693
 30
0.0
 10
7.5878237461
 20
5.7579640689
 30
0.0
 10
7.6369923958
 20
5.7562952227
 30
0.0
 10
7.710782311
 20
5.7555336949
 30
0.0
 10
7.7845700784
 20
5.7565141771
 30
0.0
 10
7.8583139849
 20
5.759236956
 30
0.0
 10
7.9319731342
 20
5.7637000862
 30
0.0
 10
8.0055061655
 20
5.7699009561
 30
0.0
 10
8.0666454691
 20
5.7765138743
 30
0.0
 10
8.1154517953
 20
5.7826690039
 30
0.0
 10
8.1519999994
 20
5.7877172903
 30
0.0
 10
8.1884860061
 20
5.7931966739
 30
0.0
 10
8.224904805
 20
5.7991064138
 30
0.0
 10
8.2612512614
 20
5.8054457189
 30
0.0
 10
8.2914756024
 20
5.8110857258
 30
0.0
 10
8.3156137109
 20
5.8158115523
 30
0.0
 10
8.3336961222
 20
5.8194627241
 30
0.0
 10
8.3517566536
 20
5.823220579
 30
0.0
 10
8.3667883489
 20
5.8264409851
 30
0.0
 10
8.378802138
 20
5.8290704455
 30
0.0
 10
8.3878066509
 20
5.8310690196
 30
0.0
 10
8.3968051617
 20
5.8330944446
 30
0.0
 10
8.404298872
 20
5.8348045887
 30
0.0
 10
8.4102910364
 20
5.8361848784
 30
0.0
 10
8.4147833004
 20
5.8372281359
 30
0.0
 10
8.4185254139
 20
5.8381037712
 30
0.0
 10
8.421519394
 20
5.8388031755
 30
0.0
 10
8.4237643925
 20
5.8393297798
 30
0.0
 10
8.4260083363
 20
5.8398604439
 30
0.0
 10
8.4282492196
 20
5.8404045793
 30
0.0
 10
8.4304950169
 20
5.8409275585
 30
0.0
 10
8.432371221
 20
5.8413453024
 30
0.0
 10
8.4338526569
 20
5.8417569831
 30
0.0
 10
8.434954202
 20
5.8420972
 30
0.0
 10
8.4360574435
 20
5.8424324307
 30
0.0
 10
8.4375347716
 20
5.8428577838
 30
0.0
 10
8.4393846804
 20
5.8433776727
 30
0.0
 10
8.4416081917
 20
5.8439885882
 30
0.0
 10
8.4438373054
 20
5.844578816
 30
0.0
 10
8.4468168131
 20
5.845337403
 30
0.0
 10
8.4505541805
 20
5.8462338712
 30
0.0
 10
8.4550572334
 20
5.8472304381
 30
0.0
 10
8.461083579
 20
5.8484532258
 30
0.0
 10
8.4686562468
 20
5.8497787708
 30
0.0
 10
8.4777941177
 20
5.8510438037
 30
0.0
 10
8.4869714763
 20
5.8519821687
 30
0.0
 10
8.4992432342
 20
5.8527954007
 30
0.0
 10
8.514626198
 20
5.8529892933
 30
0.0
 10
8.5330530011
 20
5.8519043115
 30
0.0
 10
8.5513555486
 20
5.8495069933
 30
0.0
 10
8.569441345
 20
5.8458090077
 30
0.0
 10
8.5931293188
 20
5.8391764207
 30
0.0
 10
8.6160498688
 20
5.8300158394
 30
0.0
 10
8.6377856683
 20
5.8184963246
 30
0.0
 10
8.658646656
 20
5.8054541055
 30
0.0
 10
8.6828850511
 20
5.7864010677
 30
0.0
 10
8.6999259966
 20
5.7685602919
 30
0.0
 10
8.7077536935
 20
5.7590886693
 30
0.0
  0
SPLINE
  5
322
100
AcDbEntity
  8
0
100
AcDbSpline
 62
7
  6
CONTINUOUS
 70
0
 71
3
 72
62
 73
58
 74
0
 42
0.0000001
 43
0.0000001
 44
0.0000000001
 40
0.0
 40
0.0
 40
0.0
 40
0.0
 40
0.0625058478
 40
0.1250116984
 40
0.1875175451
 40
0.2500233955
 40
0.3125292481
 40
0.3750350983
 40
0.4375409495
 40
0.4687944195
 40
0.5000478893
 40
0.5313013594
 40
0.5625548295
 40
0.5938082997
 40
0.6250617693
 40
0.6406885724
 40
0.6563153762
 40
0.6719421791
 40
0.6875689806
 40
0.6953823917
 40
0.7031958041
 40
0.7110092088
 40
0.7188226202
 40
0.7227293366
 40
0.7266360214
 40
0.7305427269
 40
0.7324961411
 40
0.7344495452
 40
0.7364028465
 40
0.7383560344
 40
0.7403096975
 40
0.7422631717
 40
0.7432394447
 40
0.7442161798
 40
0.7451929936
 40
0.7461696608
 40
0.7481229839
 40
0.7500763306
 40
0.7520296652
 40
0.7539830059
 40
0.7578896879
 40
0.7617963682
 40
0.7657030083
 40
0.7735159959
 40
0.7813290045
 40
0.7891419947
 40
0.7969549865
 40
0.8125784938
 40
0.8282019987
 40
0.8438255034
 40
0.8594490386
 40
0.8750724529
 40
0.9062996021
 40
0.9219232739
 40
0.9375465651
 40
0.9687732879
 40
1.0
 40
1.0
 40
1.0
 40
1.0
 10
2.6757991016
 20
5.7591346122
 30
0.0
 10
2.651229049
 20
5.7580100118
 30
0.0
 10
2.6020603993
 20
5.7563411655
 30
0.0
 10
2.5282704841
 20
5.7555796377
 30
0.0
 10
2.4544827167
 20
5.7565601199
 30
0.0
 10
2.3807388101
 20
5.7592828988
 30
0.0
 10
2.3070796608
 20
5.7637460291
 30
0.0
 10
2.2335466295
 20
5.769946899
 30
0.0
 10
2.1724073259
 20
5.7765598172
 30
0.0
 10
2.1236009998
 20
5.7827149467
 30
0.0
 10
2.0870527957
 20
5.7877632332
 30
0.0
 10
2.0505667889
 20
5.7932426167
 30
0.0
 10
2.01414799
 20
5.7991523566
 30
0.0
 10
1.9778015336
 20
5.8054916617
 30
0.0
 10
1.9475771927
 20
5.8111316687
 30
0.0
 10
1.9234390841
 20
5.8158574952
 30
0.0
 10
1.9053566728
 20
5.8195086669
 30
0.0
 10
1.8872961414
 20
5.8232665218
 30
0.0
 10
1.8722644462
 20
5.826486928
 30
0.0
 10
1.860250657
 20
5.8291163884
 30
0.0
 10
1.8512461441
 20
5.8311149625
 30
0.0
 10
1.8422476333
 20
5.8331403874
 30
0.0
 10
1.834753923
 20
5.8348505316
 30
0.0
 10
1.8287617586
 20
5.8362308212
 30
0.0
 10
1.8242694946
 20
5.8372740788
 30
0.0
 10
1.8205273811
 20
5.8381497141
 30
0.0
 10
1.817533401
 20
5.8388491184
 30
0.0
 10
1.8152884026
 20
5.8393757226
 30
0.0
 10
1.8130444588
 20
5.8399063868
 30
0.0
 10
1.8108035754
 20
5.8404505222
 30
0.0
 10
1.8085577781
 20
5.8409735014
 30
0.0
 10
1.806681574
 20
5.8413912452
 30
0.0
 10
1.8052001381
 20
5.8418029259
 30
0.0
 10
1.804098593
 20
5.8421431428
 30
0.0
 10
1.8029953516
 20
5.8424783736
 30
0.0
 10
1.8015180235
 20
5.8429037266
 30
0.0
 10
1.7996681147
 20
5.8434236155
 30
0.0
 10
1.7974446034
 20
5.844034531
 30
0.0
 10
1.7952154897
 20
5.8446247589
 30
0.0
 10
1.7922359819
 20
5.8453833458
 30
0.0
 10
1.7884986146
 20
5.846279814
 30
0.0
 10
1.7839955616
 20
5.8472763809
 30
0.0
 10
1.777969216
 20
5.8484991686
 30
0.0
 10
1.7703965482
 20
5.8498247137
 30
0.0
 10
1.7612586773
 20
5.8510897466
 30
0.0
 10
1.7520813187
 20
5.8520281116
 30
0.0
 10
1.7398095608
 20
5.8528413435
 30
0.0
 10
1.724426597
 20
5.8530352362
 30
0.0
 10
1.7059997939
 20
5.8519502544
 30
0.0
 10
1.6876972465
 20
5.8495529362
 30
0.0
 10
1.66961145
 20
5.8458549505
 30
0.0
 10
1.6459234763
 20
5.8392223635
 30
0.0
 10
1.6230029263
 20
5.8300617822
 30
0.0
 10
1.6012671267
 20
5.8185422675
 30
0.0
 10
1.5804061391
 20
5.8055000484
 30
0.0
 10
1.556167744
 20
5.7864470105
 30
0.0
 10
1.5391267984
 20
5.7686062348
 30
0.0
 10
1.5312991016
 20
5.7591346122
 30
0.0
  0
SPLINE
  5
323
100
AcDbEntity
  8
0
100
AcDbSpline
 62
7
  6
CONTINUOUS
 70
0
 71
3
 72
62
 73
58
 74
0
 42
0.0000001
 43
0.0000001
 44
0.0000000001
 40
0.0
 40
0.0
 40
0.0
 40
0.0
 40
0.0625058478
 40
0.1250116984
 40
0.1875175451
 40
0.2500233955
 40
0.3125292481
 40
0.3750350983
 40
0.4375409495
 40
0.4687944195
 40
0.5000478893
 40
0.5313013594
 40
0.5625548295
 40
0.5938082997
 40
0.6250617693
 40
0.6406885724
 40
0.6563153762
 40
0.6719421791
 40
0.6875689806
 40
0.6953823917
 40
0.7031958041
 40
0.7110092088
 40
0.7188226202
 40
0.7227293366
 40
0.7266360214
 40
0.7305427269
 40
0.7324961411
 40
0.7344495452
 40
0.7364028465
 40
0.7383560344
 40
0.7403096975
 40
0.7422631717
 40
0.7432394447
 40
0.7442161798
 40
0.7451929936
 40
0.7461696608
 40
0.7481229839
 40
0.7500763306
 40
0.7520296652
 40
0.7539830059
 40
0.7578896879
 40
0.7617963682
 40
0.7657030083
 40
0.7735159959
 40
0.7813290045
 40
0.7891419947
 40
0.7969549865
 40
0.8125784938
 40
0.8282019987
 40
0.8438255034
 40
0.8594490386
 40
0.8750724529
 40
0.9062996021
 40
0.9219232739
 40
0.9375465651
 40
0.9687732879
 40
1.0
 40
1.0
 40
1.0
 40
1.0
 10
2.6757991016
 20
5.4776346122
 30
0.0
 10
2.651229049
 20
5.4787592126
 30
0.0
 10
2.6020603993
 20
5.4804280588
 30
0.0
 10
2.5282704841
 20
5.4811895866
 30
0.0
 10
2.4544827167
 20
5.4802091044
 30
0.0
 10
2.3807388101
 20
5.4774863255
 30
0.0
 10
2.3070796608
 20
5.4730231953
 30
0.0
 10
2.2335466295
 20
5.4668223253
 30
0.0
 10
2.1724073259
 20
5.4602094072
 30
0.0
 10
2.1236009998
 20
5.4540542776
 30
0.0
 10
2.0870527957
 20
5.4490059911
 30
0.0
 10
2.0505667889
 20
5.4435266076
 30
0.0
 10
2.01414799
 20
5.4376168677
 30
0.0
 10
1.9778015336
 20
5.4312775626
 30
0.0
 10
1.9475771927
 20
5.4256375557
 30
0.0
 10
1.9234390841
 20
5.4209117292
 30
0.0
 10
1.9053566728
 20
5.4172605574
 30
0.0
 10
1.8872961414
 20
5.4135027025
 30
0.0
 10
1.8722644462
 20
5.4102822964
 30
0.0
 10
1.860250657
 20
5.4076528359
 30
0.0
 10
1.8512461441
 20
5.4056542619
 30
0.0
 10
1.8422476333
 20
5.4036288369
 30
0.0
 10
1.834753923
 20
5.4019186928
 30
0.0
 10
1.8287617586
 20
5.4005384031
 30
0.0
 10
1.8242694946
 20
5.3994951455
 30
0.0
 10
1.8205273811
 20
5.3986195102
 30
0.0
 10
1.817533401
 20
5.397920106
 30
0.0
 10
1.8152884026
 20
5.3973935017
 30
0.0
 10
1.8130444588
 20
5.3968628376
 30
0.0
 10
1.8108035754
 20
5.3963187022
 30
0.0
 10
1.8085577781
 20
5.395795723
 30
0.0
 10
1.806681574
 20
5.3953779791
 30
0.0
 10
1.8052001381
 20
5.3949662984
 30
0.0
 10
1.804098593
 20
5.3946260815
 30
0.0
 10
1.8029953516
 20
5.3942908508
 30
0.0
 10
1.8015180235
 20
5.3938654977
 30
0.0
 10
1.7996681147
 20
5.3933456088
 30
0.0
 10
1.7974446034
 20
5.3927346933
 30
0.0
 10
1.7952154897
 20
5.3921444654
 30
0.0
 10
1.7922359819
 20
5.3913858785
 30
0.0
 10
1.7884986146
 20
5.3904894103
 30
0.0
 10
1.7839955616
 20
5.3894928434
 30
0.0
 10
1.777969216
 20
5.3882700557
 30
0.0
 10
1.7703965482
 20
5.3869445107
 30
0.0
 10
1.7612586773
 20
5.3856794778
 30
0.0
 10
1.7520813187
 20
5.3847411128
 30
0.0
 10
1.7398095608
 20
5.3839278808
 30
0.0
 10
1.724426597
 20
5.3837339882
 30
0.0
 10
1.7059997939
 20
5.3848189699
 30
0.0
 10
1.6876972465
 20
5.3872162881
 30
0.0
 10
1.66961145
 20
5.3909142738
 30
0.0
 10
1.6459234763
 20
5.3975468608
 30
0.0
 10
1.6230029263
 20
5.4067074421
 30
0.0
 10
1.6012671267
 20
5.4182269568
 30
0.0
 10
1.5804061391
 20
5.431269176
 30
0.0
 10
1.556167744
 20
5.4503222138
 30
0.0
 10
1.5391267984
 20
5.4681629896
 30
0.0
 10
1.5312991016
 20
5.4776346122
 30
0.0
  0
SPLINE
  5
324
100
AcDbEntity
  8
0
100
AcDbSpline
 62
7
  6
CONTINUOUS
 70
0
 71
3
 72
17
 73
13
 74
0
 42
0.0000001
 43
0.0000001
 44
0.0000000001
 40
0.0
 40
0.0
 40
0.0
 40
0.0
 40
0.1119601323
 40
0.1700658678
 40
0.2294596018
 40
0.2899992311
 40
0.3515406134
 40
0.477136906
 40
0.6054306118
 40
0.7357645932
 40
0.8675106285
 40
1.0
 40
1.0
 40
1.0
 40
1.0
 10
6.795374976
 20
5.8078960603
 30
0.0
 10
6.7991605377
 20
5.8099167564
 30
0.0
 10
6.8042281115
 20
5.8142401763
 30
0.0
 10
6.8099737021
 20
5.8208822011
 30
0.0
 10
6.8140861215
 20
5.8263372215
 30
0.0
 10
6.8180333179
 20
5.8320640097
 30
0.0
 10
6.8232286962
 20
5.8400098889
 30
0.0
 10
6.8296876161
 20
5.8502292302
 30
0.0
 10
6.8377985397
 20
5.8625234723
 30
0.0
 10
6.8466339499
 20
5.8746095284
 30
0.0
 10
6.8564193264
 20
5.8861599871
 30
0.0
 10
6.8636223421
 20
5.8933020461
 30
0.0
 10
6.867386087
 20
5.8967108226
 30
0.0
  0
SPLINE
  5
325
100
AcDbEntity
  8
0
100
AcDbSpline
 62
7
  6
CONTINUOUS
 70
0
 71
3
 72
22
 73
18
 74
0
 42
0.0000001
 43
0.0000001
 44
0.0000000001
 40
0.0
 40
0.0
 40
0.0
 40
0.0
 40
0.0045721769
 40
0.0109094442
 40
0.0191197128
 40
0.0292415208
 40
0.0552499084
 40
0.0888983454
 40
0.130046337
 40
0.1784984368
 40
0.2340178084
 40
0.2963335642
 40
0.365147557
 40
0.4401404656
 40
0.6072947964
 40
0.7949251923
 40
1.0
 40
1.0
 40
1.0
 40
1.0
 10
3.1181537999
 20
5.9933820072
 30
0.0
 10
3.1183325157
 20
5.9933820468
 30
0.0
 10
3.1187564437
 20
5.9932973568
 30
0.0
 10
3.1194571597
 20
5.9930373769
 30
0.0
 10
3.1203273037
 20
5.9926184378
 30
0.0
 10
3.1218408269
 20
5.991773193
 30
0.0
 10
3.1241328142
 20
5.9902903198
 30
0.0
 10
3.127345599
 20
5.9880087005
 30
0.0
 10
3.1311898525
 20
5.9851041717
 30
0.0
 10
3.1356444807
 20
5.9815920792
 30
0.0
 10
3.1406856302
 20
5.9774888027
 30
0.0
 10
3.146287608
 20
5.9728147481
 30
0.0
 10
3.1524231297
 20
5.9675926736
 30
0.0
 10
3.1616154358
 20
5.9596401845
 30
0.0
 10
3.1742072062
 20
5.9485195804
 30
0.0
 10
3.1904783756
 20
5.9338857596
 30
0.0
 10
3.2018277891
 20
5.9235506839
 30
0.0
 10
3.207744412
 20
5.9181425219
 30
0.0
  0
SPLINE
  5
326
100
AcDbEntity
  8
0
100
AcDbSpline
 62
7
  6
CONTINUOUS
 70
0
 71
3
 72
20
 73
16
 74
0
 42
0.0000001
 43
0.0000001
 44
0.0000000001
 40
0.0
 40
0.0
 40
0.0
 40
0.0
 40
0.0151277354
 40
0.0246809102
 40
0.0357970666
 40
0.0630527134
 40
0.0972793081
 40
0.1385210295
 40
0.1866861236
 40
0.2416097292
 40
0.3030838357
 40
0.4447196841
 40
0.6095729945
 40
0.7954435008
 40
1.0
 40
1.0
 40
1.0
 40
1.0
 10
3.2375786914
 20
6.0466092817
 30
0.0
 10
3.237251666
 20
6.0462473803
 30
0.0
 10
3.2369166379
 20
6.0454860752
 30
0.0
 10
3.2367006263
 20
6.0443553393
 30
0.0
 10
3.236592306
 20
6.0428088998
 30
0.0
 10
3.2367568589
 20
6.0404660174
 30
0.0
 10
3.2373314765
 20
6.0372007658
 30
0.0
 10
3.2383095738
 20
6.0333333474
 30
0.0
 10
3.2396937185
 20
6.0288885406
 30
0.0
 10
3.2414879301
 20
6.0238935711
 30
0.0
 10
3.2445799451
 20
6.0161680853
 30
0.0
 10
3.2495139759
 20
6.0053707121
 30
0.0
 10
3.256823179
 20
5.9912720544
 30
0.0
 10
3.2657769436
 20
5.9757610621
 30
0.0
 10
3.2725452984
 20
5.9651409471
 30
0.0
 10
3.2762097372
 20
5.9596570045
 30
0.0
  0
LINE
  5
327
100
AcDbEntity
  8
0
100
AcDbLine
 62
7
  6
CONTINUOUS
 10
7.030883115
 20
5.9179484793
 11
7.0342047589
 21
5.9210076639
  0
SPLINE
  5
328
100
AcDbEntity
  8
0
100
AcDbSpline
 62
7
  6
CONTINUOUS
 70
0
 71
3
 72
22
 73
18
 74
0
 42
0.0000001
 43
0.0000001
 44
0.0000000001
 40
0.0
 40
0.0
 40
0.0
 40
0.0
 40
0.2051588841
 40
0.3925889397
 40
0.5593915469
 40
0.6341934376
 40
0.7028290985
 40
0.7649965544
 40
0.8204151292
 40
0.8688292815
 40
0.9100123644
 40
0.9437767397
 40
0.9699925983
 40
0.9802577821
 40
0.9886414349
 40
0.9951855543
 40
1.0
 40
1.0
 40
1.0
 40
1.0
 10
7.0342047589
 20
5.9210076639
 30
0.0
 10
7.0398818598
 20
5.9262314199
 30
0.0
 10
7.0507690481
 20
5.9362019997
 30
0.0
 10
7.0663836566
 20
5.9502971018
 30
0.0
 10
7.0784674409
 20
5.9609872887
 30
0.0
 10
7.0872902792
 20
5.9686201066
 30
0.0
 10
7.0931811668
 20
5.9736276521
 30
0.0
 10
7.0985641629
 20
5.9781067369
 30
0.0
 10
7.103414379
 20
5.9820365916
 30
0.0
 10
7.1077081427
 20
5.9853985904
 30
0.0
 10
7.1114229387
 20
5.9881780842
 30
0.0
 10
7.1145385931
 20
5.9903613858
 30
0.0
 10
7.1167704716
 20
5.9917787804
 30
0.0
 10
7.1182525705
 20
5.9925857567
 30
0.0
 10
7.1191123867
 20
5.9929867397
 30
0.0
 10
7.1198121006
 20
5.9932358169
 30
0.0
 10
7.120237177
 20
5.9933152905
 30
0.0
 10
7.1204182179
 20
5.9933154653
 30
0.0
  0
SPLINE
  5
329
100
AcDbEntity
  8
0
100
AcDbSpline
 62
7
  6
CONTINUOUS
 70
0
 71
3
 72
11
 73
7
 74
0
 42
0.0000001
 43
0.0000001
 44
0.0000000001
 40
0.0
 40
0.0
 40
0.0
 40
0.0
 40
0.2334217204
 40
0.4816822575
 40
0.7392135134
 40
1.0
 40
1.0
 40
1.0
 40
1.0
 10
7.0198676483
 20
5.9220987874
 30
0.0
 10
7.0149909868
 20
5.9241726107
 30
0.0
 10
7.0051451297
 20
5.9289740074
 30
0.0
 10
6.9907289248
 20
5.937598597
 30
0.0
 10
6.9765188787
 20
5.9476740123
 30
0.0
 10
6.967439672
 20
5.9551794682
 30
0.0
 10
6.9630197586
 20
5.9591186697
 30
0.0
  0
SPLINE
  5
32A
100
AcDbEntity
  8
0
100
AcDbSpline
 62
7
  6
CONTINUOUS
 70
0
 71
3
 72
20
 73
16
 74
0
 42
0.0000001
 43
0.0000001
 44
0.0000000001
 40
0.0
 40
0.0
 40
0.0
 40
0.0
 40
0.2043067548
 40
0.3898917109
 40
0.5544472125
 40
0.6958156801
 40
0.7571889605
 40
0.8120490967
 40
0.860202071
 40
0.9014953719
 40
0.9358482294
 40
0.9633257755
 40
0.9745998395
 40
0.9843490779
 40
1.0
 40
1.0
 40
1.0
 40
1.0
 10
6.9630197586
 20
5.9591186697
 30
0.0
 10
6.9667434567
 20
5.9645692621
 30
0.0
 10
6.9736182808
 20
5.9751315182
 30
0.0
 10
6.9827032552
 20
5.9905781258
 30
0.0
 10
6.9901084341
 20
6.0046329736
 30
0.0
 10
6.9950971024
 20
6.0154090689
 30
0.0
 10
6.9982136231
 20
6.0231283126
 30
0.0
 10
7.0000167295
 20
6.0281257995
 30
0.0
 10
7.001400848
 20
6.0325800344
 30
0.0
 10
7.0023704675
 20
6.0364638444
 30
0.0
 10
7.0029298145
 20
6.0397520074
 30
0.0
 10
7.0030743052
 20
6.0421180964
 30
0.0
 10
7.0029460222
 20
6.0436847982
 30
0.0
 10
7.0027092107
 20
6.0448433576
 30
0.0
 10
7.0023534126
 20
6.0456215954
 30
0.0
 10
7.0020144081
 20
6.0459968122
 30
0.0
  0
SPLINE
  5
32B
100
AcDbEntity
  8
0
100
AcDbSpline
 62
7
  6
CONTINUOUS
 70
0
 71
3
 72
9
 73
5
 74
0
 42
0.0000001
 43
0.0000001
 44
0.0000000001
 40
0.0
 40
0.0
 40
0.0
 40
0.0
 40
0.4937687
 40
1.0
 40
1.0
 40
1.0
 40
1.0
 10
3.3911945123
 20
5.7418566863
 30
0.0
 10
3.3940050004
 20
5.7406061224
 30
0.0
 10
3.3998386654
 20
5.7383799959
 30
0.0
 10
3.4058793227
 20
5.7368037906
 30
0.0
 10
3.4089665877
 20
5.7361593903
 30
0.0
  0
SPLINE
  5
32C
100
AcDbEntity
  8
0
100
AcDbSpline
 62
7
  6
CONTINUOUS
 70
0
 71
3
 72
17
 73
13
 74
0
 42
0.0000001
 43
0.0000001
 44
0.0000000001
 40
0.0
 40
0.0
 40
0.0
 40
0.0
 40
0.1324455378
 40
0.2641499577
 40
0.3944480981
 40
0.5227232818
 40
0.6483271884
 40
0.7098832705
 40
0.7704443717
 40
0.8298649502
 40
0.8880001689
 40
1.0
 40
1.0
 40
1.0
 40
1.0
 10
3.3716970175
 20
5.8967618051
 30
0.0
 10
3.375454646
 20
5.893358231
 30
0.0
 10
3.3826454277
 20
5.8862268715
 30
0.0
 10
3.3924219655
 20
5.8746992729
 30
0.0
 10
3.4012175617
 20
5.8626105579
 30
0.0
 10
3.4092564818
 20
5.850292871
 30
0.0
 10
3.4156435861
 20
5.8400461444
 30
0.0
 10
3.4207806399
 20
5.832074579
 30
0.0
 10
3.4246855466
 20
5.8263264444
 30
0.0
 10
3.4287570582
 20
5.8208478787
 30
0.0
 10
3.4344510217
 20
5.8141706761
 30
0.0
 10
3.4394776397
 20
5.8098122407
 30
0.0
 10
3.4432389552
 20
5.8077547628
 30
0.0
  0
SPLINE
  5
32D
100
AcDbEntity
  8
0
100
AcDbSpline
 62
7
  6
CONTINUOUS
 70
0
 71
3
 72
11
 73
7
 74
0
 42
0.0000001
 43
0.0000001
 44
0.0000000001
 40
0.0
 40
0.0
 40
0.0
 40
0.0
 40
0.2325021274
 40
0.4806758283
 40
0.7386328302
 40
1.0
 40
1.0
 40
1.0
 40
1.0
 10
3.2175703155
 20
5.9218334933
 30
0.0
 10
3.2225794167
 20
5.923928483
 30
0.0
 10
3.2327109829
 20
5.9288066528
 30
0.0
 10
3.2475671739
 20
5.9376060923
 30
0.0
 10
3.2622455401
 20
5.947920262
 30
0.0
 10
3.2716358401
 20
5.9556154947
 30
0.0
 10
3.2762097372
 20
5.9596570045
 30
0.0
  0
LINE
  5
32E
100
AcDbEntity
  8
0
100
AcDbLine
 62
7
  6
CONTINUOUS
 10
3.2250491016
 20
5.5758846122
 11
3.1885491016
 21
5.5758846122
  0
LINE
  5
32F
100
AcDbEntity
  8
0
100
AcDbLine
 62
7
  6
CONTINUOUS
 10
3.1690491016
 20
5.6603846122
 11
3.2445491016
 21
5.6603846122
  0
LINE
  5
330
100
AcDbEntity
  8
0
100
AcDbLine
 62
7
  6
CONTINUOUS
 10
3.1977991016
 20
5.6183846164
 11
3.1977991016
 21
5.6499346122
  0
SPLINE
  5
331
100
AcDbEntity
  8
0
100
AcDbSpline
 62
7
  6
CONTINUOUS
 70
0
 71
3
 72
17
 73
13
 74
0
 42
0.0000001
 43
0.0000001
 44
0.0000000001
 40
0.0
 40
0.0
 40
0.0
 40
0.0
 40
0.1119607681
 40
0.1700663845
 40
0.229459872
 40
0.2899992226
 40
0.3515402729
 40
0.4771358939
 40
0.6054287987
 40
0.7357633459
 40
0.8675098715
 40
1.0
 40
1.0
 40
1.0
 40
1.0
 10
3.2762097372
 20
5.9596570045
 30
0.0
 10
3.2785941096
 20
5.9560892851
 30
0.0
 10
3.2833964637
 20
5.9514730268
 30
0.0
 10
3.2905730155
 20
5.946410872
 30
0.0
 10
3.2964071842
 20
5.9428568227
 30
0.0
 10
3.3024954909
 20
5.939494025
 30
0.0
 10
3.3109152077
 20
5.9351081197
 30
0.0
 10
3.3217219709
 20
5.9296892246
 30
0.0
 10
3.3347565536
 20
5.9228311243
 30
0.0
 10
3.3476555361
 20
5.9152315714
 30
0.0
 10
3.3601153265
 20
5.9066337921
 30
0.0
 10
3.3679334215
 20
5.9001707798
 30
0.0
 10
3.3716970175
 20
5.8967618051
 30
0.0
  0
SPLINE
  5
332
100
AcDbEntity
  8
0
100
AcDbSpline
 62
7
  6
CONTINUOUS
 70
0
 71
3
 72
13
 73
9
 74
0
 42
0.0000001
 43
0.0000001
 44
0.0000000001
 40
0.0
 40
0.0
 40
0.0
 40
0.0
 40
0.2480354996
 40
0.372746018
 40
0.4978165859
 40
0.6232402633
 40
0.7489349795
 40
1.0
 40
1.0
 40
1.0
 40
1.0
 10
2.9869635997
 20
5.651405907
 30
0.0
 10
2.9881310036
 20
5.6509863751
 30
0.0
 10
2.9898217473
 20
5.65013007
 30
0.0
 10
2.9917405956
 20
5.648529763
 30
0.0
 10
2.9929683797
 20
5.6470991547
 30
0.0
 10
2.9939549048
 20
5.6454870297
 30
0.0
 10
2.9949011864
 20
5.6431511981
 30
0.0
 10
2.9951938519
 20
5.6412549388
 30
0.0
 10
2.9952189234
 20
5.6399995381
 30
0.0
  0
SPLINE
  5
333
100
AcDbEntity
  8
0
100
AcDbSpline
 62
7
  6
CONTINUOUS
 70
0
 71
3
 72
9
 73
5
 74
0
 42
0.0000001
 43
0.0000001
 44
0.0000000001
 40
0.0
 40
0.0
 40
0.0
 40
0.0
 40
0.4582105267
 40
1.0
 40
1.0
 40
1.0
 40
1.0
 10
6.7788285568
 20
5.6888734026
 30
0.0
 10
6.7865113218
 20
5.6961522756
 30
0.0
 10
6.8034713654
 20
5.7118334686
 30
0.0
 10
6.8206165168
 20
5.7273100328
 30
0.0
 10
6.8299294878
 20
5.735668428
 30
0.0
  0
SPLINE
  5
334
100
AcDbEntity
  8
0
100
AcDbSpline
 62
7
  6
CONTINUOUS
 70
0
 71
3
 72
13
 73
9
 74
0
 42
0.0000001
 43
0.0000001
 44
0.0000000001
 40
0.0
 40
0.0
 40
0.0
 40
0.0
 40
0.2498790435
 40
0.3753755114
 40
0.5007292193
 40
0.625947729
 40
0.7510748338
 40
1.0
 40
1.0
 40
1.0
 40
1.0
 10
3.015732152
 20
5.6401764775
 30
0.0
 10
3.0157433577
 20
5.6413823988
 30
0.0
 10
3.0160199701
 20
5.6432064982
 30
0.0
 10
3.0169038464
 20
5.645463172
 30
0.0
 10
3.0178231719
 20
5.6470368788
 30
0.0
 10
3.0189698844
 20
5.6484512492
 30
0.0
 10
3.0207669156
 20
5.6500674973
 30
0.0
 10
3.0223697762
 20
5.6509645927
 30
0.0
 10
3.023487153
 20
5.651405907
 30
0.0
  0
SPLINE
  5
335
100
AcDbEntity
  8
0
100
AcDbSpline
 62
7
  6
CONTINUOUS
 70
0
 71
3
 72
10
 73
6
 74
0
 42
0.0000001
 43
0.0000001
 44
0.0000000001
 40
0.0
 40
0.0
 40
0.0
 40
0.0
 40
0.5427180733
 40
0.7833777857
 40
1.0
 40
1.0
 40
1.0
 40
1.0
 10
3.4089667058
 20
5.7361590999
 30
0.0
 10
3.4184533183
 20
5.7277171115
 30
0.0
 10
3.4321063263
 20
5.7154857425
 30
0.0
 10
3.4493636277
 20
5.6996839166
 30
0.0
 10
3.4571868777
 20
5.6923839875
 30
0.0
 10
3.4608696815
 20
5.6889013717
 30
0.0
  0
SPLINE
  5
336
100
AcDbEntity
  8
0
100
AcDbSpline
 62
7
  6
CONTINUOUS
 70
0
 71
3
 72
11
 73
7
 74
0
 42
0.0000001
 43
0.0000001
 44
0.0000000001
 40
0.0
 40
0.0
 40
0.0
 40
0.0
 40
0.2251412662
 40
0.4721407948
 40
0.7333247375
 40
1.0
 40
1.0
 40
1.0
 40
1.0
 10
3.4089662892
 20
5.7361594531
 30
0.0
 10
3.4102530988
 20
5.7420134796
 30
0.0
 10
3.4138543023
 20
5.7540972011
 30
0.0
 10
3.4214683765
 20
5.7721068733
 30
0.0
 10
3.4312937063
 20
5.7902777142
 30
0.0
 10
3.4390614575
 20
5.8020144042
 30
0.0
 10
3.4432389552
 20
5.8077547628
 30
0.0
  0
SPLINE
  5
337
100
AcDbEntity
  8
0
100
AcDbSpline
 62
7
  6
CONTINUOUS
 70
0
 71
3
 72
11
 73
7
 74
0
 42
0.0000001
 43
0.0000001
 44
0.0000000001
 40
0.0
 40
0.0
 40
0.0
 40
0.0
 40
0.2490162201
 40
0.4985177213
 40
0.7490964908
 40
1.0
 40
1.0
 40
1.0
 40
1.0
 10
3.0187340879
 20
5.625166798
 30
0.0
 10
3.0183456466
 20
5.6251805494
 30
0.0
 10
3.017562604
 20
5.6253265951
 30
0.0
 10
3.0165544568
 20
5.6259816501
 30
0.0
 10
3.0158939043
 20
5.6269890788
 30
0.0
 10
3.0157426927
 20
5.6277772454
 30
0.0
 10
3.015732152
 20
5.6281687339
 30
0.0
  0
SPLINE
  5
338
100
AcDbEntity
  8
0
100
AcDbSpline
 62
7
  6
CONTINUOUS
 70
0
 71
3
 72
11
 73
7
 74
0
 42
0.0000001
 43
0.0000001
 44
0.0000000001
 40
0.0
 40
0.0
 40
0.0
 40
0.0
 40
0.2505338134
 40
0.5008580822
 40
0.750705448
 40
1.0
 40
1.0
 40
1.0
 40
1.0
 10
3.0397476391
 20
5.6281687339
 30
0.0
 10
3.0397335275
 20
5.6277779668
 30
0.0
 10
3.0395859782
 20
5.6269914001
 30
0.0
 10
3.0389273925
 20
5.6259821407
 30
0.0
 10
3.037918187
 20
5.6253278329
 30
0.0
 10
3.0371345425
 20
5.6251806977
 30
0.0
 10
3.0367457032
 20
5.625166798
 30
0.0
  0
SPLINE
  5
339
100
AcDbEntity
  8
0
100
AcDbSpline
 62
7
  6
CONTINUOUS
 70
0
 71
3
 72
20
 73
16
 74
0
 42
0.0000001
 43
0.0000001
 44
0.0000000001
 40
0.0
 40
0.0
 40
0.0
 40
0.0
 40
0.2043031261
 40
0.389884518
 40
0.5544376958
 40
0.6958051814
 40
0.757178264
 40
0.8120385984
 40
0.8601921189
 40
0.9014861464
 40
0.9358408772
 40
0.9633201679
 40
0.974595207
 40
0.9843458184
 40
1.0
 40
1.0
 40
1.0
 40
1.0
 10
3.4432389552
 20
5.8077547628
 30
0.0
 10
3.4490305315
 20
5.8045872461
 30
0.0
 10
3.4602198835
 20
5.7987885393
 30
0.0
 10
3.4764880264
 20
5.7912727537
 30
0.0
 10
3.4912054107
 20
5.7852911425
 30
0.0
 10
3.502421577
 20
5.7813907508
 30
0.0
 10
3.5104109718
 20
5.7790515338
 30
0.0
 10
3.5155622348
 20
5.7777506945
 30
0.0
 10
3.5201315462
 20
5.776813203
 30
0.0
 10
3.5240923152
 20
5.7762317406
 30
0.0
 10
3.5274198775
 20
5.7759999777
 30
0.0
 10
3.5297888769
 20
5.7760899005
 30
0.0
 10
3.5313354106
 20
5.7763723564
 30
0.0
 10
3.5324651147
 20
5.7767225256
 30
0.0
 10
3.5332045311
 20
5.7771535514
 30
0.0
 10
3.5335445439
 20
5.7775280142
 30
0.0
  0
SPLINE
  5
33A
100
AcDbEntity
  8
0
100
AcDbSpline
 62
7
  6
CONTINUOUS
 70
0
 71
3
 72
13
 73
9
 74
0
 42
0.0000001
 43
0.0000001
 44
0.0000000001
 40
0.0
 40
0.0
 40
0.0
 40
0.0
 40
0.2490191845
 40
0.3739832417
 40
0.499104875
 40
0.6244093019
 40
0.7498067835
 40
1.0
 40
1.0
 40
1.0
 40
1.0
 10
3.031992638
 20
5.651405907
 30
0.0
 10
3.0331041088
 20
5.6509490621
 30
0.0
 10
3.0347047271
 20
5.6500569769
 30
0.0
 10
3.0365113948
 20
5.6484520611
 30
0.0
 10
3.0376597823
 20
5.6470408122
 30
0.0
 10
3.0385774583
 20
5.645467592
 30
0.0
 10
3.0394544668
 20
5.6432067903
 30
0.0
 10
3.0397237263
 20
5.6413836027
 30
0.0
 10
3.0397476391
 20
5.6401764775
 30
0.0
  0
SPLINE
  5
33B
100
AcDbEntity
  8
0
100
AcDbSpline
 62
7
  6
CONTINUOUS
 70
0
 71
3
 72
20
 73
16
 74
0
 42
0.0000001
 43
0.0000001
 44
0.0000000001
 40
0.0
 40
0.0
 40
0.0
 40
0.0
 40
0.0151244792
 40
0.0246763058
 40
0.0357914392
 40
0.0630453645
 40
0.0972703062
 40
0.1385110696
 40
0.1866756038
 40
0.2415991013
 40
0.303073361
 40
0.4447102103
 40
0.6095658044
 40
0.7954398764
 40
1.0
 40
1.0
 40
1.0
 40
1.0
 10
6.7050378695
 20
5.7780313704
 30
0.0
 10
6.7053656481
 20
5.7776703092
 30
0.0
 10
6.7060900802
 20
5.777261941
 30
0.0
 10
6.7071938066
 20
5.7769355715
 30
0.0
 10
6.7087218651
 20
5.7766753434
 30
0.0
 10
6.7110693528
 20
5.776608084
 30
0.0
 10
6.714375127
 20
5.7768579392
 30
0.0
 10
6.7183199575
 20
5.777449784
 30
0.0
 10
6.7228794384
 20
5.7783887877
 30
0.0
 10
6.7280268814
 20
5.779681514
 30
0.0
 10
6.7360195286
 20
5.7819963279
 30
0.0
 10
6.7472507956
 20
5.7858410728
 30
0.0
 10
6.7620016321
 20
5.7917235669
 30
0.0
 10
6.7783202067
 20
5.7991032489
 30
0.0
 10
6.7895562624
 20
5.8047906348
 30
0.0
 10
6.795374976
 20
5.8078960603
 30
0.0
  0
SPLINE
  5
33C
100
AcDbEntity
  8
0
100
AcDbSpline
 62
7
  6
CONTINUOUS
 70
0
 71
3
 72
13
 73
9
 74
0
 42
0.0000001
 43
0.0000001
 44
0.0000000001
 40
0.0
 40
0.0
 40
0.0
 40
0.0
 40
0.2495009729
 40
0.3748831072
 40
0.5001405107
 40
0.6253633505
 40
0.7506588082
 40
1.0
 40
1.0
 40
1.0
 40
1.0
 10
3.0602608677
 20
5.6399995381
 30
0.0
 10
3.0602698938
 20
5.6412474816
 30
0.0
 10
3.0605681015
 20
5.6431368904
 30
0.0
 10
3.061515917
 20
5.6454602122
 30
0.0
 10
3.0624994122
 20
5.6470722819
 30
0.0
 10
3.0637232911
 20
5.6485098537
 30
0.0
 10
3.0656345184
 20
5.650133818
 30
0.0
 10
3.0673351165
 20
5.651005267
 30
0.0
 10
3.0685161914
 20
5.651405907
 30
0.0
  0
SPLINE
  5
33D
100
AcDbEntity
  8
0
100
AcDbSpline
 62
7
  6
CONTINUOUS
 70
0
 71
3
 72
31
 73
27
 74
0
 42
0.0000001
 43
0.0000001
 44
0.0000000001
 40
0.0
 40
0.0
 40
0.0
 40
0.0
 40
0.0623461105
 40
0.0936829842
 40
0.1250568001
 40
0.1875299334
 40
0.2187172853
 40
0.2499770849
 40
0.3124498984
 40
0.3748946145
 40
0.4062024242
 40
0.4374976476
 40
0.4999288652
 40
0.5311662651
 40
0.5624279396
 40
0.5937203978
 40
0.6250318013
 40
0.6874792104
 40
0.7187456513
 40
0.7500460534
 40
0.7813133959
 40
0.8125036456
 40
0.8749643934
 40
0.906330651
 40
0.9376584902
 40
1.0
 40
1.0
 40
1.0
 40
1.0
 10
3.1580739455
 20
5.6183846122
 30
0.0
 10
3.1581592038
 20
5.6210748395
 30
0.0
 10
3.157877623
 20
5.6251403759
 30
0.0
 10
3.1568096638
 20
5.6304365173
 30
0.0
 10
3.1553255798
 20
5.6356365052
 30
0.0
 10
3.1532156603
 20
5.6406462206
 30
0.0
 10
3.1503380532
 20
5.6452209368
 30
0.0
 10
3.1469411696
 20
5.6494231211
 30
0.0
 10
3.141818224
 20
5.6539060658
 30
0.0
 10
3.1358196491
 20
5.6571062184
 30
0.0
 10
3.1307274629
 20
5.6589187023
 30
0.0
 10
3.1254873475
 20
5.660240524
 30
0.0
 10
3.1200790444
 20
5.6607973275
 30
0.0
 10
3.1146850202
 20
5.6605296863
 30
0.0
 10
3.1106737657
 20
5.6599303093
 30
0.0
 10
3.1067361124
 20
5.658945292
 30
0.0
 10
3.1016412553
 20
5.657144513
 30
0.0
 10
3.0968289878
 20
5.6545929414
 30
0.0
 10
3.092558685
 20
5.6512751292
 30
0.0
 10
3.0896670462
 20
5.6484246394
 30
0.0
 10
3.0871263471
 20
5.6452613557
 30
0.0
 10
3.0842710609
 20
5.6406728463
 30
0.0
 10
3.0821979343
 20
5.6356477453
 30
0.0
 10
3.0807489255
 20
5.6304395119
 30
0.0
 10
3.0797080769
 20
5.6251389879
 30
0.0
 10
3.0794372906
 20
5.621074617
 30
0.0
 10
3.0795232953
 20
5.6183846122
 30
0.0
  0
SPLINE
  5
33E
100
AcDbEntity
  8
0
100
AcDbSpline
 62
7
  6
CONTINUOUS
 70
0
 71
3
 72
11
 73
7
 74
0
 42
0.0000001
 43
0.0000001
 44
0.0000000001
 40
0.0
 40
0.0
 40
0.0
 40
0.0
 40
0.2493267125
 40
0.4992907149
 40
0.7497673224
 40
1.0
 40
1.0
 40
1.0
 40
1.0
 10
3.1963486281
 20
5.6514559392
 30
0.0
 10
3.1965431086
 20
5.6514495903
 30
0.0
 10
3.1969353102
 20
5.6513758534
 30
0.0
 10
3.1974393743
 20
5.651047505
 30
0.0
 10
3.1977690977
 20
5.6505436197
 30
0.0
 10
3.1978439853
 20
5.6501501819
 30
0.0
 10
3.1978495961
 20
5.6499549713
 30
0.0
  0
SPLINE
  5
33F
100
AcDbEntity
  8
0
100
AcDbSpline
 62
7
  6
CONTINUOUS
 70
0
 71
3
 72
11
 73
7
 74
0
 42
0.0000001
 43
0.0000001
 44
0.0000000001
 40
0.0
 40
0.0
 40
0.0
 40
0.0
 40
0.2499577324
 40
0.4999675066
 40
0.7500511861
 40
1.0
 40
1.0
 40
1.0
 40
1.0
 10
3.1688235184
 20
5.6454020352
 30
0.0
 10
3.1697780179
 20
5.6463572543
 30
0.0
 10
3.1718825159
 20
5.6480827461
 30
0.0
 10
3.1754770359
 20
5.6500073433
 30
0.0
 10
3.1793805261
 20
5.651186699
 30
0.0
 10
3.1820886135
 20
5.6514523581
 30
0.0
 10
3.1834389356
 20
5.6514559392
 30
0.0
  0
SPLINE
  5
340
100
AcDbEntity
  8
0
100
AcDbSpline
 62
7
  6
CONTINUOUS
 70
0
 71
3
 72
11
 73
7
 74
0
 42
0.0000001
 43
0.0000001
 44
0.0000000001
 40
0.0
 40
0.0
 40
0.0
 40
0.0
 40
0.2494164083
 40
0.4991012494
 40
0.749421971
 40
1.0
 40
1.0
 40
1.0
 40
1.0
 10
3.2302718718
 20
5.6514559392
 30
0.0
 10
3.231619219
 20
5.6514418778
 30
0.0
 10
3.2343212147
 20
5.6511864541
 30
0.0
 10
3.238224974
 20
5.6500145935
 30
0.0
 10
3.241820515
 20
5.6480862207
 30
0.0
 10
3.2439301974
 20
5.6463593586
 30
0.0
 10
3.2448872891
 20
5.6454020352
 30
0.0
  0
SPLINE
  5
341
100
AcDbEntity
  8
0
100
AcDbSpline
 62
7
  6
CONTINUOUS
 70
0
 71
3
 72
11
 73
7
 74
0
 42
0.0000001
 43
0.0000001
 44
0.0000000001
 40
0.0
 40
0.0
 40
0.0
 40
0.0
 40
0.250858674
 40
0.5011487632
 40
0.7507100701
 40
1.0
 40
1.0
 40
1.0
 40
1.0
 10
3.2158612114
 20
5.6499549713
 30
0.0
 10
3.2158669406
 20
5.6501506684
 30
0.0
 10
3.2159419316
 20
5.650544461
 30
0.0
 10
3.2162720499
 20
5.6510481904
 30
0.0
 10
3.2167759182
 20
5.6513757459
 30
0.0
 10
3.2171677242
 20
5.6514496564
 30
0.0
 10
3.2173621794
 20
5.6514559392
 30
0.0
  0
SPLINE
  5
342
100
AcDbEntity
  8
0
100
AcDbSpline
 62
7
  6
CONTINUOUS
 70
0
 71
3
 72
31
 73
27
 74
0
 42
0.0000001
 43
0.0000001
 44
0.0000000001
 40
0.0
 40
0.0
 40
0.0
 40
0.0
 40
0.0623415002
 40
0.0936693341
 40
0.1250356147
 40
0.1874965407
 40
0.2186867367
 40
0.2499540036
 40
0.2812544279
 40
0.312521042
 40
0.3749685503
 40
0.4062799638
 40
0.4375724583
 40
0.4688342063
 40
0.5000716405
 40
0.5625026967
 40
0.5937979159
 40
0.6251057609
 40
0.6875503993
 40
0.7500230113
 40
0.7812828704
 40
0.8124702567
 40
0.874943208
 40
0.9063169991
 40
0.9376538778
 40
1.0
 40
1.0
 40
1.0
 40
1.0
 10
3.079523284
 20
5.6183846122
 30
0.0
 10
3.0794374579
 20
5.6156946015
 30
0.0
 10
3.0797084811
 20
5.6116302519
 30
0.0
 10
3.0807495643
 20
5.6063297737
 30
0.0
 10
3.08219876
 20
5.6011215828
 30
0.0
 10
3.0842718941
 20
5.596096502
 30
0.0
 10
3.0871269674
 20
5.5915078625
 30
0.0
 10
3.0896674703
 20
5.588344428
 30
0.0
 10
3.0925589198
 20
5.5854937392
 30
0.0
 10
3.0968289776
 20
5.5821755927
 30
0.0
 10
3.1016411477
 20
5.5796237456
 30
0.0
 10
3.1067360507
 20
5.5778230519
 30
0.0
 10
3.1106737696
 20
5.5768382552
 30
0.0
 10
3.1146850791
 20
5.5762391905
 30
0.0
 10
3.1200791269
 20
5.5759720061
 30
0.0
 10
3.1254873681
 20
5.5765293011
 30
0.0
 10
3.130727395
 20
5.5778514297
 30
0.0
 10
3.1358195448
 20
5.5796639881
 30
0.0
 10
3.141818257
 20
5.5828637911
 30
0.0
 10
3.1469415597
 20
5.5873463207
 30
0.0
 10
3.1503387118
 20
5.5915482872
 30
0.0
 10
3.1532165431
 20
5.5961228647
 30
0.0
 10
3.155326461
 20
5.6011326001
 30
0.0
 10
3.1568103538
 20
5.6063326351
 30
0.0
 10
3.1578780665
 20
5.6116288282
 30
0.0
 10
3.1581593942
 20
5.6156943899
 30
0.0
 10
3.1580739455
 20
5.6183846122
 30
0.0
  0
SPLINE
  5
343
100
AcDbEntity
  8
0
100
AcDbSpline
 62
7
  6
CONTINUOUS
 70
0
 71
3
 72
17
 73
13
 74
0
 42
0.0000001
 43
0.0000001
 44
0.0000000001
 40
0.0
 40
0.0
 40
0.0
 40
0.0
 40
0.1251331939
 40
0.2500121712
 40
0.3124047781
 40
0.3747737206
 40
0.4993053396
 40
0.6239359023
 40
0.7488144327
 40
0.8115405107
 40
0.8743277277
 40
1.0
 40
1.0
 40
1.0
 40
1.0
 10
6.9562097253
 20
5.589256707
 30
0.0
 10
6.9587419376
 20
5.5866452738
 30
0.0
 10
6.9644844017
 20
5.582050423
 30
0.0
 10
6.9728257989
 20
5.5782296206
 30
0.0
 10
6.9798800632
 20
5.576457799
 30
0.0
 10
6.9870872822
 20
5.5755649567
 30
0.0
 10
6.996225391
 20
5.5761111296
 30
0.0
 10
7.0066982918
 20
5.5794074437
 30
0.0
 10
7.0145121097
 20
5.5842168459
 30
0.0
 10
7.0199336231
 20
5.5890955685
 30
0.0
 10
7.0247273793
 20
5.5946295526
 30
0.0
 10
7.0274423454
 20
5.5994600667
 30
0.0
 10
7.0289452939
 20
5.6027897932
 30
0.0
  0
SPLINE
  5
344
100
AcDbEntity
  8
0
100
AcDbSpline
 62
7
  6
CONTINUOUS
 70
0
 71
3
 72
15
 73
11
 74
0
 42
0.0000001
 43
0.0000001
 44
0.0000000001
 40
0.0
 40
0.0
 40
0.0
 40
0.0
 40
0.1258260563
 40
0.1887178332
 40
0.2515231507
 40
0.3768504338
 40
0.5019269424
 40
0.6267330653
 40
0.7514966704
 40
1.0
 40
1.0
 40
1.0
 40
1.0
 10
7.0206648983
 20
5.6063309257
 30
0.0
 10
7.0199330364
 20
5.6046733862
 30
0.0
 10
7.018646014
 20
5.6022623369
 30
0.0
 10
7.0165398558
 20
5.5993106992
 30
0.0
 10
7.0141744116
 20
5.5965712882
 30
0.0
 10
7.0107772492
 20
5.5935660761
 30
0.0
 10
7.0061504564
 20
5.5907254633
 30
0.0
 10
7.0011010161
 20
5.5887399976
 30
0.0
 10
6.9940490726
 20
5.5873124576
 30
0.0
 10
6.9885334748
 20
5.5876310998
 30
0.0
 10
6.9850608763
 20
5.5884952288
 30
0.0
  0
SPLINE
  5
345
100
AcDbEntity
  8
0
100
AcDbSpline
 62
7
  6
CONTINUOUS
 70
0
 71
3
 72
12
 73
8
 74
0
 42
0.0000001
 43
0.0000001
 44
0.0000000001
 40
0.0
 40
0.0
 40
0.0
 40
0.0
 40
0.2487032111
 40
0.3735547606
 40
0.49858656
 40
0.7490643444
 40
1.0
 40
1.0
 40
1.0
 40
1.0
 10
6.9850608763
 20
5.5884952288
 30
0.0
 10
6.9832207404
 20
5.5889659392
 30
0.0
 10
6.9805158295
 20
5.5899650777
 30
0.0
 10
6.9772243428
 20
5.5918946718
 30
0.0
 10
6.9741850116
 20
5.5942256784
 30
0.0
 10
6.9709460555
 20
5.5978114283
 30
0.0
 10
6.9691008465
 20
5.601213745
 30
0.0
 10
6.9683907521
 20
5.602993771
 30
0.0
  0
SPLINE
  5
346
100
AcDbEntity
  8
0
100
AcDbSpline
 62
7
  6
CONTINUOUS
 70
0
 71
3
 72
37
 73
33
 74
0
 42
0.0000001
 43
0.0000001
 44
0.0000000001
 40
0.0
 40
0.0
 40
0.0
 40
0.0
 40
0.0625279064
 40
0.1252588296
 40
0.1567026654
 40
0.1880896607
 40
0.2193870753
 40
0.2506667951
 40
0.2820062251
 40
0.3133750119
 40
0.3447008929
 40
0.3759724735
 40
0.4072391537
 40
0.4385009753
 40
0.5008892425
 40
0.5632617951
 40
0.6256150535
 40
0.6879583363
 40
0.7191689819
 40
0.7503789428
 40
0.7815883924
 40
0.8127982918
 40
0.8440072456
 40
0.8752164156
 40
0.9064278892
 40
0.9220375392
 40
0.9376472125
 40
0.9532528162
 40
0.9688752652
 40
0.9844867135
 40
0.9922340925
 40
1.0
 40
1.0
 40
1.0
 40
1.0
 10
7.0394520745
 20
5.6183386693
 30
0.0
 10
7.039421617
 20
5.6157172179
 30
0.0
 10
7.0397568327
 20
5.6104528491
 30
0.0
 10
7.041190917
 20
5.6040111392
 30
0.0
 10
7.0429594102
 20
5.5990465212
 30
0.0
 10
7.0446209377
 20
5.5954598841
 30
0.0
 10
7.0466371791
 20
5.5920661022
 30
0.0
 10
7.0490330058
 20
5.5889292725
 30
0.0
 10
7.0517852345
 20
5.5860967617
 30
0.0
 10
7.0548368474
 20
5.5835878548
 30
0.0
 10
7.0581425757
 20
5.5814301964
 30
0.0
 10
7.0616544416
 20
5.5796387231
 30
0.0
 10
7.065324017
 20
5.5782066406
 30
0.0
 10
7.070364374
 20
5.5767625157
 30
0.0
 10
7.0768847679
 20
5.5758415771
 30
0.0
 10
7.0847665295
 20
5.5762806219
 30
0.0
 10
7.0924192856
 20
5.5781905529
 30
0.0
 10
7.0983948087
 20
5.5809499327
 30
0.0
 10
7.1027641292
 20
5.5838415869
 30
0.0
 10
7.1057849373
 20
5.5863623948
 30
0.0
 10
7.1084942007
 20
5.5892156689
 30
0.0
 10
7.1108528012
 20
5.5923640825
 30
0.0
 10
7.1128598283
 20
5.5957460462
 30
0.0
 10
7.1145156957
 20
5.5993119244
 30
0.0
 10
7.1156174265
 20
5.6023974097
 30
0.0
 10
7.1163333232
 20
5.6049158928
 30
0.0
 10
7.1167913935
 20
5.6068253604
 30
0.0
 10
7.1171886171
 20
5.6087491091
 30
0.0
 10
7.1174859033
 20
5.6106913019
 30
0.0
 10
7.1176515665
 20
5.6123178857
 30
0.0
 10
7.1178447889
 20
5.6136082928
 30
0.0
 10
7.1179208081
 20
5.6142550977
 30
0.0
 10
7.1179385891
 20
5.6145802156
 30
0.0
  0
SPLINE
  5
347
100
AcDbEntity
  8
0
100
AcDbSpline
 62
7
  6
CONTINUOUS
 70
0
 71
3
 72
12
 73
8
 74
0
 42
0.0000001
 43
0.0000001
 44
0.0000000001
 40
0.0
 40
0.0
 40
0.0
 40
0.0
 40
0.249564126
 40
0.4996543563
 40
0.6248969301
 40
0.750332994
 40
1.0
 40
1.0
 40
1.0
 40
1.0
 10
7.1352638569
 20
5.6022135929
 30
0.0
 10
7.1352702647
 20
5.6006166024
 30
0.0
 10
7.1347417855
 20
5.5973969474
 30
0.0
 10
7.1328595523
 20
5.5937900434
 30
0.0
 10
7.1307334921
 20
5.5913745099
 30
0.0
 10
7.1282471131
 20
5.5893409637
 30
0.0
 10
7.1260372153
 20
5.5882780291
 30
0.0
 10
7.12450692
 20
5.5878189877
 30
0.0
  0
SPLINE
  5
348
100
AcDbEntity
  8
0
100
AcDbSpline
 62
7
  6
CONTINUOUS
 70
0
 71
3
 72
12
 73
8
 74
0
 42
0.0000001
 43
0.0000001
 44
0.0000000001
 40
0.0
 40
0.0
 40
0.0
 40
0.0
 40
0.2500330585
 40
0.5002108143
 40
0.6253575151
 40
0.7504790829
 40
1.0
 40
1.0
 40
1.0
 40
1.0
 10
7.1931337712
 20
5.5944416957
 30
0.0
 10
7.1924662003
 20
5.5933481522
 30
0.0
 10
7.190850552
 20
5.5913183198
 30
0.0
 10
7.1882578605
 20
5.5893728201
 30
0.0
 10
7.1859405725
 20
5.5882584693
 30
0.0
 10
7.1834998357
 20
5.5874635691
 30
0.0
 10
7.1815713597
 20
5.5872212232
 30
0.0
 10
7.1802928954
 20
5.5872039134
 30
0.0
  0
SPLINE
  5
349
100
AcDbEntity
  8
0
100
AcDbSpline
 62
7
  6
CONTINUOUS
 70
0
 71
3
 72
14
 73
10
 74
0
 42
0.0000001
 43
0.0000001
 44
0.0000000001
 40
0.0
 40
0.0
 40
0.0
 40
0.0
 40
0.249295276
 40
0.3746199036
 40
0.4997542407
 40
0.6248912279
 40
0.7499545726
 40
0.8750007949
 40
1.0
 40
1.0
 40
1.0
 40
1.0
 10
7.1682851518
 20
5.5872039134
 30
0.0
 10
7.166331636
 20
5.5872029418
 30
0.0
 10
7.1633552732
 20
5.5877984276
 30
0.0
 10
7.1598883819
 20
5.5896571251
 30
0.0
 10
7.1575989004
 20
5.5915388996
 30
0.0
 10
7.1557197428
 20
5.5938245937
 30
0.0
 10
7.154319016
 20
5.5964336079
 30
0.0
 10
7.1534884442
 20
5.5992733265
 30
0.0
 10
7.1532939603
 20
5.6012342545
 30
0.0
 10
7.1532754723
 20
5.6022135929
 30
0.0
  0
SPLINE
  5
34A
100
AcDbEntity
  8
0
100
AcDbSpline
 62
7
  6
CONTINUOUS
 70
0
 71
3
 72
11
 73
7
 74
0
 42
0.0000001
 43
0.0000001
 44
0.0000000001
 40
0.0
 40
0.0
 40
0.0
 40
0.0
 40
0.2501832237
 40
0.5005759381
 40
0.7505944741
 40
1.0
 40
1.0
 40
1.0
 40
1.0
 10
7.2195682233
 20
5.595886448
 30
0.0
 10
7.2195614452
 20
5.5950554255
 30
0.0
 10
7.2193310924
 20
5.5933852892
 30
0.0
 10
7.2183176075
 20
5.5910716496
 30
0.0
 10
7.2166945736
 20
5.5891391034
 30
0.0
 10
7.215303021
 20
5.5881953887
 30
0.0
 10
7.2145649968
 20
5.5878189877
 30
0.0
  0
SPLINE
  5
34B
100
AcDbEntity
  8
0
100
AcDbSpline
 62
7
  6
CONTINUOUS
 70
0
 71
3
 72
32
 73
28
 74
0
 42
0.0000001
 43
0.0000001
 44
0.0000000001
 40
0.0
 40
0.0
 40
0.0
 40
0.0
 40
0.0311840063
 40
0.0623706948
 40
0.0935341884
 40
0.1247262329
 40
0.155951058
 40
0.1871893207
 40
0.2183884588
 40
0.2495867466
 40
0.311915801
 40
0.3742698691
 40
0.4056172576
 40
0.4369258488
 40
0.4681465287
 40
0.4994080304
 40
0.5620029948
 40
0.6245343591
 40
0.655925499
 40
0.6873621738
 40
0.7499637417
 40
0.7811310269
 40
0.8123191443
 40
0.8436643514
 40
0.8751002105
 40
0.9376918326
 40
1.0
 40
1.0
 40
1.0
 40
1.0
 10
7.1001412069
 20
5.6183386693
 30
0.0
 10
7.1000845353
 20
5.617477292
 30
0.0
 10
7.1000178504
 20
5.615751638
 30
0.0
 10
7.0999411712
 20
5.6131637345
 30
0.0
 10
7.0997644652
 20
5.6105786113
 30
0.0
 10
7.0993879845
 20
5.6080128556
 30
0.0
 10
7.0988231283
 20
5.6054803081
 30
0.0
 10
7.0980743862
 20
5.6029954209
 30
0.0
 10
7.0971144197
 20
5.6005829252
 30
0.0
 10
7.0954952676
 20
5.5975266126
 30
0.0
 10
7.0928091007
 20
5.5940911947
 30
0.0
 10
7.0893661639
 20
5.591412929
 30
0.0
 10
7.0863124256
 20
5.5897723857
 30
0.0
 10
7.0838839337
 20
5.5888267398
 30
0.0
 10
7.0813476163
 20
5.5882260387
 30
0.0
 10
7.0778832197
 20
5.5879638026
 30
0.0
 10
7.0735365356
 20
5.5885887241
 30
0.0
 10
7.0695253184
 20
5.590358138
 30
0.0
 10
7.0666609779
 20
5.5923306764
 30
0.0
 10
7.0640567433
 20
5.5946366703
 30
0.0
 10
7.061887935
 20
5.5973948457
 30
0.0
 10
7.06031019
 20
5.6004817246
 30
0.0
 10
7.0594132663
 20
5.6029211864
 30
0.0
 10
7.0587434721
 20
5.6054375172
 30
0.0
 10
7.0580837558
 20
5.6088463324
 30
0.0
 10
7.0575586011
 20
5.6131491287
 30
0.0
 10
7.0575219339
 20
5.6166162941
 30
0.0
 10
7.0576137818
 20
5.6183386693
 30
0.0
  0
SPLINE
  5
34C
100
AcDbEntity
  8
0
100
AcDbSpline
 62
7
  6
CONTINUOUS
 70
0
 71
3
 72
32
 73
28
 74
0
 42
0.0000001
 43
0.0000001
 44
0.0000000001
 40
0.0
 40
0.0
 40
0.0
 40
0.0
 40
0.0623079906
 40
0.1248986186
 40
0.1563323787
 40
0.1876746834
 40
0.2188611708
 40
0.2500300514
 40
0.312634551
 40
0.3440723035
 40
0.3754659223
 40
0.4380007267
 40
0.5005920238
 40
0.5318524336
 40
0.5630730824
 40
0.5943825287
 40
0.6257320605
 40
0.6880883681
 40
0.7504159141
 40
0.7816149761
 40
0.8128130066
 40
0.8440503197
 40
0.8752747969
 40
0.9064666725
 40
0.9376299399
 40
0.9688162667
 40
1.0
 40
1.0
 40
1.0
 40
1.0
 10
7.0576137818
 20
5.6183386693
 30
0.0
 10
7.0575222776
 20
5.6200610593
 30
0.0
 10
7.0575594059
 20
5.6235281591
 30
0.0
 10
7.0580841393
 20
5.627830888
 30
0.0
 10
7.058743205
 20
5.6312396677
 30
0.0
 10
7.059412803
 20
5.6337558689
 30
0.0
 10
7.0603098187
 20
5.6361952332
 30
0.0
 10
7.0618882344
 20
5.6392818467
 30
0.0
 10
7.064056663
 20
5.6420404142
 30
0.0
 10
7.0666608279
 20
5.6443468039
 30
0.0
 10
7.069525333
 20
5.6463194543
 30
0.0
 10
7.0735366172
 20
5.6480889052
 30
0.0
 10
7.0778833039
 20
5.6487136592
 30
0.0
 10
7.0813475524
 20
5.6484512773
 30
0.0
 10
7.083883869
 20
5.6478506358
 30
0.0
 10
7.0863124824
 20
5.6469050431
 30
0.0
 10
7.0893662552
 20
5.6452642627
 30
0.0
 10
7.0928094079
 20
5.6425861157
 30
0.0
 10
7.0954952993
 20
5.6391504219
 30
0.0
 10
7.0971145709
 20
5.6360942406
 30
0.0
 10
7.0980745044
 20
5.6336817538
 30
0.0
 10
7.0988229113
 20
5.6311968342
 30
0.0
 10
7.0993878003
 20
5.6286643456
 30
0.0
 10
7.0997646716
 20
5.6260986711
 30
0.0
 10
7.0999417491
 20
5.6235135846
 30
0.0
 10
7.1000182059
 20
5.6209256933
 30
0.0
 10
7.1000846488
 20
5.6192000472
 30
0.0
 10
7.1001412069
 20
5.6183386693
 30
0.0
  0
LINE
  5
34D
100
AcDbEntity
  8
0
100
AcDbLine
 62
7
  6
CONTINUOUS
 10
7.1352536935
 20
5.6022239917
 11
7.1352536935
 21
5.618338694
  0
LINE
  5
34E
100
AcDbEntity
  8
0
100
AcDbLine
 62
7
  6
CONTINUOUS
 10
7.1352536935
 20
5.618338694
 11
7.1352536935
 21
5.6369533469
  0
LINE
  5
34F
100
AcDbEntity
  8
0
100
AcDbLine
 62
7
  6
CONTINUOUS
 10
7.1245036935
 20
5.6513386693
 11
7.1245036935
 21
5.6603386693
  0
LINE
  5
350
100
AcDbEntity
  8
0
100
AcDbLine
 62
7
  6
CONTINUOUS
 10
7.1245036935
 20
5.6603386693
 11
7.1640036935
 21
5.6603386693
  0
LINE
  5
351
100
AcDbEntity
  8
0
100
AcDbLine
 62
7
  6
CONTINUOUS
 10
7.1532536935
 20
5.6369533469
 11
7.1532536935
 21
5.6183386731
  0
LINE
  5
352
100
AcDbEntity
  8
0
100
AcDbLine
 62
7
  6
CONTINUOUS
 10
7.1532536935
 20
5.6183386731
 11
7.1532536935
 21
5.6022239917
  0
LINE
  5
353
100
AcDbEntity
  8
0
100
AcDbLine
 62
7
  6
CONTINUOUS
 10
7.199242865
 20
5.5758386693
 11
7.1245036935
 21
5.5758386693
  0
LINE
  5
354
100
AcDbEntity
  8
0
100
AcDbLine
 62
7
  6
CONTINUOUS
 10
7.1245036935
 20
5.5758386693
 11
7.1245036935
 21
5.5878386693
  0
SPLINE
  5
355
100
AcDbEntity
  8
0
100
AcDbSpline
 62
7
  6
CONTINUOUS
 70
0
 71
3
 72
13
 73
9
 74
0
 42
0.0000001
 43
0.0000001
 44
0.0000000001
 40
0.0
 40
0.0
 40
0.0
 40
0.0
 40
0.2493327734
 40
0.3746171019
 40
0.4998346164
 40
0.6250940728
 40
0.7504826444
 40
1.0
 40
1.0
 40
1.0
 40
1.0
 10
3.0685161914
 20
5.5878649306
 30
0.0
 10
3.0673353164
 20
5.588266025
 30
0.0
 10
3.065634798
 20
5.5891371327
 30
0.0
 10
3.0637234023
 20
5.5907607567
 30
0.0
 10
3.0624995535
 20
5.5921982645
 30
0.0
 10
3.0615160702
 20
5.5938103558
 30
0.0
 10
3.0605680974
 20
5.5961337307
 30
0.0
 10
3.060269753
 20
5.5980232742
 30
0.0
 10
3.0602608677
 20
5.5992712995
 30
0.0
  0
SPLINE
  5
356
100
AcDbEntity
  8
0
100
AcDbSpline
 62
7
  6
CONTINUOUS
 70
0
 71
3
 72
13
 73
9
 74
0
 42
0.0000001
 43
0.0000001
 44
0.0000000001
 40
0.0
 40
0.0
 40
0.0
 40
0.0
 40
0.2501598207
 40
0.3755564099
 40
0.500884472
 40
0.6260276845
 40
0.750995256
 40
1.0
 40
1.0
 40
1.0
 40
1.0
 10
3.0402479617
 20
5.5992712995
 30
0.0
 10
3.040220033
 20
5.5980205275
 30
0.0
 10
3.0399317339
 20
5.5961307948
 30
0.0
 10
3.0389924229
 20
5.5937990712
 30
0.0
 10
3.0380096447
 20
5.5921866185
 30
0.0
 10
3.0367826262
 20
5.5907537105
 30
0.0
 10
3.03485833
 20
5.5891496809
 30
0.0
 10
3.0331632893
 20
5.5882896247
 30
0.0
 10
3.031992638
 20
5.5878649306
 30
0.0
  0
SPLINE
  5
357
100
AcDbEntity
  8
0
100
AcDbSpline
 62
7
  6
CONTINUOUS
 70
0
 71
3
 72
11
 73
7
 74
0
 42
0.0000001
 43
0.0000001
 44
0.0000000001
 40
0.0
 40
0.0
 40
0.0
 40
0.0
 40
0.2493450977
 40
0.4991275156
 40
0.7494786726
 40
1.0
 40
1.0
 40
1.0
 40
1.0
 10
3.0372460259
 20
5.6163833216
 30
0.0
 10
3.0376349308
 20
5.6163689968
 30
0.0
 10
3.038418493
 20
5.6162220808
 30
0.0
 10
3.0394278025
 20
5.6155677752
 30
0.0
 10
3.0400865162
 20
5.6145588746
 30
0.0
 10
3.0402346341
 20
5.6137721629
 30
0.0
 10
3.0402479617
 20
5.6133813857
 30
0.0
  0
SPLINE
  5
358
100
AcDbEntity
  8
0
100
AcDbSpline
 62
7
  6
CONTINUOUS
 70
0
 71
3
 72
11
 73
7
 74
0
 42
0.0000001
 43
0.0000001
 44
0.0000000001
 40
0.0
 40
0.0
 40
0.0
 40
0.0
 40
0.250892237
 40
0.5015084012
 40
0.7510125459
 40
1.0
 40
1.0
 40
1.0
 40
1.0
 10
3.0152318293
 20
5.6133813857
 30
0.0
 10
3.0152423915
 20
5.6137728529
 30
0.0
 10
3.0153935806
 20
5.6145610402
 30
0.0
 10
3.0160540954
 20
5.6155685688
 30
0.0
 10
3.0170624498
 20
5.6162234399
 30
0.0
 10
3.0178453827
 20
5.6163692715
 30
0.0
 10
3.0182337652
 20
5.6163833216
 30
0.0
  0
SPLINE
  5
359
100
AcDbEntity
  8
0
100
AcDbSpline
 62
7
  6
CONTINUOUS
 70
0
 71
3
 72
13
 73
9
 74
0
 42
0.0000001
 43
0.0000001
 44
0.0000000001
 40
0.0
 40
0.0
 40
0.0
 40
0.0
 40
0.2488403166
 40
0.3739395094
 40
0.4991641095
 40
0.6245511826
 40
0.7500882101
 40
1.0
 40
1.0
 40
1.0
 40
1.0
 10
3.023487153
 20
5.5878649306
 30
0.0
 10
3.0223114623
 20
5.5882734102
 30
0.0
 10
3.0206139447
 20
5.5891376751
 30
0.0
 10
3.0186996288
 20
5.5907533855
 30
0.0
 10
3.0174744927
 20
5.5921895185
 30
0.0
 10
3.0164898457
 20
5.593802562
 30
0.0
 10
3.0155421371
 20
5.5961298525
 30
0.0
 10
3.0152446957
 20
5.5980213763
 30
0.0
 10
3.0152318293
 20
5.5992712995
 30
0.0
  0
SPLINE
  5
35A
100
AcDbEntity
  8
0
100
AcDbSpline
 62
7
  6
CONTINUOUS
 70
0
 71
3
 72
13
 73
9
 74
0
 42
0.0000001
 43
0.0000001
 44
0.0000000001
 40
0.0
 40
0.0
 40
0.0
 40
0.0
 40
0.251047144
 40
0.3767399531
 40
0.5021707249
 40
0.6272530696
 40
0.7519709931
 40
1.0
 40
1.0
 40
1.0
 40
1.0
 10
2.9952189234
 20
5.5992712995
 30
0.0
 10
2.9951933674
 20
5.5980159986
 30
0.0
 10
2.9949009631
 20
5.5961199248
 30
0.0
 10
2.9939550707
 20
5.5937839701
 30
0.0
 10
2.9929685046
 20
5.5921717624
 30
0.0
 10
2.991740628
 20
5.5907410648
 30
0.0
 10
2.9898217673
 20
5.589140675
 30
0.0
 10
2.9881309897
 20
5.5882844033
 30
0.0
 10
2.9869635997
 20
5.5878649306
 30
0.0
  0
SPLINE
  5
35B
100
AcDbEntity
  8
0
100
AcDbSpline
 62
7
  6
CONTINUOUS
 70
0
 71
3
 72
13
 73
9
 74
0
 42
0.0000001
 43
0.0000001
 44
0.0000000001
 40
0.0
 40
0.0
 40
0.0
 40
0.0
 40
0.2487798701
 40
0.3736538661
 40
0.4987403571
 40
0.6240482673
 40
0.749499553
 40
1.0
 40
1.0
 40
1.0
 40
1.0
 10
3.2251171804
 20
5.5878649306
 30
0.0
 10
3.2237517979
 20
5.5886695345
 30
0.0
 10
3.2218138642
 20
5.5900996216
 30
0.0
 10
3.2196590238
 20
5.5924455146
 30
0.0
 10
3.2183020829
 20
5.5944234951
 30
0.0
 10
3.2172257138
 20
5.5965709952
 30
0.0
 10
3.2162008884
 20
5.5996035541
 30
0.0
 10
3.2158881063
 20
5.6020096726
 30
0.0
 10
3.2158612114
 20
5.6036052274
 30
0.0
  0
SPLINE
  5
35C
100
AcDbEntity
  8
0
100
AcDbSpline
 62
7
  6
CONTINUOUS
 70
0
 71
3
 72
11
 73
7
 74
0
 42
0.0000001
 43
0.0000001
 44
0.0000000001
 40
0.0
 40
0.0
 40
0.0
 40
0.0
 40
0.2499993562
 40
0.5002296439
 40
0.7503067972
 40
1.0
 40
1.0
 40
1.0
 40
1.0
 10
3.1978495961
 20
5.6036052274
 30
0.0
 10
3.1978438023
 20
5.6020142735
 30
0.0
 10
3.1974179287
 20
5.598816733
 30
0.0
 10
3.1955517746
 20
5.5943609762
 30
0.0
 10
3.1925642923
 20
5.5905667312
 30
0.0
 10
3.1899783179
 20
5.58864442
 30
0.0
 10
3.1885936271
 20
5.5878649306
 30
0.0
  0
SPLINE
  5
35D
100
AcDbEntity
  8
0
100
AcDbSpline
 62
7
  6
CONTINUOUS
 70
0
 71
3
 72
16
 73
12
 74
0
 42
0.0000001
 43
0.0000001
 44
0.0000000001
 40
0.0
 40
0.0
 40
0.0
 40
0.0
 40
0.1257283987
 40
0.2515086788
 40
0.3769707701
 40
0.5021374731
 40
0.6270238731
 40
0.7515822607
 40
0.8138059099
 40
0.8759864028
 40
1.0
 40
1.0
 40
1.0
 40
1.0
 10
6.9445036935
 20
5.6183386577
 30
0.0
 10
6.9445070271
 20
5.6207474786
 30
0.0
 10
6.9449286742
 20
5.6255757411
 30
0.0
 10
6.9467914949
 20
5.6325897573
 30
0.0
 10
6.9498412558
 20
5.639165708
 30
0.0
 10
6.9539705736
 20
5.6451008207
 30
0.0
 10
6.9590380608
 20
5.6502315706
 30
0.0
 10
6.9639252208
 20
5.6537190568
 30
0.0
 10
6.9681439978
 20
5.6559567797
 30
0.0
 10
6.9725334216
 20
5.657808594
 30
0.0
 10
6.9759853024
 20
5.6587832803
 30
0.0
 10
6.9783140813
 20
5.6592544695
 30
0.0
  0
SPLINE
  5
35E
100
AcDbEntity
  8
0
100
AcDbSpline
 62
7
  6
CONTINUOUS
 70
0
 71
3
 72
11
 73
7
 74
0
 42
0.0000001
 43
0.0000001
 44
0.0000000001
 40
0.0
 40
0.0
 40
0.0
 40
0.0
 40
0.2491108405
 40
0.4989997528
 40
0.749429861
 40
1.0
 40
1.0
 40
1.0
 40
1.0
 10
6.9563150307
 20
5.5892754614
 30
0.0
 10
6.9544594716
 20
5.5911906278
 30
0.0
 10
6.9510920208
 20
5.5953852182
 30
0.0
 10
6.9473345665
 20
5.6025288577
 30
0.0
 10
6.9450283229
 20
5.6102799637
 30
0.0
 10
6.9445068156
 20
5.6156563996
 30
0.0
 10
6.9445036935
 20
5.6183386577
 30
0.0
  0
LINE
  5
35F
100
AcDbEntity
  8
0
100
AcDbLine
 62
7
  6
CONTINUOUS
 10
7.2567536935
 20
5.5758386693
 11
7.2145036935
 21
5.5758386693
  0
SPLINE
  5
360
100
AcDbEntity
  8
0
100
AcDbSpline
 62
7
  6
CONTINUOUS
 70
0
 71
3
 72
16
 73
12
 74
0
 42
0.0000001
 43
0.0000001
 44
0.0000000001
 40
0.0
 40
0.0
 40
0.0
 40
0.0
 40
0.1258826618
 40
0.2518226726
 40
0.3773515809
 40
0.5024851237
 40
0.6273096534
 40
0.7517632419
 40
0.8139163732
 40
0.8760366177
 40
1.0
 40
1.0
 40
1.0
 40
1.0
 10
7.2990029496
 20
5.6183393852
 30
0.0
 10
7.2990137266
 20
5.6155484151
 30
0.0
 10
7.2984874439
 20
5.6099477445
 30
0.0
 10
7.2960760523
 20
5.6018812604
 30
0.0
 10
7.2921169299
 20
5.5944658221
 30
0.0
 10
7.2867909165
 20
5.587997325
 30
0.0
 10
7.2803331099
 20
5.5827004763
 30
0.0
 10
7.2742017677
 20
5.57941836
 30
0.0
 10
7.2689924022
 20
5.5775823836
 30
0.0
 10
7.2636345501
 20
5.5762918078
 30
0.0
 10
7.2595016907
 20
5.5758878776
 30
0.0
 10
7.2567536935
 20
5.5758386693
 30
0.0
  0
SPLINE
  5
361
100
AcDbEntity
  8
0
100
AcDbSpline
 62
7
  6
CONTINUOUS
 70
0
 71
3
 72
16
 73
12
 74
0
 42
0.0000001
 43
0.0000001
 44
0.0000000001
 40
0.0
 40
0.0
 40
0.0
 40
0.0
 40
0.1239741104
 40
0.1860975541
 40
0.2482529417
 40
0.3727064704
 40
0.4975254171
 40
0.622651879
 40
0.7481732577
 40
0.8741095278
 40
1.0
 40
1.0
 40
1.0
 40
1.0
 10
7.2567536935
 20
5.6603386693
 30
0.0
 10
7.2594813223
 20
5.660290624
 30
0.0
 10
7.2635834446
 20
5.6598927652
 30
0.0
 10
7.2689034874
 20
5.6586207974
 30
0.0
 10
7.2740782611
 20
5.6568114606
 30
0.0
 10
7.2801748327
 20
5.6535768226
 30
0.0
 10
7.2866104235
 20
5.6483535136
 30
0.0
 10
7.291938041
 20
5.6419696334
 30
0.0
 10
7.2959265342
 20
5.6346431229
 30
0.0
 10
7.2983968432
 20
5.6266615074
 30
0.0
 10
7.2989809166
 20
5.621109519
 30
0.0
 10
7.2990029496
 20
5.6183393852
 30
0.0
  0
LINE
  5
362
100
AcDbEntity
  8
0
100
AcDbLine
 62
7
  6
CONTINUOUS
 10
7.2145036935
 20
5.6603386693
 11
7.2567536935
 21
5.6603386693
  0
LINE
  5
363
100
AcDbEntity
  8
0
100
AcDbLine
 62
7
  6
CONTINUOUS
 10
7.2195036935
 20
5.6183386611
 11
7.2195036935
 21
5.6432764116
  0
SPLINE
  5
364
100
AcDbEntity
  8
0
100
AcDbSpline
 62
7
  6
CONTINUOUS
 70
0
 71
3
 72
11
 73
7
 74
0
 42
0.0000001
 43
0.0000001
 44
0.0000000001
 40
0.0
 40
0.0
 40
0.0
 40
0.0
 40
0.2488278695
 40
0.4981176952
 40
0.7486188233
 40
1.0
 40
1.0
 40
1.0
 40
1.0
 10
7.2407228057
 20
5.5878189877
 30
0.0
 10
7.2403346524
 20
5.5878324017
 30
0.0
 10
7.2395524396
 20
5.5879792701
 30
0.0
 10
7.2385443115
 20
5.5886323783
 30
0.0
 10
7.2378827986
 20
5.5896399629
 30
0.0
 10
7.2377322241
 20
5.5904287176
 30
0.0
 10
7.2377208698
 20
5.5908209236
 30
0.0
  0
SPLINE
  5
365
100
AcDbEntity
  8
0
100
AcDbSpline
 62
7
  6
CONTINUOUS
 70
0
 71
3
 72
11
 73
7
 74
0
 42
0.0000001
 43
0.0000001
 44
0.0000000001
 40
0.0
 40
0.0
 40
0.0
 40
0.0
 40
0.251581323
 40
0.5020611136
 40
0.7514031898
 40
1.0
 40
1.0
 40
1.0
 40
1.0
 10
7.2774455504
 20
5.6042377391
 30
0.0
 10
7.276647161
 20
5.6018632768
 30
0.0
 10
7.2743093538
 20
5.5973344623
 30
0.0
 10
7.2688905328
 20
5.5920083034
 30
0.0
 10
7.2621309681
 20
5.5885796855
 30
0.0
 10
7.2571383029
 20
5.5878589691
 30
0.0
 10
7.2546632496
 20
5.5878189877
 30
0.0
  0
SPLINE
  5
366
100
AcDbEntity
  8
0
100
AcDbSpline
 62
7
  6
CONTINUOUS
 70
0
 71
3
 72
11
 73
7
 74
0
 42
0.0000001
 43
0.0000001
 44
0.0000000001
 40
0.0
 40
0.0
 40
0.0
 40
0.0
 40
0.2485701455
 40
0.4979173096
 40
0.748415108
 40
1.0
 40
1.0
 40
1.0
 40
1.0
 10
7.2546632496
 20
5.6513599642
 30
0.0
 10
7.2571380409
 20
5.6513202396
 30
0.0
 10
7.2621304667
 20
5.6505992219
 30
0.0
 10
7.2688901149
 20
5.6471710284
 30
0.0
 10
7.2743092966
 20
5.6418447225
 30
0.0
 10
7.2766470152
 20
5.6373156629
 30
0.0
 10
7.2774455504
 20
5.6349412127
 30
0.0
  0
SPLINE
  5
367
100
AcDbEntity
  8
0
100
AcDbSpline
 62
7
  6
CONTINUOUS
 70
0
 71
3
 72
11
 73
7
 74
0
 42
0.0000001
 43
0.0000001
 44
0.0000000001
 40
0.0
 40
0.0
 40
0.0
 40
0.0
 40
0.2513993328
 40
0.5018550268
 40
0.7511414879
 40
1.0
 40
1.0
 40
1.0
 40
1.0
 10
7.2377208698
 20
5.6483580283
 30
0.0
 10
7.2377327778
 20
5.648750241
 30
0.0
 10
7.2378829476
 20
5.6495388331
 30
0.0
 10
7.2385441414
 20
5.6505467065
 30
0.0
 10
7.2395524273
 20
5.6511995673
 30
0.0
 10
7.2403346154
 20
5.6513463879
 30
0.0
 10
7.2407228057
 20
5.6513599642
 30
0.0
  0
SPLINE
  5
368
100
AcDbEntity
  8
0
100
AcDbSpline
 62
7
  6
CONTINUOUS
 70
0
 71
3
 72
13
 73
9
 74
0
 42
0.0000001
 43
0.0000001
 44
0.0000000001
 40
0.0
 40
0.0
 40
0.0
 40
0.0
 40
0.2501391423
 40
0.3758090953
 40
0.5018886319
 40
0.6276313677
 40
0.7523599347
 40
1.0
 40
1.0
 40
1.0
 40
1.0
 10
7.0119343239
 20
5.6603657719
 30
0.0
 10
7.0119090796
 20
5.6598990815
 30
0.0
 10
7.0117483292
 20
5.6591900869
 30
0.0
 10
7.0112390743
 20
5.6583923857
 30
0.0
 10
7.0107155114
 20
5.657908898
 30
0.0
 10
7.010094843
 20
5.6575621983
 30
0.0
 10
7.0091851924
 20
5.657328333
 30
0.0
 10
7.0084688904
 20
5.657391117
 30
0.0
 10
7.0080205889
 20
5.6575056597
 30
0.0
  0
SPLINE
  5
369
100
AcDbEntity
  8
0
100
AcDbSpline
 62
7
  6
CONTINUOUS
 70
0
 71
3
 72
17
 73
13
 74
0
 42
0.0000001
 43
0.0000001
 44
0.0000000001
 40
0.0
 40
0.0
 40
0.0
 40
0.0
 40
0.1256937644
 40
0.1886658533
 40
0.2514462742
 40
0.3763399657
 40
0.5009299591
 40
0.5632949714
 40
0.6256614759
 40
0.7501680421
 40
0.8748887163
 40
1.0
 40
1.0
 40
1.0
 40
1.0
 10
6.9683907521
 20
5.6343045973
 30
0.0
 10
6.9693228883
 20
5.6366273
 30
0.0
 10
6.9712100036
 20
5.6399457853
 30
0.0
 10
6.9745302645
 20
5.6437095246
 30
0.0
 10
6.9783410179
 20
5.6469557707
 30
0.0
 10
6.9838794279
 20
5.6499630785
 30
0.0
 10
6.9900211779
 20
5.6513383068
 30
0.0
 10
6.9949992552
 20
5.6514030652
 30
0.0
 10
6.9999362093
 20
5.6507798234
 30
0.0
 10
7.0058859055
 20
5.6487388758
 30
0.0
 10
7.0120763324
 20
5.6444186507
 30
0.0
 10
7.0152473041
 20
5.6404941235
 30
0.0
 10
7.0165591482
 20
5.6383763486
 30
0.0
  0
SPLINE
  5
36A
100
AcDbEntity
  8
0
100
AcDbSpline
 62
7
  6
CONTINUOUS
 70
0
 71
3
 72
44
 73
40
 74
0
 42
0.0000001
 43
0.0000001
 44
0.0000000001
 40
0.0
 40
0.0
 40
0.0
 40
0.0
 40
0.0037854417
 40
0.0075599916
 40
0.0114769272
 40
0.0155487795
 40
0.0238530422
 40
0.0318490296
 40
0.0396225852
 40
0.0473578923
 40
0.062943124
 40
0.0707604921
 40
0.0785675846
 40
0.0941656952
 40
0.1097664849
 40
0.125368694
 40
0.1409705158
 40
0.1565723653
 40
0.187767917
 40
0.2189623249
 40
0.2501588429
 40
0.2813525338
 40
0.3125506585
 40
0.374862951
 40
0.4371857566
 40
0.499518954
 40
0.5618706082
 40
0.624235198
 40
0.6554803834
 40
0.6867337689
 40
0.7179868049
 40
0.7492762235
 40
0.7806247114
 40
0.8119693716
 40
0.8432624658
 40
0.8745217026
 40
0.905840594
 40
0.937241731
 40
1.0
 40
1.0
 40
1.0
 40
1.0
 10
7.1180027255
 20
5.6183386693
 30
0.0
 10
7.1179211549
 20
5.6184646106
 30
0.0
 10
7.1177948767
 20
5.6187416308
 30
0.0
 10
7.1177179576
 20
5.6191934003
 30
0.0
 10
7.1177214751
 20
5.6196611044
 30
0.0
 10
7.1177917389
 20
5.620303502
 30
0.0
 10
7.1179352591
 20
5.6210991641
 30
0.0
 10
7.1179620572
 20
5.6220572643
 30
0.0
 10
7.1178633851
 20
5.6229849097
 30
0.0
 10
7.117675357
 20
5.624202955
 30
0.0
 10
7.1175388694
 20
5.6254299774
 30
0.0
 10
7.1173820583
 20
5.6266571581
 30
0.0
 10
7.1171889014
 20
5.6278798085
 30
0.0
 10
7.1168900632
 20
5.6293972722
 30
0.0
 10
7.1164722041
 20
5.6312050272
 30
0.0
 10
7.1159898881
 20
5.6329970152
 30
0.0
 10
7.1154333341
 20
5.6347675095
 30
0.0
 10
7.1145930724
 20
5.637094425
 30
0.0
 10
7.1133577867
 20
5.6399332139
 30
0.0
 10
7.1115649925
 20
5.6431873143
 30
0.0
 10
7.1094582911
 20
5.6462485554
 30
0.0
 10
7.1070362839
 20
5.6490686813
 30
0.0
 10
7.1034137485
 20
5.652445046
 30
0.0
 10
7.0982391133
 20
5.655902095
 30
0.0
 10
7.0913803646
 20
5.6588094469
 30
0.0
 10
7.0841146091
 20
5.6604647026
 30
0.0
 10
7.0766668401
 20
5.6607975363
 30
0.0
 10
7.0705089228
 20
5.6599286211
 30
0.0
 10
7.0657364438
 20
5.6585989954
 30
0.0
 10
7.0622521913
 20
5.6572917034
 30
0.0
 10
7.0589025378
 20
5.6556653164
 30
0.0
 10
7.0557265057
 20
5.6537128261
 30
0.0
 10
7.0527666446
 20
5.6514395019
 30
0.0
 10
7.0500604775
 20
5.6488689685
 30
0.0
 10
7.047650334
 20
5.6460223656
 30
0.0
 10
7.0455794486
 20
5.6429220697
 30
0.0
 10
7.0438359236
 20
5.6396230952
 30
0.0
 10
7.0419260255
 20
5.6350254863
 30
0.0
 10
7.0409215861
 20
5.6314102366
 30
0.0
 10
7.0404339219
 20
5.6289708488
 30
0.0
  0
SPLINE
  5
36B
100
AcDbEntity
  8
0
100
AcDbSpline
 62
7
  6
CONTINUOUS
 70
0
 71
3
 72
13
 73
9
 74
0
 42
0.0000001
 43
0.0000001
 44
0.0000000001
 40
0.0
 40
0.0
 40
0.0
 40
0.0
 40
0.2494634242
 40
0.3748263023
 40
0.5000039321
 40
0.6252081637
 40
0.7506181262
 40
1.0
 40
1.0
 40
1.0
 40
1.0
 10
7.12450692
 20
5.6513599642
 30
0.0
 10
7.1260371751
 20
5.6509009231
 30
0.0
 10
7.1282470322
 20
5.6498374568
 30
0.0
 10
7.1307338806
 20
5.6478045315
 30
0.0
 10
7.1323311731
 20
5.6459898206
 30
0.0
 10
7.1336181876
 20
5.643943056
 30
0.0
 10
7.1348657796
 20
5.6409837362
 30
0.0
 10
7.1352625087
 20
5.6385624592
 30
0.0
 10
7.1352638569
 20
5.636965359
 30
0.0
  0
SPLINE
  5
36C
100
AcDbEntity
  8
0
100
AcDbSpline
 62
7
  6
CONTINUOUS
 70
0
 71
3
 72
13
 73
9
 74
0
 42
0.0000001
 43
0.0000001
 44
0.0000000001
 40
0.0
 40
0.0
 40
0.0
 40
0.0
 40
0.2495990581
 40
0.3747449066
 40
0.4999433133
 40
0.6251102287
 40
0.7503424923
 40
1.0
 40
1.0
 40
1.0
 40
1.0
 10
7.1532754723
 20
5.636965359
 30
0.0
 10
7.1532996664
 20
5.6385637811
 30
0.0
 10
7.1536610294
 20
5.6409869168
 30
0.0
 10
7.1549221189
 20
5.6439434955
 30
0.0
 10
7.1562097947
 20
5.6459867895
 30
0.0
 10
7.1578048807
 20
5.6478021055
 30
0.0
 10
7.1602872214
 20
5.6498423819
 30
0.0
 10
7.1625017157
 20
5.6508976732
 30
0.0
 10
7.1640324093
 20
5.6513599642
 30
0.0
  0
SPLINE
  5
36D
100
AcDbEntity
  8
0
100
AcDbSpline
 62
7
  6
CONTINUOUS
 70
0
 71
3
 72
11
 73
7
 74
0
 42
0.0000001
 43
0.0000001
 44
0.0000000001
 40
0.0
 40
0.0
 40
0.0
 40
0.0
 40
0.2494225618
 40
0.4994593053
 40
0.7498452533
 40
1.0
 40
1.0
 40
1.0
 40
1.0
 10
7.2145649968
 20
5.6513599642
 30
0.0
 10
7.2153031568
 20
5.6509837037
 30
0.0
 10
7.2166947572
 20
5.65003976
 30
0.0
 10
7.2183177078
 20
5.6481070597
 30
0.0
 10
7.2193311492
 20
5.6457934516
 30
0.0
 10
7.2195614028
 20
5.6441234321
 30
0.0
 10
7.2195682233
 20
5.6432925039
 30
0.0
  0
SPLINE
  5
36E
100
AcDbEntity
  8
0
100
AcDbSpline
 62
7
  6
CONTINUOUS
 70
0
 71
3
 72
12
 73
8
 74
0
 42
0.0000001
 43
0.0000001
 44
0.0000000001
 40
0.0
 40
0.0
 40
0.0
 40
0.0
 40
0.2502598449
 40
0.3753414042
 40
0.5003549662
 40
0.7502905725
 40
1.0
 40
1.0
 40
1.0
 40
1.0
 10
7.0080205889
 20
5.6575056597
 30
0.0
 10
7.005621024
 20
5.6582580754
 30
0.0
 10
7.0019535734
 20
5.6591872922
 30
0.0
 10
6.9969826377
 20
5.6599597239
 30
0.0
 10
6.9919750901
 20
5.6604100264
 30
0.0
 10
6.985682591
 20
5.6603959472
 30
0.0
 10
6.9806847776
 20
5.6597664298
 30
0.0
 10
6.9782229718
 20
5.6592808724
 30
0.0
  0
SPLINE
  5
36F
100
AcDbEntity
  8
0
100
AcDbSpline
 62
7
  6
CONTINUOUS
 70
0
 71
3
 72
17
 73
13
 74
0
 42
0.0000001
 43
0.0000001
 44
0.0000000001
 40
0.0
 40
0.0
 40
0.0
 40
0.0
 40
0.1324447717
 40
0.2641486798
 40
0.3944462956
 40
0.5227223123
 40
0.6483268748
 40
0.709883284
 40
0.7704446577
 40
0.8298654762
 40
0.888000809
 40
1.0
 40
1.0
 40
1.0
 40
1.0
 10
6.867386087
 20
5.8967108226
 30
0.0
 10
6.8711438688
 20
5.9001141936
 30
0.0
 10
6.8789500694
 20
5.9065660227
 30
0.0
 10
6.8913861589
 20
5.9151572077
 30
0.0
 10
6.904283996
 20
5.9227166904
 30
0.0
 10
6.9173350015
 20
5.9295006791
 30
0.0
 10
6.9281621719
 20
5.9348452985
 30
0.0
 10
6.9366018999
 20
5.9391704933
 30
0.0
 10
6.9427074204
 20
5.9424890079
 30
0.0
 10
6.9485611326
 20
5.9459999035
 30
0.0
 10
6.955767754
 20
5.9510069843
 30
0.0
 10
6.9606010657
 20
5.955578829
 30
0.0
 10
6.9630197586
 20
5.9591186697
 30
0.0
  0
SPLINE
  5
370
100
AcDbEntity
  8
0
100
AcDbSpline
 62
7
  6
CONTINUOUS
 70
0
 71
3
 72
31
 73
27
 74
0
 42
0.0000001
 43
0.0000001
 44
0.0000000001
 40
0.0
 40
0.0
 40
0.0
 40
0.0
 40
0.0622320962
 40
0.1249411385
 40
0.1563695479
 40
0.1876726387
 40
0.2188200906
 40
0.2499432116
 40
0.3742746634
 40
0.4367863252
 40
0.4681776182
 40
0.4995237864
 40
0.5307557473
 40
0.5619864747
 40
0.5933380648
 40
0.6247462058
 40
0.6872805849
 40
0.7185788995
 40
0.7499317963
 40
0.8124264591
 40
0.8435469043
 40
0.874737184
 40
0.9060713455
 40
0.9374649745
 40
0.9687923631
 40
1.0
 40
1.0
 40
1.0
 40
1.0
 10
3.1402124269
 20
5.6183846122
 30
0.0
 10
3.1403606564
 20
5.6167392733
 30
0.0
 10
3.1403182768
 20
5.613402253
 30
0.0
 10
3.1396798322
 20
5.6092945448
 30
0.0
 10
3.1389807039
 20
5.6060380318
 30
0.0
 10
3.138319444
 20
5.6036335027
 30
0.0
 10
3.1374716239
 20
5.6012940431
 30
0.0
 10
3.1353108858
 20
5.5968326314
 30
0.0
 10
3.1312509489
 20
5.5923664314
 30
0.0
 10
3.1261002798
 20
5.5896208751
 30
0.0
 10
3.1229250483
 20
5.5886059753
 30
0.0
 10
3.1204634748
 20
5.5881578842
 30
0.0
 10
3.1179651284
 20
5.5880653688
 30
0.0
 10
3.1154833763
 20
5.5883645955
 30
0.0
 10
3.1130640488
 20
5.5890036612
 30
0.0
 10
3.1099708811
 20
5.5902413292
 30
0.0
 10
3.1071093894
 20
5.5920038549
 30
0.0
 10
3.1046345114
 20
5.5942323509
 30
0.0
 10
3.1024528701
 20
5.5967462864
 30
0.0
 10
3.1007335356
 20
5.5996266347
 30
0.0
 10
3.0995632469
 20
5.6027312429
 30
0.0
 10
3.0989070899
 20
5.605132077
 30
0.0
 10
3.0984164852
 20
5.6075775384
 30
0.0
 10
3.0980229105
 20
5.6100435691
 30
0.0
 10
3.0977216507
 20
5.6125194918
 30
0.0
 10
3.0976155974
 20
5.6141775981
 30
0.0
 10
3.0975927613
 20
5.6150057158
 30
0.0
  0
SPLINE
  5
371
100
AcDbEntity
  8
0
100
AcDbSpline
 62
7
  6
CONTINUOUS
 70
0
 71
3
 72
32
 73
28
 74
0
 42
0.0000001
 43
0.0000001
 44
0.0000000001
 40
0.0
 40
0.0
 40
0.0
 40
0.0
 40
0.0621769647
 40
0.1247693974
 40
0.187306645
 40
0.2184021273
 40
0.249557068
 40
0.2808523148
 40
0.3121871645
 40
0.3434779531
 40
0.3747373007
 40
0.437282081
 40
0.4686440774
 40
0.4998906349
 40
0.531069143
 40
0.562337307
 40
0.5936983388
 40
0.625021099
 40
0.6874684871
 40
0.7500436064
 40
0.7813287789
 40
0.8124776892
 40
0.8747000091
 40
0.9060555942
 40
0.9374659649
 40
0.9688009067
 40
1.0
 40
1.0
 40
1.0
 40
1.0
 10
3.0976850018
 20
5.6183846122
 30
0.0
 10
3.0975400278
 20
5.620026991
 30
0.0
 10
3.0975666981
 20
5.6233531882
 30
0.0
 10
3.0982227083
 20
5.6282786464
 30
0.0
 10
3.09903122
 20
5.632351946
 30
0.0
 10
3.1000787907
 20
5.6354967955
 30
0.0
 10
3.101122402
 20
5.6377534902
 30
0.0
 10
3.1024299441
 20
5.6398757348
 30
0.0
 10
3.1039777764
 20
5.6418341739
 30
0.0
 10
3.1057512428
 20
5.6435908668
 30
0.0
 10
3.1083797012
 20
5.645624474
 30
0.0
 10
3.1113512721
 20
5.6471815771
 30
0.0
 10
3.1145196556
 20
5.6481898796
 30
0.0
 10
3.1169763756
 20
5.6486295879
 30
0.0
 10
3.1194699281
 20
5.6486943825
 30
0.0
 10
3.1219463315
 20
5.648382284
 30
0.0
 10
3.1243613787
 20
5.6477429925
 30
0.0
 10
3.1274467446
 20
5.6465034843
 30
0.0
 10
3.1309936616
 20
5.6442803043
 30
0.0
 10
3.1339415329
 20
5.6413141426
 30
0.0
 10
3.1358590185
 20
5.638602874
 30
0.0
 10
3.1374491549
 20
5.6356962693
 30
0.0
 10
3.1385339162
 20
5.6325486785
 30
0.0
 10
3.1392954332
 20
5.6293234999
 30
0.0
 10
3.1397658117
 20
5.6268718564
 30
0.0
 10
3.1401229712
 20
5.62440545
 30
0.0
 10
3.1402556124
 20
5.6227507674
 30
0.0
 10
3.1402890884
 20
5.6219241294
 30
0.0
  0
LINE
  5
372
100
AcDbEntity
  8
0
100
AcDbLine
 62
7
  6
CONTINUOUS
 10
2.9870491016
 20
5.6603846122
 11
3.0235491016
 21
5.6603846122
  0
LINE
  5
373
100
AcDbEntity
  8
0
100
AcDbLine
 62
7
  6
CONTINUOUS
 10
3.0320491016
 20
5.6603846122
 11
3.0685491016
 21
5.6603846122
  0
LINE
  5
374
100
AcDbEntity
  8
0
100
AcDbLine
 62
7
  6
CONTINUOUS
 10
3.0602991016
 20
5.6399855991
 11
3.0602991016
 21
5.6183846031
  0
LINE
  5
375
100
AcDbEntity
  8
0
100
AcDbLine
 62
7
  6
CONTINUOUS
 10
3.0602991016
 20
5.6183846031
 11
3.0602991016
 21
5.5992836253
  0
LINE
  5
376
100
AcDbEntity
  8
0
100
AcDbLine
 62
7
  6
CONTINUOUS
 10
3.0685491016
 20
5.5758846122
 11
3.0320491016
 21
5.5758846122
  0
LINE
  5
377
100
AcDbEntity
  8
0
100
AcDbLine
 62
7
  6
CONTINUOUS
 10
3.0235491016
 20
5.5758846122
 11
2.9870491016
 21
5.5758846122
  0
SPLINE
  5
378
100
AcDbEntity
  8
0
100
AcDbSpline
 62
7
  6
CONTINUOUS
 70
0
 71
3
 72
9
 73
5
 74
0
 42
0.0000001
 43
0.0000001
 44
0.0000000001
 40
0.0
 40
0.0
 40
0.0
 40
0.0
 40
0.5062113143
 40
1.0
 40
1.0
 40
1.0
 40
1.0
 10
6.8299294878
 20
5.735668428
 30
0.0
 10
6.8329922484
 20
5.7363017904
 30
0.0
 10
6.8389860202
 20
5.7378528284
 30
0.0
 10
6.844775239
 20
5.7400508649
 30
0.0
 10
6.8475641594
 20
5.7412875431
 30
0.0
  0
SPLINE
  5
379
100
AcDbEntity
  8
0
100
AcDbSpline
 62
7
  6
CONTINUOUS
 70
0
 71
3
 72
11
 73
7
 74
0
 42
0.0000001
 43
0.0000001
 44
0.0000000001
 40
0.0
 40
0.0
 40
0.0
 40
0.0
 40
0.2249689119
 40
0.4719999821
 40
0.7332828249
 40
1.0
 40
1.0
 40
1.0
 40
1.0
 10
6.8299295369
 20
5.7356684726
 30
0.0
 10
6.8286059507
 20
5.7415614549
 30
0.0
 10
6.8249368608
 20
5.7537304144
 30
0.0
 10
6.817244686
 20
5.7718836724
 30
0.0
 10
6.8073591532
 20
5.7902241393
 30
0.0
 10
6.7995636558
 20
5.8020883544
 30
0.0
 10
6.795374976
 20
5.8078960603
 30
0.0
  0
SPLINE
  5
37A
100
AcDbEntity
  8
0
100
AcDbSpline
 62
7
  6
CONTINUOUS
 70
0
 71
3
 72
13
 73
9
 74
0
 42
0.0000001
 43
0.0000001
 44
0.0000000001
 40
0.0
 40
0.0
 40
0.0
 40
0.0
 40
0.2500961422
 40
0.5102985013
 40
0.6384635724
 40
0.7619387095
 40
0.8808966379
 40
1.0
 40
1.0
 40
1.0
 40
1.0
 10
7.1179385891
 20
5.6145802156
 30
0.0
 10
7.1179559617
 20
5.6148978669
 30
0.0
 10
7.1179493804
 20
5.6155503412
 30
0.0
 10
7.1178090263
 20
5.6163514003
 30
0.0
 10
7.1177346875
 20
5.6169984843
 30
0.0
 10
7.1177265348
 20
5.6174711934
 30
0.0
 10
7.1177982539
 20
5.6179287762
 30
0.0
 10
7.117921963
 20
5.6182104896
 30
0.0
 10
7.1180027255
 20
5.6183386693
 30
0.0
  0
ENDSEC
  0
SECTION
  2
OBJECTS
  0
DICTIONARY
  5
C
100
AcDbDictionary
280
0
281
1
  3
ACAD_GROUP
350
D
  3
ACAD_MLINESTYLE
350
17
  3
ACAD_LAYOUT
350
1A
  3
ACAD_PLOTSETTINGS
350
19
  3
ACAD_PLOTSTYLENAME
350
E
  0
DICTIONARY
  5
D
102
{ACAD_REACTORS
330
C
102
}
100
AcDbDictionary
280
0
281
1
  0
ACDBDICTIONARYWDFLT
  5
E
102
{ACAD_REACTORS
330
C
102
}
100
AcDbDictionary
281
1
  3
Normal
350
F
100
AcDbDictionaryWithDefault
340
F
  0
DICTIONARY
  5
17
102
{ACAD_REACTORS
330
C
102
}
100
AcDbDictionary
280
0
281
1
  3
Standard
350
18
  0
DICTIONARY
  5
19
102
{ACAD_REACTORS
330
C
102
}
100
AcDbDictionary
281
1
  0
DICTIONARY
  5
1A
102
{ACAD_REACTORS
330
C
102
}
100
AcDbDictionary
281
1
  3
Model
350
37B
  3
Layout1
350
37C
  0
ACDBPLACEHOLDER
  5
F
102
{ACAD_REACTORS
330
E
102
}
  0
MLINESTYLE
  5
18
102
{ACAD_REACTORS
330
17
102
}
100
AcDbMlineStyle
  2
STANDARD
 70
0
  3

 62
256
 51
90.0
 52
90.0
 71
2
 49
0.5
 62
256
  6
BYLAYER
 49
-0.5
 62
256
  6
BYLAYER
  0
LAYOUT
  5
37B
102
{ACAD_REACTORS
330
1A
102
}
100
AcDbPlotSettings
  1

  2
none_device
  4
ANSI_A_(11.00_x_8.50_Inches)
  6

 40
0.0
 41
0.0
 42
0.0
 43
0.0
 44
279.4
 45
215.9
 46
0.0
 47
0.0
 48
0.0
 49
0.0
140
0.0
141
0.0
142
1.0
143
1.0
 70
1024
 72
0
 73
0
 74
0
  7

 75
0
147
1.0
148
0.0
149
0.0
100
AcDbLayout
  1
Model
 70
0
 71
0
 10
0.0
 20
0.0
 11
11.0
 21
8.5
 12
0.0
 22
0.0
 32
0.0
 14
0.0
 24
0.0
 34
0.0
 15
0.0
 25
0.0
 35
0.0
146
0.0
 13
0.0
 23
0.0
 33
0.0
 16
1.0
 26
0.0
 36
0.0
 17
0.0
 27
1.0
 37
0.0
 76
0
330
202
345
0
346
0
  0
LAYOUT
  5
37C
102
{ACAD_REACTORS
330
1A
102
}
100
AcDbPlotSettings
  1

  2
none_device
  4
ANSI_A_(11.00_x_8.50_Inches)
  6

 40
0.0
 41
0.0
 42
0.0
 43
0.0
 44
279.4
 45
215.9
 46
0.0
 47
0.0
 48
0.0
 49
0.0
140
0.0
141
0.0
142
1.0
143
1.0
 70
0
 72
0
 73
0
 74
0
  7

 75
0
147
1.0
148
0.0
149
0.0
100
AcDbLayout
  1
Layout1
 70
0
 71
1
 10
0.0
 20
0.0
 11
11.0
 21
8.5
 12
0.0
 22
0.0
 32
0.0
 14
0.0
 24
0.0
 34
0.0
 15
0.0
 25
0.0
 35
0.0
146
0.0
 13
0.0
 23
0.0
 33
0.0
 16
1.0
 26
0.0
 36
0.0
 17
0.0
 27
1.0
 37
0.0
 76
0
330
203
345
0
346
0
  0
ENDSEC
  0
EOF
