999
DXF file: 9464_front.dxf
999
Pro/ENGINEER 2018400 by Parametric Technology Corporation
  0
SECTION
  2
HEADER
  9
$ACADVER
  1
AC1027
  9
$DWGCODEPAGE
  3
ANSI_1252
  9
$EXTMAX
 10
11.0
 20
8.5
 30
0.0
  9
$EXTMIN
 10
0.0
 20
0.0
 30
0.0
  9
$LIMMIN
 10
0.0
 20
0.0
  9
$LIMMAX
 10
11.0
 20
8.5
  9
$VIEWCTR
 10
5.5
 20
4.25
  9
$VIEWSIZE
 40
8.5
  9
$CLAYER
  8
0
  9
$LTSCALE
 40
0.605
  9
$CELTYPE
  6
BYLAYER
  9
$DIMSCALE
 40
1.0
  9
$DIMASZ
 40
0.1
  9
$DIMEXO
 40
0.0625
  9
$DIMDLI
 40
0.418
  9
$DIMEXE
 40
0.125
  9
$DIMCEN
 40
0.099
  9
$DIMLFAC
 40
1.0
  9
$DIMBLK
  1
_FILLED
  9
$DIMALT
 70
1
  9
$DIMALTD
 70
1
  9
$DIMALTTD
 70
2
  9
$DIMALTF
 40
25.4
  9
$DIMTXT
 40
0.08
  9
$DIMTOL
 70
1
  9
$DIMLIM
 70
0
  9
$DIMTFAC
 40
1.0
  9
$DIMTP
 40
0.01
  9
$DIMTM
 40
0.01
  9
$DIMGAP
 40
0.09
  9
$DIMDSEP
 70
46
  9
$AUNITS
 70
0
  9
$PDMODE
 70
3
  9
$PDSIZE
 40
0.3125
  9
$HANDSEED
  5
410
  9
$TILEMODE
 70
1
  9
$MEASUREMENT
 70
0
  9
$INSUNITS
 70
1
  0
ENDSEC
  0
SECTION
  2
CLASSES
  0
CLASS
  1
ACDBDICTIONARYWDFLT
  2
AcDbDictionaryWithDefault
  3
AutoCAD 2000
 90
0
 91
1
280
0
281
0
  0
CLASS
  1
ACDBPLACEHOLDER
  2
AcDbPlaceHolder
  3
AutoCAD 2000
 90
0
 91
1
280
0
281
0
  0
CLASS
  1
LAYOUT
  2
AcDbLayout
  3
AutoCAD 2000
 90
0
 91
0
280
0
281
0
  0
ENDSEC
  0
SECTION
  2
TABLES
  0
TABLE
  2
VPORT
  5
8
100
AcDbSymbolTable
 70
2
  0
VPORT
  5
1F4
100
AcDbSymbolTableRecord
100
AcDbViewportTableRecord
  2
*ACTIVE
 70
0
 10
0.0
 20
0.0
 11
1.0
 21
1.0
 12
5.5
 22
4.25
 13
0.0
 23
0.0
 14
1.0
 24
1.0
 15
0.0
 25
0.0
 16
0.0
 26
0.0
 36
1.0
 17
0.0
 27
0.0
 37
0.0
 40
8.5
 41
1.2941176471
 42
50.0
 43
0.0
 44
0.0
 50
0.0
 51
0.0
 71
0
 72
100
 73
1
 74
1
 75
0
 76
0
 77
0
 78
0
  0
ENDTAB
  0
TABLE
  2
LTYPE
  5
5
100
AcDbSymbolTable
 70
6
  0
LTYPE
  5
14
100
AcDbSymbolTableRecord
100
AcDbLinetypeTableRecord
  2
BYBLOCK
 70
0
  3

 72
65
 73
0
 40
0.0
  0
LTYPE
  5
15
100
AcDbSymbolTableRecord
100
AcDbLinetypeTableRecord
  2
BYLAYER
 70
0
  3

 72
65
 73
0
 40
0.0
  0
LTYPE
  5
16
100
AcDbSymbolTableRecord
100
AcDbLinetypeTableRecord
  2
CONTINUOUS
 70
64
  3
Solid line
 72
65
 73
0
 40
0.0
  0
LTYPE
  5
1F5
100
AcDbSymbolTableRecord
100
AcDbLinetypeTableRecord
  2
CENTER
 70
64
  3
____ _ ____ _ ____ _ ____ _ ____ _ ____ _ ____
 72
65
 73
4
 40
0.6
 49
0.375
 74
0
 49
-0.075
 74
0
 49
0.075
 74
0
 49
-0.075
 74
0
  0
LTYPE
  5
1F6
100
AcDbSymbolTableRecord
100
AcDbLinetypeTableRecord
  2
HIDDEN
 70
64
  3
- - - - - - - - - - - - - - - - - - - -
 72
65
 73
2
 40
0.2
 49
0.1
 74
0
 49
-0.1
 74
0
  0
LTYPE
  5
1F7
100
AcDbSymbolTableRecord
100
AcDbLinetypeTableRecord
  2
PHANTOM
 70
64
  3
_____ _ _ _____ _ _ _____ _ _ _____
 72
65
 73
6
 40
0.8
 49
0.45
 74
0
 49
-0.05
 74
0
 49
0.1
 74
0
 49
-0.05
 74
0
 49
0.1
 74
0
 49
-0.05
 74
0
  0
LTYPE
  5
1F8
100
AcDbSymbolTableRecord
100
AcDbLinetypeTableRecord
  2
DOT
 70
64
  3
. . . . . . . . . . . . . . . . . . . .
 72
65
 73
2
 40
0.2
 49
0.1
 74
0
 49
-0.1
 74
0
  0
LTYPE
  5
1F9
100
AcDbSymbolTableRecord
100
AcDbLinetypeTableRecord
  2
DASHED
 70
64
  3
- - - - - - - - - - - - - - - - - - - -
 72
65
 73
2
 40
0.2
 49
0.1
 74
0
 49
-0.1
 74
0
  0
ENDTAB
  0
TABLE
  2
LAYER
  5
2
100
AcDbSymbolTable
 70
36
  0
LAYER
  5
10
100
AcDbSymbolTableRecord
100
AcDbLayerTableRecord
  2
0
 70
0
 62
7
  6
CONTINUOUS
370
-3
390
F
  0
LAYER
  5
1FA
100
AcDbSymbolTableRecord
100
AcDbLayerTableRecord
  2
DEFAULT_1
 70
0
 62
7
  6
CENTER
370
-3
390
F
  0
LAYER
  5
1FB
100
AcDbSymbolTableRecord
100
AcDbLayerTableRecord
  2
DEFAULT_2
 70
0
 62
8
  6
HIDDEN
370
-3
390
F
  0
LAYER
  5
1FC
100
AcDbSymbolTableRecord
100
AcDbLayerTableRecord
  2
DEFAULT_3
 70
0
 62
7
  6
PHANTOM
370
-3
390
F
  0
LAYER
  5
1FD
100
AcDbSymbolTableRecord
100
AcDbLayerTableRecord
  2
DEFAULT_COORDINATE_SYSTEM
 70
0
 62
7
  6
CONTINUOUS
370
-3
390
F
  0
LAYER
  5
1FE
100
AcDbSymbolTableRecord
100
AcDbLayerTableRecord
  2
DEFAULT_DATUM_AXES
 70
0
 62
7
  6
CONTINUOUS
370
-3
390
F
  0
LAYER
  5
1FF
100
AcDbSymbolTableRecord
100
AcDbLayerTableRecord
  2
DEFAULT_DATUM_PLANES
 70
0
 62
7
  6
CONTINUOUS
370
-3
390
F
  0
ENDTAB
  0
TABLE
  2
STYLE
  5
3
100
AcDbSymbolTable
 70
1
  0
STYLE
  5
11
100
AcDbSymbolTableRecord
100
AcDbTextStyleTableRecord
  2
STANDARD
 70
0
 40
0.0
 41
0.8
 50
0.0
 71
0
 42
0.2
  3
txt
  4

  0
STYLE
  5
200
100
AcDbSymbolTableRecord
100
AcDbTextStyleTableRecord
  2
TEXTSTYLE_1
 70
0
 40
0.0
 41
0.8
 50
0.0
 71
0
 42
0.2
  3
gdt
  4

  0
ENDTAB
  0
TABLE
  2
VIEW
  5
6
100
AcDbSymbolTable
 70
0
  0
ENDTAB
  0
TABLE
  2
UCS
  5
7
100
AcDbSymbolTable
 70
0
  0
ENDTAB
  0
TABLE
  2
APPID
  5
9
100
AcDbSymbolTable
 70
1
  0
APPID
  5
201
100
AcDbSymbolTableRecord
100
AcDbRegAppTableRecord
  2
ACAD
 70
0
  0
ENDTAB
  0
TABLE
  2
BLOCK_RECORD
  5
1
100
AcDbSymbolTable
 70
0
  0
BLOCK_RECORD
  5
202
100
AcDbSymbolTableRecord
100
AcDbBlockTableRecord
  2
*Model_Space
  0
BLOCK_RECORD
  5
203
100
AcDbSymbolTableRecord
100
AcDbBlockTableRecord
  2
*Paper_Space
  0
BLOCK_RECORD
  5
204
100
AcDbSymbolTableRecord
100
AcDbBlockTableRecord
  2
_FILLED
  0
ENDTAB
  0
TABLE
  2
DIMSTYLE
  5
A
100
AcDbSymbolTable
 70
1
100
AcDbDimStyleTable
 71
0
  0
DIMSTYLE
105
205
100
AcDbSymbolTableRecord
100
AcDbDimStyleTableRecord
  2
STANDARD
 70
0
  3

  4

 40
1.0
 41
0.1
 42
0.0625
 43
0.38
 44
0.125
 45
0.0
 46
0.0
 47
0.01
 48
0.01
140
0.08
141
0.09
142
0.0
143
25.4
144
1.0
145
0.0
146
1.0
147
0.09
 71
1.0
 72
0.0
 73
1
 74
1
 75
0
 76
0
 77
0
 78
4
 79
1
170
1
171
1
172
0
173
0
174
0
175
0
176
0
177
0
178
0
270
2
179
2
271
2
272
2
273
2
274
2
275
0
280
0
281
0
282
0
283
1
284
4
285
0
286
0
287
3
288
0
340
11
278
46
341
204
342
204
343
204
344
204
  0
ENDTAB
  0
ENDSEC
  0
SECTION
  2
BLOCKS
  0
BLOCK
  5
20
100
AcDbEntity
  8
0
100
AcDbBlockBegin
  2
*Model_Space
 70
0
 10
0.0
 20
0.0
 30
0.0
  3
*Model_Space
  1

  0
ENDBLK
  5
21
100
AcDbEntity
  8
0
100
AcDbBlockEnd
  0
BLOCK
  5
1C
100
AcDbEntity
  8
0
100
AcDbBlockBegin
  2
*Paper_Space
 70
0
 10
0.0
 20
0.0
 30
0.0
  3
*Paper_Space
  1

  0
ENDBLK
  5
1D
100
AcDbEntity
  8
0
100
AcDbBlockEnd
  0
BLOCK
  5
206
100
AcDbEntity
  8
0
100
AcDbBlockBegin
  2
_FILLED
 70
64
 10
0.0
 20
0.0
  3
_FILLED
  1

  0
SOLID
  5
207
100
AcDbEntity
  8
0
  6
BYBLOCK
 62
0
100
AcDbTrace
 10
0.0
 20
0.0
 11
-1.0
 21
0.2
 12
-1.0
 22
-0.2
 13
-1.0
 23
-0.2
  0
ENDBLK
  5
208
100
AcDbEntity
  8
0
  6
BYBLOCK
 62
0
100
AcDbBlockEnd
  0
ENDSEC
  0
SECTION
  2
ENTITIES
  0
MTEXT
  5
209
100
AcDbEntity
  8
0
100
AcDbMText
 62
2
  6
CONTINUOUS
  7
STANDARD
 71
3
 72
1
 10
5.0042313665
 20
0.4467179603
 30
0.0
 11
1.0
 21
0.0
 31
0.0
 73
2
 44
0.9
  1
SCALE  .500
 40
0.08
 41
0.704
  0
LINE
  5
20A
100
AcDbEntity
  8
0
100
AcDbLine
 62
7
  6
CONTINUOUS
 10
0.0
 20
0.0
 11
0.0
 21
8.5
  0
LINE
  5
20B
100
AcDbEntity
  8
0
100
AcDbLine
 62
7
  6
CONTINUOUS
 10
0.0
 20
0.0
 11
11.0
 21
0.0
  0
LINE
  5
20C
100
AcDbEntity
  8
0
100
AcDbLine
 62
7
  6
CONTINUOUS
 10
0.0
 20
8.5
 11
11.0
 21
8.5
  0
LINE
  5
20D
100
AcDbEntity
  8
0
100
AcDbLine
 62
7
  6
CONTINUOUS
 10
11.0
 20
0.0
 11
11.0
 21
8.5
  0
LINE
  5
20E
100
AcDbEntity
  8
0
100
AcDbLine
 62
7
  6
CONTINUOUS
 10
2.5445040735
 20
0.5417179603
 11
3.4640040675
 21
0.5417179603
  0
LINE
  5
20F
100
AcDbEntity
  8
0
100
AcDbLine
 62
7
  6
CONTINUOUS
 10
7.4639933219
 20
0.5417635069
 11
6.5446723163
 21
0.5417459685
  0
LINE
  5
210
100
AcDbEntity
  8
0
100
AcDbLine
 62
7
  6
CONTINUOUS
 10
2.5250040705
 20
0.5612179603
 11
3.4835040705
 21
0.5612179603
  0
LINE
  5
211
100
AcDbEntity
  8
0
100
AcDbLine
 62
7
  6
CONTINUOUS
 10
7.4834930989
 20
0.5612638847
 11
6.5249930991
 21
0.5612453147
  0
LINE
  5
212
100
AcDbEntity
  8
0
100
AcDbLine
 62
7
  6
CONTINUOUS
 10
2.5250040705
 20
0.5887103742
 11
3.4835040705
 21
0.5887103742
  0
LINE
  5
213
100
AcDbEntity
  8
0
100
AcDbLine
 62
7
  6
CONTINUOUS
 10
7.4834925662
 20
0.5887562985
 11
6.5249925664
 21
0.5887377286
  0
LINE
  5
214
100
AcDbEntity
  8
0
100
AcDbLine
 62
7
  6
CONTINUOUS
 10
2.5395666848
 20
0.60757495
 11
3.4689414562
 21
0.60757495
  0
LINE
  5
215
100
AcDbEntity
  8
0
100
AcDbLine
 62
7
  6
CONTINUOUS
 10
7.4689295865
 20
0.6076205922
 11
6.5395548152
 21
0.6076025866
  0
LINE
  5
216
100
AcDbEntity
  8
0
100
AcDbLine
 62
7
  6
CONTINUOUS
 10
2.720731471
 20
0.9185426513
 11
3.28777667
 21
0.9185426513
  0
LINE
  5
217
100
AcDbEntity
  8
0
100
AcDbLine
 62
7
  6
CONTINUOUS
 10
7.2877587756
 20
0.9185847835
 11
6.7207135767
 21
0.9185737976
  0
LINE
  5
218
100
AcDbEntity
  8
0
100
AcDbLine
 62
7
  6
CONTINUOUS
 10
6.6713514371
 20
1.1042805253
 11
6.4457195991
 21
1.1042708247
  0
LINE
  5
219
100
AcDbEntity
  8
0
100
AcDbLine
 62
7
  6
CONTINUOUS
 10
3.3371373014
 20
1.1042581978
 11
3.5627983793
 21
1.1042581978
  0
LINE
  5
21A
100
AcDbEntity
  8
0
100
AcDbLine
 62
7
  6
CONTINUOUS
 10
2.6399240967
 20
1.2225741285
 11
3.3685840443
 21
1.2225741285
  0
LINE
  5
21B
100
AcDbEntity
  8
0
100
AcDbLine
 62
7
  6
CONTINUOUS
 10
7.3685602596
 20
1.2226178261
 11
6.6399003121
 21
1.2226037091
  0
LINE
  5
21C
100
AcDbEntity
  8
0
100
AcDbLine
 62
7
  6
CONTINUOUS
 10
2.6399240967
 20
1.2225741285
 11
2.720731471
 21
0.9185426513
  0
LINE
  5
21D
100
AcDbEntity
  8
0
100
AcDbLine
 62
7
  6
CONTINUOUS
 10
3.3167172159
 20
1.4936323812
 11
2.6917909251
 21
1.4936323812
  0
LINE
  5
21E
100
AcDbEntity
  8
0
100
AcDbLine
 62
7
  6
CONTINUOUS
 10
7.3166881797
 20
1.4936750739
 11
6.691761889
 21
1.4936629665
  0
LINE
  5
21F
100
AcDbEntity
  8
0
100
AcDbLine
 62
7
  6
CONTINUOUS
 10
6.6990648155
 20
1.504281717
 11
6.4457118495
 21
1.5042708246
  0
LINE
  5
220
100
AcDbEntity
  8
0
100
AcDbLine
 62
7
  6
CONTINUOUS
 10
3.3094091104
 20
1.5042581978
 11
3.5627983793
 21
1.5042581978
  0
LINE
  5
221
100
AcDbEntity
  8
0
100
AcDbLine
 62
7
  6
CONTINUOUS
 10
2.4918708305
 20
2.6120845542
 11
2.4918708305
 21
2.8373513664
  0
LINE
  5
222
100
AcDbEntity
  8
0
100
AcDbLine
 62
7
  6
CONTINUOUS
 10
2.5250040705
 20
0.5887103742
 11
2.5250040705
 21
0.5612179603
  0
LINE
  5
223
100
AcDbEntity
  8
0
100
AcDbLine
 62
7
  6
CONTINUOUS
 10
2.532915459
 20
2.6408243125
 11
2.532915459
 21
2.8086116081
  0
LINE
  5
224
100
AcDbEntity
  8
0
100
AcDbLine
 62
7
  6
CONTINUOUS
 10
2.5455040705
 20
2.6301875009
 11
2.5455040705
 21
2.8192484196
  0
LINE
  5
225
100
AcDbEntity
  8
0
100
AcDbLine
 62
7
  6
CONTINUOUS
 10
2.5579356498
 20
2.6292593137
 11
2.5579356498
 21
2.8201766069
  0
LINE
  5
226
100
AcDbEntity
  8
0
100
AcDbLine
 62
7
  6
CONTINUOUS
 10
3.2798440705
 20
1.6052916874
 11
2.7286640705
 21
1.6052916874
  0
LINE
  5
227
100
AcDbEntity
  8
0
100
AcDbLine
 62
7
  6
CONTINUOUS
 10
7.2798128711
 20
1.6053336657
 11
6.7286328712
 21
1.6053229871
  0
LINE
  5
228
100
AcDbEntity
  8
0
100
AcDbLine
 62
7
  6
CONTINUOUS
 10
2.7286640262
 20
1.7227179603
 11
3.2798441148
 21
1.7227179603
  0
LINE
  5
229
100
AcDbEntity
  8
0
100
AcDbLine
 62
7
  6
CONTINUOUS
 10
6.9150180871
 20
1.7982282696
 11
6.7916123067
 21
1.7982282696
  0
LINE
  5
22A
100
AcDbEntity
  8
0
100
AcDbLine
 62
7
  6
CONTINUOUS
 10
6.702409797
 20
1.7982282696
 11
6.694114022
 21
1.7982282696
  0
LINE
  5
22B
100
AcDbEntity
  8
0
100
AcDbLine
 62
6
  6
CONTINUOUS
 10
2.9150515608
 20
1.7982282696
 11
2.7916457804
 21
1.7982282696
  0
LINE
  5
22C
100
AcDbEntity
  8
0
100
AcDbLine
 62
6
  6
CONTINUOUS
 10
2.7024432707
 20
1.7982282696
 11
2.6941474957
 21
1.7982282696
  0
LINE
  5
22D
100
AcDbEntity
  8
0
100
AcDbLine
 62
6
  6
CONTINUOUS
 10
3.0934565802
 20
1.7982282696
 11
3.2168623606
 21
1.7982282696
  0
LINE
  5
22E
100
AcDbEntity
  8
0
100
AcDbLine
 62
6
  6
CONTINUOUS
 10
3.3060648703
 20
1.7982282696
 11
3.3143606453
 21
1.7982282696
  0
LINE
  5
22F
100
AcDbEntity
  8
0
100
AcDbLine
 62
7
  6
CONTINUOUS
 10
7.0934231065
 20
1.7982282696
 11
7.2168288869
 21
1.7982282696
  0
LINE
  5
230
100
AcDbEntity
  8
0
100
AcDbLine
 62
7
  6
CONTINUOUS
 10
7.3060313966
 20
1.7982282696
 11
7.3143271716
 21
1.7982282696
  0
LINE
  5
231
100
AcDbEntity
  8
0
100
AcDbLine
 62
7
  6
CONTINUOUS
 10
6.4370040705
 20
1.7997179603
 11
5.8670040705
 21
1.7997179603
  0
LINE
  5
232
100
AcDbEntity
  8
0
100
AcDbLine
 62
7
  6
CONTINUOUS
 10
4.1415040705
 20
1.7997179603
 11
3.5715040705
 21
1.7997179603
  0
LINE
  5
233
100
AcDbEntity
  8
0
100
AcDbLine
 62
7
  6
CONTINUOUS
 10
6.4490040705
 20
1.858174675
 11
6.4007259338
 21
1.858174675
  0
LINE
  5
234
100
AcDbEntity
  8
0
100
AcDbLine
 62
7
  6
CONTINUOUS
 10
6.2002822072
 20
1.858174675
 11
6.1037259338
 21
1.858174675
  0
LINE
  5
235
100
AcDbEntity
  8
0
100
AcDbLine
 62
7
  6
CONTINUOUS
 10
5.9032822072
 20
1.858174675
 11
5.8550040705
 21
1.858174675
  0
LINE
  5
236
100
AcDbEntity
  8
0
100
AcDbLine
 62
7
  6
CONTINUOUS
 10
4.1535040705
 20
1.858174675
 11
4.1052259338
 21
1.858174675
  0
LINE
  5
237
100
AcDbEntity
  8
0
100
AcDbLine
 62
7
  6
CONTINUOUS
 10
3.9047822072
 20
1.858174675
 11
3.8082259338
 21
1.858174675
  0
LINE
  5
238
100
AcDbEntity
  8
0
100
AcDbLine
 62
7
  6
CONTINUOUS
 10
3.6077822072
 20
1.858174675
 11
3.5595040705
 21
1.858174675
  0
LINE
  5
239
100
AcDbEntity
  8
0
100
AcDbLine
 62
7
  6
CONTINUOUS
 10
7.2798105957
 20
1.7227765606
 11
6.7286305956
 21
1.7227765603
  0
LINE
  5
23A
100
AcDbEntity
  8
0
100
AcDbLine
 62
7
  6
CONTINUOUS
 10
2.532915459
 20
2.8086116081
 11
2.4918708305
 21
2.8373513664
  0
LWPOLYLINE
  5
23B
100
AcDbEntity
  8
0
100
AcDbPolyline
 62
7
  6
CONTINUOUS
 90
9
 70
0
 10
3.6441072926
 20
1.7374318913
 10
3.6445342285
 20
1.736781214
 10
3.647534966
 20
1.7316190224
 10
3.650036891
 20
1.7261724292
 10
3.6520086118
 20
1.7204974403
 10
3.6534276645
 20
1.7146477534
 10
3.6542778497
 20
1.7086749085
 10
3.654547336
 20
1.7026358905
 10
3.6542291352
 20
1.6965773303
  0
LINE
  5
23C
100
AcDbEntity
  8
0
100
AcDbLine
 62
7
  6
CONTINUOUS
 10
3.5715040705
 20
1.7997179603
 11
3.5595040705
 21
1.82050257
  0
LINE
  5
23D
100
AcDbEntity
  8
0
100
AcDbLine
 62
7
  6
CONTINUOUS
 10
2.7255040705
 20
2.6222179603
 11
2.7405040705
 21
2.5827179603
  0
LINE
  5
23E
100
AcDbEntity
  8
0
100
AcDbLine
 62
7
  6
CONTINUOUS
 10
2.7286640705
 20
1.7227179603
 11
2.7286640705
 21
1.6052916874
  0
LINE
  5
23F
100
AcDbEntity
  8
0
100
AcDbLine
 62
7
  6
CONTINUOUS
 10
2.7386710656
 20
2.8023285168
 11
2.7386710656
 21
2.6471073991
  0
LINE
  5
240
100
AcDbEntity
  8
0
100
AcDbLine
 62
7
  6
CONTINUOUS
 10
2.7405040705
 20
2.9183600088
 11
2.7405040705
 21
2.8827179603
  0
LINE
  5
241
100
AcDbEntity
  8
0
100
AcDbLine
 62
7
  6
CONTINUOUS
 10
2.7497510824
 20
2.7733059643
 11
2.7497510824
 21
2.6761299385
  0
LINE
  5
242
100
AcDbEntity
  8
0
100
AcDbLine
 62
7
  6
CONTINUOUS
 10
2.8325040705
 20
2.5572179603
 11
2.8325040705
 21
2.3777179603
  0
LINE
  5
243
100
AcDbEntity
  8
0
100
AcDbLine
 62
6
  6
CONTINUOUS
 10
2.7420626721
 20
1.9142179603
 11
3.2664454689
 21
1.9142179603
  0
LINE
  5
244
100
AcDbEntity
  8
0
100
AcDbLine
 62
7
  6
CONTINUOUS
 10
6.7420291984
 20
1.9142179603
 11
7.2664119952
 21
1.9142179603
  0
LINE
  5
245
100
AcDbEntity
  8
0
100
AcDbLine
 62
7
  6
CONTINUOUS
 10
6.4490040705
 20
2.0312612455
 11
6.4007259338
 21
2.0312612455
  0
LINE
  5
246
100
AcDbEntity
  8
0
100
AcDbLine
 62
7
  6
CONTINUOUS
 10
6.2002822072
 20
2.0312612455
 11
6.1037259338
 21
2.0312612455
  0
LINE
  5
247
100
AcDbEntity
  8
0
100
AcDbLine
 62
7
  6
CONTINUOUS
 10
5.9032822072
 20
2.0312612455
 11
5.8550040705
 21
2.0312612455
  0
LINE
  5
248
100
AcDbEntity
  8
0
100
AcDbLine
 62
7
  6
CONTINUOUS
 10
4.1535040705
 20
2.0312612455
 11
4.1052259338
 21
2.0312612455
  0
LINE
  5
249
100
AcDbEntity
  8
0
100
AcDbLine
 62
7
  6
CONTINUOUS
 10
3.9047822072
 20
2.0312612455
 11
3.8082259338
 21
2.0312612455
  0
LINE
  5
24A
100
AcDbEntity
  8
0
100
AcDbLine
 62
7
  6
CONTINUOUS
 10
3.6077822072
 20
2.0312612455
 11
3.5595040705
 21
2.0312612455
  0
LINE
  5
24B
100
AcDbEntity
  8
0
100
AcDbLine
 62
7
  6
CONTINUOUS
 10
6.4370040705
 20
2.0897179603
 11
5.8670040705
 21
2.0897179603
  0
LINE
  5
24C
100
AcDbEntity
  8
0
100
AcDbLine
 62
7
  6
CONTINUOUS
 10
4.1415040705
 20
2.0897179603
 11
3.5715040705
 21
2.0897179603
  0
LINE
  5
24D
100
AcDbEntity
  8
0
100
AcDbLine
 62
7
  6
CONTINUOUS
 10
4.0750075705
 20
2.1097179603
 11
3.6380005705
 21
2.1097179603
  0
LINE
  5
24E
100
AcDbEntity
  8
0
100
AcDbLine
 62
7
  6
CONTINUOUS
 10
5.9335005705
 20
2.1097179603
 11
6.3705075705
 21
2.1097179603
  0
LINE
  5
24F
100
AcDbEntity
  8
0
100
AcDbLine
 62
7
  6
CONTINUOUS
 10
2.7405040705
 20
2.5827179603
 11
2.8190040705
 21
2.5572179603
  0
LINE
  5
250
100
AcDbEntity
  8
0
100
AcDbLine
 62
7
  6
CONTINUOUS
 10
2.7405040705
 20
2.8827179603
 11
2.7539274643
 21
2.8749679603
  0
LINE
  5
251
100
AcDbEntity
  8
0
100
AcDbLine
 62
7
  6
CONTINUOUS
 10
3.475592682
 20
2.6408243125
 11
3.5166373105
 21
2.6120845542
  0
LINE
  5
252
100
AcDbEntity
  8
0
100
AcDbLine
 62
7
  6
CONTINUOUS
 10
3.2608711466
 20
2.9281776363
 11
3.2680040705
 21
2.9183600088
  0
LINE
  5
253
100
AcDbEntity
  8
0
100
AcDbLine
 62
7
  6
CONTINUOUS
 10
3.2680040705
 20
2.8672179603
 11
3.2830040705
 21
2.8272179603
  0
LINE
  5
254
100
AcDbEntity
  8
0
100
AcDbLine
 62
7
  6
CONTINUOUS
 10
3.0825040705
 20
2.9706151317
 11
3.0825040443
 21
2.9707566401
  0
LINE
  5
255
100
AcDbEntity
  8
0
100
AcDbLine
 62
7
  6
CONTINUOUS
 10
2.8717540705
 20
2.9621209939
 11
2.8717540705
 21
2.9626953999
  0
LINE
  5
256
100
AcDbEntity
  8
0
100
AcDbLine
 62
7
  6
CONTINUOUS
 10
2.8800040705
 20
2.9644523828
 11
2.8800040705
 21
2.9646909419
  0
LINE
  5
257
100
AcDbEntity
  8
0
100
AcDbLine
 62
7
  6
CONTINUOUS
 10
2.9000040705
 20
2.9676565198
 11
2.9000040705
 21
2.9674351681
  0
LINE
  5
258
100
AcDbEntity
  8
0
100
AcDbLine
 62
7
  6
CONTINUOUS
 10
2.9082540705
 20
2.9681427142
 11
2.9082540705
 21
2.9675723841
  0
LINE
  5
259
100
AcDbEntity
  8
0
100
AcDbLine
 62
7
  6
CONTINUOUS
 10
2.9167540705
 20
2.9685875837
 11
2.9167540705
 21
2.9691571611
  0
LINE
  5
25A
100
AcDbEntity
  8
0
100
AcDbLine
 62
7
  6
CONTINUOUS
 10
2.9250040705
 20
2.9704177626
 11
2.9250040705
 21
2.9706382577
  0
LINE
  5
25B
100
AcDbEntity
  8
0
100
AcDbLine
 62
7
  6
CONTINUOUS
 10
2.9532540705
 20
2.9724358937
 11
2.9532540705
 21
2.9718687353
  0
LINE
  5
25C
100
AcDbEntity
  8
0
100
AcDbLine
 62
7
  6
CONTINUOUS
 10
3.0732540705
 20
2.970468479
 11
3.0732540705
 21
2.9710366672
  0
LINE
  5
25D
100
AcDbEntity
  8
0
100
AcDbLine
 62
7
  6
CONTINUOUS
 10
3.1005040705
 20
2.9687166452
 11
3.1005040705
 21
2.9685747626
  0
LINE
  5
25E
100
AcDbEntity
  8
0
100
AcDbLine
 62
7
  6
CONTINUOUS
 10
3.1097540705
 20
2.96689587
 11
3.1097540705
 21
2.9663246121
  0
LINE
  5
25F
100
AcDbEntity
  8
0
100
AcDbLine
 62
7
  6
CONTINUOUS
 10
3.1760040705
 20
2.5572179603
 11
3.1760040705
 21
2.3777179603
  0
LINE
  5
260
100
AcDbEntity
  8
0
100
AcDbLine
 62
6
  6
CONTINUOUS
 10
2.7956864445
 20
2.3557321662
 11
2.7420626721
 21
1.9142179603
  0
LINE
  5
261
100
AcDbEntity
  8
0
100
AcDbLine
 62
7
  6
CONTINUOUS
 10
4.0750075705
 20
2.3032179603
 11
3.6380005705
 21
2.3032179603
  0
LINE
  5
262
100
AcDbEntity
  8
0
100
AcDbLine
 62
7
  6
CONTINUOUS
 10
5.9335005705
 20
2.3032179603
 11
6.3705075705
 21
2.3032179603
  0
LINE
  5
263
100
AcDbEntity
  8
0
100
AcDbLine
 62
6
  6
CONTINUOUS
 10
2.7956864445
 20
2.3557321662
 11
3.2128216965
 21
2.3557321662
  0
LINE
  5
264
100
AcDbEntity
  8
0
100
AcDbLine
 62
7
  6
CONTINUOUS
 10
6.7956529707
 20
2.3557321662
 11
7.2127882228
 21
2.3557321662
  0
LINE
  5
265
100
AcDbEntity
  8
0
100
AcDbLine
 62
7
  6
CONTINUOUS
 10
7.1879705968
 20
2.3777179603
 11
6.8204705968
 21
2.3777179603
  0
LINE
  5
266
100
AcDbEntity
  8
0
100
AcDbLine
 62
6
  6
CONTINUOUS
 10
3.1880040705
 20
2.3777179603
 11
2.8205040705
 21
2.3777179603
  0
LINE
  5
267
100
AcDbEntity
  8
0
100
AcDbLine
 62
7
  6
CONTINUOUS
 10
3.2315090486
 20
2.9377179603
 11
3.2608711466
 21
2.9281776363
  0
LINE
  5
268
100
AcDbEntity
  8
0
100
AcDbLine
 62
7
  6
CONTINUOUS
 10
3.2545806767
 20
2.8749679603
 11
3.2680040705
 21
2.8672179603
  0
LINE
  5
269
100
AcDbEntity
  8
0
100
AcDbLine
 62
7
  6
CONTINUOUS
 10
4.1535040705
 20
2.0689333506
 11
4.1415040705
 21
2.0897179603
  0
LINE
  5
26A
100
AcDbEntity
  8
0
100
AcDbLine
 62
6
  6
CONTINUOUS
 10
3.2128216965
 20
2.3557321662
 11
3.2664454689
 21
1.9142179603
  0
LINE
  5
26B
100
AcDbEntity
  8
0
100
AcDbLine
 62
7
  6
CONTINUOUS
 10
3.2587570586
 20
2.676129939
 11
3.2587570586
 21
2.7733059639
  0
LINE
  5
26C
100
AcDbEntity
  8
0
100
AcDbLine
 62
7
  6
CONTINUOUS
 10
3.2680040705
 20
2.9183600088
 11
3.2680040705
 21
2.8827179603
  0
LINE
  5
26D
100
AcDbEntity
  8
0
100
AcDbLine
 62
7
  6
CONTINUOUS
 10
3.2698370754
 20
2.6471073988
 11
3.2698370754
 21
2.8023285171
  0
LINE
  5
26E
100
AcDbEntity
  8
0
100
AcDbLine
 62
7
  6
CONTINUOUS
 10
3.2798440705
 20
1.7227179603
 11
3.2798440705
 21
1.6052916874
  0
LINE
  5
26F
100
AcDbEntity
  8
0
100
AcDbLine
 62
7
  6
CONTINUOUS
 10
3.4505724912
 20
2.6292593137
 11
3.4505724912
 21
2.8201766069
  0
LINE
  5
270
100
AcDbEntity
  8
0
100
AcDbLine
 62
7
  6
CONTINUOUS
 10
3.4630040705
 20
2.6301875009
 11
3.4630040705
 21
2.8192484196
  0
LINE
  5
271
100
AcDbEntity
  8
0
100
AcDbLine
 62
7
  6
CONTINUOUS
 10
3.475592682
 20
2.6408243125
 11
3.475592682
 21
2.8086116081
  0
LINE
  5
272
100
AcDbEntity
  8
0
100
AcDbLine
 62
7
  6
CONTINUOUS
 10
3.4835040705
 20
0.5887103742
 11
3.4835040705
 21
0.5612179603
  0
LINE
  5
273
100
AcDbEntity
  8
0
100
AcDbLine
 62
7
  6
CONTINUOUS
 10
2.7405040705
 20
2.8672179603
 11
2.7255040705
 21
2.8272179603
  0
LINE
  5
274
100
AcDbEntity
  8
0
100
AcDbLine
 62
7
  6
CONTINUOUS
 10
6.8410199996
 20
2.9567806203
 11
6.8292086341
 21
2.9546970203
  0
LINE
  5
275
100
AcDbEntity
  8
0
100
AcDbLine
 62
7
  6
CONTINUOUS
 10
6.9053698672
 20
2.9687984751
 11
6.8697658452
 21
2.9628894218
  0
LINE
  5
276
100
AcDbEntity
  8
0
100
AcDbLine
 62
7
  6
CONTINUOUS
 10
6.8502098008
 20
2.9592600919
 11
6.8503103478
 21
2.9592759514
  0
LINE
  5
277
100
AcDbEntity
  8
0
100
AcDbLine
 62
7
  6
CONTINUOUS
 10
6.8503103478
 20
2.9592759514
 11
6.8531931712
 21
2.9597042791
  0
LINE
  5
278
100
AcDbEntity
  8
0
100
AcDbLine
 62
7
  6
CONTINUOUS
 10
2.8190193039
 20
2.5572179603
 11
3.1894888371
 21
2.5572179603
  0
LINE
  5
279
100
AcDbEntity
  8
0
100
AcDbLine
 62
7
  6
CONTINUOUS
 10
6.8189738958
 20
2.5572179603
 11
7.189443429
 21
2.5572179603
  0
LINE
  5
27A
100
AcDbEntity
  8
0
100
AcDbLine
 62
7
  6
CONTINUOUS
 10
2.7405040705
 20
2.5827179603
 11
3.2680040705
 21
2.5827179603
  0
LINE
  5
27B
100
AcDbEntity
  8
0
100
AcDbLine
 62
7
  6
CONTINUOUS
 10
6.7404586624
 20
2.5827179603
 11
7.2679586624
 21
2.5827179603
  0
LINE
  5
27C
100
AcDbEntity
  8
0
100
AcDbLine
 62
7
  6
CONTINUOUS
 10
3.2830040705
 20
2.6222179603
 11
3.0957269823
 21
2.6222179603
  0
LINE
  5
27D
100
AcDbEntity
  8
0
100
AcDbLine
 62
7
  6
CONTINUOUS
 10
2.7255040705
 20
2.6222179603
 11
2.9127811587
 21
2.6222179603
  0
LINE
  5
27E
100
AcDbEntity
  8
0
100
AcDbLine
 62
7
  6
CONTINUOUS
 10
6.7254586624
 20
2.6222179603
 11
6.9127357507
 21
2.6222179603
  0
LINE
  5
27F
100
AcDbEntity
  8
0
100
AcDbLine
 62
7
  6
CONTINUOUS
 10
7.0956815742
 20
2.6222179603
 11
7.2829586624
 21
2.6222179603
  0
LINE
  5
280
100
AcDbEntity
  8
0
100
AcDbLine
 62
7
  6
CONTINUOUS
 10
5.5895040705
 20
2.6472144603
 11
5.3760505804
 21
2.6472144603
  0
LINE
  5
281
100
AcDbEntity
  8
0
100
AcDbLine
 62
7
  6
CONTINUOUS
 10
4.6324575606
 20
2.6472144603
 11
4.4190040705
 21
2.6472144603
  0
LINE
  5
282
100
AcDbEntity
  8
0
100
AcDbLine
 62
7
  6
CONTINUOUS
 10
3.0825040705
 20
2.9707566387
 11
3.1005040705
 21
2.9687166452
  0
LINE
  5
283
100
AcDbEntity
  8
0
100
AcDbLine
 62
7
  6
CONTINUOUS
 10
3.5166373105
 20
2.6120845542
 11
3.5166373105
 21
2.8373513664
  0
LINE
  5
284
100
AcDbEntity
  8
0
100
AcDbLine
 62
7
  6
CONTINUOUS
 10
3.5595040705
 20
1.82050257
 11
3.5595040705
 21
2.0689333506
  0
LINE
  5
285
100
AcDbEntity
  8
0
100
AcDbLine
 62
7
  6
CONTINUOUS
 10
3.6077822072
 20
2.0312612455
 11
3.6077822072
 21
1.858174675
  0
LINE
  5
286
100
AcDbEntity
  8
0
100
AcDbLine
 62
7
  6
CONTINUOUS
 10
3.6380005705
 20
2.3032179603
 11
3.6380005705
 21
2.1097179603
  0
LINE
  5
287
100
AcDbEntity
  8
0
100
AcDbLine
 62
7
  6
CONTINUOUS
 10
3.6547540705
 20
2.0897179603
 11
3.6547540705
 21
2.1097179603
  0
LINE
  5
288
100
AcDbEntity
  8
0
100
AcDbLine
 62
7
  6
CONTINUOUS
 10
6.9848461759
 20
2.9749761523
 11
6.9423187507
 21
2.9727438799
  0
LINE
  5
289
100
AcDbEntity
  8
0
100
AcDbLine
 62
7
  6
CONTINUOUS
 10
6.9241533922
 20
2.9710736831
 11
6.9280829388
 21
2.9712090694
  0
LINE
  5
28A
100
AcDbEntity
  8
0
100
AcDbLine
 62
7
  6
CONTINUOUS
 10
6.9241570434
 20
2.9710743117
 11
6.9243797112
 21
2.9710777819
  0
LINE
  5
28B
100
AcDbEntity
  8
0
100
AcDbLine
 62
7
  6
CONTINUOUS
 10
7.0027086624
 20
2.9747165083
 11
6.9848586624
 21
2.9744763082
  0
LINE
  5
28C
100
AcDbEntity
  8
0
100
AcDbLine
 62
7
  6
CONTINUOUS
 10
2.9911285721
 20
2.9740527124
 11
3.0104121683
 21
2.9740731563
  0
LINE
  5
28D
100
AcDbEntity
  8
0
100
AcDbLine
 62
7
  6
CONTINUOUS
 10
7.2829586624
 20
2.8272179603
 11
7.0956815742
 21
2.8272179603
  0
LINE
  5
28E
100
AcDbEntity
  8
0
100
AcDbLine
 62
7
  6
CONTINUOUS
 10
3.2830040705
 20
2.8272179603
 11
3.0957269823
 21
2.8272179603
  0
LINE
  5
28F
100
AcDbEntity
  8
0
100
AcDbLine
 62
7
  6
CONTINUOUS
 10
2.7255040705
 20
2.8272179603
 11
2.9127811587
 21
2.8272179603
  0
LINE
  5
290
100
AcDbEntity
  8
0
100
AcDbLine
 62
7
  6
CONTINUOUS
 10
6.7254586624
 20
2.8272179603
 11
6.9127357507
 21
2.8272179603
  0
LINE
  5
291
100
AcDbEntity
  8
0
100
AcDbLine
 62
7
  6
CONTINUOUS
 10
2.7405040705
 20
2.8672179603
 11
3.2680040705
 21
2.8672179603
  0
LINE
  5
292
100
AcDbEntity
  8
0
100
AcDbLine
 62
7
  6
CONTINUOUS
 10
6.7404586624
 20
2.8672179603
 11
7.2679586624
 21
2.8672179603
  0
LINE
  5
293
100
AcDbEntity
  8
0
100
AcDbLine
 62
7
  6
CONTINUOUS
 10
2.7539274643
 20
2.8749679603
 11
3.2545806767
 21
2.8749679603
  0
LINE
  5
294
100
AcDbEntity
  8
0
100
AcDbLine
 62
7
  6
CONTINUOUS
 10
6.7538820562
 20
2.8749679603
 11
7.2545352687
 21
2.8749679603
  0
LINE
  5
295
100
AcDbEntity
  8
0
100
AcDbLine
 62
7
  6
CONTINUOUS
 10
2.7405040705
 20
2.8827179603
 11
3.2680040705
 21
2.8827179603
  0
LINE
  5
296
100
AcDbEntity
  8
0
100
AcDbLine
 62
7
  6
CONTINUOUS
 10
6.7404586624
 20
2.8827179603
 11
7.2679586624
 21
2.8827179603
  0
LINE
  5
297
100
AcDbEntity
  8
0
100
AcDbLine
 62
7
  6
CONTINUOUS
 10
2.7405040705
 20
2.9183600088
 11
3.2680040705
 21
2.9183600088
  0
LINE
  5
298
100
AcDbEntity
  8
0
100
AcDbLine
 62
7
  6
CONTINUOUS
 10
6.7404586624
 20
2.9183600088
 11
7.2679586624
 21
2.9183600088
  0
LINE
  5
299
100
AcDbEntity
  8
0
100
AcDbLine
 62
7
  6
CONTINUOUS
 10
2.7476369944
 20
2.9281776363
 11
3.2608711466
 21
2.9281776363
  0
LINE
  5
29A
100
AcDbEntity
  8
0
100
AcDbLine
 62
7
  6
CONTINUOUS
 10
6.7475915863
 20
2.9281776363
 11
7.2608257385
 21
2.9281776363
  0
LINE
  5
29B
100
AcDbEntity
  8
0
100
AcDbLine
 62
7
  6
CONTINUOUS
 10
2.7769990924
 20
2.9377179603
 11
3.2315090486
 21
2.9377179603
  0
LINE
  5
29C
100
AcDbEntity
  8
0
100
AcDbLine
 62
7
  6
CONTINUOUS
 10
6.7769536844
 20
2.9377179603
 11
7.2314636405
 21
2.9377179603
  0
LINE
  5
29D
100
AcDbEntity
  8
0
100
AcDbLine
 62
7
  6
CONTINUOUS
 10
7.2017809907
 20
2.9496226069
 11
6.8066363341
 21
2.9496226069
  0
LINE
  5
29E
100
AcDbEntity
  8
0
100
AcDbLine
 62
7
  6
CONTINUOUS
 10
3.2018263903
 20
2.9496226668
 11
2.8066817507
 21
2.9496226668
  0
LINE
  5
29F
100
AcDbEntity
  8
0
100
AcDbLine
 62
7
  6
CONTINUOUS
 10
5.5895040705
 20
3.0842214603
 11
5.3760505804
 21
3.0842214603
  0
LINE
  5
2A0
100
AcDbEntity
  8
0
100
AcDbLine
 62
7
  6
CONTINUOUS
 10
4.6324575606
 20
3.0842214603
 11
4.4190040705
 21
3.0842214603
  0
LINE
  5
2A1
100
AcDbEntity
  8
0
100
AcDbLine
 62
7
  6
CONTINUOUS
 10
4.6860387387
 20
3.113882325
 11
5.3224694023
 21
3.113882325
  0
LINE
  5
2A2
100
AcDbEntity
  8
0
100
AcDbLine
 62
7
  6
CONTINUOUS
 10
7.0199586627
 20
2.9745578693
 11
7.0379586624
 21
2.9739825758
  0
LINE
  5
2A3
100
AcDbEntity
  8
0
100
AcDbLine
 62
7
  6
CONTINUOUS
 10
3.8082259338
 20
2.0312612455
 11
3.8082259338
 21
1.858174675
  0
LINE
  5
2A4
100
AcDbEntity
  8
0
100
AcDbLine
 62
7
  6
CONTINUOUS
 10
3.9047822072
 20
2.0312612455
 11
3.9047822072
 21
1.858174675
  0
LINE
  5
2A5
100
AcDbEntity
  8
0
100
AcDbLine
 62
7
  6
CONTINUOUS
 10
4.0582540705
 20
2.0897179603
 11
4.0582540705
 21
2.1097179603
  0
LINE
  5
2A6
100
AcDbEntity
  8
0
100
AcDbLine
 62
7
  6
CONTINUOUS
 10
4.0750075705
 20
2.3032179603
 11
4.0750075705
 21
2.1097179603
  0
LINE
  5
2A7
100
AcDbEntity
  8
0
100
AcDbLine
 62
7
  6
CONTINUOUS
 10
4.1052259338
 20
2.0312612455
 11
4.1052259338
 21
1.858174675
  0
LINE
  5
2A8
100
AcDbEntity
  8
0
100
AcDbLine
 62
7
  6
CONTINUOUS
 10
3.2830040705
 20
2.6222179603
 11
3.2680040705
 21
2.5827179603
  0
LINE
  5
2A9
100
AcDbEntity
  8
0
100
AcDbLine
 62
7
  6
CONTINUOUS
 10
2.7476369944
 20
2.9281776363
 11
2.7405040705
 21
2.9183600088
  0
LINE
  5
2AA
100
AcDbEntity
  8
0
100
AcDbLine
 62
7
  6
CONTINUOUS
 10
2.9822360931
 20
2.9748962902
 11
2.9823899708
 21
2.9749096207
  0
LINE
  5
2AB
100
AcDbEntity
  8
0
100
AcDbLine
 62
7
  6
CONTINUOUS
 10
4.6992540705
 20
3.1523176145
 11
5.3092540705
 21
3.1523176145
  0
LINE
  5
2AC
100
AcDbEntity
  8
0
100
AcDbLine
 62
7
  6
CONTINUOUS
 10
4.6992540705
 20
3.4067179603
 11
5.3092540705
 21
3.4067179603
  0
LINE
  5
2AD
100
AcDbEntity
  8
0
100
AcDbLine
 62
7
  6
CONTINUOUS
 10
5.3042540705
 20
3.4167179603
 11
4.7043549383
 21
3.4167179603
  0
LINE
  5
2AE
100
AcDbEntity
  8
0
100
AcDbLine
 62
7
  6
CONTINUOUS
 10
7.1042086624
 20
2.9682378765
 11
7.1223574906
 21
2.9656571644
  0
LINE
  5
2AF
100
AcDbEntity
  8
0
100
AcDbLine
 62
7
  6
CONTINUOUS
 10
7.1837079213
 20
2.9536397471
 11
7.1828407245
 21
2.9537947845
  0
LINE
  5
2B0
100
AcDbEntity
  8
0
100
AcDbLine
 62
7
  6
CONTINUOUS
 10
7.1837082352
 20
2.9536396539
 11
7.1504112899
 21
2.9596662953
  0
LINE
  5
2B1
100
AcDbEntity
  8
0
100
AcDbLine
 62
7
  6
CONTINUOUS
 10
7.1224337319
 20
2.9661513175
 11
7.1646259747
 21
2.9584412299
  0
LINE
  5
2B2
100
AcDbEntity
  8
0
100
AcDbLine
 62
7
  6
CONTINUOUS
 10
6.7404586624
 20
2.5827179603
 11
6.8189586624
 21
2.5572179603
  0
LINE
  5
2B3
100
AcDbEntity
  8
0
100
AcDbLine
 62
7
  6
CONTINUOUS
 10
4.1535040705
 20
1.82050257
 11
4.1535040705
 21
2.0689333506
  0
LINE
  5
2B4
100
AcDbEntity
  8
0
100
AcDbLine
 62
7
  6
CONTINUOUS
 10
4.4190040705
 20
2.6472144603
 11
4.4190040705
 21
3.0842214603
  0
LWPOLYLINE
  5
2B5
100
AcDbEntity
  8
0
100
AcDbPolyline
 62
7
  6
CONTINUOUS
 90
7
 70
0
 10
4.0555483064
 20
1.7014447152
 10
4.0561075828
 20
1.7073311777
 10
4.0572419882
 20
1.7132264228
 10
4.0589356588
 20
1.7189822342
 10
4.0611719581
 20
1.7245457504
 10
4.0639295469
 20
1.7298665267
 10
4.0668081226
 20
1.734368476
  0
LINE
  5
2B6
100
AcDbEntity
  8
0
100
AcDbLine
 62
7
  6
CONTINUOUS
 10
3.3685840443
 20
1.2225741285
 11
3.28777667
 21
0.9185426513
  0
LINE
  5
2B7
100
AcDbEntity
  8
0
100
AcDbLine
 62
7
  6
CONTINUOUS
 10
5.3157331248
 20
3.4744349463
 11
4.6927750162
 21
3.4744349463
  0
LINE
  5
2B8
100
AcDbEntity
  8
0
100
AcDbLine
 62
7
  6
CONTINUOUS
 10
5.3107620574
 20
3.4884284577
 11
4.6977460836
 21
3.4884284577
  0
LINE
  5
2B9
100
AcDbEntity
  8
0
100
AcDbLine
 62
7
  6
CONTINUOUS
 10
7.2314636405
 20
2.9377179603
 11
7.2608257385
 21
2.9281776363
  0
LWPOLYLINE
  5
2BA
100
AcDbEntity
  8
0
100
AcDbPolyline
 62
7
  6
CONTINUOUS
 90
7
 70
0
 10
5.9417141355
 20
1.7343644164
 10
5.9445925472
 20
1.7298629528
 10
5.9473502701
 20
1.7245422711
 10
5.9495867208
 20
1.7189788152
 10
5.9512805532
 20
1.7132230239
 10
5.9524151219
 20
1.7073277581
 10
5.9529745719
 20
1.70144082
  0
LINE
  5
2BB
100
AcDbEntity
  8
0
100
AcDbLine
 62
7
  6
CONTINUOUS
 10
4.6324575606
 20
2.6472144603
 11
4.6324575606
 21
3.0842214603
  0
LINE
  5
2BC
100
AcDbEntity
  8
0
100
AcDbLine
 62
7
  6
CONTINUOUS
 10
4.6823184249
 20
2.622399261
 11
4.682318425
 21
3.1090366596
  0
LINE
  5
2BD
100
AcDbEntity
  8
0
100
AcDbLine
 62
7
  6
CONTINUOUS
 10
4.6992540705
 20
3.4067179603
 11
4.6992540705
 21
3.1523176145
  0
LINE
  5
2BE
100
AcDbEntity
  8
0
100
AcDbLine
 62
7
  6
CONTINUOUS
 10
4.7230040705
 20
4.1057491978
 11
4.7230040705
 21
4.0417179603
  0
LINE
  5
2BF
100
AcDbEntity
  8
0
100
AcDbLine
 62
7
  6
CONTINUOUS
 10
4.6823181768
 20
3.0755618513
 11
4.6823192901
 21
3.0786761837
  0
LINE
  5
2C0
100
AcDbEntity
  8
0
100
AcDbLine
 62
7
  6
CONTINUOUS
 10
4.6823184213
 20
2.6497881933
 11
4.6823192959
 21
2.6527596805
  0
LINE
  5
2C1
100
AcDbEntity
  8
0
100
AcDbLine
 62
7
  6
CONTINUOUS
 10
4.6823180787
 20
3.084479251
 11
4.6823194297
 21
3.0871716055
  0
LINE
  5
2C2
100
AcDbEntity
  8
0
100
AcDbLine
 62
7
  6
CONTINUOUS
 10
4.6823171005
 20
2.6393066311
 11
4.6823194297
 21
2.6442642866
  0
LINE
  5
2C3
100
AcDbEntity
  8
0
100
AcDbLine
 62
7
  6
CONTINUOUS
 10
4.6823167729
 20
2.6329595366
 11
4.6823190508
 21
2.6370377888
  0
LINE
  5
2C4
100
AcDbEntity
  8
0
100
AcDbLine
 62
7
  6
CONTINUOUS
 10
4.6823170673
 20
2.6280215316
 11
4.6823183647
 21
2.6295005417
  0
LINE
  5
2C5
100
AcDbEntity
  8
0
100
AcDbLine
 62
7
  6
CONTINUOUS
 10
4.6823171034
 20
3.0921292553
 11
4.6823180665
 21
3.1086844333
  0
LINE
  5
2C6
100
AcDbEntity
  8
0
100
AcDbLine
 62
7
  6
CONTINUOUS
 10
4.6823172764
 20
2.6246000896
 11
4.6823184371
 21
2.625565362
  0
LINE
  5
2C7
100
AcDbEntity
  8
0
100
AcDbLine
 62
7
  6
CONTINUOUS
 10
4.6823180551
 20
3.1089480377
 11
4.6823184249
 21
3.1090366595
  0
LINE
  5
2C8
100
AcDbEntity
  8
0
100
AcDbLine
 62
7
  6
CONTINUOUS
 10
5.3042540705
 20
4.0417179603
 11
4.7042540705
 21
4.0417179603
  0
LINE
  5
2C9
100
AcDbEntity
  8
0
100
AcDbLine
 62
7
  6
CONTINUOUS
 10
6.7404586624
 20
2.8827179603
 11
6.7538820562
 21
2.8749679603
  0
LINE
  5
2CA
100
AcDbEntity
  8
0
100
AcDbLine
 62
7
  6
CONTINUOUS
 10
6.5328700509
 20
2.8086116081
 11
6.4918254224
 21
2.8373513664
  0
LINE
  5
2CB
100
AcDbEntity
  8
0
100
AcDbLine
 62
7
  6
CONTINUOUS
 10
5.8670040705
 20
1.7997179603
 11
5.8550040705
 21
1.82050257
  0
LINE
  5
2CC
100
AcDbEntity
  8
0
100
AcDbLine
 62
7
  6
CONTINUOUS
 10
4.7542540705
 20
5.3923179603
 11
4.7830318161
 21
5.0746116485
  0
LINE
  5
2CD
100
AcDbEntity
  8
0
100
AcDbLine
 62
7
  6
CONTINUOUS
 10
4.7732198446
 20
4.0667179603
 11
4.7732198446
 21
4.0417179603
  0
LINE
  5
2CE
100
AcDbEntity
  8
0
100
AcDbLine
 62
7
  6
CONTINUOUS
 10
4.7855040705
 20
5.0651236358
 11
4.7855040705
 21
4.1167179603
  0
LINE
  5
2CF
100
AcDbEntity
  8
0
100
AcDbLine
 62
7
  6
CONTINUOUS
 10
4.7855040705
 20
5.4523179603
 11
4.7855040705
 21
7.8898179603
  0
LINE
  5
2D0
100
AcDbEntity
  8
0
100
AcDbLine
 62
7
  6
CONTINUOUS
 10
4.9540382964
 20
4.0667179603
 11
4.9540382964
 21
4.0417179603
  0
LINE
  5
2D1
100
AcDbEntity
  8
0
100
AcDbLine
 62
7
  6
CONTINUOUS
 10
3.5595040705
 20
2.0689333506
 11
3.5715040705
 21
2.0897179603
  0
LINE
  5
2D2
100
AcDbEntity
  8
0
100
AcDbLine
 62
7
  6
CONTINUOUS
 10
2.532915459
 20
2.6408243125
 11
2.4918708305
 21
2.6120845542
  0
LINE
  5
2D3
100
AcDbEntity
  8
0
100
AcDbLine
 62
7
  6
CONTINUOUS
 10
5.2855040705
 20
4.0667179603
 11
5.2352882964
 21
4.0667179603
  0
LINE
  5
2D4
100
AcDbEntity
  8
0
100
AcDbLine
 62
7
  6
CONTINUOUS
 10
5.0544698446
 20
4.0667179603
 11
4.9540382964
 21
4.0667179603
  0
LINE
  5
2D5
100
AcDbEntity
  8
0
100
AcDbLine
 62
7
  6
CONTINUOUS
 10
4.7732198446
 20
4.0667179603
 11
4.7230040705
 21
4.0667179603
  0
LINE
  5
2D6
100
AcDbEntity
  8
0
100
AcDbLine
 62
7
  6
CONTINUOUS
 10
5.2542540705
 20
4.1167179603
 11
4.7542540705
 21
4.1167179603
  0
LINE
  5
2D7
100
AcDbEntity
  8
0
100
AcDbLine
 62
7
  6
CONTINUOUS
 10
7.2545352687
 20
2.8749679603
 11
7.2679586624
 21
2.8672179603
  0
LINE
  5
2D8
100
AcDbEntity
  8
0
100
AcDbLine
 62
7
  6
CONTINUOUS
 10
7.4755472739
 20
2.6408243125
 11
7.5165919024
 21
2.6120845542
  0
LINE
  5
2D9
100
AcDbEntity
  8
0
100
AcDbLine
 62
7
  6
CONTINUOUS
 10
5.0544698446
 20
4.0667179603
 11
5.0544698446
 21
4.0417179603
  0
LINE
  5
2DA
100
AcDbEntity
  8
0
100
AcDbLine
 62
7
  6
CONTINUOUS
 10
5.2230040705
 20
5.0651236358
 11
5.2230040705
 21
4.1167179603
  0
LINE
  5
2DB
100
AcDbEntity
  8
0
100
AcDbLine
 62
7
  6
CONTINUOUS
 10
5.2230040705
 20
5.4523179603
 11
5.2230040705
 21
7.8898179603
  0
LINE
  5
2DC
100
AcDbEntity
  8
0
100
AcDbLine
 62
7
  6
CONTINUOUS
 10
5.2352882964
 20
4.0667179603
 11
5.2352882964
 21
4.0417179603
  0
LINE
  5
2DD
100
AcDbEntity
  8
0
100
AcDbLine
 62
7
  6
CONTINUOUS
 10
5.2855040705
 20
4.0417179603
 11
5.2855040705
 21
4.1057491978
  0
LINE
  5
2DE
100
AcDbEntity
  8
0
100
AcDbLine
 62
7
  6
CONTINUOUS
 10
5.3092540705
 20
3.4067179603
 11
5.3092540705
 21
3.1523176145
  0
LINE
  5
2DF
100
AcDbEntity
  8
0
100
AcDbLine
 62
7
  6
CONTINUOUS
 10
5.3261897161
 20
3.1090366595
 11
5.326189716
 21
2.6223992609
  0
LINE
  5
2E0
100
AcDbEntity
  8
0
100
AcDbLine
 62
7
  6
CONTINUOUS
 10
5.3261910443
 20
2.6393384592
 11
5.3261899361
 21
2.6311635981
  0
LINE
  5
2E1
100
AcDbEntity
  8
0
100
AcDbLine
 62
7
  6
CONTINUOUS
 10
5.3261910979
 20
2.6280326515
 11
5.3261903852
 21
2.6231921204
  0
LINE
  5
2E2
100
AcDbEntity
  8
0
100
AcDbLine
 62
7
  6
CONTINUOUS
 10
5.3261901468
 20
2.6224881392
 11
5.3261897161
 21
2.622399261
  0
LINE
  5
2E3
100
AcDbEntity
  8
0
100
AcDbLine
 62
7
  6
CONTINUOUS
 10
5.2542540705
 20
5.3923179603
 11
5.2254763249
 21
5.0746116485
  0
LINE
  5
2E4
100
AcDbEntity
  8
0
100
AcDbLine
 62
7
  6
CONTINUOUS
 10
2.7539274643
 20
2.8749679603
 11
2.7405040705
 21
2.8672179603
  0
LINE
  5
2E5
100
AcDbEntity
  8
0
100
AcDbLine
 62
7
  6
CONTINUOUS
 10
6.4490040705
 20
2.0689333506
 11
6.4370040705
 21
2.0897179603
  0
LINE
  5
2E6
100
AcDbEntity
  8
0
100
AcDbLine
 62
7
  6
CONTINUOUS
 10
5.3760505804
 20
3.0842214603
 11
5.3760505804
 21
2.6472144603
  0
LINE
  5
2E7
100
AcDbEntity
  8
0
100
AcDbLine
 62
7
  6
CONTINUOUS
 10
5.5895040705
 20
2.6472144603
 11
5.5895040705
 21
3.0842214603
  0
LINE
  5
2E8
100
AcDbEntity
  8
0
100
AcDbLine
 62
7
  6
CONTINUOUS
 10
4.1415040705
 20
1.7997179603
 11
4.1535040705
 21
1.82050257
  0
LINE
  5
2E9
100
AcDbEntity
  8
0
100
AcDbLine
 62
7
  6
CONTINUOUS
 10
3.475592682
 20
2.8086116081
 11
3.5166373105
 21
2.8373513664
  0
LINE
  5
2EA
100
AcDbEntity
  8
0
100
AcDbLine
 62
7
  6
CONTINUOUS
 10
3.2680040705
 20
2.8827179603
 11
3.2545806767
 21
2.8749679603
  0
LINE
  5
2EB
100
AcDbEntity
  8
0
100
AcDbLine
 62
7
  6
CONTINUOUS
 10
2.7769990924
 20
2.9377179603
 11
2.7476369944
 21
2.9281776363
  0
LINE
  5
2EC
100
AcDbEntity
  8
0
100
AcDbLine
 62
7
  6
CONTINUOUS
 10
5.8550040705
 20
1.82050257
 11
5.8550040705
 21
2.0689333506
  0
LINE
  5
2ED
100
AcDbEntity
  8
0
100
AcDbLine
 62
7
  6
CONTINUOUS
 10
5.9032822072
 20
2.0312612455
 11
5.9032822072
 21
1.858174675
  0
LINE
  5
2EE
100
AcDbEntity
  8
0
100
AcDbLine
 62
7
  6
CONTINUOUS
 10
5.9335005705
 20
2.1097179603
 11
5.9335005705
 21
2.3032179603
  0
LINE
  5
2EF
100
AcDbEntity
  8
0
100
AcDbLine
 62
7
  6
CONTINUOUS
 10
5.9502540705
 20
2.0897179603
 11
5.9502540705
 21
2.1097179603
  0
LINE
  5
2F0
100
AcDbEntity
  8
0
100
AcDbLine
 62
7
  6
CONTINUOUS
 10
5.195598643
 20
5.0473179603
 11
4.812909498
 21
5.0473179603
  0
LINE
  5
2F1
100
AcDbEntity
  8
0
100
AcDbLine
 62
7
  6
CONTINUOUS
 10
5.2254763249
 20
5.0746116485
 11
4.7830318161
 21
5.0746116485
  0
LINE
  5
2F2
100
AcDbEntity
  8
0
100
AcDbLine
 62
7
  6
CONTINUOUS
 10
6.6399003121
 20
1.222603709
 11
6.7207135767
 21
0.9185737976
  0
LWPOLYLINE
  5
2F3
100
AcDbEntity
  8
0
100
AcDbPolyline
 62
7
  6
CONTINUOUS
 90
9
 70
0
 10
6.3542935833
 20
1.6965816127
 10
6.3539753111
 20
1.702640511
 10
6.3542447752
 20
1.7086796622
 10
6.35509496
 20
1.7146526074
 10
6.3565140232
 20
1.7205023553
 10
6.3584857566
 20
1.7261773715
 10
6.3609876844
 20
1.7316239542
 10
6.3639883919
 20
1.7367860812
 10
6.3644147095
 20
1.7374358277
  0
LINE
  5
2F4
100
AcDbEntity
  8
0
100
AcDbLine
 62
7
  6
CONTINUOUS
 10
6.1037259338
 20
2.0312612455
 11
6.1037259338
 21
1.858174675
  0
LINE
  5
2F5
100
AcDbEntity
  8
0
100
AcDbLine
 62
7
  6
CONTINUOUS
 10
6.2002822072
 20
2.0312612455
 11
6.2002822072
 21
1.858174675
  0
LINE
  5
2F6
100
AcDbEntity
  8
0
100
AcDbLine
 62
7
  6
CONTINUOUS
 10
3.2680040705
 20
2.5827179603
 11
3.1895040705
 21
2.5572179603
  0
LINE
  5
2F7
100
AcDbEntity
  8
0
100
AcDbLine
 62
7
  6
CONTINUOUS
 10
5.2542540705
 20
5.3923179603
 11
4.7542540705
 21
5.3923179603
  0
LINE
  5
2F8
100
AcDbEntity
  8
0
100
AcDbLine
 62
7
  6
CONTINUOUS
 10
5.2542540705
 20
5.4523179603
 11
4.7542540705
 21
5.4523179603
  0
LINE
  5
2F9
100
AcDbEntity
  8
0
100
AcDbLine
 62
7
  6
CONTINUOUS
 10
7.2608257385
 20
2.9281776363
 11
7.2679586624
 21
2.9183600088
  0
LINE
  5
2FA
100
AcDbEntity
  8
0
100
AcDbLine
 62
7
  6
CONTINUOUS
 10
6.7254586624
 20
2.6222179603
 11
6.7404586624
 21
2.5827179603
  0
LINE
  5
2FB
100
AcDbEntity
  8
0
100
AcDbLine
 62
7
  6
CONTINUOUS
 10
6.3537540705
 20
2.0897179603
 11
6.3537540705
 21
2.1097179603
  0
LINE
  5
2FC
100
AcDbEntity
  8
0
100
AcDbLine
 62
7
  6
CONTINUOUS
 10
6.3705075705
 20
2.1097179603
 11
6.3705075705
 21
2.3032179603
  0
LINE
  5
2FD
100
AcDbEntity
  8
0
100
AcDbLine
 62
7
  6
CONTINUOUS
 10
6.4007259338
 20
2.0312612455
 11
6.4007259338
 21
1.858174675
  0
LINE
  5
2FE
100
AcDbEntity
  8
0
100
AcDbLine
 62
7
  6
CONTINUOUS
 10
6.4490040705
 20
1.82050257
 11
6.4490040705
 21
2.0689333506
  0
LINE
  5
2FF
100
AcDbEntity
  8
0
100
AcDbLine
 62
7
  6
CONTINUOUS
 10
6.4918254224
 20
2.6120845542
 11
6.4918254224
 21
2.8373513664
  0
LINE
  5
300
100
AcDbEntity
  8
0
100
AcDbLine
 62
7
  6
CONTINUOUS
 10
6.5249925664
 20
0.5887377286
 11
6.5249930991
 21
0.5612453147
  0
LINE
  5
301
100
AcDbEntity
  8
0
100
AcDbLine
 62
7
  6
CONTINUOUS
 10
6.5328700509
 20
2.6408243125
 11
6.5328700509
 21
2.8086116081
  0
LINE
  5
302
100
AcDbEntity
  8
0
100
AcDbLine
 62
7
  6
CONTINUOUS
 10
6.5454586624
 20
2.6301875009
 11
6.5454586624
 21
2.8192484196
  0
LINE
  5
303
100
AcDbEntity
  8
0
100
AcDbLine
 62
7
  6
CONTINUOUS
 10
6.5578902417
 20
2.6292593137
 11
6.5578902417
 21
2.8201766069
  0
LINE
  5
304
100
AcDbEntity
  8
0
100
AcDbLine
 62
7
  6
CONTINUOUS
 10
4.7855040705
 20
5.6398179603
 11
5.2230040705
 21
5.6398179603
  0
LINE
  5
305
100
AcDbEntity
  8
0
100
AcDbLine
 62
7
  6
CONTINUOUS
 10
6.7286305956
 20
1.7227765596
 11
6.7286328712
 21
1.6053229871
  0
LINE
  5
306
100
AcDbEntity
  8
0
100
AcDbLine
 62
7
  6
CONTINUOUS
 10
6.7386256575
 20
2.8023285168
 11
6.7386256575
 21
2.6471073991
  0
LINE
  5
307
100
AcDbEntity
  8
0
100
AcDbLine
 62
7
  6
CONTINUOUS
 10
6.7404586624
 20
2.9183600088
 11
6.7404586624
 21
2.8827179603
  0
LINE
  5
308
100
AcDbEntity
  8
0
100
AcDbLine
 62
7
  6
CONTINUOUS
 10
6.7497056743
 20
2.7733059643
 11
6.7497056743
 21
2.6761299385
  0
LINE
  5
309
100
AcDbEntity
  8
0
100
AcDbLine
 62
7
  6
CONTINUOUS
 10
6.8324586624
 20
2.5572179603
 11
6.8324586624
 21
2.3777179603
  0
LINE
  5
30A
100
AcDbEntity
  8
0
100
AcDbLine
 62
7
  6
CONTINUOUS
 10
5.8550040705
 20
2.0689333506
 11
5.8670040705
 21
2.0897179603
  0
LINE
  5
30B
100
AcDbEntity
  8
0
100
AcDbLine
 62
7
  6
CONTINUOUS
 10
6.7769536844
 20
2.9377179603
 11
6.7475915863
 21
2.9281776363
  0
LINE
  5
30C
100
AcDbEntity
  8
0
100
AcDbLine
 62
7
  6
CONTINUOUS
 10
7.2679586624
 20
2.8672179603
 11
7.2829586624
 21
2.8272179603
  0
LWPOLYLINE
  5
30D
100
AcDbEntity
  8
0
100
AcDbPolyline
 62
7
  6
CONTINUOUS
 90
7
 70
0
 10
7.1042086624
 20
2.9679101896
 10
7.1042076648
 20
2.9680106003
 10
7.1042075769
 20
2.9680923256
 10
7.1042086624
 20
2.9681556951
 10
7.1042103409
 20
2.9682009659
 10
7.1042111421
 20
2.9682283224
 10
7.1042086624
 20
2.9682378765
  0
LINE
  5
30E
100
AcDbEntity
  8
0
100
AcDbLine
 62
7
  6
CONTINUOUS
 10
7.1223492429
 20
2.9656584376
 11
7.1223496026
 21
2.9651644416
  0
LINE
  5
30F
100
AcDbEntity
  8
0
100
AcDbLine
 62
7
  6
CONTINUOUS
 10
7.0992086624
 20
2.9676967576
 11
7.0992086624
 21
2.9682669966
  0
LINE
  5
310
100
AcDbEntity
  8
0
100
AcDbLine
 62
7
  6
CONTINUOUS
 10
7.1759586624
 20
2.5572179603
 11
7.1759586624
 21
2.3777179603
  0
LINE
  5
311
100
AcDbEntity
  8
0
100
AcDbLine
 62
7
  6
CONTINUOUS
 10
6.7956529707
 20
2.3557321662
 11
6.7420291984
 21
1.9142179603
  0
LINE
  5
312
100
AcDbEntity
  8
0
100
AcDbLine
 62
7
  6
CONTINUOUS
 10
6.7404586624
 20
2.8672179603
 11
6.7254586624
 21
2.8272179603
  0
LINE
  5
313
100
AcDbEntity
  8
0
100
AcDbLine
 62
7
  6
CONTINUOUS
 10
6.7538820562
 20
2.8749679603
 11
6.7404586624
 21
2.8672179603
  0
LINE
  5
314
100
AcDbEntity
  8
0
100
AcDbLine
 62
7
  6
CONTINUOUS
 10
7.2127882228
 20
2.3557321662
 11
7.2664119952
 21
1.9142179603
  0
LINE
  5
315
100
AcDbEntity
  8
0
100
AcDbLine
 62
7
  6
CONTINUOUS
 10
7.2587116505
 20
2.676129939
 11
7.2587116505
 21
2.7733059639
  0
LINE
  5
316
100
AcDbEntity
  8
0
100
AcDbLine
 62
7
  6
CONTINUOUS
 10
7.2679586624
 20
2.9183600088
 11
7.2679586624
 21
2.8827179603
  0
LINE
  5
317
100
AcDbEntity
  8
0
100
AcDbLine
 62
7
  6
CONTINUOUS
 10
7.2697916673
 20
2.6471073988
 11
7.2697916673
 21
2.8023285171
  0
LINE
  5
318
100
AcDbEntity
  8
0
100
AcDbLine
 62
7
  6
CONTINUOUS
 10
7.2798105957
 20
1.7227765595
 11
7.2798128711
 21
1.6053336657
  0
LINE
  5
319
100
AcDbEntity
  8
0
100
AcDbLine
 62
7
  6
CONTINUOUS
 10
7.4505270831
 20
2.6292593137
 11
7.4505270831
 21
2.8201766069
  0
LINE
  5
31A
100
AcDbEntity
  8
0
100
AcDbLine
 62
7
  6
CONTINUOUS
 10
7.4629586624
 20
2.6301875009
 11
7.4629586624
 21
2.8192484196
  0
LINE
  5
31B
100
AcDbEntity
  8
0
100
AcDbLine
 62
7
  6
CONTINUOUS
 10
7.4755472739
 20
2.6408243125
 11
7.4755472739
 21
2.8086116081
  0
LINE
  5
31C
100
AcDbEntity
  8
0
100
AcDbLine
 62
7
  6
CONTINUOUS
 10
7.4834925662
 20
0.5887562985
 11
7.4834930989
 21
0.5612638847
  0
LINE
  5
31D
100
AcDbEntity
  8
0
100
AcDbLine
 62
7
  6
CONTINUOUS
 10
7.5165919024
 20
2.6120845542
 11
7.5165919024
 21
2.8373513664
  0
LWPOLYLINE
  5
31E
100
AcDbEntity
  8
0
100
AcDbPolyline
 62
7
  6
CONTINUOUS
 90
5
 70
0
 10
7.1223574906
 20
2.9656571644
 10
7.1223562597
 20
2.9656548485
 10
7.1223496026
 20
2.9656128197
 10
7.122347686
 20
2.9655176363
 10
7.1223491658
 20
2.9653686019
  0
LINE
  5
31F
100
AcDbEntity
  8
0
100
AcDbLine
 62
7
  6
CONTINUOUS
 10
6.4370040705
 20
1.7997179603
 11
6.4490040705
 21
1.82050257
  0
LINE
  5
320
100
AcDbEntity
  8
0
100
AcDbLine
 62
7
  6
CONTINUOUS
 10
6.7475915863
 20
2.9281776363
 11
6.7404586624
 21
2.9183600088
  0
LINE
  5
321
100
AcDbEntity
  8
0
100
AcDbLine
 62
7
  6
CONTINUOUS
 10
6.5328700509
 20
2.6408243125
 11
6.4918254224
 21
2.6120845542
  0
LINE
  5
322
100
AcDbEntity
  8
0
100
AcDbLine
 62
7
  6
CONTINUOUS
 10
7.2679586624
 20
2.8827179603
 11
7.2545352687
 21
2.8749679603
  0
LINE
  5
323
100
AcDbEntity
  8
0
100
AcDbLine
 62
7
  6
CONTINUOUS
 10
7.2679586624
 20
2.5827179603
 11
7.1894586624
 21
2.5572179603
  0
LINE
  5
324
100
AcDbEntity
  8
0
100
AcDbLine
 62
7
  6
CONTINUOUS
 10
7.2829586624
 20
2.6222179603
 11
7.2679586624
 21
2.5827179603
  0
LINE
  5
325
100
AcDbEntity
  8
0
100
AcDbLine
 62
7
  6
CONTINUOUS
 10
7.4755472739
 20
2.8086116081
 11
7.5165919024
 21
2.8373513664
  0
LINE
  5
326
100
AcDbEntity
  8
0
100
AcDbLine
 62
7
  6
CONTINUOUS
 10
7.3685602596
 20
1.2226178261
 11
7.2877587756
 21
0.9185847835
  0
ARC
  5
327
100
AcDbEntity
  8
0
100
AcDbCircle
 62
7
  6
CONTINUOUS
 10
3.0042540705
 20
2.1998812643
 40
0.775336696
100
AcDbArc
 50
88.4728421397
 51
91.6159260019
  0
ARC
  5
328
100
AcDbEntity
  8
0
100
AcDbCircle
 62
7
  6
CONTINUOUS
 10
3.0042540705
 20
2.1998812643
 40
0.775336696
100
AcDbArc
 50
84.2038744368
 51
87.151920897
  0
ARC
  5
329
100
AcDbEntity
  8
0
100
AcDbCircle
 62
7
  6
CONTINUOUS
 10
3.0042540705
 20
2.1998812643
 40
0.775336696
100
AcDbArc
 50
92.959139685
 51
94.3855590767
  0
ARC
  5
32A
100
AcDbEntity
  8
0
100
AcDbCircle
 62
7
  6
CONTINUOUS
 10
3.0042540705
 20
2.1998812643
 40
0.775336696
100
AcDbArc
 50
99.227581831
 51
104.7629977426
  0
ARC
  5
32B
100
AcDbEntity
  8
0
100
AcDbCircle
 62
7
  6
CONTINUOUS
 10
3.0042540705
 20
2.1998812643
 40
0.775336696
100
AcDbArc
 50
75.2370022574
 51
82.8643019772
  0
ARC
  5
32C
100
AcDbEntity
  8
0
100
AcDbCircle
 62
7
  6
CONTINUOUS
 10
3.0042579905
 20
2.199848395
 40
0.7748672145
100
AcDbArc
 50
96.0935582821
 51
97.5084614948
  0
ARC
  5
32D
100
AcDbEntity
  8
0
100
AcDbCircle
 62
7
  6
CONTINUOUS
 10
3.0043236197
 20
2.199415595
 40
0.7741409503
100
AcDbArc
 50
97.1286847436
 51
99.8603477483
  0
ARC
  5
32E
100
AcDbEntity
  8
0
100
AcDbCircle
 62
7
  6
CONTINUOUS
 10
3.0042118792
 20
2.1995096353
 40
0.7740441608
100
AcDbArc
 50
82.1632140206
 51
84.8826039936
  0
ARC
  5
32F
100
AcDbEntity
  8
0
100
AcDbCircle
 62
7
  6
CONTINUOUS
 10
3.0041974844
 20
2.2005107366
 40
0.7730384167
100
AcDbArc
 50
93.7785436828
 51
96.4950005776
  0
ARC
  5
330
100
AcDbEntity
  8
0
100
AcDbCircle
 62
7
  6
CONTINUOUS
 10
3.0612540705
 20
1.3042581978
 40
0.318
100
AcDbArc
 50
345.1156903923
 51
36.549446714
  0
ARC
  5
331
100
AcDbEntity
  8
0
100
AcDbCircle
 62
7
  6
CONTINUOUS
 10
2.9472540705
 20
1.3042581978
 40
0.318
100
AcDbArc
 50
143.450553286
 51
194.8843096077
  0
ARC
  5
332
100
AcDbEntity
  8
0
100
AcDbCircle
 62
7
  6
CONTINUOUS
 10
2.4752540705
 20
0.8532981431
 40
0.254
100
AcDbArc
 50
284.6669095294
 51
14.8843096077
  0
ARC
  5
333
100
AcDbEntity
  8
0
100
AcDbCircle
 62
7
  6
CONTINUOUS
 10
3.5332540705
 20
0.8532981431
 40
0.254
100
AcDbArc
 50
165.1156903923
 51
255.3330904706
  0
ARC
  5
334
100
AcDbEntity
  8
0
100
AcDbCircle
 62
6
  6
CONTINUOUS
 10
3.4992348012
 20
1.9424912117
 40
0.2345
100
AcDbArc
 50
186.9248982442
 51
217.9660022518
  0
ARC
  5
335
100
AcDbEntity
  8
0
100
AcDbCircle
 62
6
  6
CONTINUOUS
 10
2.5092733398
 20
1.9424912117
 40
0.2345
100
AcDbArc
 50
322.0339977482
 51
353.0751017558
  0
ARC
  5
336
100
AcDbEntity
  8
0
100
AcDbCircle
 62
7
  6
CONTINUOUS
 10
2.5411640705
 20
1.6052916874
 40
0.1875
100
AcDbArc
 50
323.450553286
 51
360.0
  0
ARC
  5
337
100
AcDbEntity
  8
0
100
AcDbCircle
 62
7
  6
CONTINUOUS
 10
3.4673440705
 20
1.6052916874
 40
0.1875
100
AcDbArc
 50
180.0
 51
216.549446714
  0
ARC
  5
338
100
AcDbEntity
  8
0
100
AcDbCircle
 62
6
  6
CONTINUOUS
 10
3.2614561671
 20
1.8544876924
 40
0.1252879723
100
AcDbArc
 50
270.5517577613
 51
271.9958811685
  0
ARC
  5
339
100
AcDbEntity
  8
0
100
AcDbCircle
 62
6
  6
CONTINUOUS
 10
2.7470380917
 20
1.8538304202
 40
0.1246306534
100
AcDbArc
 50
267.6567781886
 51
269.0850854801
  0
ARC
  5
33A
100
AcDbEntity
  8
0
100
AcDbCircle
 62
6
  6
CONTINUOUS
 10
3.2775040705
 20
1.7694679603
 40
0.04675
100
AcDbArc
 50
272.8652034307
 51
37.9660022518
  0
ARC
  5
33B
100
AcDbEntity
  8
0
100
AcDbCircle
 62
6
  6
CONTINUOUS
 10
2.7310040705
 20
1.7694679603
 40
0.04675
100
AcDbArc
 50
142.0339977482
 51
267.1347965693
  0
ARC
  5
33C
100
AcDbEntity
  8
0
100
AcDbCircle
 62
7
  6
CONTINUOUS
 10
2.5445040705
 20
0.5612179603
 40
0.0195
100
AcDbArc
 50
180.0
 51
270.0
  0
ARC
  5
33D
100
AcDbEntity
  8
0
100
AcDbCircle
 62
7
  6
CONTINUOUS
 10
3.4640040705
 20
0.5612179603
 40
0.0195
100
AcDbArc
 50
270.0
 51
360.0
  0
ARC
  5
33E
100
AcDbEntity
  8
0
100
AcDbCircle
 62
7
  6
CONTINUOUS
 10
2.5445040705
 20
0.5887103742
 40
0.0195
100
AcDbArc
 50
104.6669095294
 51
180.0
  0
ARC
  5
33F
100
AcDbEntity
  8
0
100
AcDbCircle
 62
7
  6
CONTINUOUS
 10
3.4640040705
 20
0.5887103742
 40
0.0195
100
AcDbArc
 50
0.0
 51
75.3330904706
  0
ARC
  5
340
100
AcDbEntity
  8
0
100
AcDbCircle
 62
7
  6
CONTINUOUS
 10
2.4604203519
 20
2.6707410662
 40
0.3078220204
100
AcDbArc
 50
27.747470201
 51
30.5530289264
  0
ARC
  5
341
100
AcDbEntity
  8
0
100
AcDbCircle
 62
7
  6
CONTINUOUS
 10
2.4727338914
 20
2.7719190126
 40
0.2937698899
100
AcDbArc
 50
332.1343224399
 51
332.3039786747
  0
ARC
  5
342
100
AcDbEntity
  8
0
100
AcDbCircle
 62
7
  6
CONTINUOUS
 10
3.5357696471
 20
2.6775192299
 40
0.2937647356
100
AcDbArc
 50
152.1343049535
 51
152.3039630381
  0
ARC
  5
343
100
AcDbEntity
  8
0
100
AcDbCircle
 62
7
  6
CONTINUOUS
 10
2.4932902313
 20
2.6882189472
 40
0.2705946857
100
AcDbArc
 50
25.2130082281
 51
27.7126052221
  0
ARC
  5
344
100
AcDbEntity
  8
0
100
AcDbCircle
 62
7
  6
CONTINUOUS
 10
3.5152161895
 20
2.7612161245
 40
0.270592768
100
AcDbArc
 50
205.2129703884
 51
207.7126159044
  0
ARC
  5
345
100
AcDbEntity
  8
0
100
AcDbCircle
 62
7
  6
CONTINUOUS
 10
2.4987116297
 20
2.758518354
 40
0.2645402442
100
AcDbArc
 50
332.25878631
 51
334.8156313774
  0
ARC
  5
346
100
AcDbEntity
  8
0
100
AcDbCircle
 62
7
  6
CONTINUOUS
 10
3.5097951791
 20
2.6909182172
 40
0.2645387623
100
AcDbArc
 50
152.2587773706
 51
154.8156060457
  0
CIRCLE
  5
347
100
AcDbEntity
  8
0
100
AcDbCircle
 62
7
  6
CONTINUOUS
 10
3.0042540705
 20
2.7247179603
 40
0.1375
  0
ARC
  5
348
100
AcDbEntity
  8
0
100
AcDbCircle
 62
7
  6
CONTINUOUS
 10
2.4130040705
 20
2.7247179603
 40
0.1375
100
AcDbArc
 50
55.0
 51
305.0
  0
ARC
  5
349
100
AcDbEntity
  8
0
100
AcDbCircle
 62
7
  6
CONTINUOUS
 10
3.5955040705
 20
2.7247179603
 40
0.1375
100
AcDbArc
 50
235.0
 51
125.0
  0
ARC
  5
34A
100
AcDbEntity
  8
0
100
AcDbCircle
 62
7
  6
CONTINUOUS
 10
2.649316091
 20
2.5439679603
 40
0.125
100
AcDbArc
 50
47.7124832429
 51
136.9739483152
  0
ARC
  5
34B
100
AcDbEntity
  8
0
100
AcDbCircle
 62
7
  6
CONTINUOUS
 10
2.649316091
 20
2.9054679603
 40
0.125
100
AcDbArc
 50
223.0260516848
 51
312.2875165265
  0
ARC
  5
34C
100
AcDbEntity
  8
0
100
AcDbCircle
 62
7
  6
CONTINUOUS
 10
3.35919205
 20
2.5439679603
 40
0.125
100
AcDbArc
 50
43.0260516848
 51
132.287516767
  0
ARC
  5
34D
100
AcDbEntity
  8
0
100
AcDbCircle
 62
7
  6
CONTINUOUS
 10
3.35919205
 20
2.9054679603
 40
0.125
100
AcDbArc
 50
227.7124834617
 51
316.9739483152
  0
ARC
  5
34E
100
AcDbEntity
  8
0
100
AcDbCircle
 62
6
  6
CONTINUOUS
 10
3.1880040705
 20
2.3527179603
 40
0.025
100
AcDbArc
 50
6.9248982442
 51
90.0
  0
ARC
  5
34F
100
AcDbEntity
  8
0
100
AcDbCircle
 62
6
  6
CONTINUOUS
 10
2.8205040705
 20
2.3527179603
 40
0.025
100
AcDbArc
 50
90.0
 51
173.0751017558
  0
ARC
  5
350
100
AcDbEntity
  8
0
100
AcDbCircle
 62
7
  6
CONTINUOUS
 10
3.1980040705
 20
2.9351178444
 40
0.015
100
AcDbArc
 50
9.9821323119
 51
75.2370022574
  0
ARC
  5
351
100
AcDbEntity
  8
0
100
AcDbCircle
 62
7
  6
CONTINUOUS
 10
2.8105040705
 20
2.9351178444
 40
0.015
100
AcDbArc
 50
104.7629977426
 51
170.0178676881
  0
ARC
  5
352
100
AcDbEntity
  8
0
100
AcDbCircle
 62
7
  6
CONTINUOUS
 10
2.5375040705
 20
2.6342710961
 40
0.008
100
AcDbArc
 50
0.0
 51
125.0
  0
ARC
  5
353
100
AcDbEntity
  8
0
100
AcDbCircle
 62
7
  6
CONTINUOUS
 10
2.5375040705
 20
2.8151648244
 40
0.008
100
AcDbArc
 50
235.0
 51
360.0
  0
ARC
  5
354
100
AcDbEntity
  8
0
100
AcDbCircle
 62
7
  6
CONTINUOUS
 10
2.5520873016
 20
2.6347179603
 40
0.008
100
AcDbArc
 50
214.6234510997
 51
316.9739483152
  0
ARC
  5
355
100
AcDbEntity
  8
0
100
AcDbCircle
 62
7
  6
CONTINUOUS
 10
2.5520873016
 20
2.8147179603
 40
0.008
100
AcDbArc
 50
43.0260516848
 51
145.3765489003
  0
ARC
  5
356
100
AcDbEntity
  8
0
100
AcDbCircle
 62
7
  6
CONTINUOUS
 10
3.4710040705
 20
2.6342710961
 40
0.008
100
AcDbArc
 50
55.0
 51
180.0
  0
ARC
  5
357
100
AcDbEntity
  8
0
100
AcDbCircle
 62
7
  6
CONTINUOUS
 10
3.4710040705
 20
2.8151648244
 40
0.008
100
AcDbArc
 50
180.0
 51
305.0
  0
ARC
  5
358
100
AcDbEntity
  8
0
100
AcDbCircle
 62
7
  6
CONTINUOUS
 10
3.4564208394
 20
2.6347179603
 40
0.008
100
AcDbArc
 50
223.0260516848
 51
325.3765489003
  0
ARC
  5
359
100
AcDbEntity
  8
0
100
AcDbCircle
 62
7
  6
CONTINUOUS
 10
3.4564208394
 20
2.8147179603
 40
0.008
100
AcDbArc
 50
34.6234510997
 51
136.9739483152
  0
ARC
  5
35A
100
AcDbEntity
  8
0
100
AcDbCircle
 62
7
  6
CONTINUOUS
 10
4.4190040705
 20
2.3032179603
 40
0.7810035
100
AcDbArc
 50
90.0
 51
180.0
  0
ARC
  5
35B
100
AcDbEntity
  8
0
100
AcDbCircle
 62
7
  6
CONTINUOUS
 10
4.4190040705
 20
2.3032179603
 40
0.3439965
100
AcDbArc
 50
90.0
 51
180.0
  0
ARC
  5
35C
100
AcDbEntity
  8
0
100
AcDbCircle
 62
7
  6
CONTINUOUS
 10
3.7690040705
 20
1.8205022861
 40
0.15
100
AcDbArc
 50
187.9646538916
 51
213.6282289586
  0
ARC
  5
35D
100
AcDbEntity
  8
0
100
AcDbCircle
 62
7
  6
CONTINUOUS
 10
3.9440040705
 20
1.8205022861
 40
0.15
100
AcDbArc
 50
324.9544544405
 51
352.0353461084
  0
ARC
  5
35E
100
AcDbEntity
  8
0
100
AcDbCircle
 62
7
  6
CONTINUOUS
 10
4.8097124038
 20
3.7592179603
 40
0.5695416667
100
AcDbArc
 50
331.6112415984
 51
29.736562717
  0
ARC
  5
35F
100
AcDbEntity
  8
0
100
AcDbCircle
 62
7
  6
CONTINUOUS
 10
5.0042540705
 20
2.8657179603
 40
0.4035425
100
AcDbArc
 50
37.0819585082
 51
37.9493503895
  0
ARC
  5
360
100
AcDbEntity
  8
0
100
AcDbCircle
 62
7
  6
CONTINUOUS
 10
5.0042540705
 20
2.8657179603
 40
0.4035425
100
AcDbArc
 50
142.0506496105
 51
142.9180414918
  0
ARC
  5
361
100
AcDbEntity
  8
0
100
AcDbCircle
 62
7
  6
CONTINUOUS
 10
5.0042540705
 20
2.8657179603
 40
0.4035425
100
AcDbArc
 50
217.0819585082
 51
322.9180414918
  0
ARC
  5
362
100
AcDbEntity
  8
0
100
AcDbCircle
 62
7
  6
CONTINUOUS
 10
4.6324575606
 20
3.1467214603
 40
0.0625
100
AcDbArc
 50
270.0
 51
322.9180414918
  0
ARC
  5
363
100
AcDbEntity
  8
0
100
AcDbCircle
 62
7
  6
CONTINUOUS
 10
4.6324575606
 20
2.5847144603
 40
0.0625
100
AcDbArc
 50
37.0819585082
 51
90.0
  0
ARC
  5
364
100
AcDbEntity
  8
0
100
AcDbCircle
 62
7
  6
CONTINUOUS
 10
4.6367540705
 20
3.1523176145
 40
0.0625
100
AcDbArc
 50
322.0506496105
 51
360.0
  0
ARC
  5
365
100
AcDbEntity
  8
0
100
AcDbCircle
 62
7
  6
CONTINUOUS
 10
4.7542540705
 20
4.0667179603
 40
0.05
100
AcDbArc
 50
90.0
 51
128.6821874535
  0
ARC
  5
366
100
AcDbEntity
  8
0
100
AcDbCircle
 62
7
  6
CONTINUOUS
 10
4.7042540705
 20
3.4467179603
 40
0.03
100
AcDbArc
 50
112.4970052381
 51
270.0
  0
ARC
  5
367
100
AcDbEntity
  8
0
100
AcDbCircle
 62
7
  6
CONTINUOUS
 10
4.7092540705
 20
3.4067179603
 40
0.01
100
AcDbArc
 50
90.0
 51
180.0
  0
ARC
  5
368
100
AcDbEntity
  8
0
100
AcDbCircle
 62
7
  6
CONTINUOUS
 10
4.6889486648
 20
3.4836739416
 40
0.01
100
AcDbArc
 50
292.4970052377
 51
28.388758402
  0
ARC
  5
369
100
AcDbEntity
  8
0
100
AcDbCircle
 62
7
  6
CONTINUOUS
 10
5.0042540705
 20
7.8898179603
 40
0.21875
100
AcDbArc
 50
0.0
 51
180.0
  0
ARC
  5
36A
100
AcDbEntity
  8
0
100
AcDbCircle
 62
7
  6
CONTINUOUS
 10
4.7542540705
 20
5.4223179603
 40
0.03
100
AcDbArc
 50
90.0
 51
270.0
  0
ARC
  5
36B
100
AcDbEntity
  8
0
100
AcDbCircle
 62
7
  6
CONTINUOUS
 10
4.812909498
 20
5.0773179603
 40
0.03
100
AcDbArc
 50
185.1757109144
 51
270.0
  0
ARC
  5
36C
100
AcDbEntity
  8
0
100
AcDbCircle
 62
7
  6
CONTINUOUS
 10
5.5895040705
 20
2.3032179603
 40
0.7810035
100
AcDbArc
 50
0.0
 51
90.0
  0
ARC
  5
36D
100
AcDbEntity
  8
0
100
AcDbCircle
 62
7
  6
CONTINUOUS
 10
5.5895040705
 20
2.3032179603
 40
0.3439965
100
AcDbArc
 50
0.0
 51
90.0
  0
ARC
  5
36E
100
AcDbEntity
  8
0
100
AcDbCircle
 62
7
  6
CONTINUOUS
 10
6.0645165059
 20
1.8205005909
 40
0.15
100
AcDbArc
 50
187.9640000732
 51
215.0466424895
  0
ARC
  5
36F
100
AcDbEntity
  8
0
100
AcDbCircle
 62
7
  6
CONTINUOUS
 10
6.2395165059
 20
1.8205039814
 40
0.15
100
AcDbArc
 50
326.3727842861
 51
352.0346922569
  0
ARC
  5
370
100
AcDbEntity
  8
0
100
AcDbCircle
 62
7
  6
CONTINUOUS
 10
5.1987957372
 20
3.7592179603
 40
0.5695416667
100
AcDbArc
 50
150.263437283
 51
208.3887584016
  0
ARC
  5
371
100
AcDbEntity
  8
0
100
AcDbCircle
 62
7
  6
CONTINUOUS
 10
5.3760505804
 20
2.5847144603
 40
0.0625
100
AcDbArc
 50
90.0
 51
142.9180414918
  0
ARC
  5
372
100
AcDbEntity
  8
0
100
AcDbCircle
 62
7
  6
CONTINUOUS
 10
5.3760505804
 20
3.1467214603
 40
0.0625
100
AcDbArc
 50
217.0819585082
 51
270.0
  0
ARC
  5
373
100
AcDbEntity
  8
0
100
AcDbCircle
 62
7
  6
CONTINUOUS
 10
5.3717540705
 20
3.1523176145
 40
0.0625
100
AcDbArc
 50
180.0
 51
217.9493503895
  0
ARC
  5
374
100
AcDbEntity
  8
0
100
AcDbCircle
 62
7
  6
CONTINUOUS
 10
5.2542540705
 20
4.0667179603
 40
0.05
100
AcDbArc
 50
51.3178125465
 51
90.0
  0
ARC
  5
375
100
AcDbEntity
  8
0
100
AcDbCircle
 62
7
  6
CONTINUOUS
 10
5.3042540705
 20
3.4467179603
 40
0.03
100
AcDbArc
 50
270.0
 51
67.5029947619
  0
ARC
  5
376
100
AcDbEntity
  8
0
100
AcDbCircle
 62
7
  6
CONTINUOUS
 10
5.2992540705
 20
3.4067179603
 40
0.01
100
AcDbArc
 50
0.0
 51
90.0
  0
ARC
  5
377
100
AcDbEntity
  8
0
100
AcDbCircle
 62
7
  6
CONTINUOUS
 10
5.3195594762
 20
3.4836739416
 40
0.01
100
AcDbArc
 50
151.611241598
 51
247.5029947623
  0
ARC
  5
378
100
AcDbEntity
  8
0
100
AcDbCircle
 62
7
  6
CONTINUOUS
 10
7.0042086624
 20
2.1998829525
 40
0.7753350077
100
AcDbArc
 50
103.053132852
 51
104.7630312681
  0
ARC
  5
379
100
AcDbEntity
  8
0
100
AcDbCircle
 62
7
  6
CONTINUOUS
 10
7.0042086624
 20
2.1998829525
 40
0.7753350077
100
AcDbArc
 50
75.2369687319
 51
76.6050962423
  0
ARC
  5
37A
100
AcDbEntity
  8
0
100
AcDbCircle
 62
7
  6
CONTINUOUS
 10
7.0042086624
 20
2.1998829525
 40
0.7753350077
100
AcDbArc
 50
82.5847386306
 51
87.5035401074
  0
ARC
  5
37B
100
AcDbEntity
  8
0
100
AcDbCircle
 62
7
  6
CONTINUOUS
 10
7.0042086624
 20
2.1998829525
 40
0.7753350077
100
AcDbArc
 50
88.835274081
 51
90.1109187402
  0
ARC
  5
37C
100
AcDbEntity
  8
0
100
AcDbCircle
 62
7
  6
CONTINUOUS
 10
7.0042086624
 20
2.1998829525
 40
0.7753350077
100
AcDbArc
 50
95.926223819
 51
101.4638988942
  0
ARC
  5
37D
100
AcDbEntity
  8
0
100
AcDbCircle
 62
7
  6
CONTINUOUS
 10
7.0041073321
 20
2.1992157602
 40
0.7743431451
100
AcDbArc
 50
79.7829353073
 51
82.9453796638
  0
ARC
  5
37E
100
AcDbEntity
  8
0
100
AcDbCircle
 62
7
  6
CONTINUOUS
 10
7.0041971699
 20
2.199814456
 40
0.7743039371
100
AcDbArc
 50
79.9528535615
 51
80.9981562047
  0
ARC
  5
37F
100
AcDbEntity
  8
0
100
AcDbCircle
 62
7
  6
CONTINUOUS
 10
7.0042056035
 20
2.1998398064
 40
0.7742532803
100
AcDbArc
 50
85.4995659986
 51
86.3898199734
  0
ARC
  5
380
100
AcDbEntity
  8
0
100
AcDbCircle
 62
7
  6
CONTINUOUS
 10
7.0612287033
 20
1.3042959412
 40
0.318
100
AcDbArc
 50
345.1168004434
 51
36.5505567555
  0
ARC
  5
381
100
AcDbEntity
  8
0
100
AcDbCircle
 62
7
  6
CONTINUOUS
 10
6.9472287033
 20
1.3042937325
 40
0.318
100
AcDbArc
 50
143.4516633402
 51
194.8854196523
  0
ARC
  5
382
100
AcDbEntity
  8
0
100
AcDbCircle
 62
7
  6
CONTINUOUS
 10
6.4752374403
 20
0.8533245336
 40
0.254
100
AcDbArc
 50
284.6680195805
 51
14.8854196523
  0
ARC
  5
383
100
AcDbEntity
  8
0
100
AcDbCircle
 62
7
  6
CONTINUOUS
 10
7.5332374401
 20
0.8533450313
 40
0.254
100
AcDbArc
 50
165.1168004434
 51
255.3342005152
  0
ARC
  5
384
100
AcDbEntity
  8
0
100
AcDbCircle
 62
7
  6
CONTINUOUS
 10
7.4992013275
 20
1.9424912117
 40
0.2345
100
AcDbArc
 50
186.9248982442
 51
217.9660022518
  0
ARC
  5
385
100
AcDbEntity
  8
0
100
AcDbCircle
 62
7
  6
CONTINUOUS
 10
6.5092398661
 20
1.9424912117
 40
0.2345
100
AcDbArc
 50
322.0339977482
 51
353.0751017558
  0
ARC
  5
386
100
AcDbEntity
  8
0
100
AcDbCircle
 62
7
  6
CONTINUOUS
 10
6.5411328712
 20
1.6053193545
 40
0.1875
100
AcDbArc
 50
323.4516633402
 51
0.0011100479
  0
ARC
  5
387
100
AcDbEntity
  8
0
100
AcDbCircle
 62
7
  6
CONTINUOUS
 10
7.467312871
 20
1.6053372983
 40
0.1875
100
AcDbArc
 50
180.0011100479
 51
216.5505567555
  0
ARC
  5
388
100
AcDbEntity
  8
0
100
AcDbCircle
 62
7
  6
CONTINUOUS
 10
6.4457230975
 20
1.214289073
 40
0.1100182483
100
AcDbArc
 50
266.2550948879
 51
269.9981780965
  0
ARC
  5
389
100
AcDbEntity
  8
0
100
AcDbCircle
 62
7
  6
CONTINUOUS
 10
7.2774705968
 20
1.7694679603
 40
0.04675
100
AcDbArc
 50
272.8690504396
 51
37.9660022518
  0
ARC
  5
38A
100
AcDbEntity
  8
0
100
AcDbCircle
 62
7
  6
CONTINUOUS
 10
6.7309705968
 20
1.7694679603
 40
0.04675
100
AcDbArc
 50
142.0339977482
 51
267.1309467741
  0
ARC
  5
38B
100
AcDbEntity
  8
0
100
AcDbCircle
 62
7
  6
CONTINUOUS
 10
6.5444930991
 20
0.5612456925
 40
0.0195
100
AcDbArc
 50
180.0011100479
 51
270.0011100478
  0
ARC
  5
38C
100
AcDbEntity
  8
0
100
AcDbCircle
 62
7
  6
CONTINUOUS
 10
7.4639930989
 20
0.5612635069
 40
0.0195
100
AcDbArc
 50
270.0011100479
 51
0.0011100478
  0
ARC
  5
38D
100
AcDbEntity
  8
0
100
AcDbCircle
 62
7
  6
CONTINUOUS
 10
6.5444925664
 20
0.5887381064
 40
0.0195
100
AcDbArc
 50
104.6680195805
 51
180.0011100478
  0
ARC
  5
38E
100
AcDbEntity
  8
0
100
AcDbCircle
 62
7
  6
CONTINUOUS
 10
7.4639925663
 20
0.5887559207
 40
0.0195
100
AcDbArc
 50
0.0011100478
 51
75.3342005152
  0
ARC
  5
38F
100
AcDbEntity
  8
0
100
AcDbCircle
 62
7
  6
CONTINUOUS
 10
6.9847595419
 20
2.3173682299
 40
0.6557500878
100
AcDbArc
 50
96.2202404438
 51
96.9480738728
  0
ARC
  5
390
100
AcDbEntity
  8
0
100
AcDbCircle
 62
7
  6
CONTINUOUS
 10
7.0197465902
 20
2.4042828985
 40
0.5698459521
100
AcDbArc
 50
83.0490960561
 51
83.4821741663
  0
ARC
  5
391
100
AcDbEntity
  8
0
100
AcDbCircle
 62
7
  6
CONTINUOUS
 10
6.4603749438
 20
2.6707410662
 40
0.3078220204
100
AcDbArc
 50
27.747470201
 51
30.5530289264
  0
ARC
  5
392
100
AcDbEntity
  8
0
100
AcDbCircle
 62
7
  6
CONTINUOUS
 10
6.4726884835
 20
2.7719190126
 40
0.2937698898
100
AcDbArc
 50
332.13432244
 51
332.3039786749
  0
ARC
  5
393
100
AcDbEntity
  8
0
100
AcDbCircle
 62
7
  6
CONTINUOUS
 10
7.5357242388
 20
2.6775192301
 40
0.2937647353
100
AcDbArc
 50
152.1343049533
 51
152.3039630381
  0
ARC
  5
394
100
AcDbEntity
  8
0
100
AcDbCircle
 62
7
  6
CONTINUOUS
 10
6.4932448232
 20
2.6882189472
 40
0.2705946857
100
AcDbArc
 50
25.213008228
 51
27.7126052221
  0
ARC
  5
395
100
AcDbEntity
  8
0
100
AcDbCircle
 62
7
  6
CONTINUOUS
 10
7.5151707814
 20
2.7612161245
 40
0.270592768
100
AcDbArc
 50
205.2129703884
 51
207.7126159044
  0
ARC
  5
396
100
AcDbEntity
  8
0
100
AcDbCircle
 62
7
  6
CONTINUOUS
 10
6.4986662216
 20
2.758518354
 40
0.2645402442
100
AcDbArc
 50
332.2587863099
 51
334.8156313774
  0
ARC
  5
397
100
AcDbEntity
  8
0
100
AcDbCircle
 62
7
  6
CONTINUOUS
 10
7.509749771
 20
2.6909182172
 40
0.2645387623
100
AcDbArc
 50
152.2587773706
 51
154.8156060457
  0
ARC
  5
398
100
AcDbEntity
  8
0
100
AcDbCircle
 62
7
  6
CONTINUOUS
 10
7.0685980237
 20
2.7632681992
 40
0.2077816274
100
AcDbArc
 50
85.6297847563
 51
87.4641381698
  0
CIRCLE
  5
399
100
AcDbEntity
  8
0
100
AcDbCircle
 62
7
  6
CONTINUOUS
 10
7.0042086624
 20
2.7247179603
 40
0.1375
  0
ARC
  5
39A
100
AcDbEntity
  8
0
100
AcDbCircle
 62
7
  6
CONTINUOUS
 10
6.4129586624
 20
2.7247179603
 40
0.1375
100
AcDbArc
 50
55.0
 51
305.0
  0
ARC
  5
39B
100
AcDbEntity
  8
0
100
AcDbCircle
 62
7
  6
CONTINUOUS
 10
7.5954586624
 20
2.7247179603
 40
0.1375
100
AcDbArc
 50
235.0
 51
125.0
  0
ARC
  5
39C
100
AcDbEntity
  8
0
100
AcDbCircle
 62
7
  6
CONTINUOUS
 10
6.6492706829
 20
2.5439679603
 40
0.125
100
AcDbArc
 50
47.7124832429
 51
136.9739483152
  0
ARC
  5
39D
100
AcDbEntity
  8
0
100
AcDbCircle
 62
7
  6
CONTINUOUS
 10
6.6492706829
 20
2.9054679603
 40
0.125
100
AcDbArc
 50
223.0260516848
 51
312.2875165265
  0
ARC
  5
39E
100
AcDbEntity
  8
0
100
AcDbCircle
 62
7
  6
CONTINUOUS
 10
7.3591466419
 20
2.5439679603
 40
0.125
100
AcDbArc
 50
43.0260516848
 51
132.287516767
  0
ARC
  5
39F
100
AcDbEntity
  8
0
100
AcDbCircle
 62
7
  6
CONTINUOUS
 10
7.3591466419
 20
2.9054679603
 40
0.125
100
AcDbArc
 50
227.7124834617
 51
316.9739483152
  0
ARC
  5
3A0
100
AcDbEntity
  8
0
100
AcDbCircle
 62
7
  6
CONTINUOUS
 10
7.1879705968
 20
2.3527179603
 40
0.025
100
AcDbArc
 50
6.9248982442
 51
90.0
  0
ARC
  5
3A1
100
AcDbEntity
  8
0
100
AcDbCircle
 62
7
  6
CONTINUOUS
 10
6.8204705968
 20
2.3527179603
 40
0.025
100
AcDbArc
 50
90.0
 51
173.0751017558
  0
ARC
  5
3A2
100
AcDbEntity
  8
0
100
AcDbCircle
 62
7
  6
CONTINUOUS
 10
7.0888254539
 20
2.9463415494
 40
0.0235993453
100
AcDbArc
 50
90.283553879
 51
101.9281285402
  0
ARC
  5
3A3
100
AcDbEntity
  8
0
100
AcDbCircle
 62
7
  6
CONTINUOUS
 10
7.1979586624
 20
2.9351177868
 40
0.015
100
AcDbArc
 50
9.982355849
 51
75.2369687319
  0
ARC
  5
3A4
100
AcDbEntity
  8
0
100
AcDbCircle
 62
7
  6
CONTINUOUS
 10
6.8104586624
 20
2.9351177868
 40
0.015
100
AcDbArc
 50
104.7630312681
 51
170.017644151
  0
ARC
  5
3A5
100
AcDbEntity
  8
0
100
AcDbCircle
 62
7
  6
CONTINUOUS
 10
6.5374586624
 20
2.6342710961
 40
0.008
100
AcDbArc
 50
0.0
 51
125.0
  0
ARC
  5
3A6
100
AcDbEntity
  8
0
100
AcDbCircle
 62
7
  6
CONTINUOUS
 10
6.5374586624
 20
2.8151648244
 40
0.008
100
AcDbArc
 50
235.0
 51
360.0
  0
ARC
  5
3A7
100
AcDbEntity
  8
0
100
AcDbCircle
 62
7
  6
CONTINUOUS
 10
6.5520418935
 20
2.6347179603
 40
0.008
100
AcDbArc
 50
214.6234510997
 51
316.9739483152
  0
ARC
  5
3A8
100
AcDbEntity
  8
0
100
AcDbCircle
 62
7
  6
CONTINUOUS
 10
6.5520418935
 20
2.8147179603
 40
0.008
100
AcDbArc
 50
43.0260516848
 51
145.3765489003
  0
ARC
  5
3A9
100
AcDbEntity
  8
0
100
AcDbCircle
 62
7
  6
CONTINUOUS
 10
7.4709586624
 20
2.6342710961
 40
0.008
100
AcDbArc
 50
55.0
 51
180.0
  0
ARC
  5
3AA
100
AcDbEntity
  8
0
100
AcDbCircle
 62
7
  6
CONTINUOUS
 10
7.4709586624
 20
2.8151648244
 40
0.008
100
AcDbArc
 50
180.0
 51
305.0
  0
ARC
  5
3AB
100
AcDbEntity
  8
0
100
AcDbCircle
 62
7
  6
CONTINUOUS
 10
7.4563754314
 20
2.6347179603
 40
0.008
100
AcDbArc
 50
223.0260516848
 51
325.3765489003
  0
ARC
  5
3AC
100
AcDbEntity
  8
0
100
AcDbCircle
 62
7
  6
CONTINUOUS
 10
7.4563754314
 20
2.8147179603
 40
0.008
100
AcDbArc
 50
34.6234510997
 51
136.9739483152
  0
ARC
  5
3AD
100
AcDbEntity
  8
0
100
AcDbCircle
 62
7
  6
CONTINUOUS
 10
7.6137848732
 20
5.6361209931
 40
2.7151534622
100
AcDbArc
 50
259.9370990527
 51
260.1942941298
  0
ARC
  5
3AE
100
AcDbEntity
  8
0
100
AcDbCircle
 62
7
  6
CONTINUOUS
 10
7.3860449698
 20
4.3167207804
 40
1.3762426297
100
AcDbArc
 50
260.1821755918
 51
260.4273994269
  0
ARC
  5
3AF
100
AcDbEntity
  8
0
100
AcDbCircle
 62
7
  6
CONTINUOUS
 10
5.2542540705
 20
5.4223179603
 40
0.03
100
AcDbArc
 50
270.0
 51
90.0
  0
ARC
  5
3B0
100
AcDbEntity
  8
0
100
AcDbCircle
 62
7
  6
CONTINUOUS
 10
5.195598643
 20
5.0773179603
 40
0.03
100
AcDbArc
 50
270.0
 51
354.8242890856
  0
LINE
  5
3B1
100
AcDbEntity
  8
0
100
AcDbLine
 62
7
  6
CONTINUOUS
 10
7.2829586624
 20
2.6222179603
 11
7.2756173713
 21
2.6353804785
  0
SPLINE
  5
3B2
100
AcDbEntity
  8
0
100
AcDbSpline
 62
7
  6
CONTINUOUS
 70
0
 71
3
 72
17
 73
13
 74
0
 42
0.0000001
 43
0.0000001
 44
0.0000000001
 40
0.0
 40
0.0
 40
0.0
 40
0.0
 40
0.1052418633
 40
0.226744129
 40
0.3600300712
 40
0.4295916464
 40
0.5000002046
 40
0.5704087546
 40
0.6399703066
 40
0.7732561658
 40
0.8947583053
 40
1.0
 40
1.0
 40
1.0
 40
1.0
 10
7.2703572124
 20
2.6459479045
 30
0.0
 10
7.2679196513
 20
2.6511346885
 30
0.0
 10
7.2630399174
 20
2.6624906762
 30
0.0
 10
7.2568553559
 20
2.6811259348
 30
0.0
 10
7.2531758938
 20
2.6984545148
 30
0.0
 10
7.2515782208
 20
2.7132593728
 30
0.0
 10
7.2511474854
 20
2.7247180637
 30
0.0
 10
7.2515782357
 20
2.7361767527
 30
0.0
 10
7.2531759268
 20
2.7509816024
 30
0.0
 10
7.2568554058
 20
2.7683101656
 30
0.0
 10
7.2630399772
 20
2.7869453992
 30
0.0
 10
7.2679197121
 20
2.7983013689
 30
0.0
 10
7.2703572721
 20
2.8034881432
 30
0.0
  0
LINE
  5
3B3
100
AcDbEntity
  8
0
100
AcDbLine
 62
7
  6
CONTINUOUS
 10
7.2760228061
 20
2.8148250405
 11
7.2829586624
 21
2.8272179603
  0
SPLINE
  5
3B4
100
AcDbEntity
  8
0
100
AcDbSpline
 62
7
  6
CONTINUOUS
 70
0
 71
3
 72
17
 73
13
 74
0
 42
0.0000001
 43
0.0000001
 44
0.0000000001
 40
0.0
 40
0.0
 40
0.0
 40
0.0
 40
0.1052416939
 40
0.2267438319
 40
0.3600296907
 40
0.4295912429
 40
0.4999997932
 40
0.5704083518
 40
0.6399699275
 40
0.7732558702
 40
0.8947581356
 40
1.0
 40
1.0
 40
1.0
 40
1.0
 10
6.738060051
 20
2.8034881457
 30
0.0
 10
6.7404976115
 20
2.7983013715
 30
0.0
 10
6.7453773471
 20
2.7869454018
 30
0.0
 10
6.7515619183
 20
2.7683101678
 30
0.0
 10
6.7552413978
 20
2.7509816042
 30
0.0
 10
6.756839089
 20
2.7361767541
 30
0.0
 10
6.7572698394
 20
2.7247180647
 30
0.0
 10
6.7568391041
 20
2.7132593734
 30
0.0
 10
6.7552414311
 20
2.698454515
 30
0.0
 10
6.7515619687
 20
2.6811259345
 30
0.0
 10
6.7453774075
 20
2.6624906751
 30
0.0
 10
6.7404976729
 20
2.6511346872
 30
0.0
 10
6.7380601113
 20
2.6459479033
 30
0.0
  0
LINE
  5
3B5
100
AcDbEntity
  8
0
100
AcDbLine
 62
7
  6
CONTINUOUS
 10
6.7323945148
 20
2.6346108721
 11
6.7254586624
 21
2.6222179603
  0
LINE
  5
3B6
100
AcDbEntity
  8
0
100
AcDbLine
 62
7
  6
CONTINUOUS
 10
3.2830040705
 20
2.6222179603
 11
3.2756627793
 21
2.6353804785
  0
SPLINE
  5
3B7
100
AcDbEntity
  8
0
100
AcDbSpline
 62
7
  6
CONTINUOUS
 70
0
 71
3
 72
17
 73
13
 74
0
 42
0.0000001
 43
0.0000001
 44
0.0000000001
 40
0.0
 40
0.0
 40
0.0
 40
0.0
 40
0.1052418633
 40
0.226744129
 40
0.3600300712
 40
0.4295916464
 40
0.5000002046
 40
0.5704087546
 40
0.6399703066
 40
0.7732561658
 40
0.8947583053
 40
1.0
 40
1.0
 40
1.0
 40
1.0
 10
3.2704026205
 20
2.6459479045
 30
0.0
 10
3.2679650594
 20
2.6511346885
 30
0.0
 10
3.2630853255
 20
2.6624906762
 30
0.0
 10
3.256900764
 20
2.6811259348
 30
0.0
 10
3.2532213019
 20
2.6984545148
 30
0.0
 10
3.2516236289
 20
2.7132593728
 30
0.0
 10
3.2511928935
 20
2.7247180637
 30
0.0
 10
3.2516236438
 20
2.7361767527
 30
0.0
 10
3.2532213349
 20
2.7509816024
 30
0.0
 10
3.2569008138
 20
2.7683101656
 30
0.0
 10
3.2630853853
 20
2.7869453992
 30
0.0
 10
3.2679651202
 20
2.7983013689
 30
0.0
 10
3.2704026802
 20
2.8034881432
 30
0.0
  0
LINE
  5
3B8
100
AcDbEntity
  8
0
100
AcDbLine
 62
7
  6
CONTINUOUS
 10
3.2760682142
 20
2.8148250405
 11
3.2830040705
 21
2.8272179603
  0
SPLINE
  5
3B9
100
AcDbEntity
  8
0
100
AcDbSpline
 62
7
  6
CONTINUOUS
 70
0
 71
3
 72
17
 73
13
 74
0
 42
0.0000001
 43
0.0000001
 44
0.0000000001
 40
0.0
 40
0.0
 40
0.0
 40
0.0
 40
0.1052416939
 40
0.2267438319
 40
0.3600296907
 40
0.4295912429
 40
0.4999997932
 40
0.5704083518
 40
0.6399699275
 40
0.7732558702
 40
0.8947581356
 40
1.0
 40
1.0
 40
1.0
 40
1.0
 10
2.7381054591
 20
2.8034881457
 30
0.0
 10
2.7405430195
 20
2.7983013715
 30
0.0
 10
2.7454227551
 20
2.7869454018
 30
0.0
 10
2.7516073264
 20
2.7683101678
 30
0.0
 10
2.7552868059
 20
2.7509816042
 30
0.0
 10
2.7568844971
 20
2.7361767541
 30
0.0
 10
2.7573152475
 20
2.7247180647
 30
0.0
 10
2.7568845122
 20
2.7132593734
 30
0.0
 10
2.7552868392
 20
2.698454515
 30
0.0
 10
2.7516073768
 20
2.6811259345
 30
0.0
 10
2.7454228155
 20
2.6624906751
 30
0.0
 10
2.7405430809
 20
2.6511346872
 30
0.0
 10
2.7381055194
 20
2.6459479033
 30
0.0
  0
LINE
  5
3BA
100
AcDbEntity
  8
0
100
AcDbLine
 62
7
  6
CONTINUOUS
 10
2.7324399229
 20
2.6346108721
 11
2.7255040705
 21
2.6222179603
  0
SPLINE
  5
3BB
100
AcDbEntity
  8
0
100
AcDbSpline
 62
7
  6
CONTINUOUS
 70
0
 71
3
 72
25
 73
21
 74
0
 42
0.0000001
 43
0.0000001
 44
0.0000000001
 40
0.0
 40
0.0
 40
0.0
 40
0.0
 40
0.0592130431
 40
0.0888089866
 40
0.1184309793
 40
0.177764091
 40
0.2075023999
 40
0.2372908754
 40
0.2970673253
 40
0.3572457911
 40
0.4179741728
 40
0.4793787031
 40
0.5415811736
 40
0.6046589965
 40
0.6686515752
 40
0.7335376878
 40
0.7992458711
 40
0.8656715852
 40
0.9326738551
 40
1.0
 40
1.0
 40
1.0
 40
1.0
 10
6.4457243229
 20
1.1042708248
 30
0.0
 10
6.4288804212
 20
1.1042701006
 30
0.0
 10
6.4035796935
 20
1.1058840304
 30
0.0
 10
6.3702973967
 20
1.1112073232
 30
0.0
 10
6.3373796872
 20
1.1186206047
 30
0.0
 10
6.3051760733
 20
1.1290925929
 30
0.0
 10
6.2740830836
 20
1.1424147067
 30
0.0
 10
6.2437189166
 20
1.1576119663
 30
0.0
 10
6.2073378282
 20
1.1799577959
 30
0.0
 10
6.1666978237
 20
1.2115804468
 30
0.0
 10
6.1292375832
 20
1.2475741367
 30
0.0
 10
6.0951294066
 20
1.2875061143
 30
0.0
 10
6.0644761146
 20
1.3309582075
 30
0.0
 10
6.037357826
 20
1.3775458084
 30
0.0
 10
6.0138427247
 20
1.4268924365
 30
0.0
 10
5.9939902117
 20
1.4786202913
 30
0.0
 10
5.9778604159
 20
1.5323461149
 30
0.0
 10
5.9655073347
 20
1.5876788953
 30
0.0
 10
5.9569880448
 20
1.6441907194
 30
0.0
 10
5.953882076
 20
1.6823105795
 30
0.0
 10
5.9529739367
 20
1.7014408128
 30
0.0
  0
SPLINE
  5
3BC
100
AcDbEntity
  8
0
100
AcDbSpline
 62
7
  6
CONTINUOUS
 70
0
 71
3
 72
23
 73
19
 74
0
 42
0.0000001
 43
0.0000001
 44
0.0000000001
 40
0.0
 40
0.0
 40
0.0
 40
0.0
 40
0.0018017457
 40
0.004728688
 40
0.0089481614
 40
0.0146666576
 40
0.0221093781
 40
0.0315146647
 40
0.0570367825
 40
0.0919769636
 40
0.1367291053
 40
0.1912130225
 40
0.2550152409
 40
0.3274474016
 40
0.4076490868
 40
0.5875581535
 40
0.7873463295
 40
1.0
 40
1.0
 40
1.0
 40
1.0
 10
6.4459057289
 20
1.5042666305
 30
0.0
 10
6.4457758841
 20
1.5042927141
 30
0.0
 10
6.4454380153
 20
1.5043752223
 30
0.0
 10
6.4448059727
 20
1.5045578711
 30
0.0
 10
6.4439122056
 20
1.5048685912
 30
0.0
 10
6.4427330992
 20
1.505362504
 30
0.0
 10
6.4412421519
 20
1.5060915525
 30
0.0
 10
6.4385207329
 20
1.5076085264
 30
0.0
 10
6.4342305252
 20
1.5104463407
 30
0.0
 10
6.4281859973
 20
1.5152880017
 30
0.0
 10
6.4210818904
 20
1.522148712
 30
0.0
 10
6.4131836001
 20
1.5311799395
 30
0.0
 10
6.4048331762
 20
1.5424584262
 30
0.0
 10
6.3963412859
 20
1.5559289739
 30
0.0
 10
6.3848169531
 20
1.5775060278
 30
0.0
 10
6.3720262581
 20
1.6089103574
 30
0.0
 10
6.3605365545
 20
1.6510006929
 30
0.0
 10
6.3558732097
 20
1.6810312702
 30
0.0
 10
6.3542957196
 20
1.6965827518
 30
0.0
  0
SPLINE
  5
3BD
100
AcDbEntity
  8
0
100
AcDbSpline
 62
7
  6
CONTINUOUS
 70
0
 71
3
 72
23
 73
19
 74
0
 42
0.0000001
 43
0.0000001
 44
0.0000000001
 40
0.0
 40
0.0
 40
0.0
 40
0.0
 40
0.0018031018
 40
0.0047309967
 40
0.0089508534
 40
0.0146690698
 40
0.0221108021
 40
0.0315143681
 40
0.0570319463
 40
0.0919676785
 40
0.1367154303
 40
0.1911960011
 40
0.2549959069
 40
0.3274271519
 40
0.4076291809
 40
0.5875422712
 40
0.787337659
 40
1.0
 40
1.0
 40
1.0
 40
1.0
 10
3.5626033033
 20
1.5042542433
 30
0.0
 10
3.5627332619
 20
1.5042803168
 30
0.0
 10
3.563071338
 20
1.504362803
 30
0.0
 10
3.5637036411
 20
1.5045454377
 30
0.0
 10
3.564597617
 20
1.5048560026
 30
0.0
 10
3.5657768614
 20
1.5053496644
 30
0.0
 10
3.5672678741
 20
1.5060783595
 30
0.0
 10
3.5699893
 20
1.507594703
 30
0.0
 10
3.5742795757
 20
1.5104316814
 30
0.0
 10
3.5803244805
 20
1.5152722127
 30
0.0
 10
3.5874293431
 20
1.5221319117
 30
0.0
 10
3.5953286912
 20
1.5311624173
 30
0.0
 10
3.6036805022
 20
1.5424405737
 30
0.0
 10
3.6121739266
 20
1.5559113035
 30
0.0
 10
3.6237006055
 20
1.577489451
 30
0.0
 10
3.6364938933
 20
1.6088964005
 30
0.0
 10
3.6479856746
 20
1.6509910673
 30
0.0
 10
3.6526495242
 20
1.6810250539
 30
0.0
 10
3.6542270305
 20
1.6965783369
 30
0.0
  0
SPLINE
  5
3BE
100
AcDbEntity
  8
0
100
AcDbSpline
 62
7
  6
CONTINUOUS
 70
0
 71
3
 72
25
 73
21
 74
0
 42
0.0000001
 43
0.0000001
 44
0.0000000001
 40
0.0
 40
0.0
 40
0.0
 40
0.0
 40
0.0592130344
 40
0.0888089957
 40
0.1184310132
 40
0.1777642109
 40
0.2075025887
 40
0.2372911511
 40
0.2970678278
 40
0.3572465743
 40
0.4179752627
 40
0.4793800911
 40
0.5415828103
 40
0.6046607968
 40
0.6686534223
 40
0.7335394458
 40
0.7992473937
 40
0.8656727272
 40
0.9326744818
 40
1.0
 40
1.0
 40
1.0
 40
1.0
 10
3.5627983793
 20
1.1042581978
 30
0.0
 10
3.5796424962
 20
1.1042581978
 30
0.0
 10
3.6049434803
 20
1.1058731672
 30
0.0
 10
3.6382260244
 20
1.1111977218
 30
0.0
 10
3.67114395
 20
1.1186121869
 30
0.0
 10
3.7033477207
 20
1.1290852434
 30
0.0
 10
3.7344408511
 20
1.1424083096
 30
0.0
 10
3.7648051784
 20
1.1576064689
 30
0.0
 10
3.8011864751
 20
1.1799533214
 30
0.0
 10
3.841826752
 20
1.2115770726
 30
0.0
 10
3.8792872821
 20
1.247571787
 30
0.0
 10
3.9133957347
 20
1.2875047371
 30
0.0
 10
3.9440492479
 20
1.330957761
 30
0.0
 10
3.9711676633
 20
1.3775462452
 30
0.0
 10
3.9946827625
 20
1.426893696
 30
0.0
 10
4.0145351175
 20
1.4786222954
 30
0.0
 10
4.0306645814
 20
1.5323487682
 30
0.0
 10
4.0430171455
 20
1.5876820876
 30
0.0
 10
4.051535728
 20
1.6441943301
 30
0.0
 10
4.0546411008
 20
1.6823144111
 30
0.0
 10
4.0555489091
 20
1.7014447294
 30
0.0
  0
SPLINE
  5
3BF
100
AcDbEntity
  8
0
100
AcDbSpline
 62
7
  6
CONTINUOUS
 70
0
 71
3
 72
19
 73
15
 74
0
 42
0.0000001
 43
0.0000001
 44
0.0000000001
 40
0.0
 40
0.0
 40
0.0
 40
0.0
 40
0.1274708333
 40
0.253131025
 40
0.3153285933
 40
0.3771359092
 40
0.4386479601
 40
0.5000000001
 40
0.5613520401
 40
0.622864091
 40
0.6846714068
 40
0.746868975
 40
0.8725291667
 40
1.0
 40
1.0
 40
1.0
 40
1.0
 10
6.1037259338
 20
1.858174675
 30
0.0
 10
6.0962418598
 20
1.8527402987
 30
0.0
 10
6.0808717278
 20
1.8426200634
 30
0.0
 10
6.0602925407
 20
1.8324306091
 30
0.0
 10
6.0431955536
 20
1.8263825366
 30
0.0
 10
6.0301382045
 20
1.8230319624
 30
0.0
 10
6.0168762487
 20
1.820967966
 30
0.0
 10
6.0035040705
 20
1.8202703469
 30
0.0
 10
5.9901318922
 20
1.820967966
 30
0.0
 10
5.9768699364
 20
1.8230319624
 30
0.0
 10
5.9638125874
 20
1.8263825366
 30
0.0
 10
5.9467156002
 20
1.8324306091
 30
0.0
 10
5.9261364131
 20
1.8426200634
 30
0.0
 10
5.9107662812
 20
1.8527402987
 30
0.0
 10
5.9032822072
 20
1.858174675
 30
0.0
  0
SPLINE
  5
3C0
100
AcDbEntity
  8
0
100
AcDbSpline
 62
7
  6
CONTINUOUS
 70
0
 71
3
 72
19
 73
15
 74
0
 42
0.0000001
 43
0.0000001
 44
0.0000000001
 40
0.0
 40
0.0
 40
0.0
 40
0.0
 40
0.1274708333
 40
0.253131025
 40
0.3153285933
 40
0.3771359092
 40
0.4386479601
 40
0.5000000001
 40
0.5613520401
 40
0.622864091
 40
0.6846714068
 40
0.746868975
 40
0.8725291667
 40
1.0
 40
1.0
 40
1.0
 40
1.0
 10
6.1037259338
 20
2.0312612455
 30
0.0
 10
6.0962418598
 20
2.0366956219
 30
0.0
 10
6.0808717278
 20
2.0468158571
 30
0.0
 10
6.0602925407
 20
2.0570053114
 30
0.0
 10
6.0431955536
 20
2.0630533839
 30
0.0
 10
6.0301382045
 20
2.0664039582
 30
0.0
 10
6.0168762487
 20
2.0684679545
 30
0.0
 10
6.0035040705
 20
2.0691655736
 30
0.0
 10
5.9901318922
 20
2.0684679545
 30
0.0
 10
5.9768699364
 20
2.0664039582
 30
0.0
 10
5.9638125874
 20
2.0630533839
 30
0.0
 10
5.9467156002
 20
2.0570053114
 30
0.0
 10
5.9261364131
 20
2.0468158571
 30
0.0
 10
5.9107662812
 20
2.0366956219
 30
0.0
 10
5.9032822072
 20
2.0312612455
 30
0.0
  0
SPLINE
  5
3C1
100
AcDbEntity
  8
0
100
AcDbSpline
 62
7
  6
CONTINUOUS
 70
0
 71
3
 72
19
 73
15
 74
0
 42
0.0000001
 43
0.0000001
 44
0.0000000001
 40
0.0
 40
0.0
 40
0.0
 40
0.0
 40
0.1274708333
 40
0.253131025
 40
0.3153285933
 40
0.3771359092
 40
0.4386479601
 40
0.5000000001
 40
0.5613520401
 40
0.622864091
 40
0.6846714068
 40
0.746868975
 40
0.8725291667
 40
1.0
 40
1.0
 40
1.0
 40
1.0
 10
6.4007259338
 20
1.858174675
 30
0.0
 10
6.3932418598
 20
1.8527402987
 30
0.0
 10
6.3778717278
 20
1.8426200634
 30
0.0
 10
6.3572925407
 20
1.8324306091
 30
0.0
 10
6.3401955536
 20
1.8263825366
 30
0.0
 10
6.3271382045
 20
1.8230319624
 30
0.0
 10
6.3138762487
 20
1.820967966
 30
0.0
 10
6.3005040705
 20
1.8202703469
 30
0.0
 10
6.2871318922
 20
1.820967966
 30
0.0
 10
6.2738699364
 20
1.8230319624
 30
0.0
 10
6.2608125874
 20
1.8263825366
 30
0.0
 10
6.2437156002
 20
1.8324306091
 30
0.0
 10
6.2231364131
 20
1.8426200634
 30
0.0
 10
6.2077662812
 20
1.8527402987
 30
0.0
 10
6.2002822072
 20
1.858174675
 30
0.0
  0
SPLINE
  5
3C2
100
AcDbEntity
  8
0
100
AcDbSpline
 62
7
  6
CONTINUOUS
 70
0
 71
3
 72
29
 73
25
 74
0
 42
0.0000001
 43
0.0000001
 44
0.0000000001
 40
0.0
 40
0.0
 40
0.0
 40
0.0
 40
0.0264998728
 40
0.0532058981
 40
0.0803130575
 40
0.107991672
 40
0.1363810876
 40
0.165584175
 40
0.2265764084
 40
0.2911339877
 40
0.3588187842
 40
0.4288027311
 40
0.5
 40
0.5711972689
 40
0.6411812158
 40
0.7088660123
 40
0.7734235916
 40
0.834415825
 40
0.8636189124
 40
0.892008328
 40
0.9196869425
 40
0.9467941019
 40
0.9735001272
 40
1.0
 40
1.0
 40
1.0
 40
1.0
 10
3.5627983793
 20
1.5042581978
 30
0.0
 10
3.5676521464
 20
1.5042581978
 30
0.0
 10
3.5774096011
 20
1.5036092083
 30
0.0
 10
3.5918705298
 20
1.5007031283
 30
0.0
 10
3.6060438595
 20
1.4958949724
 30
0.0
 10
3.6197871891
 20
1.4892359846
 30
0.0
 10
3.6329697436
 20
1.4807942033
 30
0.0
 10
3.6498669621
 20
1.4670857876
 30
0.0
 10
3.6688812041
 20
1.4457835978
 30
0.0
 10
3.6872188244
 20
1.4153051032
 30
0.0
 10
3.7008071911
 20
1.3806740707
 30
0.0
 10
3.7091575186
 20
1.3431930443
 30
0.0
 10
3.7119751656
 20
1.3042581978
 30
0.0
 10
3.7091575186
 20
1.2653233512
 30
0.0
 10
3.7008071911
 20
1.2278423248
 30
0.0
 10
3.6872188244
 20
1.1932112923
 30
0.0
 10
3.6688812041
 20
1.1627327977
 30
0.0
 10
3.6498669621
 20
1.1414306079
 30
0.0
 10
3.6329697436
 20
1.1277221922
 30
0.0
 10
3.6197871891
 20
1.1192804109
 30
0.0
 10
3.6060438595
 20
1.1126214231
 30
0.0
 10
3.5918705298
 20
1.1078132673
 30
0.0
 10
3.5774096011
 20
1.1049071872
 30
0.0
 10
3.5676521464
 20
1.1042581978
 30
0.0
 10
3.5627983793
 20
1.1042581978
 30
0.0
  0
SPLINE
  5
3C3
100
AcDbEntity
  8
0
100
AcDbSpline
 62
7
  6
CONTINUOUS
 70
0
 71
3
 72
19
 73
15
 74
0
 42
0.0000001
 43
0.0000001
 44
0.0000000001
 40
0.0
 40
0.0
 40
0.0
 40
0.0
 40
0.1274708333
 40
0.253131025
 40
0.3153285933
 40
0.3771359092
 40
0.4386479601
 40
0.5000000001
 40
0.5613520401
 40
0.622864091
 40
0.6846714068
 40
0.746868975
 40
0.8725291667
 40
1.0
 40
1.0
 40
1.0
 40
1.0
 10
6.4007259338
 20
2.0312612455
 30
0.0
 10
6.3932418598
 20
2.0366956219
 30
0.0
 10
6.3778717278
 20
2.0468158571
 30
0.0
 10
6.3572925407
 20
2.0570053114
 30
0.0
 10
6.3401955536
 20
2.0630533839
 30
0.0
 10
6.3271382045
 20
2.0664039582
 30
0.0
 10
6.3138762487
 20
2.0684679545
 30
0.0
 10
6.3005040705
 20
2.0691655736
 30
0.0
 10
6.2871318922
 20
2.0684679545
 30
0.0
 10
6.2738699364
 20
2.0664039582
 30
0.0
 10
6.2608125874
 20
2.0630533839
 30
0.0
 10
6.2437156002
 20
2.0570053114
 30
0.0
 10
6.2231364131
 20
2.0468158571
 30
0.0
 10
6.2077662812
 20
2.0366956219
 30
0.0
 10
6.2002822072
 20
2.0312612455
 30
0.0
  0
SPLINE
  5
3C4
100
AcDbEntity
  8
0
100
AcDbSpline
 62
7
  6
CONTINUOUS
 70
0
 71
3
 72
19
 73
15
 74
0
 42
0.0000001
 43
0.0000001
 44
0.0000000001
 40
0.0
 40
0.0
 40
0.0
 40
0.0
 40
0.1575956249
 40
0.232141015
 40
0.3035421127
 40
0.4371153912
 40
0.5598368948
 40
0.6741929135
 40
0.7292229608
 40
0.7833611577
 40
0.8370599617
 40
0.8907771639
 40
0.9449558605
 40
1.0
 40
1.0
 40
1.0
 40
1.0
 10
3.4118198699
 20
1.2366501959
 30
0.0
 10
3.40968469
 20
1.2289401835
 30
0.0
 10
3.4066698167
 20
1.2175476813
 30
0.0
 10
3.4025752117
 20
1.2026921852
 30
0.0
 10
3.3986294596
 20
1.1890624544
 30
0.0
 10
3.3935006298
 20
1.1732262992
 30
0.0
 10
3.3862371882
 20
1.1558363471
 30
0.0
 10
3.378814402
 20
1.1429288299
 30
0.0
 10
3.371949507
 20
1.1338766785
 30
0.0
 10
3.3663600883
 20
1.1277670659
 30
0.0
 10
3.3602419506
 20
1.1222844857
 30
0.0
 10
3.353585692
 20
1.1174637897
 30
0.0
 10
3.3463977587
 20
1.11334098
 30
0.0
 10
3.3413127679
 20
1.1111008526
 30
0.0
 10
3.3387013861
 20
1.1101065595
 30
0.0
  0
SPLINE
  5
3C5
100
AcDbEntity
  8
0
100
AcDbSpline
 62
7
  6
CONTINUOUS
 70
0
 71
3
 72
14
 73
10
 74
0
 42
0.0000001
 43
0.0000001
 44
0.0000000001
 40
0.0
 40
0.0
 40
0.0
 40
0.0
 40
0.2430192477
 40
0.3684068349
 40
0.4950429236
 40
0.6221561228
 40
0.7490567314
 40
0.8751531503
 40
1.0
 40
1.0
 40
1.0
 40
1.0
 10
3.3375435258
 20
1.4617188819
 30
0.0
 10
3.3529302304
 20
1.4486225964
 30
0.0
 10
3.373633936
 20
1.425421212
 30
0.0
 10
3.3947012272
 20
1.3899750063
 30
0.0
 10
3.4071346516
 20
1.3608944607
 30
0.0
 10
3.4154978211
 20
1.330265358
 30
0.0
 10
3.4193802565
 20
1.2987831681
 30
0.0
 10
3.4184906229
 20
1.2672614798
 30
0.0
 10
3.4145911615
 20
1.2466536549
 30
0.0
 10
3.4118198699
 20
1.2366501959
 30
0.0
  0
SPLINE
  5
3C6
100
AcDbEntity
  8
0
100
AcDbSpline
 62
7
  6
CONTINUOUS
 70
0
 71
3
 72
41
 73
37
 74
0
 42
0.0000001
 43
0.0000001
 44
0.0000000001
 40
0.0
 40
0.0
 40
0.0
 40
0.0
 40
0.0679544496
 40
0.1430359685
 40
0.2234933147
 40
0.3075263478
 40
0.3933543537
 40
0.4792291495
 40
0.5634319716
 40
0.6442780929
 40
0.7201356195
 40
0.7557052199
 40
0.7894547166
 40
0.8212087924
 40
0.8508015412
 40
0.8780775118
 40
0.9028926824
 40
0.9251154129
 40
0.9446271836
 40
0.9533332207
 40
0.9613235142
 40
0.9685872074
 40
0.9751145023
 40
0.9808965812
 40
0.9859255137
 40
0.9901946068
 40
0.993697908
 40
0.9951609759
 40
0.9964309609
 40
0.9975074245
 40
0.9983901667
 40
0.9990791357
 40
0.9995745496
 40
0.999877602
 40
0.9999590022
 40
1.0
 40
1.0
 40
1.0
 40
1.0
 10
3.7188027008
 20
1.6927184579
 30
0.0
 10
3.7264334632
 20
1.6927185262
 30
0.0
 10
3.7424953564
 20
1.6928606736
 30
0.0
 10
3.7675868875
 20
1.6933786621
 30
0.0
 10
3.7944786218
 20
1.6941293486
 30
0.0
 10
3.8225737787
 20
1.6950060585
 30
0.0
 10
3.8512764383
 20
1.6959188273
 30
0.0
 10
3.8799991197
 20
1.6968016632
 30
0.0
 10
3.908164203
 20
1.6976150897
 30
0.0
 10
3.935206417
 20
1.6983412677
 30
0.0
 10
3.9567904764
 20
1.6988814791
 30
0.0
 10
3.9730880395
 20
1.6992711067
 30
0.0
 10
3.9844346872
 20
1.6995360763
 30
0.0
 10
3.9951104839
 20
1.6997801444
 30
0.0
 10
4.00505959
 20
1.7000055373
 30
0.0
 10
4.0142297248
 20
1.7002126346
 30
0.0
 10
4.0225724445
 20
1.7004023705
 30
0.0
 10
4.0300434282
 20
1.700576689
 30
0.0
 10
4.0357058576
 20
1.7007136901
 30
0.0
 10
4.0397704329
 20
1.7008171605
 30
0.0
 10
4.0424600148
 20
1.7008884731
 30
0.0
 10
4.0449049401
 20
1.7009564985
 30
0.0
 10
4.0471018906
 20
1.7010213079
 30
0.0
 10
4.0490478739
 20
1.7010829941
 30
0.0
 10
4.0507402413
 20
1.7011416243
 30
0.0
 10
4.0521766597
 20
1.7011973098
 30
0.0
 10
4.0532127042
 20
1.7012435732
 30
0.0
 10
4.0539120645
 20
1.7012800102
 30
0.0
 10
4.0543390953
 20
1.7013049359
 30
0.0
 10
4.0547009805
 20
1.7013291423
 30
0.0
 10
4.054997236
 20
1.7013524607
 30
0.0
 10
4.0552288098
 20
1.7013751281
 30
0.0
 10
4.0553933212
 20
1.7013960143
 30
0.0
 10
4.0554925693
 20
1.7014152638
 30
0.0
 10
4.0555358965
 20
1.7014300301
 30
0.0
 10
4.0555486856
 20
1.7014400557
 30
0.0
 10
4.0555489294
 20
1.701444653
 30
0.0
  0
SPLINE
  5
3C7
100
AcDbEntity
  8
0
100
AcDbSpline
 62
7
  6
CONTINUOUS
 70
0
 71
3
 72
39
 73
35
 74
0
 42
0.0000001
 43
0.0000001
 44
0.0000000001
 40
0.0
 40
0.0
 40
0.0
 40
0.0
 40
0.1430189104
 40
0.223425115
 40
0.3075060858
 40
0.3934926492
 40
0.4795981885
 40
0.5640486215
 40
0.6451099873
 40
0.7211167469
 40
0.7567297547
 40
0.7905016382
 40
0.822255876
 40
0.8518277047
 40
0.8790632986
 40
0.903818838
 40
0.9259657714
 40
0.9453868075
 40
0.9540422348
 40
0.9619790493
 40
0.969186889
 40
0.9756558458
 40
0.9813772632
 40
0.9863431968
 40
0.990547398
 40
0.9939846939
 40
0.9954142753
 40
0.9966504451
 40
0.9976927007
 40
0.998540622
 40
0.9991941373
 40
0.9996534401
 40
0.9999193793
 40
1.0
 40
1.0
 40
1.0
 40
1.0
 10
3.7130471673
 20
1.739411486
 30
0.0
 10
3.7299142207
 20
1.7394103136
 30
0.0
 10
3.7562639496
 20
1.7392076603
 30
0.0
 10
3.7925269245
 20
1.73874629
 30
0.0
 10
3.8220635532
 20
1.7383091491
 30
0.0
 10
3.8522717743
 20
1.7378327999
 30
0.0
 10
3.8825234876
 20
1.7373504969
 30
0.0
 10
3.9121945398
 20
1.7368852916
 30
0.0
 10
3.9406749347
 20
1.7364519057
 30
0.0
 10
3.9633964862
 20
1.7361177041
 30
0.0
 10
3.980541558
 20
1.7358683774
 30
0.0
 10
3.992468261
 20
1.7356975212
 30
0.0
 10
4.0036825589
 20
1.7355363943
 30
0.0
 10
4.0141260637
 20
1.7353856645
 30
0.0
 10
4.0237442447
 20
1.7352459659
 30
0.0
 10
4.032486798
 20
1.7351149785
 30
0.0
 10
4.0403077844
 20
1.7349942604
 30
0.0
 10
4.0462301425
 20
1.7348980564
 30
0.0
 10
4.0504767582
 20
1.73482431
 30
0.0
 10
4.0532831814
 20
1.7347735213
 30
0.0
 10
4.0558317379
 20
1.7347249581
 30
0.0
 10
4.0581190126
 20
1.7346784889
 30
0.0
 10
4.060141863
 20
1.7346339906
 30
0.0
 10
4.0618976079
 20
1.7345912872
 30
0.0
 10
4.0633838771
 20
1.7345504956
 30
0.0
 10
4.0644532545
 20
1.7345166995
 30
0.0
 10
4.0651723727
 20
1.7344901897
 30
0.0
 10
4.0656096779
 20
1.7344718909
 30
0.0
 10
4.0659768739
 20
1.7344544966
 30
0.0
 10
4.0662793653
 20
1.7344363565
 30
0.0
 10
4.0665024553
 20
1.7344219277
 30
0.0
 10
4.0666810312
 20
1.7344012587
 30
0.0
 10
4.0667470147
 20
1.7343955951
 30
0.0
 10
4.0668138899
 20
1.7343760522
 30
0.0
 10
4.0668084818
 20
1.7343682319
 30
0.0
  0
LINE
  5
3C8
100
AcDbEntity
  8
0
100
AcDbLine
 62
7
  6
CONTINUOUS
 10
6.8409146942
 20
2.9572690454
 11
6.9136502629
 21
2.9697542294
  0
LINE
  5
3C9
100
AcDbEntity
  8
0
100
AcDbLine
 62
7
  6
CONTINUOUS
 10
6.8697658452
 20
2.9628894218
 11
6.8530957211
 21
2.9601945908
  0
LINE
  5
3CA
100
AcDbEntity
  8
0
100
AcDbLine
 62
7
  6
CONTINUOUS
 10
6.9280829388
 20
2.9712090694
 11
6.954845293
 21
2.972537377
  0
LINE
  5
3CB
100
AcDbEntity
  8
0
100
AcDbLine
 62
7
  6
CONTINUOUS
 10
6.954845293
 20
2.972537377
 11
6.9722781156
 21
2.9734595156
  0
LINE
  5
3CC
100
AcDbEntity
  8
0
100
AcDbLine
 62
7
  6
CONTINUOUS
 10
6.9722781156
 20
2.9734595156
 11
7.0027076945
 21
2.9752165074
  0
SPLINE
  5
3CD
100
AcDbEntity
  8
0
100
AcDbSpline
 62
7
  6
CONTINUOUS
 70
0
 71
3
 72
21
 73
17
 74
0
 42
0.0000001
 43
0.0000001
 44
0.0000000001
 40
0.0
 40
0.0
 40
0.0
 40
0.0
 40
0.0014972148
 40
0.0049687673
 40
0.0106550823
 40
0.0185724055
 40
0.0410338204
 40
0.0721688086
 40
0.1117569863
 40
0.1595628814
 40
0.2152676319
 40
0.2784989302
 40
0.4260444251
 40
0.5990415728
 40
0.7924469908
 40
1.0
 40
1.0
 40
1.0
 40
1.0
 10
7.0199688259
 20
2.9748900321
 30
0.0
 10
7.01996984
 20
2.9748847527
 30
0.0
 10
7.0199506692
 20
2.9748713478
 30
0.0
 10
7.019916918
 20
2.9748635735
 30
0.0
 10
7.0198550365
 20
2.9748502581
 30
0.0
 10
7.0197277434
 20
2.9748333476
 30
0.0
 10
7.0195070164
 20
2.9748121511
 30
0.0
 10
7.0191735635
 20
2.9747895616
 30
0.0
 10
7.018748411
 20
2.9747670106
 30
0.0
 10
7.0182351057
 20
2.9747452977
 30
0.0
 10
7.0176367436
 20
2.9747244496
 30
0.0
 10
7.0166803222
 20
2.9746966588
 30
0.0
 10
7.015302657
 20
2.9746663527
 30
0.0
 10
7.0134574956
 20
2.9746374652
 30
0.0
 10
7.0113967664
 20
2.9746150374
 30
0.0
 10
7.0099571179
 20
2.9746048891
 30
0.0
 10
7.0092118889
 20
2.9746008954
 30
0.0
  0
LINE
  5
3CE
100
AcDbEntity
  8
0
100
AcDbLine
 62
7
  6
CONTINUOUS
 10
7.0778387401
 20
2.9713438527
 11
7.0649978643
 21
2.9722039183
  0
SPLINE
  5
3CF
100
AcDbEntity
  8
0
100
AcDbSpline
 62
7
  6
CONTINUOUS
 70
0
 71
3
 72
21
 73
17
 74
0
 42
0.0000001
 43
0.0000001
 44
0.0000000001
 40
0.0
 40
0.0
 40
0.0
 40
0.0
 40
0.1943217157
 40
0.3822326986
 40
0.5550666618
 40
0.7063524179
 40
0.772252675
 40
0.8307814989
 40
0.8812992377
 40
0.9231692617
 40
0.9557854255
 40
0.9791061957
 40
0.987433629
 40
0.9936294412
 40
0.9977741796
 40
1.0
 40
1.0
 40
1.0
 40
1.0
 10
7.0529901207
 20
2.9730552299
 30
0.0
 10
7.0520158462
 20
2.9731166985
 30
0.0
 10
7.0500996853
 20
2.973241546
 30
0.0
 10
7.0473178507
 20
2.9734340975
 30
0.0
 10
7.0447525662
 20
2.9736238359
 30
0.0
 10
7.0427993933
 20
2.9737793852
 30
0.0
 10
7.0414193452
 20
2.9738976566
 30
0.0
 10
7.0405440417
 20
2.9739769643
 30
0.0
 10
7.0397894429
 20
2.9740502141
 30
0.0
 10
7.0391648883
 20
2.974116334
 30
0.0
 10
7.0386771658
 20
2.974175048
 30
0.0
 10
7.0383572399
 20
2.9742206326
 30
0.0
 10
7.0381704999
 20
2.9742547599
 30
0.0
 10
7.0380783106
 20
2.9742748514
 30
0.0
 10
7.0380188927
 20
2.9742930705
 30
0.0
 10
7.0379878446
 20
2.9743058627
 30
0.0
 10
7.0379804412
 20
2.9743142426
 30
0.0
  0
LINE
  5
3D0
100
AcDbEntity
  8
0
100
AcDbLine
 62
7
  6
CONTINUOUS
 10
7.1042731923
 20
2.9684057966
 11
7.0992699658
 21
2.9687628338
  0
SPLINE
  5
3D1
100
AcDbEntity
  8
0
100
AcDbSpline
 62
7
  6
CONTINUOUS
 70
0
 71
3
 72
24
 73
20
 74
0
 42
0.0000001
 43
0.0000001
 44
0.0000000001
 40
0.0
 40
0.0
 40
0.0
 40
0.0
 40
0.0027918796
 40
0.0051076187
 40
0.0096976793
 40
0.018543341
 40
0.0496068397
 40
0.1010286793
 40
0.1762439091
 40
0.2721025184
 40
0.3831247523
 40
0.5033510813
 40
0.6243555438
 40
0.7362190663
 40
0.8326285276
 40
0.9078108116
 40
0.9568226598
 40
0.9846392527
 40
1.0
 40
1.0
 40
1.0
 40
1.0
 10
6.9848461759
 20
2.9749761523
 30
0.0
 10
6.9848065483
 20
2.9749751624
 30
0.0
 10
6.9847338591
 20
2.9749722699
 30
0.0
 10
6.9845983685
 20
2.9749468156
 30
0.0
 10
6.9843764333
 20
2.97491893
 30
0.0
 10
6.983747809
 20
2.9748553077
 30
0.0
 10
6.9824559652
 20
2.9747422329
 30
0.0
 10
6.9802235194
 20
2.9745695826
 30
0.0
 10
6.9770716061
 20
2.9743563615
 30
0.0
 10
6.9730742939
 20
2.9741051401
 30
0.0
 10
6.9684378417
 20
2.9738266552
 30
0.0
 10
6.9634458197
 20
2.9735503569
 30
0.0
 10
6.9584322712
 20
2.9732978676
 30
0.0
 10
6.953783773
 20
2.9730809394
 30
0.0
 10
6.9496986458
 20
2.972910525
 30
0.0
 10
6.9467321417
 20
2.9727933727
 30
0.0
 10
6.9442353184
 20
2.9727339345
 30
0.0
 10
6.9435185209
 20
2.9727263801
 30
0.0
 10
6.9421013499
 20
2.9727264707
 30
0.0
 10
6.9423187507
 20
2.9727438799
 30
0.0
  0
SPLINE
  5
3D2
100
AcDbEntity
  8
0
100
AcDbSpline
 62
7
  6
CONTINUOUS
 70
0
 71
3
 72
13
 73
9
 74
0
 42
0.0000001
 43
0.0000001
 44
0.0000000001
 40
0.0
 40
0.0
 40
0.0
 40
0.0
 40
0.24999952
 40
0.4999972126
 40
0.6249983077
 40
0.7499963069
 40
0.8750057646
 40
1.0
 40
1.0
 40
1.0
 40
1.0
 10
7.0839478339
 20
2.969431329
 30
0.0
 10
7.0777415733
 20
2.9700790952
 30
0.0
 10
7.0653113403
 20
2.9712079433
 30
0.0
 10
7.0497450894
 20
2.9722550175
 30
0.0
 10
7.037279728
 20
2.972862536
 30
0.0
 10
7.0279257023
 20
2.9732087705
 30
0.0
 10
7.0185681617
 20
2.9734349658
 30
0.0
 10
7.0123284142
 20
2.9735107335
 30
0.0
 10
7.0092086624
 20
2.9735353546
 30
0.0
  0
LINE
  5
3D3
100
AcDbEntity
  8
0
100
AcDbLine
 62
7
  6
CONTINUOUS
 10
7.0092086624
 20
2.9735353546
 11
7.0092086624
 21
2.9741012933
  0
SPLINE
  5
3D4
100
AcDbEntity
  8
0
100
AcDbSpline
 62
7
  6
CONTINUOUS
 70
0
 71
3
 72
29
 73
25
 74
0
 42
0.0000001
 43
0.0000001
 44
0.0000000001
 40
0.0
 40
0.0
 40
0.0
 40
0.0
 40
0.0265118362
 40
0.0533195316
 40
0.0806019148
 40
0.1085110265
 40
0.1371664301
 40
0.1666519864
 40
0.2281970384
 40
0.2931991735
 40
0.3611582637
 40
0.4312241984
 40
0.5023208395
 40
0.5732676621
 40
0.6428990631
 40
0.7101841151
 40
0.7743488631
 40
0.8350003392
 40
0.8640608536
 40
0.8923287681
 40
0.9199061006
 40
0.9469293625
 40
0.9735643632
 40
1.0
 40
1.0
 40
1.0
 40
1.0
 10
6.438537322
 20
1.1045057428
 30
0.0
 10
6.433754773
 20
1.1048187115
 30
0.0
 10
6.4241662639
 20
1.1060793868
 30
0.0
 10
6.4100465894
 20
1.1098259207
 30
0.0
 10
6.3962684175
 20
1.1153955726
 30
0.0
 10
6.3829649224
 20
1.1227312423
 30
0.0
 10
6.3702580037
 20
1.1317612514
 30
0.0
 10
6.3540434074
 20
1.1461403849
 30
0.0
 10
6.3359411269
 20
1.1680233611
 30
0.0
 10
6.3186701475
 20
1.1988401436
 30
0.0
 10
6.3060940023
 20
1.2334821294
 30
0.0
 10
6.2986533295
 20
1.2706858677
 30
0.0
 10
6.2966037664
 20
1.3091065997
 30
0.0
 10
6.3000179172
 20
1.347352147
 30
0.0
 10
6.3087755828
 20
1.3840368363
 30
0.0
 10
6.3225763677
 20
1.4178347093
 30
0.0
 10
6.3409388373
 20
1.4475116284
 30
0.0
 10
6.3598243292
 20
1.4682096369
 30
0.0
 10
6.376540807
 20
1.4815148527
 30
0.0
 10
6.3895620435
 20
1.4897057011
 30
0.0
 10
6.4031187543
 20
1.496163792
 30
0.0
 10
6.4170858236
 20
1.5008252128
 30
0.0
 10
6.4313271892
 20
1.5036418981
 30
0.0
 10
6.4409328464
 20
1.5042708246
 30
0.0
 10
6.4457118495
 20
1.5042708246
 30
0.0
  0
SPLINE
  5
3D5
100
AcDbEntity
  8
0
100
AcDbSpline
 62
7
  6
CONTINUOUS
 70
0
 71
3
 72
14
 73
10
 74
0
 42
0.0000001
 43
0.0000001
 44
0.0000000001
 40
0.0
 40
0.0
 40
0.0
 40
0.0
 40
0.124953923
 40
0.2510789167
 40
0.3779535961
 40
0.5050085088
 40
0.6315759243
 40
0.7569133154
 40
1.0
 40
1.0
 40
1.0
 40
1.0
 10
6.596513727
 20
1.2366981416
 30
0.0
 10
6.5936642124
 20
1.2467337553
 30
0.0
 10
6.5896285632
 20
1.2674184436
 30
0.0
 10
6.58862833
 20
1.2990809854
 30
0.0
 10
6.5924906242
 20
1.3306969574
 30
0.0
 10
6.6009068965
 20
1.3614378977
 30
0.0
 10
6.6134631953
 20
1.3905957335
 30
0.0
 10
6.6347725112
 20
1.426094652
 30
0.0
 10
6.6557191505
 20
1.4492649439
 30
0.0
 10
6.6712715346
 20
1.4623039698
 30
0.0
  0
SPLINE
  5
3D6
100
AcDbEntity
  8
0
100
AcDbSpline
 62
7
  6
CONTINUOUS
 70
0
 71
3
 72
18
 73
14
 74
0
 42
0.0000001
 43
0.0000001
 44
0.0000000001
 40
0.0
 40
0.0
 40
0.0
 40
0.0
 40
0.0541228562
 40
0.1076006111
 40
0.1608918569
 40
0.2144492836
 40
0.3239181898
 40
0.4391055048
 40
0.5625160828
 40
0.6964003281
 40
0.7678449191
 40
0.8424073322
 40
1.0
 40
1.0
 40
1.0
 40
1.0
 10
6.669743231
 20
1.1103192555
 30
0.0
 10
6.6671932943
 20
1.1113234623
 30
0.0
 10
6.6622224268
 20
1.1135826067
 30
0.0
 10
6.6551870486
 20
1.1177183613
 30
0.0
 10
6.6486399025
 20
1.1225431049
 30
0.0
 10
6.6405035614
 20
1.129899776
 30
0.0
 10
6.6314648737
 20
1.1408122853
 30
0.0
 10
6.6225304577
 20
1.1560718703
 30
0.0
 10
6.6151077441
 20
1.1734493306
 30
0.0
 10
6.6099038073
 20
1.1892724856
 30
0.0
 10
6.605916463
 20
1.2028723612
 30
0.0
 10
6.6017766362
 20
1.2176777756
 30
0.0
 10
6.598693055
 20
1.229021685
 30
0.0
 10
6.596513727
 20
1.2366981416
 30
0.0
  0
SPLINE
  5
3D7
100
AcDbEntity
  8
0
100
AcDbSpline
 62
7
  6
CONTINUOUS
 70
0
 71
3
 72
22
 73
18
 74
0
 42
0.0000001
 43
0.0000001
 44
0.0000000001
 40
0.0
 40
0.0
 40
0.0
 40
0.0
 40
0.2256150082
 40
0.4253973407
 40
0.5973124418
 40
0.7398006445
 40
0.7996394523
 40
0.8517226802
 40
0.8959628081
 40
0.9322969895
 40
0.9474887931
 40
0.9606956091
 40
0.9719220004
 40
0.9811811505
 40
0.9885007803
 40
0.9939440647
 40
1.0
 40
1.0
 40
1.0
 40
1.0
 10
6.2897126274
 20
1.6927243779
 30
0.0
 10
6.2945988281
 20
1.6927244217
 30
0.0
 10
6.3038119099
 20
1.6927772353
 30
0.0
 10
6.3167460315
 20
1.6930336675
 30
0.0
 10
6.3278749982
 20
1.6934396578
 30
0.0
 10
6.3359682336
 20
1.6938914264
 30
0.0
 10
6.3414624492
 20
1.694308081
 30
0.0
 10
6.3448307127
 20
1.694614867
 30
0.0
 10
6.3476865933
 20
1.6949299464
 30
0.0
 10
6.3497420186
 20
1.6952095596
 30
0.0
 10
6.3511250486
 20
1.6954405689
 30
0.0
 10
6.3519675492
 20
1.695602534
 30
0.0
 10
6.3526802911
 20
1.6957645004
 30
0.0
 10
6.3532586886
 20
1.6959219574
 30
0.0
 10
6.3537160995
 20
1.6960853512
 30
0.0
 10
6.3540663764
 20
1.6962460782
 30
0.0
 10
6.3543072455
 20
1.6964512753
 30
0.0
 10
6.3542941259
 20
1.6965817724
 30
0.0
  0
SPLINE
  5
3D8
100
AcDbEntity
  8
0
100
AcDbSpline
 62
7
  6
CONTINUOUS
 70
0
 71
3
 72
29
 73
25
 74
0
 42
0.0000001
 43
0.0000001
 44
0.0000000001
 40
0.0
 40
0.0
 40
0.0
 40
0.0
 40
0.2266493877
 40
0.4277295812
 40
0.6010165796
 40
0.6766456714
 40
0.7446569703
 40
0.8048818966
 40
0.8571682214
 40
0.901381836
 40
0.9204290725
 40
0.9374220237
 40
0.9523524182
 40
0.9652129002
 40
0.9759991484
 40
0.9847109424
 40
0.98829054
 40
0.9913547844
 40
0.993907507
 40
0.9959555499
 40
0.9975125493
 40
0.9986107682
 40
0.9993458997
 40
1.0
 40
1.0
 40
1.0
 40
1.0
 10
6.2954669333
 20
1.7394176534
 30
0.0
 10
6.3006886962
 20
1.7394172904
 30
0.0
 10
6.3105431634
 20
1.7393916459
 30
0.0
 10
6.3243895251
 20
1.7392713065
 30
0.0
 10
6.3347557214
 20
1.7391017728
 30
0.0
 10
6.3420553947
 20
1.7389296384
 30
0.0
 10
6.3467502674
 20
1.7387927201
 30
0.0
 10
6.3509067445
 20
1.7386455206
 30
0.0
 10
6.3545142142
 20
1.7384901337
 30
0.0
 10
6.3571726159
 20
1.7383487191
 30
0.0
 10
6.3590178022
 20
1.7382303322
 30
0.0
 10
6.3601890313
 20
1.7381450905
 30
0.0
 10
6.3612172428
 20
1.7380591744
 30
0.0
 10
6.3621018666
 20
1.7379729107
 30
0.0
 10
6.3628423926
 20
1.7378865093
 30
0.0
 10
6.3633687898
 20
1.7378107952
 30
0.0
 10
6.3637170355
 20
1.7377482305
 30
0.0
 10
6.3639243949
 20
1.7377045611
 30
0.0
 10
6.3640956439
 20
1.737661001
 30
0.0
 10
6.3642308624
 20
1.7376180556
 30
0.0
 10
6.3643308877
 20
1.7375748721
 30
0.0
 10
6.3643967531
 20
1.7375334027
 30
0.0
 10
6.36443349
 20
1.7374833509
 30
0.0
 10
6.3644235747
 20
1.7374484624
 30
0.0
 10
6.3644152354
 20
1.7374359103
 30
0.0
  0
SPLINE
  5
3D9
100
AcDbEntity
  8
0
100
AcDbSpline
 62
7
  6
CONTINUOUS
 70
0
 71
3
 72
41
 73
37
 74
0
 42
0.0000001
 43
0.0000001
 44
0.0000000001
 40
0.0
 40
0.0
 40
0.0
 40
0.0
 40
0.0000408956
 40
0.0001222353
 40
0.0004251517
 40
0.0009203648
 40
0.0016091877
 40
0.002491864
 40
0.0035682342
 40
0.004838027
 40
0.0063009203
 40
0.0098040545
 40
0.0140727948
 40
0.0191015315
 40
0.0248832588
 40
0.031410324
 40
0.0386736916
 40
0.0466637171
 40
0.0553694493
 40
0.0748806308
 40
0.0971027575
 40
0.1219173211
 40
0.1491926865
 40
0.1787848502
 40
0.2105383677
 40
0.2442873459
 40
0.2798564707
 40
0.3557132203
 40
0.4365588434
 40
0.5207615045
 40
0.60663656
 40
0.692465288
 40
0.7764995557
 40
0.8569586955
 40
0.9320426684
 40
1.0
 40
1.0
 40
1.0
 40
1.0
 10
5.9529739005
 20
1.7014407676
 30
0.0
 10
5.9529741415
 20
1.7014361818
 30
0.0
 10
5.9529869472
 20
1.7014261926
 30
0.0
 10
5.9530302381
 20
1.7014114918
 30
0.0
 10
5.9531294669
 20
1.7013922989
 30
0.0
 10
5.9532939168
 20
1.701371475
 30
0.0
 10
5.9535254498
 20
1.7013488751
 30
0.0
 10
5.9538216683
 20
1.7013256356
 30
0.0
 10
5.954183512
 20
1.7013015176
 30
0.0
 10
5.9546104867
 20
1.7012766923
 30
0.0
 10
5.955309778
 20
1.7012403957
 30
0.0
 10
5.9563457265
 20
1.7011942787
 30
0.0
 10
5.9577820362
 20
1.7011387252
 30
0.0
 10
5.9594742702
 20
1.7010803009
 30
0.0
 10
5.9614201275
 20
1.7010188265
 30
0.0
 10
5.9636169301
 20
1.7009541927
 30
0.0
 10
5.9660617109
 20
1.7008863466
 30
0.0
 10
5.9687511346
 20
1.7008152376
 30
0.0
 10
5.9728154907
 20
1.7007120052
 30
0.0
 10
5.9784776289
 20
1.7005753723
 30
0.0
 10
5.9859482461
 20
1.7004014729
 30
0.0
 10
5.9942905754
 20
1.7002120835
 30
0.0
 10
6.0034603062
 20
1.7000054952
 30
0.0
 10
6.0134089913
 20
1.6997804178
 30
0.0
 10
6.0240843636
 20
1.699536826
 30
0.0
 10
6.0354305826
 20
1.6992722811
 30
0.0
 10
6.0517275787
 20
1.6988831398
 30
0.0
 10
6.0733109548
 20
1.6983435756
 30
0.0
 10
6.1003523997
 20
1.6976182198
 30
0.0
 10
6.128516798
 20
1.6968053456
 30
0.0
 10
6.1572389169
 20
1.6959229881
 30
0.0
 10
6.1859411826
 20
1.6950110401
 30
0.0
 10
6.2140361166
 20
1.6941346563
 30
0.0
 10
6.2409278527
 20
1.6933844545
 30
0.0
 10
6.2660195985
 20
1.692866361
 30
0.0
 10
6.2820817189
 20
1.6927244326
 30
0.0
 10
6.2897126274
 20
1.6927243779
 30
0.0
  0
SPLINE
  5
3DA
100
AcDbEntity
  8
0
100
AcDbSpline
 62
7
  6
CONTINUOUS
 70
0
 71
3
 72
39
 73
35
 74
0
 42
0.0000001
 43
0.0000001
 44
0.0000000001
 40
0.0
 40
0.0
 40
0.0
 40
0.0
 40
0.0000805913
 40
0.0003462895
 40
0.0008053531
 40
0.0014587241
 40
0.0023065377
 40
0.003348531
 40
0.0045843544
 40
0.0060136278
 40
0.0094505372
 40
0.013654421
 40
0.0186198824
 40
0.0243405059
 40
0.030809179
 40
0.0380166681
 40
0.045953038
 40
0.0546078969
 40
0.074028149
 40
0.0961742902
 40
0.1209289459
 40
0.1481638541
 40
0.1777349789
 40
0.2094886804
 40
0.2432599272
 40
0.2788725649
 40
0.3548785722
 40
0.4359395854
 40
0.5203901419
 40
0.6064963084
 40
0.6924839864
 40
0.7765666307
 40
0.8569750219
 40
1.0
 40
1.0
 40
1.0
 40
1.0
 10
5.9417137644
 20
1.7343641528
 30
0.0
 10
5.9417083572
 20
1.7343719692
 30
0.0
 10
5.9417749775
 20
1.7343917944
 30
0.0
 10
5.9418410977
 20
1.734397331
 30
0.0
 10
5.9420194705
 20
1.7344181922
 30
0.0
 10
5.9422425456
 20
1.7344326087
 30
0.0
 10
5.9425449469
 20
1.7344508169
 30
0.0
 10
5.9429120521
 20
1.7344683119
 30
0.0
 10
5.9433492314
 20
1.7344867451
 30
0.0
 10
5.9440682044
 20
1.7345134555
 30
0.0
 10
5.9451374342
 20
1.7345473858
 30
0.0
 10
5.9466235315
 20
1.734588188
 30
0.0
 10
5.9483790432
 20
1.7346311752
 30
0.0
 10
5.9504016572
 20
1.7346760735
 30
0.0
 10
5.9526887108
 20
1.7347226344
 30
0.0
 10
5.9552370821
 20
1.7347712573
 30
0.0
 10
5.9580432762
 20
1.7348223693
 30
0.0
 10
5.9622895806
 20
1.7348964022
 30
0.0
 10
5.9682115486
 20
1.7349929403
 30
0.0
 10
5.9760320655
 20
1.7351140143
 30
0.0
 10
5.9847741367
 20
1.7352456166
 30
0.0
 10
5.9943918315
 20
1.735385607
 30
0.0
 10
6.004834869
 20
1.7355368983
 30
0.0
 10
6.0160486923
 20
1.7356982952
 30
0.0
 10
6.0279749394
 20
1.735869762
 30
0.0
 10
6.0451194173
 20
1.7361194466
 30
0.0
 10
6.067840277
 20
1.7364545093
 30
0.0
 10
6.0963199113
 20
1.736888665
 30
0.0
 10
6.1259903384
 20
1.7373546554
 30
0.0
 10
6.1562415908
 20
1.7378374856
 30
0.0
 10
6.1864495364
 20
1.7383142532
 30
0.0
 10
6.2159860872
 20
1.7387519657
 30
0.0
 10
6.2522494235
 20
1.7392135215
 30
0.0
 10
6.2785995393
 20
1.7394167357
 30
0.0
 10
6.2954669333
 20
1.7394176534
 30
0.0
  0
SPLINE
  5
3DB
100
AcDbEntity
  8
0
100
AcDbSpline
 62
7
  6
CONTINUOUS
 70
0
 71
3
 72
19
 73
15
 74
0
 42
0.0000001
 43
0.0000001
 44
0.0000000001
 40
0.0
 40
0.0
 40
0.0
 40
0.0
 40
0.1274708333
 40
0.253131025
 40
0.3153285933
 40
0.3771359092
 40
0.4386479601
 40
0.5000000001
 40
0.5613520401
 40
0.622864091
 40
0.6846714068
 40
0.746868975
 40
0.8725291667
 40
1.0
 40
1.0
 40
1.0
 40
1.0
 10
3.8082259338
 20
1.858174675
 30
0.0
 10
3.8007418598
 20
1.8527402987
 30
0.0
 10
3.7853717278
 20
1.8426200634
 30
0.0
 10
3.7647925407
 20
1.8324306091
 30
0.0
 10
3.7476955536
 20
1.8263825366
 30
0.0
 10
3.7346382045
 20
1.8230319624
 30
0.0
 10
3.7213762487
 20
1.820967966
 30
0.0
 10
3.7080040705
 20
1.8202703469
 30
0.0
 10
3.6946318922
 20
1.820967966
 30
0.0
 10
3.6813699364
 20
1.8230319624
 30
0.0
 10
3.6683125874
 20
1.8263825366
 30
0.0
 10
3.6512156002
 20
1.8324306091
 30
0.0
 10
3.6306364131
 20
1.8426200634
 30
0.0
 10
3.6152662812
 20
1.8527402987
 30
0.0
 10
3.6077822072
 20
1.858174675
 30
0.0
  0
SPLINE
  5
3DC
100
AcDbEntity
  8
0
100
AcDbSpline
 62
7
  6
CONTINUOUS
 70
0
 71
3
 72
19
 73
15
 74
0
 42
0.0000001
 43
0.0000001
 44
0.0000000001
 40
0.0
 40
0.0
 40
0.0
 40
0.0
 40
0.1274708333
 40
0.253131025
 40
0.3153285933
 40
0.3771359092
 40
0.4386479601
 40
0.5000000001
 40
0.5613520401
 40
0.622864091
 40
0.6846714068
 40
0.746868975
 40
0.8725291667
 40
1.0
 40
1.0
 40
1.0
 40
1.0
 10
3.8082259338
 20
2.0312612455
 30
0.0
 10
3.8007418598
 20
2.0366956219
 30
0.0
 10
3.7853717278
 20
2.0468158571
 30
0.0
 10
3.7647925407
 20
2.0570053114
 30
0.0
 10
3.7476955536
 20
2.0630533839
 30
0.0
 10
3.7346382045
 20
2.0664039582
 30
0.0
 10
3.7213762487
 20
2.0684679545
 30
0.0
 10
3.7080040705
 20
2.0691655736
 30
0.0
 10
3.6946318922
 20
2.0684679545
 30
0.0
 10
3.6813699364
 20
2.0664039582
 30
0.0
 10
3.6683125874
 20
2.0630533839
 30
0.0
 10
3.6512156002
 20
2.0570053114
 30
0.0
 10
3.6306364131
 20
2.0468158571
 30
0.0
 10
3.6152662812
 20
2.0366956219
 30
0.0
 10
3.6077822072
 20
2.0312612455
 30
0.0
  0
SPLINE
  5
3DD
100
AcDbEntity
  8
0
100
AcDbSpline
 62
7
  6
CONTINUOUS
 70
0
 71
3
 72
11
 73
7
 74
0
 42
0.0000001
 43
0.0000001
 44
0.0000000001
 40
0.0
 40
0.0
 40
0.0
 40
0.0
 40
0.2026019751
 40
0.4358986348
 40
0.701458517
 40
1.0
 40
1.0
 40
1.0
 40
1.0
 10
6.637914232
 20
1.2311219876
 30
0.0
 10
6.6371215278
 20
1.2315895142
 30
0.0
 10
6.6353349897
 20
1.2324590211
 30
0.0
 10
6.6323290944
 20
1.233528576
 30
0.0
 10
6.6288226459
 20
1.2344504093
 30
0.0
 10
6.6263049887
 20
1.2349360713
 30
0.0
 10
6.6249673763
 20
1.23515925
 30
0.0
  0
SPLINE
  5
3DE
100
AcDbEntity
  8
0
100
AcDbSpline
 62
7
  6
CONTINUOUS
 70
0
 71
3
 72
11
 73
7
 74
0
 42
0.0000001
 43
0.0000001
 44
0.0000000001
 40
0.0
 40
0.0
 40
0.0
 40
0.0
 40
0.2106105334
 40
0.4480125914
 40
0.7114827177
 40
1.0
 40
1.0
 40
1.0
 40
1.0
 10
6.6249673763
 20
1.23515925
 30
0.0
 10
6.6229917531
 20
1.23548888
 30
0.0
 10
6.6187627993
 20
1.236034173
 30
0.0
 10
6.6120130273
 20
1.2365378859
 30
0.0
 10
6.6045075601
 20
1.23677282
 30
0.0
 10
6.5992570766
 20
1.2367498506
 30
0.0
 10
6.596513727
 20
1.2366981416
 30
0.0
  0
SPLINE
  5
3DF
100
AcDbEntity
  8
0
100
AcDbSpline
 62
7
  6
CONTINUOUS
 70
0
 71
3
 72
19
 73
15
 74
0
 42
0.0000001
 43
0.0000001
 44
0.0000000001
 40
0.0
 40
0.0
 40
0.0
 40
0.0
 40
0.1274708333
 40
0.253131025
 40
0.3153285933
 40
0.3771359092
 40
0.4386479601
 40
0.5000000001
 40
0.5613520401
 40
0.622864091
 40
0.6846714068
 40
0.746868975
 40
0.8725291667
 40
1.0
 40
1.0
 40
1.0
 40
1.0
 10
4.1052259338
 20
1.858174675
 30
0.0
 10
4.0977418598
 20
1.8527402987
 30
0.0
 10
4.0823717278
 20
1.8426200634
 30
0.0
 10
4.0617925407
 20
1.8324306091
 30
0.0
 10
4.0446955536
 20
1.8263825366
 30
0.0
 10
4.0316382045
 20
1.8230319624
 30
0.0
 10
4.0183762487
 20
1.820967966
 30
0.0
 10
4.0050040705
 20
1.8202703469
 30
0.0
 10
3.9916318922
 20
1.820967966
 30
0.0
 10
3.9783699364
 20
1.8230319624
 30
0.0
 10
3.9653125874
 20
1.8263825366
 30
0.0
 10
3.9482156002
 20
1.8324306091
 30
0.0
 10
3.9276364131
 20
1.8426200634
 30
0.0
 10
3.9122662812
 20
1.8527402987
 30
0.0
 10
3.9047822072
 20
1.858174675
 30
0.0
  0
SPLINE
  5
3E0
100
AcDbEntity
  8
0
100
AcDbSpline
 62
7
  6
CONTINUOUS
 70
0
 71
3
 72
19
 73
15
 74
0
 42
0.0000001
 43
0.0000001
 44
0.0000000001
 40
0.0
 40
0.0
 40
0.0
 40
0.0
 40
0.1274708333
 40
0.253131025
 40
0.3153285933
 40
0.3771359092
 40
0.4386479601
 40
0.5000000001
 40
0.5613520401
 40
0.622864091
 40
0.6846714068
 40
0.746868975
 40
0.8725291667
 40
1.0
 40
1.0
 40
1.0
 40
1.0
 10
4.1052259338
 20
2.0312612455
 30
0.0
 10
4.0977418598
 20
2.0366956219
 30
0.0
 10
4.0823717278
 20
2.0468158571
 30
0.0
 10
4.0617925407
 20
2.0570053114
 30
0.0
 10
4.0446955536
 20
2.0630533839
 30
0.0
 10
4.0316382045
 20
2.0664039582
 30
0.0
 10
4.0183762487
 20
2.0684679545
 30
0.0
 10
4.0050040705
 20
2.0691655736
 30
0.0
 10
3.9916318922
 20
2.0684679545
 30
0.0
 10
3.9783699364
 20
2.0664039582
 30
0.0
 10
3.9653125874
 20
2.0630533839
 30
0.0
 10
3.9482156002
 20
2.0570053114
 30
0.0
 10
3.9276364131
 20
2.0468158571
 30
0.0
 10
3.9122662812
 20
2.0366956219
 30
0.0
 10
3.9047822072
 20
2.0312612455
 30
0.0
  0
SPLINE
  5
3E1
100
AcDbEntity
  8
0
100
AcDbSpline
 62
7
  6
CONTINUOUS
 70
0
 71
3
 72
30
 73
26
 74
0
 42
0.0000001
 43
0.0000001
 44
0.0000000001
 40
0.0
 40
0.0
 40
0.0
 40
0.0
 40
0.0021862465
 40
0.0034625853
 40
0.003880415
 40
0.0042978947
 40
0.005480788
 40
0.0073869825
 40
0.0099704965
 40
0.0131849098
 40
0.0169836853
 40
0.0213202448
 40
0.0261479944
 40
0.0314203357
 40
0.0431624154
 40
0.0567086067
 40
0.0909547175
 40
0.1376570868
 40
0.1988907167
 40
0.272701609
 40
0.3564552333
 40
0.4478861639
 40
0.6450297129
 40
0.8372454778
 40
1.0
 40
1.0
 40
1.0
 40
1.0
 10
3.0249173959
 20
2.9749425645
 30
0.0
 10
3.0249434284
 20
2.9749418705
 30
0.0
 10
3.024989502
 20
2.9749397115
 30
0.0
 10
3.0250239001
 20
2.974939629
 30
0.0
 10
3.0250634717
 20
2.9749343753
 30
0.0
 10
3.0250256677
 20
2.9749287219
 30
0.0
 10
3.0249942272
 20
2.9749277252
 30
0.0
 10
3.0249211603
 20
2.9749230546
 30
0.0
 10
3.0248318471
 20
2.9749194761
 30
0.0
 10
3.0247167415
 20
2.9749147986
 30
0.0
 10
3.0245819438
 20
2.9749098647
 30
0.0
 10
3.0244275314
 20
2.9749043275
 30
0.0
 10
3.0242557063
 20
2.9748982477
 30
0.0
 10
3.0239956831
 20
2.9748889886
 30
0.0
 10
3.0236319129
 20
2.9748755042
 30
0.0
 10
3.0229232376
 20
2.974849428
 30
0.0
 10
3.0217982317
 20
2.974813046
 30
0.0
 10
3.0201050634
 20
2.974772958
 30
0.0
 10
3.0179404447
 20
2.9747373521
 30
0.0
 10
3.0153344135
 20
2.9747039664
 30
0.0
 10
3.0123686302
 20
2.9746730566
 30
0.0
 10
3.0079337354
 20
2.9746372693
 30
0.0
 10
3.0022067189
 20
2.9746196748
 30
0.0
 10
2.9956301448
 20
2.9746402742
 30
0.0
 10
2.9914019907
 20
2.9746759207
 30
0.0
 10
2.9894634612
 20
2.9746993963
 30
0.0
  0
LINE
  5
3E2
100
AcDbEntity
  8
0
100
AcDbLine
 62
7
  6
CONTINUOUS
 10
2.9894634612
 20
2.9746993963
 11
2.9822638033
 21
2.9748970934
  0
SPLINE
  5
3E3
100
AcDbEntity
  8
0
100
AcDbSpline
 62
7
  6
CONTINUOUS
 70
0
 71
3
 72
33
 73
29
 74
0
 42
0.0000001
 43
0.0000001
 44
0.0000000001
 40
0.0
 40
0.0
 40
0.0
 40
0.0
 40
0.0174722067
 40
0.0347691971
 40
0.0684240515
 40
0.101031047
 40
0.1328831172
 40
0.1642376989
 40
0.1952651816
 40
0.2260738337
 40
0.2567334708
 40
0.3177599661
 40
0.3785847328
 40
0.4393122554
 40
0.5000000062
 40
0.5606877551
 40
0.6214152821
 40
0.6822400602
 40
0.743266522
 40
0.77392615
 40
0.8047347913
 40
0.835762262
 40
0.867116831
 40
0.8989689172
 40
0.9315759239
 40
0.9652307851
 40
0.9825277758
 40
1.0
 40
1.0
 40
1.0
 40
1.0
 10
5.0544698446
 20
4.0667179603
 30
0.0
 10
5.0544698446
 20
4.0679594094
 30
0.0
 10
5.0547017856
 20
4.07043593
 30
0.0
 10
5.0560171745
 20
4.0751384545
 30
0.0
 10
5.0589756983
 20
4.0803876304
 30
0.0
 10
5.0637600238
 20
4.0855150873
 30
0.0
 10
5.06919356
 20
4.0896563965
 30
0.0
 10
5.0749973233
 20
4.0930212323
 30
0.0
 10
5.0810268139
 20
4.0957772002
 30
0.0
 10
5.0872011167
 20
4.0980441692
 30
0.0
 10
5.0955475814
 20
4.1005271657
 30
0.0
 10
5.1061585494
 20
4.1028045069
 30
0.0
 10
5.1190206054
 20
4.1045597952
 30
0.0
 10
5.1319388272
 20
4.1055393942
 30
0.0
 10
5.1448790718
 20
4.1058543027
 30
0.0
 10
5.1578193168
 20
4.1055393936
 30
0.0
 10
5.1707375396
 20
4.1045597961
 30
0.0
 10
5.1835995945
 20
4.1028045085
 30
0.0
 10
5.1942105597
 20
4.1005271649
 30
0.0
 10
5.202557021
 20
4.0980441703
 30
0.0
 10
5.2087313219
 20
4.0957772028
 30
0.0
 10
5.2147608107
 20
4.0930212368
 30
0.0
 10
5.2205645729
 20
4.0896564005
 30
0.0
 10
5.225998112
 20
4.0855150935
 30
0.0
 10
5.2307824392
 20
4.0803876348
 30
0.0
 10
5.233740965
 20
4.0751384585
 30
0.0
 10
5.2350563549
 20
4.0704359325
 30
0.0
 10
5.2352882964
 20
4.0679594106
 30
0.0
 10
5.2352882964
 20
4.0667179603
 30
0.0
  0
SPLINE
  5
3E4
100
AcDbEntity
  8
0
100
AcDbSpline
 62
7
  6
CONTINUOUS
 70
0
 71
3
 72
33
 73
29
 74
0
 42
0.0000001
 43
0.0000001
 44
0.0000000001
 40
0.0
 40
0.0
 40
0.0
 40
0.0
 40
0.0174722072
 40
0.0347691975
 40
0.068424052
 40
0.1010310477
 40
0.1328831182
 40
0.1642376996
 40
0.1952651819
 40
0.2260738337
 40
0.2567334704
 40
0.3177599648
 40
0.3785847314
 40
0.4393122537
 40
0.5000000042
 40
0.5606877532
 40
0.6214152805
 40
0.6822400588
 40
0.7432665209
 40
0.7739261489
 40
0.8047347901
 40
0.8357622608
 40
0.8671168296
 40
0.8989689165
 40
0.9315759236
 40
0.9652307847
 40
0.9825277755
 40
1.0
 40
1.0
 40
1.0
 40
1.0
 10
4.7732198446
 20
4.0667179603
 30
0.0
 10
4.7732198446
 20
4.0679594094
 30
0.0
 10
4.7734517856
 20
4.0704359301
 30
0.0
 10
4.7747671746
 20
4.0751384546
 30
0.0
 10
4.7777256984
 20
4.0803876305
 30
0.0
 10
4.7825100239
 20
4.0855150874
 30
0.0
 10
4.7879435601
 20
4.0896563966
 30
0.0
 10
4.7937473234
 20
4.0930212324
 30
0.0
 10
4.799776814
 20
4.0957772002
 30
0.0
 10
4.8059511167
 20
4.0980441692
 30
0.0
 10
4.8142975813
 20
4.1005271656
 30
0.0
 10
4.8249085492
 20
4.1028045069
 30
0.0
 10
4.837770605
 20
4.1045597952
 30
0.0
 10
4.8506888268
 20
4.1055393941
 30
0.0
 10
4.8636290714
 20
4.1058543028
 30
0.0
 10
4.8765693164
 20
4.1055393935
 30
0.0
 10
4.8894875393
 20
4.1045597962
 30
0.0
 10
4.9023495942
 20
4.1028045085
 30
0.0
 10
4.9129605595
 20
4.100527165
 30
0.0
 10
4.9213070208
 20
4.0980441704
 30
0.0
 10
4.9274813216
 20
4.0957772029
 30
0.0
 10
4.9335108105
 20
4.0930212369
 30
0.0
 10
4.9393145727
 20
4.0896564006
 30
0.0
 10
4.9447481119
 20
4.0855150936
 30
0.0
 10
4.9495324392
 20
4.0803876349
 30
0.0
 10
4.952490965
 20
4.0751384586
 30
0.0
 10
4.9538063549
 20
4.0704359326
 30
0.0
 10
4.9540382964
 20
4.0679594107
 30
0.0
 10
4.9540382964
 20
4.0667179603
 30
0.0
  0
SPLINE
  5
3E5
100
AcDbEntity
  8
0
100
AcDbSpline
 62
7
  6
CONTINUOUS
 70
0
 71
3
 72
21
 73
17
 74
0
 42
0.0000001
 43
0.0000001
 44
0.0000000001
 40
0.0
 40
0.0
 40
0.0
 40
0.0
 40
0.0060570624
 40
0.0115003423
 40
0.0188197932
 40
0.0280784863
 40
0.0393049241
 40
0.0525113064
 40
0.067702336
 40
0.10403589
 40
0.1482752442
 40
0.2601930011
 40
0.4026809187
 40
0.5745973306
 40
0.7743809225
 40
1.0
 40
1.0
 40
1.0
 40
1.0
 10
3.6542286493
 20
1.6965775463
 30
0.0
 10
3.6542155065
 20
1.6964470416
 30
0.0
 10
3.6544561598
 20
1.6962416724
 30
0.0
 10
3.6548064567
 20
1.6960809424
 30
0.0
 10
3.6552637246
 20
1.6959174098
 30
0.0
 10
3.6558419946
 20
1.6957597552
 30
0.0
 10
3.656554593
 20
1.6955976107
 30
0.0
 10
3.6573969693
 20
1.6954356207
 30
0.0
 10
3.6587798158
 20
1.695204707
 30
0.0
 10
3.6608349024
 20
1.6949246676
 30
0.0
 10
3.6649784424
 20
1.6944676648
 30
0.0
 10
3.6714260569
 20
1.6939503531
 30
0.0
 10
3.6806440424
 20
1.6934334712
 30
0.0
 10
3.6917719898
 20
1.6930280673
 30
0.0
 10
3.7047047591
 20
1.6927710815
 30
0.0
 10
3.713916953
 20
1.6927184929
 30
0.0
 10
3.7188027008
 20
1.6927184579
 30
0.0
  0
SPLINE
  5
3E6
100
AcDbEntity
  8
0
100
AcDbSpline
 62
7
  6
CONTINUOUS
 70
0
 71
3
 72
29
 73
25
 74
0
 42
0.0000001
 43
0.0000001
 44
0.0000000001
 40
0.0
 40
0.0
 40
0.0
 40
0.0
 40
0.0006535643
 40
0.0013880831
 40
0.0024857491
 40
0.0040423233
 40
0.0060901016
 40
0.008642749
 40
0.0117070531
 40
0.0152865008
 40
0.0239973032
 40
0.0347828574
 40
0.0476435333
 40
0.0625740023
 40
0.0795670239
 40
0.0986139899
 40
0.1428267807
 40
0.1951128167
 40
0.2553379649
 40
0.3233501117
 40
0.3989784351
 40
0.5722677275
 40
0.7733461671
 40
1.0
 40
1.0
 40
1.0
 40
1.0
 10
3.644106812
 20
1.7374319858
 30
0.0
 10
3.6440984738
 20
1.7374445216
 30
0.0
 10
3.6440885551
 20
1.7374793834
 30
0.0
 10
3.6441253086
 20
1.7375293742
 30
0.0
 10
3.6441911687
 20
1.7375707581
 30
0.0
 10
3.6442911881
 20
1.7376138518
 30
0.0
 10
3.6444263985
 20
1.7376567048
 30
0.0
 10
3.6445976398
 20
1.737700182
 30
0.0
 10
3.644804983
 20
1.7377437844
 30
0.0
 10
3.6451531709
 20
1.7378062887
 30
0.0
 10
3.6456794635
 20
1.737881981
 30
0.0
 10
3.6464198719
 20
1.7379683305
 30
0.0
 10
3.6473043933
 20
1.7380544501
 30
0.0
 10
3.6483325032
 20
1.7381401898
 30
0.0
 10
3.6495035974
 20
1.7382253048
 30
0.0
 10
3.6513485418
 20
1.7383436359
 30
0.0
 10
3.6540065995
 20
1.7384849242
 30
0.0
 10
3.657613623
 20
1.7386401423
 30
0.0
 10
3.6617696253
 20
1.7387872016
 30
0.0
 10
3.6664639521
 20
1.738923778
 30
0.0
 10
3.673762802
 20
1.7390960761
 30
0.0
 10
3.6841277645
 20
1.7392648385
 30
0.0
 10
3.6979725737
 20
1.7393860932
 30
0.0
 10
3.7078259271
 20
1.7394112019
 30
0.0
 10
3.7130471673
 20
1.739411486
 30
0.0
  0
LINE
  5
3E7
100
AcDbEntity
  8
0
100
AcDbLine
 62
7
  6
CONTINUOUS
 10
7.1504112899
 20
2.9596662953
 11
7.1414586624
 21
2.9612800084
  0
SPLINE
  5
3E8
100
AcDbEntity
  8
0
100
AcDbSpline
 62
7
  6
CONTINUOUS
 70
0
 71
3
 72
28
 73
24
 74
0
 42
0.0000001
 43
0.0000001
 44
0.0000000001
 40
0.0
 40
0.0
 40
0.0
 40
0.0
 40
0.0314188468
 40
0.0654528742
 40
0.1034064066
 40
0.146966062
 40
0.1967188068
 40
0.2481870232
 40
0.2947267421
 40
0.3350438356
 40
0.3706853898
 40
0.4031740455
 40
0.4624560051
 40
0.517817784
 40
0.5713643007
 40
0.624071616
 40
0.676412691
 40
0.7286413568
 40
0.7809437429
 40
0.8335504379
 40
0.8868743303
 40
0.9417573422
 40
1.0
 40
1.0
 40
1.0
 40
1.0
 10
6.702409797
 20
1.7982282696
 30
0.0
 10
6.7010519769
 20
1.7972272104
 30
0.0
 10
6.6983456405
 20
1.7949684863
 30
0.0
 10
6.6945973038
 20
1.7908461117
 30
0.0
 10
6.6911961938
 20
1.785620181
 30
0.0
 10
6.6885095841
 20
1.7790520875
 30
0.0
 10
6.6871758006
 20
1.771322529
 30
0.0
 10
6.6876872581
 20
1.7633285117
 30
0.0
 10
6.6898403851
 20
1.7561593359
 30
0.0
 10
6.6929766682
 20
1.7503348269
 30
0.0
 10
6.6965953133
 20
1.7457413108
 30
0.0
 10
6.7015866524
 20
1.7410348018
 30
0.0
 10
6.7082884644
 20
1.736723575
 30
0.0
 10
6.7166838814
 20
1.7333068637
 30
0.0
 10
6.7251042279
 20
1.7311319042
 30
0.0
 10
6.733530786
 20
1.7298342709
 30
0.0
 10
6.7419591932
 20
1.7292065832
 30
0.0
 10
6.7503878747
 20
1.7291515757
 30
0.0
 10
6.7588164285
 20
1.7296607081
 30
0.0
 10
6.7672434382
 20
1.7308127213
 30
0.0
 10
6.7756662609
 20
1.7327903821
 30
0.0
 10
6.7840673905
 20
1.7359188361
 30
0.0
 10
6.7893520398
 20
1.739014624
 30
0.0
 10
6.7918556972
 20
1.7408883766
 30
0.0
  0
SPLINE
  5
3E9
100
AcDbEntity
  8
0
100
AcDbSpline
 62
7
  6
CONTINUOUS
 70
0
 71
3
 72
11
 73
7
 74
0
 42
0.0000001
 43
0.0000001
 44
0.0000000001
 40
0.0
 40
0.0
 40
0.0
 40
0.0
 40
0.2028066483
 40
0.4362468218
 40
0.7017638717
 40
1.0
 40
1.0
 40
1.0
 40
1.0
 10
3.3705332489
 20
1.2309471019
 30
0.0
 10
3.3713131241
 20
1.2314003039
 30
0.0
 10
3.3730665258
 20
1.2322455749
 30
0.0
 10
3.3760106391
 20
1.2332932682
 30
0.0
 10
3.3794402736
 20
1.234205038
 30
0.0
 10
3.3819014212
 20
1.2346921012
 30
0.0
 10
3.3832085337
 20
1.234917626
 30
0.0
  0
SPLINE
  5
3EA
100
AcDbEntity
  8
0
100
AcDbSpline
 62
7
  6
CONTINUOUS
 70
0
 71
3
 72
11
 73
7
 74
0
 42
0.0000001
 43
0.0000001
 44
0.0000000001
 40
0.0
 40
0.0
 40
0.0
 40
0.0
 40
0.2101243429
 40
0.4473867071
 40
0.7110356344
 40
1.0
 40
1.0
 40
1.0
 40
1.0
 10
3.3832085337
 20
1.234917626
 30
0.0
 10
3.3851893383
 20
1.2352593874
 30
0.0
 10
3.3894340109
 20
1.2358312787
 30
0.0
 10
3.3962159244
 20
1.2363796426
 30
0.0
 10
3.4037684135
 20
1.2366667647
 30
0.0
 10
3.4090557863
 20
1.2366817434
 30
0.0
 10
3.4118198699
 20
1.2366501959
 30
0.0
  0
SPLINE
  5
3EB
100
AcDbEntity
  8
0
100
AcDbSpline
 62
7
  6
CONTINUOUS
 70
0
 71
3
 72
30
 73
26
 74
0
 42
0.0000001
 43
0.0000001
 44
0.0000000001
 40
0.0
 40
0.0
 40
0.0
 40
0.0
 40
0.0624921981
 40
0.0937512549
 40
0.1250060079
 40
0.1562508479
 40
0.1874748282
 40
0.218662614
 40
0.2342873414
 40
0.2499109453
 40
0.2655348896
 40
0.2811604565
 40
0.3123571111
 40
0.3435865904
 40
0.3748340442
 40
0.4060897657
 40
0.4373495616
 40
0.4998446335
 40
0.5623560335
 40
0.6248740599
 40
0.6873947585
 40
0.7499167383
 40
0.8124392916
 40
0.8749619216
 40
1.0
 40
1.0
 40
1.0
 40
1.0
 10
6.9150180871
 20
1.7982282696
 30
0.0
 10
6.9115336143
 20
1.7969437977
 30
0.0
 10
6.9063926678
 20
1.7947440242
 30
0.0
 10
6.8999379033
 20
1.791050672
 30
0.0
 10
6.8953861673
 20
1.7878175699
 30
0.0
 10
6.8912764063
 20
1.7840292216
 30
0.0
 10
6.8878573075
 20
1.7795949628
 30
0.0
 10
6.8859158645
 20
1.7753166195
 30
0.0
 10
6.8851600417
 20
1.7716701851
 30
0.0
 10
6.8850297176
 20
1.7688755777
 30
0.0
 10
6.8853489194
 20
1.7660964742
 30
0.0
 10
6.8863367334
 20
1.7625061925
 30
0.0
 10
6.8885059571
 20
1.7583446399
 30
0.0
 10
6.892098519
 20
1.7540541603
 30
0.0
 10
6.8963184975
 20
1.7503914387
 30
0.0
 10
6.9009417192
 20
1.7472632891
 30
0.0
 10
6.9074616689
 20
1.7436859217
 30
0.0
 10
6.9160688741
 20
1.74013045
 30
0.0
 10
6.9267501031
 20
1.7369141279
 30
0.0
 10
6.9376341408
 20
1.7344794078
 30
0.0
 10
6.9486325385
 20
1.7326458101
 30
0.0
 10
6.9596984384
 20
1.7312868876
 30
0.0
 10
6.9708040527
 20
1.7303120557
 30
0.0
 10
6.9856413306
 20
1.7294403824
 30
0.0
 10
6.9967900467
 20
1.7292001071
 30
0.0
 10
7.0042205968
 20
1.7292001071
 30
0.0
  0
SPLINE
  5
3EC
100
AcDbEntity
  8
0
100
AcDbSpline
 62
7
  6
CONTINUOUS
 70
0
 71
3
 72
11
 73
7
 74
0
 42
0.0000001
 43
0.0000001
 44
0.0000000001
 40
0.0
 40
0.0
 40
0.0
 40
0.0
 40
0.2500463416
 40
0.5000661606
 40
0.7500491604
 40
1.0
 40
1.0
 40
1.0
 40
1.0
 10
6.9150180871
 20
1.7982282696
 30
0.0
 10
6.9221802473
 20
1.8008684375
 30
0.0
 10
6.9366205568
 20
1.8058444694
 30
0.0
 10
6.9587325566
 20
1.811877619
 30
0.0
 10
6.9813138753
 20
1.8158764126
 30
0.0
 10
6.9965902282
 20
1.8168175062
 30
0.0
 10
7.0042205968
 20
1.8168175062
 30
0.0
  0
SPLINE
  5
3ED
100
AcDbEntity
  8
0
100
AcDbSpline
 62
7
  6
CONTINUOUS
 70
0
 71
3
 72
17
 73
13
 74
0
 42
0.0000001
 43
0.0000001
 44
0.0000000001
 40
0.0
 40
0.0
 40
0.0
 40
0.0
 40
0.1334584552
 40
0.2611825344
 40
0.3826753833
 40
0.4416462653
 40
0.4999999898
 40
0.5583537058
 40
0.6173245787
 40
0.7388174699
 40
0.8665415618
 40
1.0
 40
1.0
 40
1.0
 40
1.0
 10
6.702409797
 20
1.7982282696
 30
0.0
 10
6.7059277585
 20
1.800821903
 30
0.0
 10
6.7129724169
 20
1.8056918922
 30
0.0
 10
6.723979021
 20
1.8117468406
 30
0.0
 10
6.7335431218
 20
1.8151799957
 30
0.0
 10
6.7412541989
 20
1.8165816441
 30
0.0
 10
6.7470110506
 20
1.8169348168
 30
0.0
 10
6.752767902
 20
1.8165816444
 30
0.0
 10
6.76047898
 20
1.8151799965
 30
0.0
 10
6.7700430821
 20
1.8117468406
 30
0.0
 10
6.7810496877
 20
1.8056918922
 30
0.0
 10
6.7880943457
 20
1.8008219027
 30
0.0
 10
6.7916123067
 20
1.7982282696
 30
0.0
  0
LINE
  5
3EE
100
AcDbEntity
  8
0
100
AcDbLine
 62
7
  6
CONTINUOUS
 10
7.1621505193
 20
2.9588295302
 11
7.1571796543
 21
2.9596414006
  0
LINE
  5
3EF
100
AcDbEntity
  8
0
100
AcDbLine
 62
7
  6
CONTINUOUS
 10
7.1254277747
 20
2.9650749873
 11
7.1224258388
 21
2.9656582767
  0
LINE
  5
3F0
100
AcDbEntity
  8
0
100
AcDbLine
 62
7
  6
CONTINUOUS
 10
7.1620486654
 20
2.9583400989
 11
7.164523511
 21
2.9579518551
  0
SPLINE
  5
3F1
100
AcDbEntity
  8
0
100
AcDbSpline
 62
7
  6
CONTINUOUS
 70
0
 71
3
 72
30
 73
26
 74
0
 42
0.0000001
 43
0.0000001
 44
0.0000000001
 40
0.0
 40
0.0
 40
0.0
 40
0.0
 40
0.1250381127
 40
0.1875607437
 40
0.2500832961
 40
0.3126052721
 40
0.3751259664
 40
0.4376439876
 40
0.5001553879
 40
0.5626504566
 40
0.5939102517
 40
0.6251659726
 40
0.6564134218
 40
0.6876429007
 40
0.7188395538
 40
0.7344651214
 40
0.7500890673
 40
0.7657126736
 40
0.7813374029
 40
0.8125251886
 40
0.8437491664
 40
0.8749939983
 40
0.9062487477
 40
0.9375078024
 40
1.0
 40
1.0
 40
1.0
 40
1.0
 10
7.0042205968
 20
1.7292001071
 30
0.0
 10
7.0116511489
 20
1.7292001071
 30
0.0
 10
7.0227998672
 20
1.7294403818
 30
0.0
 10
7.0376371469
 20
1.7303120589
 30
0.0
 10
7.0487427613
 20
1.7312868873
 30
0.0
 10
7.0598086606
 20
1.7326458104
 30
0.0
 10
7.0708070574
 20
1.7344794086
 30
0.0
 10
7.0816910942
 20
1.7369141301
 30
0.0
 10
7.0923723233
 20
1.7401304503
 30
0.0
 10
7.1009795277
 20
1.7436859234
 30
0.0
 10
7.107499477
 20
1.7472632908
 30
0.0
 10
7.1121226985
 20
1.7503914401
 30
0.0
 10
7.1163426761
 20
1.7540541622
 30
0.0
 10
7.1199352377
 20
1.7583446416
 30
0.0
 10
7.122104461
 20
1.7625061943
 30
0.0
 10
7.1230922747
 20
1.7660964762
 30
0.0
 10
7.1234114759
 20
1.7688755801
 30
0.0
 10
7.1232811515
 20
1.7716701877
 30
0.0
 10
7.1225253283
 20
1.7753166224
 30
0.0
 10
7.1205838846
 20
1.7795949652
 30
0.0
 10
7.1171647856
 20
1.7840292231
 30
0.0
 10
7.1130550253
 20
1.7878175709
 30
0.0
 10
7.1085032898
 20
1.7910506722
 30
0.0
 10
7.1020485256
 20
1.7947440243
 30
0.0
 10
7.0969075793
 20
1.7969437978
 30
0.0
 10
7.0934231065
 20
1.7982282696
 30
0.0
  0
SPLINE
  5
3F2
100
AcDbEntity
  8
0
100
AcDbSpline
 62
7
  6
CONTINUOUS
 70
0
 71
3
 72
28
 73
24
 74
0
 42
0.0000001
 43
0.0000001
 44
0.0000000001
 40
0.0
 40
0.0
 40
0.0
 40
0.0
 40
0.031418847
 40
0.065452875
 40
0.1034064087
 40
0.1469660665
 40
0.1967188138
 40
0.248187029
 40
0.2947267437
 40
0.3350438329
 40
0.3706853839
 40
0.4031740372
 40
0.4624559937
 40
0.5178177711
 40
0.571364287
 40
0.624071602
 40
0.6764126769
 40
0.7286413428
 40
0.7809437293
 40
0.833550425
 40
0.8868743189
 40
0.9417573343
 40
1.0
 40
1.0
 40
1.0
 40
1.0
 10
7.2168288869
 20
1.7982282696
 30
0.0
 10
7.2154710666
 20
1.7972272103
 30
0.0
 10
7.2127647299
 20
1.794968486
 30
0.0
 10
7.2090163929
 20
1.7908461107
 30
0.0
 10
7.2056152826
 20
1.7856201792
 30
0.0
 10
7.202928673
 20
1.7790520845
 30
0.0
 10
7.2015948901
 20
1.7713225248
 30
0.0
 10
7.2021063488
 20
1.763328507
 30
0.0
 10
7.2042594769
 20
1.7561593313
 30
0.0
 10
7.2073957608
 20
1.7503348226
 30
0.0
 10
7.2110144066
 20
1.7457413071
 30
0.0
 10
7.2160057465
 20
1.7410347985
 30
0.0
 10
7.2227075593
 20
1.7367235723
 30
0.0
 10
7.2311029773
 20
1.7333068617
 30
0.0
 10
7.2395233246
 20
1.7311319028
 30
0.0
 10
7.2479498837
 20
1.72983427
 30
0.0
 10
7.2563782917
 20
1.7292065828
 30
0.0
 10
7.2648069741
 20
1.7291515759
 30
0.0
 10
7.2732355288
 20
1.7296607091
 30
0.0
 10
7.2816625394
 20
1.7308127233
 30
0.0
 10
7.2900853629
 20
1.7327903856
 30
0.0
 10
7.2984864933
 20
1.735918842
 30
0.0
 10
7.3037711428
 20
1.7390146324
 30
0.0
 10
7.3062748001
 20
1.7408883863
 30
0.0
  0
SPLINE
  5
3F3
100
AcDbEntity
  8
0
100
AcDbSpline
 62
7
  6
CONTINUOUS
 70
0
 71
3
 72
11
 73
7
 74
0
 42
0.0000001
 43
0.0000001
 44
0.0000000001
 40
0.0
 40
0.0
 40
0.0
 40
0.0
 40
0.2499508394
 40
0.4999338393
 40
0.7499536583
 40
1.0
 40
1.0
 40
1.0
 40
1.0
 10
7.0042205968
 20
1.8168175062
 30
0.0
 10
7.0118509654
 20
1.8168175062
 30
0.0
 10
7.0271273183
 20
1.8158764126
 30
0.0
 10
7.049708637
 20
1.811877619
 30
0.0
 10
7.0718206368
 20
1.8058444694
 30
0.0
 10
7.0862609463
 20
1.8008684375
 30
0.0
 10
7.0934231065
 20
1.7982282696
 30
0.0
  0
LINE
  5
3F4
100
AcDbEntity
  8
0
100
AcDbLine
 62
7
  6
CONTINUOUS
 10
3.082554565
 20
2.9711124841
 11
3.073298596
 21
2.9715342917
  0
LINE
  5
3F5
100
AcDbEntity
  8
0
100
AcDbLine
 62
7
  6
CONTINUOUS
 10
3.1098221494
 20
2.9673908225
 11
3.1005661804
 21
2.9690707984
  0
LINE
  5
3F6
100
AcDbEntity
  8
0
100
AcDbLine
 62
7
  6
CONTINUOUS
 10
2.8799238923
 20
2.9649457584
 11
2.8716685686
 21
2.9631876417
  0
LINE
  5
3F7
100
AcDbEntity
  8
0
100
AcDbLine
 62
7
  6
CONTINUOUS
 10
2.908192122
 20
2.9686384712
 11
2.8999367983
 21
2.9679304685
  0
LINE
  5
3F8
100
AcDbEntity
  8
0
100
AcDbLine
 62
7
  6
CONTINUOUS
 10
2.8999367983
 20
2.968151963
 11
2.9029387342
 21
2.9685672792
  0
LINE
  5
3F9
100
AcDbEntity
  8
0
100
AcDbLine
 62
7
  6
CONTINUOUS
 10
2.9219509948
 20
2.9708346939
 11
2.9249529307
 21
2.9711356251
  0
LINE
  5
3FA
100
AcDbEntity
  8
0
100
AcDbLine
 62
7
  6
CONTINUOUS
 10
2.9249529307
 20
2.9709149877
 11
2.916697607
 21
2.9696535727
  0
LINE
  5
3FB
100
AcDbEntity
  8
0
100
AcDbLine
 62
7
  6
CONTINUOUS
 10
2.9532211603
 20
2.9729344211
 11
2.9449658366
 21
2.9727115036
  0
LINE
  5
3FC
100
AcDbEntity
  8
0
100
AcDbLine
 62
7
  6
CONTINUOUS
 10
2.9642282525
 20
2.9741841288
 11
2.9911279233
 21
2.9740526003
  0
LINE
  5
3FD
100
AcDbEntity
  8
0
100
AcDbLine
 62
7
  6
CONTINUOUS
 10
3.0104121683
 20
2.9740731563
 11
3.015201803
 21
2.9740793382
  0
LINE
  5
3FE
100
AcDbEntity
  8
0
100
AcDbLine
 62
7
  6
CONTINUOUS
 10
3.015201803
 20
2.9740793382
 11
3.0427789144
 21
2.9742602597
  0
SPLINE
  5
3FF
100
AcDbEntity
  8
0
100
AcDbSpline
 62
7
  6
CONTINUOUS
 70
0
 71
3
 72
17
 73
13
 74
0
 42
0.0000001
 43
0.0000001
 44
0.0000000001
 40
0.0
 40
0.0
 40
0.0
 40
0.0
 40
0.1334584364
 40
0.2611825274
 40
0.3826754191
 40
0.441646293
 40
0.5000000101
 40
0.5583537358
 40
0.6173246187
 40
0.7388174684
 40
0.8665415468
 40
1.0
 40
1.0
 40
1.0
 40
1.0
 10
7.2168288869
 20
1.7982282696
 30
0.0
 10
7.2203468479
 20
1.8008219027
 30
0.0
 10
7.2273915058
 20
1.8056918922
 30
0.0
 10
7.2383981113
 20
1.8117468405
 30
0.0
 10
7.2479622134
 20
1.8151799965
 30
0.0
 10
7.2556732915
 20
1.8165816444
 30
0.0
 10
7.261430143
 20
1.8169348168
 30
0.0
 10
7.2671869948
 20
1.8165816441
 30
0.0
 10
7.274898072
 20
1.8151799956
 30
0.0
 10
7.2844621727
 20
1.8117468405
 30
0.0
 10
7.2954687768
 20
1.8056918922
 30
0.0
 10
7.3025134351
 20
1.800821903
 30
0.0
 10
7.3060313966
 20
1.7982282696
 30
0.0
  0
SPLINE
  5
400
100
AcDbEntity
  8
0
100
AcDbSpline
 62
7
  6
CONTINUOUS
 70
0
 71
3
 72
15
 73
11
 74
0
 42
0.0000001
 43
0.0000001
 44
0.0000000001
 40
0.0
 40
0.0
 40
0.0
 40
0.0
 40
0.0998906454
 40
0.2121940968
 40
0.3448825046
 40
0.5016037571
 40
0.6574720267
 40
0.7889961735
 40
0.9005511122
 40
1.0
 40
1.0
 40
1.0
 40
1.0
 10
6.7918556972
 20
1.7408883766
 30
0.0
 10
6.7936378204
 20
1.7422221285
 30
0.0
 10
6.7972040867
 20
1.7453664785
 30
0.0
 10
6.8019375736
 20
1.7514899953
 30
0.0
 10
6.8056617815
 20
1.7597386587
 30
0.0
 10
6.807104115
 20
1.7697126392
 30
0.0
 10
6.8055254906
 20
1.7796374885
 30
0.0
 10
6.8017279062
 20
1.7877818295
 30
0.0
 10
6.7969672446
 20
1.7938157718
 30
0.0
 10
6.7933960449
 20
1.7969132003
 30
0.0
 10
6.7916123067
 20
1.7982282696
 30
0.0
  0
SPLINE
  5
401
100
AcDbEntity
  8
0
100
AcDbSpline
 62
7
  6
CONTINUOUS
 70
0
 71
3
 72
15
 73
11
 74
0
 42
0.0000001
 43
0.0000001
 44
0.0000000001
 40
0.0
 40
0.0
 40
0.0
 40
0.0
 40
0.0998906601
 40
0.2121941357
 40
0.3448825765
 40
0.501603843
 40
0.6574720811
 40
0.7889961985
 40
0.9005511213
 40
1.0
 40
1.0
 40
1.0
 40
1.0
 10
7.3062748001
 20
1.7408883863
 30
0.0
 10
7.3080569226
 20
1.7422221388
 30
0.0
 10
7.3116231874
 20
1.7453664901
 30
0.0
 10
7.3163566715
 20
1.7514900087
 30
0.0
 10
7.3200808755
 20
1.7597386733
 30
0.0
 10
7.3215232044
 20
1.7697126523
 30
0.0
 10
7.3199445773
 20
1.7796374975
 30
0.0
 10
7.3161469929
 20
1.7877818341
 30
0.0
 10
7.3113863327
 20
1.7938157735
 30
0.0
 10
7.3078151342
 20
1.7969132008
 30
0.0
 10
7.3060313966
 20
1.7982282696
 30
0.0
  0
SPLINE
  5
402
100
AcDbEntity
  8
0
100
AcDbSpline
 62
6
  6
CONTINUOUS
 70
0
 71
3
 72
11
 73
7
 74
0
 42
0.0000001
 43
0.0000001
 44
0.0000000001
 40
0.0
 40
0.0
 40
0.0
 40
0.0
 40
0.249976112
 40
0.4999720852
 40
0.7499876914
 40
1.0
 40
1.0
 40
1.0
 40
1.0
 10
3.0042540705
 20
1.8168175062
 30
0.0
 10
3.0118852114
 20
1.8168175062
 30
0.0
 10
3.0271627244
 20
1.815876126
 30
0.0
 10
3.0497450617
 20
1.8118771288
 30
0.0
 10
3.0718562489
 20
1.8058438909
 30
0.0
 10
3.086295394
 20
1.8008680785
 30
0.0
 10
3.0934565802
 20
1.7982282696
 30
0.0
  0
SPLINE
  5
403
100
AcDbEntity
  8
0
100
AcDbSpline
 62
6
  6
CONTINUOUS
 70
0
 71
3
 72
20
 73
16
 74
0
 42
0.0000001
 43
0.0000001
 44
0.0000000001
 40
0.0
 40
0.0
 40
0.0
 40
0.0
 40
0.0597377011
 40
0.1271349034
 40
0.2073412914
 40
0.3021627436
 40
0.3945417954
 40
0.4715022448
 40
0.536880341
 40
0.5954476804
 40
0.6500534674
 40
0.7023201772
 40
0.8031436855
 40
0.9018929795
 40
1.0
 40
1.0
 40
1.0
 40
1.0
 10
3.2168623606
 20
1.7982282696
 30
0.0
 10
3.2150172667
 20
1.7968679656
 30
0.0
 10
3.2113192122
 20
1.7936429414
 30
0.0
 10
3.2064193753
 20
1.7872979371
 30
0.0
 10
3.2026283864
 20
1.7786809633
 30
0.0
 10
3.2013546273
 20
1.7683230674
 30
0.0
 10
3.2032835309
 20
1.7582050071
 30
0.0
 10
3.2074180307
 20
1.750093039
 30
0.0
 10
3.2124400921
 20
1.7441719853
 30
0.0
 10
3.2177907919
 20
1.739842145
 30
0.0
 10
3.2232859929
 20
1.7366249396
 30
0.0
 10
3.2306150126
 20
1.7334558552
 30
0.0
 10
3.2399931438
 20
1.7309320412
 30
0.0
 10
3.2513360707
 20
1.7294306535
 30
0.0
 10
3.2588981511
 20
1.7291693091
 30
0.0
 10
3.2626626703
 20
1.7292055295
 30
0.0
  0
SPLINE
  5
404
100
AcDbEntity
  8
0
100
AcDbSpline
 62
6
  6
CONTINUOUS
 70
0
 71
3
 72
12
 73
8
 74
0
 42
0.0000001
 43
0.0000001
 44
0.0000000001
 40
0.0
 40
0.0
 40
0.0
 40
0.0
 40
0.2405363802
 40
0.4834952717
 40
0.7330154911
 40
0.8632231503
 40
1.0
 40
1.0
 40
1.0
 40
1.0
 10
3.2658196531
 20
1.7292757282
 30
0.0
 10
3.2692890943
 20
1.729396607
 30
0.0
 10
3.2762579743
 20
1.729929037
 30
0.0
 10
3.286693439
 20
1.7317819518
 30
0.0
 10
3.2952885074
 20
1.7345671495
 30
0.0
 10
3.3019734973
 20
1.7378951605
 30
0.0
 10
3.3051989095
 20
1.7400292746
 30
0.0
 10
3.3067629605
 20
1.7412336656
 30
0.0
  0
SPLINE
  5
405
100
AcDbEntity
  8
0
100
AcDbSpline
 62
6
  6
CONTINUOUS
 70
0
 71
3
 72
32
 73
28
 74
0
 42
0.0000001
 43
0.0000001
 44
0.0000000001
 40
0.0
 40
0.0
 40
0.0
 40
0.0
 40
0.1249517543
 40
0.1874310758
 40
0.2499109559
 40
0.3123910374
 40
0.3748707487
 40
0.4373495273
 40
0.4998254593
 40
0.5310712011
 40
0.5623207551
 40
0.5935721458
 40
0.624823401
 40
0.65608022
 40
0.6873401675
 40
0.7185867417
 40
0.7342372853
 40
0.7498978023
 40
0.765550673
 40
0.7812093418
 40
0.7968634604
 40
0.8125157178
 40
0.84377028
 40
0.8750291834
 40
0.9062847867
 40
0.9375340639
 40
1.0
 40
1.0
 40
1.0
 40
1.0
 10
3.0042540705
 20
1.7292001071
 30
0.0
 10
3.0116802042
 20
1.7292001071
 30
0.0
 10
3.0228222863
 20
1.7294401139
 30
0.0
 10
3.0376507838
 20
1.7303107543
 30
0.0
 10
3.0487499964
 20
1.7312840701
 30
0.0
 10
3.0598095945
 20
1.732641082
 30
0.0
 10
3.0708025102
 20
1.7344718892
 30
0.0
 10
3.0816801188
 20
1.7369030231
 30
0.0
 10
3.0905829613
 20
1.7395786015
 30
0.0
 10
3.097518909
 20
1.7422448165
 30
0.0
 10
3.1025936102
 20
1.7445546436
 30
0.0
 10
3.1074858604
 20
1.7472344984
 30
0.0
 10
3.1121122133
 20
1.7503583318
 30
0.0
 10
3.1163393934
 20
1.754016555
 30
0.0
 10
3.1199434931
 20
1.7583051957
 30
0.0
 10
3.1221220582
 20
1.7624692661
 30
0.0
 10
3.1231199231
 20
1.76606414
 30
0.0
 10
3.1234424541
 20
1.7688486022
 30
0.0
 10
3.1233180688
 20
1.7716496043
 30
0.0
 10
3.1227492177
 20
1.7743935979
 30
0.0
 10
3.1217874104
 20
1.7770237208
 30
0.0
 10
3.1200524239
 20
1.780322385
 30
0.0
 10
3.1171985776
 20
1.7840319668
 30
0.0
 10
3.1130862937
 20
1.787819749
 30
0.0
 10
3.1085330796
 20
1.7910529277
 30
0.0
 10
3.1020796544
 20
1.7947455467
 30
0.0
 10
3.0969399234
 20
1.7969442141
 30
0.0
 10
3.0934565802
 20
1.7982282696
 30
0.0
  0
SPLINE
  5
406
100
AcDbEntity
  8
0
100
AcDbSpline
 62
6
  6
CONTINUOUS
 70
0
 71
3
 72
18
 73
14
 74
0
 42
0.0000001
 43
0.0000001
 44
0.0000000001
 40
0.0
 40
0.0
 40
0.0
 40
0.0
 40
0.1333736923
 40
0.2610642085
 40
0.3825572137
 40
0.4415317663
 40
0.4999222129
 40
0.5583029729
 40
0.6172703924
 40
0.6773697508
 40
0.7389257941
 40
0.8666150775
 40
1.0
 40
1.0
 40
1.0
 40
1.0
 10
2.7024432707
 20
1.7982282696
 30
0.0
 10
2.70595936
 20
1.8008205228
 30
0.0
 10
2.7129993433
 20
1.8056928519
 30
0.0
 10
2.7240070856
 20
1.8117381234
 30
0.0
 10
2.7335671409
 20
1.8151856039
 30
0.0
 10
2.7412839105
 20
1.8165714986
 30
0.0
 10
2.7470431772
 20
1.81691774
 30
0.0
 10
2.7528030677
 20
1.8165793122
 30
0.0
 10
2.7585350773
 20
1.8155412163
 30
0.0
 10
2.7642145112
 20
1.8138489712
 30
0.0
 10
2.771798921
 20
1.8107944397
 30
0.0
 10
2.7810928386
 20
1.8056937227
 30
0.0
 10
2.7881293951
 20
1.800820741
 30
0.0
 10
2.7916457804
 20
1.7982282696
 30
0.0
  0
SPLINE
  5
407
100
AcDbEntity
  8
0
100
AcDbSpline
 62
6
  6
CONTINUOUS
 70
0
 71
3
 72
11
 73
7
 74
0
 42
0.0000001
 43
0.0000001
 44
0.0000000001
 40
0.0
 40
0.0
 40
0.0
 40
0.0
 40
0.2500122746
 40
0.5000278334
 40
0.750023821
 40
1.0
 40
1.0
 40
1.0
 40
1.0
 10
2.9150515608
 20
1.7982282696
 30
0.0
 10
2.922212746
 20
1.8008680781
 30
0.0
 10
2.9366518891
 20
1.8058438888
 30
0.0
 10
2.9587630739
 20
1.8118771275
 30
0.0
 10
2.981345412
 20
1.8158761267
 30
0.0
 10
2.9966229275
 20
1.8168175062
 30
0.0
 10
3.0042540705
 20
1.8168175062
 30
0.0
  0
SPLINE
  5
408
100
AcDbEntity
  8
0
100
AcDbSpline
 62
6
  6
CONTINUOUS
 70
0
 71
3
 72
20
 73
16
 74
0
 42
0.0000001
 43
0.0000001
 44
0.0000000001
 40
0.0
 40
0.0
 40
0.0
 40
0.0
 40
0.0585714809
 40
0.1238762188
 40
0.2001777268
 40
0.2908113007
 40
0.3851002388
 40
0.4666612446
 40
0.5354390815
 40
0.5961030584
 40
0.6518811226
 40
0.7046910491
 40
0.8054306219
 40
0.9032533723
 40
1.0
 40
1.0
 40
1.0
 40
1.0
 10
2.7024432707
 20
1.7982282696
 30
0.0
 10
2.7007328386
 20
1.7969672456
 30
0.0
 10
2.6973112415
 20
1.7940190885
 30
0.0
 10
2.6927138584
 20
1.7883383178
 30
0.0
 10
2.688926917
 20
1.7807208131
 30
0.0
 10
2.6870376111
 20
1.7713002149
 30
0.0
 10
2.6879412185
 20
1.7615285652
 30
0.0
 10
2.6911796509
 20
1.7531598956
 30
0.0
 10
2.6955641323
 20
1.7468150288
 30
0.0
 10
2.700397938
 20
1.7420987947
 30
0.0
 10
2.7054295636
 20
1.7385427628
 30
0.0
 10
2.7121590217
 20
1.7349876856
 30
0.0
 10
2.7208381512
 20
1.7320177214
 30
0.0
 10
2.7313887508
 20
1.7300338611
 30
0.0
 10
2.7384353721
 20
1.7294475002
 30
0.0
 10
2.7419425006
 20
1.7293039784
 30
0.0
  0
SPLINE
  5
409
100
AcDbEntity
  8
0
100
AcDbSpline
 62
6
  6
CONTINUOUS
 70
0
 71
3
 72
13
 73
9
 74
0
 42
0.0000001
 43
0.0000001
 44
0.0000000001
 40
0.0
 40
0.0
 40
0.0
 40
0.0
 40
0.2413288061
 40
0.4843239773
 40
0.6076333245
 40
0.7333206773
 40
0.8631073818
 40
1.0
 40
1.0
 40
1.0
 40
1.0
 10
2.7450480403
 20
1.729215656
 30
0.0
 10
2.7490418184
 20
1.7291518682
 30
0.0
 10
2.7570669546
 20
1.7293994036
 30
0.0
 10
2.7670610787
 20
1.7307407341
 30
0.0
 10
2.774979652
 20
1.7326730507
 30
0.0
 10
2.7809259147
 20
1.7346918972
 30
0.0
 10
2.786824258
 20
1.7374435639
 30
0.0
 10
2.7905486286
 20
1.7398512527
 30
0.0
 10
2.7923438043
 20
1.7412336146
 30
0.0
  0
SPLINE
  5
40A
100
AcDbEntity
  8
0
100
AcDbSpline
 62
6
  6
CONTINUOUS
 70
0
 71
3
 72
32
 73
28
 74
0
 42
0.0000001
 43
0.0000001
 44
0.0000000001
 40
0.0
 40
0.0
 40
0.0
 40
0.0
 40
0.0624662798
 40
0.093715841
 40
0.1249718037
 40
0.1562309427
 40
0.1874854336
 40
0.2031382915
 40
0.2187915227
 40
0.2344499358
 40
0.2501022501
 40
0.2657623109
 40
0.2814126822
 40
0.3126592292
 40
0.3439192421
 40
0.3751759914
 40
0.4064272649
 40
0.4376787168
 40
0.4689282631
 40
0.5001740374
 40
0.5626500207
 40
0.6251288596
 40
0.6876086345
 40
0.7500887798
 40
0.8125687243
 40
0.8750481121
 40
1.0
 40
1.0
 40
1.0
 40
1.0
 10
2.9150515608
 20
1.7982282696
 30
0.0
 10
2.9115681984
 20
1.7969442071
 30
0.0
 10
2.9064284388
 20
1.794745511
 30
0.0
 10
2.8999749565
 20
1.7910528772
 30
0.0
 10
2.8954216919
 20
1.7878196706
 30
0.0
 10
2.8913094517
 20
1.7840318026
 30
0.0
 10
2.8884555674
 20
1.780322177
 30
0.0
 10
2.8867207143
 20
1.77702348
 30
0.0
 10
2.8857587357
 20
1.7743934441
 30
0.0
 10
2.8851901785
 20
1.7716494964
 30
0.0
 10
2.8850655701
 20
1.7688485856
 30
0.0
 10
2.8853882683
 20
1.7660642046
 30
0.0
 10
2.8863860007
 20
1.7624693477
 30
0.0
 10
2.888564594
 20
1.75830528
 30
0.0
 10
2.8921686797
 20
1.7540166412
 30
0.0
 10
2.8963958433
 20
1.7503583952
 30
0.0
 10
2.9010221856
 20
1.7472345438
 30
0.0
 10
2.9059144453
 20
1.7445546972
 30
0.0
 10
2.9109891423
 20
1.7422448491
 30
0.0
 10
2.9179250949
 20
1.7395786325
 30
0.0
 10
2.9268279423
 20
1.7369030414
 30
0.0
 10
2.937705561
 20
1.7344719025
 30
0.0
 10
2.9486984875
 20
1.7326410909
 30
0.0
 10
2.9597580969
 20
1.7312840763
 30
0.0
 10
2.9708573211
 20
1.7303107569
 30
0.0
 10
2.9856858345
 20
1.729440114
 30
0.0
 10
2.9968279287
 20
1.7292001071
 30
0.0
 10
3.0042540705
 20
1.7292001071
 30
0.0
  0
SPLINE
  5
40B
100
AcDbEntity
  8
0
100
AcDbSpline
 62
6
  6
CONTINUOUS
 70
0
 71
3
 72
18
 73
14
 74
0
 42
0.0000001
 43
0.0000001
 44
0.0000000001
 40
0.0
 40
0.0
 40
0.0
 40
0.0
 40
0.1333848832
 40
0.2610741792
 40
0.3226302022
 40
0.3827295243
 40
0.4416969468
 40
0.5000777404
 40
0.558468184
 40
0.6174427168
 40
0.7389357743
 40
0.8666263014
 40
1.0
 40
1.0
 40
1.0
 40
1.0
 10
3.2168623606
 20
1.7982282696
 30
0.0
 10
3.2203787449
 20
1.8008207403
 30
0.0
 10
3.2274153034
 20
1.8056937174
 30
0.0
 10
3.2367092173
 20
1.8107944365
 30
0.0
 10
3.2442936211
 20
1.8138489786
 30
0.0
 10
3.249973054
 20
1.8155412241
 30
0.0
 10
3.2557050683
 20
1.8165792935
 30
0.0
 10
3.2614649578
 20
1.8169177307
 30
0.0
 10
3.2672242267
 20
1.8165715092
 30
0.0
 10
3.2749409961
 20
1.8151856038
 30
0.0
 10
3.2845010507
 20
1.8117381213
 30
0.0
 10
3.295508799
 20
1.8056928553
 30
0.0
 10
3.3025487808
 20
1.8008205229
 30
0.0
 10
3.3060648703
 20
1.7982282696
 30
0.0
  0
SPLINE
  5
40C
100
AcDbEntity
  8
0
100
AcDbSpline
 62
6
  6
CONTINUOUS
 70
0
 71
3
 72
15
 73
11
 74
0
 42
0.0000001
 43
0.0000001
 44
0.0000000001
 40
0.0
 40
0.0
 40
0.0
 40
0.0
 40
0.1003210129
 40
0.2134016395
 40
0.3472560267
 40
0.5046529582
 40
0.6596025361
 40
0.7900735877
 40
0.9009719562
 40
1.0
 40
1.0
 40
1.0
 40
1.0
 10
3.3067629605
 20
1.7412336656
 30
0.0
 10
3.3085191924
 20
1.7425860447
 30
0.0
 10
3.312030423
 20
1.7457720508
 30
0.0
 10
3.3166643838
 20
1.751955715
 30
0.0
 10
3.320252989
 20
1.7602446455
 30
0.0
 10
3.3215407328
 20
1.7701731741
 30
0.0
 10
3.3198638186
 20
1.7799614172
 30
0.0
 10
3.3160644162
 20
1.7879522878
 30
0.0
 10
3.3113514233
 20
1.7938783949
 30
0.0
 10
3.3078260045
 20
1.7969298652
 30
0.0
 10
3.3060648703
 20
1.7982282696
 30
0.0
  0
SPLINE
  5
40D
100
AcDbEntity
  8
0
100
AcDbSpline
 62
6
  6
CONTINUOUS
 70
0
 71
3
 72
15
 73
11
 74
0
 42
0.0000001
 43
0.0000001
 44
0.0000000001
 40
0.0
 40
0.0
 40
0.0
 40
0.0
 40
0.1003209319
 40
0.2134014271
 40
0.3472556389
 40
0.5046525109
 40
0.6596022574
 40
0.7900734607
 40
0.9009719103
 40
1.0
 40
1.0
 40
1.0
 40
1.0
 10
2.7923438043
 20
1.7412336146
 30
0.0
 10
2.7941000398
 20
1.7425859907
 30
0.0
 10
2.7976112781
 20
1.7457719901
 30
0.0
 10
2.8022452534
 20
1.7519556447
 30
0.0
 10
2.8058338791
 20
1.7602445697
 30
0.0
 10
2.807121646
 20
1.7701731067
 30
0.0
 10
2.8054447452
 20
1.7799613715
 30
0.0
 10
2.8016453424
 20
1.7879522646
 30
0.0
 10
2.7969323427
 20
1.7938783865
 30
0.0
 10
2.7934069177
 20
1.796929863
 30
0.0
 10
2.7916457804
 20
1.7982282696
 30
0.0
  0
ENDSEC
  0
SECTION
  2
OBJECTS
  0
DICTIONARY
  5
C
100
AcDbDictionary
280
0
281
1
  3
ACAD_GROUP
350
D
  3
ACAD_MLINESTYLE
350
17
  3
ACAD_LAYOUT
350
1A
  3
ACAD_PLOTSETTINGS
350
19
  3
ACAD_PLOTSTYLENAME
350
E
  0
DICTIONARY
  5
D
102
{ACAD_REACTORS
330
C
102
}
100
AcDbDictionary
280
0
281
1
  0
ACDBDICTIONARYWDFLT
  5
E
102
{ACAD_REACTORS
330
C
102
}
100
AcDbDictionary
281
1
  3
Normal
350
F
100
AcDbDictionaryWithDefault
340
F
  0
DICTIONARY
  5
17
102
{ACAD_REACTORS
330
C
102
}
100
AcDbDictionary
280
0
281
1
  3
Standard
350
18
  0
DICTIONARY
  5
19
102
{ACAD_REACTORS
330
C
102
}
100
AcDbDictionary
281
1
  0
DICTIONARY
  5
1A
102
{ACAD_REACTORS
330
C
102
}
100
AcDbDictionary
281
1
  3
Model
350
40E
  3
Layout1
350
40F
  0
ACDBPLACEHOLDER
  5
F
102
{ACAD_REACTORS
330
E
102
}
  0
MLINESTYLE
  5
18
102
{ACAD_REACTORS
330
17
102
}
100
AcDbMlineStyle
  2
STANDARD
 70
0
  3

 62
256
 51
90.0
 52
90.0
 71
2
 49
0.5
 62
256
  6
BYLAYER
 49
-0.5
 62
256
  6
BYLAYER
  0
LAYOUT
  5
40E
102
{ACAD_REACTORS
330
1A
102
}
100
AcDbPlotSettings
  1

  2
none_device
  4
ANSI_A_(11.00_x_8.50_Inches)
  6

 40
0.0
 41
0.0
 42
0.0
 43
0.0
 44
279.4
 45
215.9
 46
0.0
 47
0.0
 48
0.0
 49
0.0
140
0.0
141
0.0
142
1.0
143
1.0
 70
1024
 72
0
 73
0
 74
0
  7

 75
0
147
1.0
148
0.0
149
0.0
100
AcDbLayout
  1
Model
 70
0
 71
0
 10
0.0
 20
0.0
 11
11.0
 21
8.5
 12
0.0
 22
0.0
 32
0.0
 14
0.0
 24
0.0
 34
0.0
 15
0.0
 25
0.0
 35
0.0
146
0.0
 13
0.0
 23
0.0
 33
0.0
 16
1.0
 26
0.0
 36
0.0
 17
0.0
 27
1.0
 37
0.0
 76
0
330
202
345
0
346
0
  0
LAYOUT
  5
40F
102
{ACAD_REACTORS
330
1A
102
}
100
AcDbPlotSettings
  1

  2
none_device
  4
ANSI_A_(11.00_x_8.50_Inches)
  6

 40
0.0
 41
0.0
 42
0.0
 43
0.0
 44
279.4
 45
215.9
 46
0.0
 47
0.0
 48
0.0
 49
0.0
140
0.0
141
0.0
142
1.0
143
1.0
 70
0
 72
0
 73
0
 74
0
  7

 75
0
147
1.0
148
0.0
149
0.0
100
AcDbLayout
  1
Layout1
 70
0
 71
1
 10
0.0
 20
0.0
 11
11.0
 21
8.5
 12
0.0
 22
0.0
 32
0.0
 14
0.0
 24
0.0
 34
0.0
 15
0.0
 25
0.0
 35
0.0
146
0.0
 13
0.0
 23
0.0
 33
0.0
 16
1.0
 26
0.0
 36
0.0
 17
0.0
 27
1.0
 37
0.0
 76
0
330
203
345
0
346
0
  0
ENDSEC
  0
EOF
