999
DXF file: 972_right.dxf
999
Pro/ENGINEER 2018400 by Parametric Technology Corporation
  0
SECTION
  2
HEADER
  9
$ACADVER
  1
AC1027
  9
$DWGCODEPAGE
  3
ANSI_1252
  9
$EXTMAX
 10
11.0
 20
8.5
 30
0.0
  9
$EXTMIN
 10
0.0
 20
0.0
 30
0.0
  9
$LIMMIN
 10
0.0
 20
0.0
  9
$LIMMAX
 10
11.0
 20
8.5
  9
$VIEWCTR
 10
5.5
 20
4.25
  9
$VIEWSIZE
 40
8.5
  9
$CLAYER
  8
0
  9
$LTSCALE
 40
0.605
  9
$CELTYPE
  6
BYLAYER
  9
$DIMSCALE
 40
1.0
  9
$DIMASZ
 40
0.1
  9
$DIMEXO
 40
0.0625
  9
$DIMDLI
 40
0.418
  9
$DIMEXE
 40
0.125
  9
$DIMCEN
 40
0.099
  9
$DIMLFAC
 40
1.0
  9
$DIMBLK
  1
_FILLED
  9
$DIMALT
 70
1
  9
$DIMALTD
 70
1
  9
$DIMALTTD
 70
2
  9
$DIMALTF
 40
25.4
  9
$DIMTXT
 40
0.08
  9
$DIMTOL
 70
1
  9
$DIMLIM
 70
0
  9
$DIMTFAC
 40
1.0
  9
$DIMTP
 40
0.01
  9
$DIMTM
 40
0.01
  9
$DIMGAP
 40
0.09
  9
$DIMDSEP
 70
46
  9
$AUNITS
 70
0
  9
$PDMODE
 70
3
  9
$PDSIZE
 40
0.3125
  9
$HANDSEED
  5
337
  9
$TILEMODE
 70
1
  9
$MEASUREMENT
 70
0
  9
$INSUNITS
 70
1
  0
ENDSEC
  0
SECTION
  2
CLASSES
  0
CLASS
  1
ACDBDICTIONARYWDFLT
  2
AcDbDictionaryWithDefault
  3
AutoCAD 2000
 90
0
 91
1
280
0
281
0
  0
CLASS
  1
ACDBPLACEHOLDER
  2
AcDbPlaceHolder
  3
AutoCAD 2000
 90
0
 91
1
280
0
281
0
  0
CLASS
  1
LAYOUT
  2
AcDbLayout
  3
AutoCAD 2000
 90
0
 91
0
280
0
281
0
  0
ENDSEC
  0
SECTION
  2
TABLES
  0
TABLE
  2
VPORT
  5
8
100
AcDbSymbolTable
 70
2
  0
VPORT
  5
1F4
100
AcDbSymbolTableRecord
100
AcDbViewportTableRecord
  2
*ACTIVE
 70
0
 10
0.0
 20
0.0
 11
1.0
 21
1.0
 12
5.5
 22
4.25
 13
0.0
 23
0.0
 14
1.0
 24
1.0
 15
0.0
 25
0.0
 16
0.0
 26
0.0
 36
1.0
 17
0.0
 27
0.0
 37
0.0
 40
8.5
 41
1.2941176471
 42
50.0
 43
0.0
 44
0.0
 50
0.0
 51
0.0
 71
0
 72
100
 73
1
 74
1
 75
0
 76
0
 77
0
 78
0
  0
ENDTAB
  0
TABLE
  2
LTYPE
  5
5
100
AcDbSymbolTable
 70
6
  0
LTYPE
  5
14
100
AcDbSymbolTableRecord
100
AcDbLinetypeTableRecord
  2
BYBLOCK
 70
0
  3

 72
65
 73
0
 40
0.0
  0
LTYPE
  5
15
100
AcDbSymbolTableRecord
100
AcDbLinetypeTableRecord
  2
BYLAYER
 70
0
  3

 72
65
 73
0
 40
0.0
  0
LTYPE
  5
16
100
AcDbSymbolTableRecord
100
AcDbLinetypeTableRecord
  2
CONTINUOUS
 70
64
  3
Solid line
 72
65
 73
0
 40
0.0
  0
LTYPE
  5
1F5
100
AcDbSymbolTableRecord
100
AcDbLinetypeTableRecord
  2
CENTER
 70
64
  3
____ _ ____ _ ____ _ ____ _ ____ _ ____ _ ____
 72
65
 73
4
 40
0.6
 49
0.375
 74
0
 49
-0.075
 74
0
 49
0.075
 74
0
 49
-0.075
 74
0
  0
LTYPE
  5
1F6
100
AcDbSymbolTableRecord
100
AcDbLinetypeTableRecord
  2
HIDDEN
 70
64
  3
- - - - - - - - - - - - - - - - - - - -
 72
65
 73
2
 40
0.2
 49
0.1
 74
0
 49
-0.1
 74
0
  0
LTYPE
  5
1F7
100
AcDbSymbolTableRecord
100
AcDbLinetypeTableRecord
  2
PHANTOM
 70
64
  3
_____ _ _ _____ _ _ _____ _ _ _____
 72
65
 73
6
 40
0.8
 49
0.45
 74
0
 49
-0.05
 74
0
 49
0.1
 74
0
 49
-0.05
 74
0
 49
0.1
 74
0
 49
-0.05
 74
0
  0
LTYPE
  5
1F8
100
AcDbSymbolTableRecord
100
AcDbLinetypeTableRecord
  2
DOT
 70
64
  3
. . . . . . . . . . . . . . . . . . . .
 72
65
 73
2
 40
0.2
 49
0.1
 74
0
 49
-0.1
 74
0
  0
LTYPE
  5
1F9
100
AcDbSymbolTableRecord
100
AcDbLinetypeTableRecord
  2
DASHED
 70
64
  3
- - - - - - - - - - - - - - - - - - - -
 72
65
 73
2
 40
0.2
 49
0.1
 74
0
 49
-0.1
 74
0
  0
ENDTAB
  0
TABLE
  2
LAYER
  5
2
100
AcDbSymbolTable
 70
36
  0
LAYER
  5
10
100
AcDbSymbolTableRecord
100
AcDbLayerTableRecord
  2
0
 70
0
 62
7
  6
CONTINUOUS
370
-3
390
F
  0
LAYER
  5
1FA
100
AcDbSymbolTableRecord
100
AcDbLayerTableRecord
  2
DEFAULT_1
 70
0
 62
7
  6
CENTER
370
-3
390
F
  0
LAYER
  5
1FB
100
AcDbSymbolTableRecord
100
AcDbLayerTableRecord
  2
DEFAULT_2
 70
0
 62
8
  6
HIDDEN
370
-3
390
F
  0
LAYER
  5
1FC
100
AcDbSymbolTableRecord
100
AcDbLayerTableRecord
  2
DEFAULT_3
 70
0
 62
7
  6
PHANTOM
370
-3
390
F
  0
LAYER
  5
1FD
100
AcDbSymbolTableRecord
100
AcDbLayerTableRecord
  2
DEFAULT_COORDINATE_SYSTEM
 70
0
 62
7
  6
CONTINUOUS
370
-3
390
F
  0
LAYER
  5
1FE
100
AcDbSymbolTableRecord
100
AcDbLayerTableRecord
  2
DEFAULT_DATUM_AXES
 70
0
 62
7
  6
CONTINUOUS
370
-3
390
F
  0
LAYER
  5
1FF
100
AcDbSymbolTableRecord
100
AcDbLayerTableRecord
  2
DEFAULT_DATUM_PLANES
 70
0
 62
7
  6
CONTINUOUS
370
-3
390
F
  0
ENDTAB
  0
TABLE
  2
STYLE
  5
3
100
AcDbSymbolTable
 70
1
  0
STYLE
  5
11
100
AcDbSymbolTableRecord
100
AcDbTextStyleTableRecord
  2
STANDARD
 70
0
 40
0.0
 41
0.8
 50
0.0
 71
0
 42
0.2
  3
txt
  4

  0
STYLE
  5
200
100
AcDbSymbolTableRecord
100
AcDbTextStyleTableRecord
  2
TEXTSTYLE_1
 70
0
 40
0.0
 41
0.8
 50
0.0
 71
0
 42
0.2
  3
gdt
  4

  0
ENDTAB
  0
TABLE
  2
VIEW
  5
6
100
AcDbSymbolTable
 70
0
  0
ENDTAB
  0
TABLE
  2
UCS
  5
7
100
AcDbSymbolTable
 70
0
  0
ENDTAB
  0
TABLE
  2
APPID
  5
9
100
AcDbSymbolTable
 70
1
  0
APPID
  5
201
100
AcDbSymbolTableRecord
100
AcDbRegAppTableRecord
  2
ACAD
 70
0
  0
ENDTAB
  0
TABLE
  2
BLOCK_RECORD
  5
1
100
AcDbSymbolTable
 70
0
  0
BLOCK_RECORD
  5
202
100
AcDbSymbolTableRecord
100
AcDbBlockTableRecord
  2
*Model_Space
  0
BLOCK_RECORD
  5
203
100
AcDbSymbolTableRecord
100
AcDbBlockTableRecord
  2
*Paper_Space
  0
BLOCK_RECORD
  5
204
100
AcDbSymbolTableRecord
100
AcDbBlockTableRecord
  2
_FILLED
  0
ENDTAB
  0
TABLE
  2
DIMSTYLE
  5
A
100
AcDbSymbolTable
 70
1
100
AcDbDimStyleTable
 71
0
  0
DIMSTYLE
105
205
100
AcDbSymbolTableRecord
100
AcDbDimStyleTableRecord
  2
STANDARD
 70
0
  3

  4

 40
1.0
 41
0.1
 42
0.0625
 43
0.38
 44
0.125
 45
0.0
 46
0.0
 47
0.01
 48
0.01
140
0.08
141
0.09
142
0.0
143
25.4
144
1.0
145
0.0
146
1.0
147
0.09
 71
1.0
 72
0.0
 73
1
 74
1
 75
0
 76
0
 77
0
 78
4
 79
1
170
1
171
1
172
0
173
0
174
0
175
0
176
0
177
0
178
0
270
2
179
2
271
2
272
2
273
2
274
2
275
0
280
0
281
0
282
0
283
1
284
4
285
0
286
0
287
3
288
0
340
11
278
46
341
204
342
204
343
204
344
204
  0
ENDTAB
  0
ENDSEC
  0
SECTION
  2
BLOCKS
  0
BLOCK
  5
20
100
AcDbEntity
  8
0
100
AcDbBlockBegin
  2
*Model_Space
 70
0
 10
0.0
 20
0.0
 30
0.0
  3
*Model_Space
  1

  0
ENDBLK
  5
21
100
AcDbEntity
  8
0
100
AcDbBlockEnd
  0
BLOCK
  5
1C
100
AcDbEntity
  8
0
100
AcDbBlockBegin
  2
*Paper_Space
 70
0
 10
0.0
 20
0.0
 30
0.0
  3
*Paper_Space
  1

  0
ENDBLK
  5
1D
100
AcDbEntity
  8
0
100
AcDbBlockEnd
  0
BLOCK
  5
206
100
AcDbEntity
  8
0
100
AcDbBlockBegin
  2
_FILLED
 70
64
 10
0.0
 20
0.0
  3
_FILLED
  1

  0
SOLID
  5
207
100
AcDbEntity
  8
0
  6
BYBLOCK
 62
0
100
AcDbTrace
 10
0.0
 20
0.0
 11
-1.0
 21
0.2
 12
-1.0
 22
-0.2
 13
-1.0
 23
-0.2
  0
ENDBLK
  5
208
100
AcDbEntity
  8
0
  6
BYBLOCK
 62
0
100
AcDbBlockEnd
  0
ENDSEC
  0
SECTION
  2
ENTITIES
  0
MTEXT
  5
209
100
AcDbEntity
  8
0
100
AcDbMText
 62
2
  6
CONTINUOUS
  7
STANDARD
 71
3
 72
1
 10
5.3096160683
 20
1.7902927019
 30
0.0
 11
1.0
 21
0.0
 31
0.0
 73
2
 44
0.9
  1
SCALE  .500
 40
0.08
 41
0.704
  0
LINE
  5
20A
100
AcDbEntity
  8
0
100
AcDbLine
 62
7
  6
CONTINUOUS
 10
0.0
 20
0.0
 11
0.0
 21
8.5
  0
LINE
  5
20B
100
AcDbEntity
  8
0
100
AcDbLine
 62
7
  6
CONTINUOUS
 10
0.0
 20
0.0
 11
11.0
 21
0.0
  0
LINE
  5
20C
100
AcDbEntity
  8
0
100
AcDbLine
 62
7
  6
CONTINUOUS
 10
0.0
 20
8.5
 11
11.0
 21
8.5
  0
LINE
  5
20D
100
AcDbEntity
  8
0
100
AcDbLine
 62
7
  6
CONTINUOUS
 10
11.0
 20
0.0
 11
11.0
 21
8.5
  0
LINE
  5
20E
100
AcDbEntity
  8
0
100
AcDbLine
 62
7
  6
CONTINUOUS
 10
2.3010643835
 20
5.3489575039
 11
2.2972048013
 21
5.7006853839
  0
LINE
  5
20F
100
AcDbEntity
  8
0
100
AcDbLine
 62
7
  6
CONTINUOUS
 10
2.6477401385
 20
5.3186273054
 11
2.7126179904
 21
5.6643414392
  0
LINE
  5
210
100
AcDbEntity
  8
0
100
AcDbLine
 62
7
  6
CONTINUOUS
 10
6.5777309586
 20
2.4041203416
 11
7.8327302605
 21
2.4041203416
  0
LINE
  5
211
100
AcDbEntity
  8
0
100
AcDbLine
 62
7
  6
CONTINUOUS
 10
6.6157671055
 20
2.4141203416
 11
6.5677306096
 21
2.4141203416
  0
LINE
  5
212
100
AcDbEntity
  8
0
100
AcDbLine
 62
7
  6
CONTINUOUS
 10
7.7946941136
 20
2.4141203416
 11
7.8427306096
 21
2.4141203416
  0
LINE
  5
213
100
AcDbEntity
  8
0
100
AcDbLine
 62
7
  6
CONTINUOUS
 10
6.6331117809
 20
2.4591203416
 11
6.5677306096
 21
2.4591203416
  0
LINE
  5
214
100
AcDbEntity
  8
0
100
AcDbLine
 62
7
  6
CONTINUOUS
 10
7.7773494382
 20
2.4591203416
 11
7.8427306096
 21
2.4591203416
  0
LINE
  5
215
100
AcDbEntity
  8
0
100
AcDbLine
 62
7
  6
CONTINUOUS
 10
7.8277306096
 20
2.4741203416
 11
7.7637385
 21
2.4741203416
  0
LINE
  5
216
100
AcDbEntity
  8
0
100
AcDbLine
 62
7
  6
CONTINUOUS
 10
6.6467227191
 20
2.4741203416
 11
6.5827306096
 21
2.4741203416
  0
LINE
  5
217
100
AcDbEntity
  8
0
100
AcDbLine
 62
7
  6
CONTINUOUS
 10
3.4578308484
 20
6.205938454
 11
3.5647121432
 21
6.499592398
  0
LINE
  5
218
100
AcDbEntity
  8
0
100
AcDbLine
 62
7
  6
CONTINUOUS
 10
6.7052306096
 20
2.4976203416
 11
7.7052306096
 21
2.4976203416
  0
LINE
  5
219
100
AcDbEntity
  8
0
100
AcDbLine
 62
7
  6
CONTINUOUS
 10
7.6117319465
 20
2.5916203416
 11
6.7987292726
 21
2.5916203416
  0
LINE
  5
21A
100
AcDbEntity
  8
0
100
AcDbLine
 62
7
  6
CONTINUOUS
 10
6.8347311877
 20
2.6226203416
 11
7.5757300314
 21
2.6226203416
  0
LINE
  5
21B
100
AcDbEntity
  8
0
100
AcDbLine
 62
7
  6
CONTINUOUS
 10
6.8769806096
 20
2.6291203416
 11
6.7377306096
 21
2.6291203416
  0
LINE
  5
21C
100
AcDbEntity
  8
0
100
AcDbLine
 62
7
  6
CONTINUOUS
 10
7.5334806096
 20
2.6291203416
 11
7.6727306096
 21
2.6291203416
  0
LINE
  5
21D
100
AcDbEntity
  8
0
100
AcDbLine
 62
7
  6
CONTINUOUS
 10
6.8846488897
 20
2.8058703416
 11
7.5258123294
 21
2.8058703416
  0
LINE
  5
21E
100
AcDbEntity
  8
0
100
AcDbLine
 62
7
  6
CONTINUOUS
 10
6.8959806096
 20
2.9133703416
 11
7.5144806096
 21
2.9133703416
  0
LINE
  5
21F
100
AcDbEntity
  8
0
100
AcDbLine
 62
7
  6
CONTINUOUS
 10
6.8979136125
 20
3.0274697474
 11
7.5125476067
 21
3.0274697474
  0
LINE
  5
220
100
AcDbEntity
  8
0
100
AcDbLine
 62
7
  6
CONTINUOUS
 10
6.9349806096
 20
3.080428561
 11
7.4754806096
 21
3.080428561
  0
LINE
  5
221
100
AcDbEntity
  8
0
100
AcDbLine
 62
7
  6
CONTINUOUS
 10
6.9903607458
 20
3.2334199629
 11
7.4201004733
 21
3.2334199629
  0
LINE
  5
222
100
AcDbEntity
  8
0
100
AcDbLine
 62
7
  6
CONTINUOUS
 10
7.4046550538
 20
3.2476203416
 11
7.0058061653
 21
3.2476203416
  0
LINE
  5
223
100
AcDbEntity
  8
0
100
AcDbLine
 62
7
  6
CONTINUOUS
 10
7.0334806096
 20
3.2576203416
 11
7.3769806096
 21
3.2576203416
  0
LINE
  5
224
100
AcDbEntity
  8
0
100
AcDbLine
 62
7
  6
CONTINUOUS
 10
7.0199806096
 20
3.4371203416
 11
7.0411213823
 21
3.4371203416
  0
LINE
  5
225
100
AcDbEntity
  8
0
100
AcDbLine
 62
7
  6
CONTINUOUS
 10
7.3693386026
 20
3.4371203416
 11
7.3904806096
 21
3.4371203416
  0
LINE
  5
226
100
AcDbEntity
  8
0
100
AcDbLine
 62
7
  6
CONTINUOUS
 10
6.9414806096
 20
3.4626203416
 11
7.018622743
 21
3.4626203416
  0
LINE
  5
227
100
AcDbEntity
  8
0
100
AcDbLine
 62
7
  6
CONTINUOUS
 10
7.3918376504
 20
3.4626203416
 11
7.4689806096
 21
3.4626203416
  0
LINE
  5
228
100
AcDbEntity
  8
0
100
AcDbLine
 62
7
  6
CONTINUOUS
 10
6.9264806096
 20
3.5021203416
 11
6.9943286777
 21
3.5021203416
  0
LINE
  5
229
100
AcDbEntity
  8
0
100
AcDbLine
 62
7
  6
CONTINUOUS
 10
7.4161332096
 20
3.5021203416
 11
7.4839806096
 21
3.5021203416
  0
LINE
  5
22A
100
AcDbEntity
  8
0
100
AcDbLine
 62
7
  6
CONTINUOUS
 10
4.5830298142
 20
5.7963995228
 11
4.689911109
 21
6.0900534668
  0
LINE
  5
22B
100
AcDbEntity
  8
0
100
AcDbLine
 62
7
  6
CONTINUOUS
 10
7.1891159319
 20
3.8542926249
 11
7.1747306096
 21
3.8540036747
  0
LINE
  5
22C
100
AcDbEntity
  8
0
100
AcDbLine
 62
7
  6
CONTINUOUS
 10
7.1810148349
 20
3.8546266721
 11
7.182891763
 21
3.8546647157
  0
LINE
  5
22D
100
AcDbEntity
  8
0
100
AcDbLine
 62
7
  6
CONTINUOUS
 10
7.1747306096
 20
3.8545040727
 11
7.1891159319
 21
3.8547928363
  0
LINE
  5
22E
100
AcDbEntity
  8
0
100
AcDbLine
 62
7
  6
CONTINUOUS
 10
6.9264806096
 20
3.7071203416
 11
6.9943280095
 21
3.7071203416
  0
LINE
  5
22F
100
AcDbEntity
  8
0
100
AcDbLine
 62
7
  6
CONTINUOUS
 10
7.4161325414
 20
3.7071203416
 11
7.4839806096
 21
3.7071203416
  0
LINE
  5
230
100
AcDbEntity
  8
0
100
AcDbLine
 62
7
  6
CONTINUOUS
 10
6.9406344519
 20
3.7471203416
 11
7.0190088411
 21
3.7471203416
  0
LINE
  5
231
100
AcDbEntity
  8
0
100
AcDbLine
 62
7
  6
CONTINUOUS
 10
7.391452849
 20
3.7471203416
 11
7.4698267672
 21
3.7471203416
  0
LINE
  5
232
100
AcDbEntity
  8
0
100
AcDbLine
 62
7
  6
CONTINUOUS
 10
6.9544806096
 20
3.7551203416
 11
7.0254138066
 21
3.7551203416
  0
LINE
  5
233
100
AcDbEntity
  8
0
100
AcDbLine
 62
7
  6
CONTINUOUS
 10
7.3850476704
 20
3.7551203416
 11
7.4559806096
 21
3.7551203416
  0
LINE
  5
234
100
AcDbEntity
  8
0
100
AcDbLine
 62
7
  6
CONTINUOUS
 10
6.9414806096
 20
3.7626203416
 11
7.0319670506
 21
3.7626203416
  0
LINE
  5
235
100
AcDbEntity
  8
0
100
AcDbLine
 62
7
  6
CONTINUOUS
 10
7.3784943722
 20
3.7626203416
 11
7.4689806096
 21
3.7626203416
  0
LINE
  5
236
100
AcDbEntity
  8
0
100
AcDbLine
 62
7
  6
CONTINUOUS
 10
6.9414806096
 20
3.7982623902
 11
7.072992428
 21
3.7982623902
  0
LINE
  5
237
100
AcDbEntity
  8
0
100
AcDbLine
 62
7
  6
CONTINUOUS
 10
7.3374688457
 20
3.7982623902
 11
7.4689806096
 21
3.7982623902
  0
LINE
  5
238
100
AcDbEntity
  8
0
100
AcDbLine
 62
7
  6
CONTINUOUS
 10
6.9525903989
 20
3.8093721796
 11
7.09093805
 21
3.8093721796
  0
LINE
  5
239
100
AcDbEntity
  8
0
100
AcDbLine
 62
7
  6
CONTINUOUS
 10
7.3195219619
 20
3.8093721796
 11
7.4578708202
 21
3.8093721796
  0
LINE
  5
23A
100
AcDbEntity
  8
0
100
AcDbLine
 62
7
  6
CONTINUOUS
 10
6.9779756315
 20
3.8176203416
 11
7.1071735308
 21
3.8176203416
  0
LINE
  5
23B
100
AcDbEntity
  8
0
100
AcDbLine
 62
7
  6
CONTINUOUS
 10
7.3032878575
 20
3.8176203416
 11
7.4324855876
 21
3.8176203416
  0
LINE
  5
23C
100
AcDbEntity
  8
0
100
AcDbLine
 62
7
  6
CONTINUOUS
 10
7.1388787391
 20
3.8295249882
 11
7.0076582813
 21
3.8295249882
  0
LINE
  5
23D
100
AcDbEntity
  8
0
100
AcDbLine
 62
7
  6
CONTINUOUS
 10
7.2715836785
 20
3.8295249882
 11
7.4028029378
 21
3.8295249882
  0
LINE
  5
23E
100
AcDbEntity
  8
0
100
AcDbLine
 62
7
  6
CONTINUOUS
 10
7.2382306096
 20
3.8539011451
 11
7.2238452872
 21
3.8542365722
  0
LINE
  5
23F
100
AcDbEntity
  8
0
100
AcDbLine
 62
7
  6
CONTINUOUS
 10
7.2245584708
 20
3.8542193827
 11
7.2238452872
 21
3.8542365722
  0
LINE
  5
240
100
AcDbEntity
  8
0
100
AcDbLine
 62
7
  6
CONTINUOUS
 10
7.2238452872
 20
3.8547368198
 11
7.2382306096
 21
3.8544016093
  0
LINE
  5
241
100
AcDbEntity
  8
0
100
AcDbLine
 62
7
  6
CONTINUOUS
 10
7.2238452872
 20
3.8547368198
 11
7.2245584738
 21
3.8547196414
  0
LINE
  5
242
100
AcDbEntity
  8
0
100
AcDbLine
 62
7
  6
CONTINUOUS
 10
6.9340752245
 20
4.0335138297
 11
7.4763859946
 21
4.0335138297
  0
LINE
  5
243
100
AcDbEntity
  8
0
100
AcDbLine
 62
7
  6
CONTINUOUS
 10
7.4640516296
 20
4.0506203416
 11
6.9464095895
 21
4.0506203416
  0
LINE
  5
244
100
AcDbEntity
  8
0
100
AcDbLine
 62
7
  6
CONTINUOUS
 10
6.9561326714
 20
4.0664120501
 11
7.4543285477
 21
4.0664120501
  0
LINE
  5
245
100
AcDbEntity
  8
0
100
AcDbLine
 62
7
  6
CONTINUOUS
 10
7.1886695437
 20
3.8505050917
 11
7.1902079488
 21
3.8504417995
  0
LINE
  5
246
100
AcDbEntity
  8
0
100
AcDbLine
 62
7
  6
CONTINUOUS
 10
7.0199806096
 20
3.4371203416
 11
6.9414806096
 21
3.4626203416
  0
LINE
  5
247
100
AcDbEntity
  8
0
100
AcDbLine
 62
7
  6
CONTINUOUS
 10
6.5677306096
 20
2.4141203416
 11
6.5777306096
 21
2.4041203416
  0
LINE
  5
248
100
AcDbEntity
  8
0
100
AcDbLine
 62
7
  6
CONTINUOUS
 10
4.8929855691
 20
5.7417459604
 11
4.8929855691
 21
6.0542459604
  0
LINE
  5
249
100
AcDbEntity
  8
0
100
AcDbLine
 62
7
  6
CONTINUOUS
 10
6.9561326714
 20
4.4403286332
 11
7.4543285477
 21
4.4403286332
  0
LINE
  5
24A
100
AcDbEntity
  8
0
100
AcDbLine
 62
7
  6
CONTINUOUS
 10
7.4640516296
 20
4.4561203416
 11
6.9464095895
 21
4.4561203416
  0
LINE
  5
24B
100
AcDbEntity
  8
0
100
AcDbLine
 62
7
  6
CONTINUOUS
 10
6.9340752245
 20
4.4732268535
 11
7.4763859946
 21
4.4732268535
  0
LINE
  5
24C
100
AcDbEntity
  8
0
100
AcDbLine
 62
7
  6
CONTINUOUS
 10
7.4578708202
 20
3.8093721796
 11
7.4324855876
 21
3.8176203416
  0
LINE
  5
24D
100
AcDbEntity
  8
0
100
AcDbLine
 62
7
  6
CONTINUOUS
 10
6.9544806096
 20
3.7551203416
 11
6.9414806096
 21
3.7626203416
  0
LINE
  5
24E
100
AcDbEntity
  8
0
100
AcDbLine
 62
7
  6
CONTINUOUS
 10
2.3152125364
 20
5.3336865605
 11
2.6311551563
 21
5.306045163
  0
LINE
  5
24F
100
AcDbEntity
  8
0
100
AcDbLine
 62
7
  6
CONTINUOUS
 10
7.4698267672
 20
3.7471203416
 11
7.4559806096
 21
3.7551203416
  0
LINE
  5
250
100
AcDbEntity
  8
0
100
AcDbLine
 62
7
  6
CONTINUOUS
 10
7.5258123294
 20
2.8058703416
 11
7.5334806096
 21
2.7982241508
  0
LINE
  5
251
100
AcDbEntity
  8
0
100
AcDbLine
 62
7
  6
CONTINUOUS
 10
2.3010643835
 20
5.3489575039
 11
2.6477401385
 21
5.3186273054
  0
LINE
  5
252
100
AcDbEntity
  8
0
100
AcDbLine
 62
7
  6
CONTINUOUS
 10
7.4202306096
 20
5.5326203416
 11
6.9902306096
 21
5.5326203416
  0
LINE
  5
253
100
AcDbEntity
  8
0
100
AcDbLine
 62
7
  6
CONTINUOUS
 10
2.2972048013
 20
5.7006853839
 11
2.7126179904
 21
5.6643414392
  0
LINE
  5
254
100
AcDbEntity
  8
0
100
AcDbLine
 62
7
  6
CONTINUOUS
 10
2.3105751558
 20
5.7617195295
 11
2.7100492297
 21
5.7267700767
  0
LINE
  5
255
100
AcDbEntity
  8
0
100
AcDbLine
 62
7
  6
CONTINUOUS
 10
4.5830298142
 20
5.7963995228
 11
3.4578308484
 21
6.205938454
  0
LINE
  5
256
100
AcDbEntity
  8
0
100
AcDbLine
 62
7
  6
CONTINUOUS
 10
6.9902306096
 20
5.6126203416
 11
7.4202306096
 21
5.6126203416
  0
LINE
  5
257
100
AcDbEntity
  8
0
100
AcDbLine
 62
7
  6
CONTINUOUS
 10
6.6304855691
 20
5.6944959604
 11
6.825805878
 21
5.6944959604
  0
LINE
  5
258
100
AcDbEntity
  8
0
100
AcDbLine
 62
7
  6
CONTINUOUS
 10
6.5679855691
 20
5.7417459604
 11
4.8929855691
 21
5.7417459604
  0
LINE
  5
259
100
AcDbEntity
  8
0
100
AcDbLine
 62
7
  6
CONTINUOUS
 10
7.7969855691
 20
5.7621203416
 11
7.7789855691
 21
5.7621203416
  0
LINE
  5
25A
100
AcDbEntity
  8
0
100
AcDbLine
 62
7
  6
CONTINUOUS
 10
7.6224855691
 20
5.8013703416
 11
7.5454855691
 21
5.8013703416
  0
LINE
  5
25B
100
AcDbEntity
  8
0
100
AcDbLine
 62
7
  6
CONTINUOUS
 10
7.4689806096
 20
3.7982623902
 11
7.4578708202
 21
3.8093721796
  0
LINE
  5
25C
100
AcDbEntity
  8
0
100
AcDbLine
 62
7
  6
CONTINUOUS
 10
7.4754806096
 20
3.080428561
 11
7.5125476067
 21
3.0274697474
  0
LINE
  5
25D
100
AcDbEntity
  8
0
100
AcDbLine
 62
7
  6
CONTINUOUS
 10
6.9525903989
 20
3.8093721796
 11
6.9779756315
 21
3.8176203416
  0
LINE
  5
25E
100
AcDbEntity
  8
0
100
AcDbLine
 62
7
  6
CONTINUOUS
 10
7.7489855691
 20
5.8133703416
 11
7.7334855691
 21
5.8133703416
  0
LINE
  5
25F
100
AcDbEntity
  8
0
100
AcDbLine
 62
7
  6
CONTINUOUS
 10
7.7489855691
 20
5.9918703416
 11
7.7334855691
 21
5.9918703416
  0
LINE
  5
260
100
AcDbEntity
  8
0
100
AcDbLine
 62
7
  6
CONTINUOUS
 10
7.6224855691
 20
6.0038703416
 11
7.5454855691
 21
6.0038703416
  0
LINE
  5
261
100
AcDbEntity
  8
0
100
AcDbLine
 62
7
  6
CONTINUOUS
 10
4.689911109
 20
6.0900534668
 11
3.5647121432
 21
6.499592398
  0
LINE
  5
262
100
AcDbEntity
  8
0
100
AcDbLine
 62
7
  6
CONTINUOUS
 10
6.5677306096
 20
2.4591203416
 11
6.5677306096
 21
2.4141203416
  0
LINE
  5
263
100
AcDbEntity
  8
0
100
AcDbLine
 62
7
  6
CONTINUOUS
 10
6.5679855691
 20
6.1014959604
 11
6.5679855691
 21
5.6944959604
  0
LINE
  5
264
100
AcDbEntity
  8
0
100
AcDbLine
 62
7
  6
CONTINUOUS
 10
6.6304855691
 20
6.1014959604
 11
6.6304855691
 21
5.6944959604
  0
LINE
  5
265
100
AcDbEntity
  8
0
100
AcDbLine
 62
7
  6
CONTINUOUS
 10
6.9406344519
 20
3.7471203416
 11
6.9544806096
 21
3.7551203416
  0
LINE
  5
266
100
AcDbEntity
  8
0
100
AcDbLine
 62
7
  6
CONTINUOUS
 10
7.7969855691
 20
6.0431203416
 11
7.7789855691
 21
6.0431203416
  0
LINE
  5
267
100
AcDbEntity
  8
0
100
AcDbLine
 62
7
  6
CONTINUOUS
 10
6.5679855691
 20
6.0542459604
 11
4.8929855691
 21
6.0542459604
  0
LINE
  5
268
100
AcDbEntity
  8
0
100
AcDbLine
 62
7
  6
CONTINUOUS
 10
6.6304855691
 20
6.1014959604
 11
6.825805878
 21
6.1014959604
  0
LINE
  5
269
100
AcDbEntity
  8
0
100
AcDbLine
 62
7
  6
CONTINUOUS
 10
7.0339806096
 20
6.2136203416
 11
7.3764806096
 21
6.2136203416
  0
LINE
  5
26A
100
AcDbEntity
  8
0
100
AcDbLine
 62
7
  6
CONTINUOUS
 10
6.825805878
 20
6.1014959604
 11
6.825805878
 21
5.6944959604
  0
LINE
  5
26B
100
AcDbEntity
  8
0
100
AcDbLine
 62
7
  6
CONTINUOUS
 10
6.8347306096
 20
2.6226203416
 11
6.8347306096
 21
2.5916203416
  0
LINE
  5
26C
100
AcDbEntity
  8
0
100
AcDbLine
 62
7
  6
CONTINUOUS
 10
6.8521628031
 20
6.0872459604
 11
6.8521628031
 21
5.7087459604
  0
LINE
  5
26D
100
AcDbEntity
  8
0
100
AcDbLine
 62
7
  6
CONTINUOUS
 10
6.8769806096
 20
2.6226203416
 11
6.8769806096
 21
2.7982242205
  0
LINE
  5
26E
100
AcDbEntity
  8
0
100
AcDbLine
 62
7
  6
CONTINUOUS
 10
6.9051468763
 20
6.0876660769
 11
6.9051468763
 21
5.708325844
  0
LINE
  5
26F
100
AcDbEntity
  8
0
100
AcDbLine
 62
7
  6
CONTINUOUS
 10
6.9264806096
 20
3.5021203416
 11
6.9264806096
 21
3.7071203416
  0
LINE
  5
270
100
AcDbEntity
  8
0
100
AcDbLine
 62
7
  6
CONTINUOUS
 10
6.9414806096
 20
3.7626203416
 11
6.9414806096
 21
3.7982623902
  0
LINE
  5
271
100
AcDbEntity
  8
0
100
AcDbLine
 62
7
  6
CONTINUOUS
 10
6.9734806096
 20
6.6371203416
 11
6.9734806096
 21
6.6101203416
  0
LINE
  5
272
100
AcDbEntity
  8
0
100
AcDbLine
 62
7
  6
CONTINUOUS
 10
6.9414806096
 20
3.7982623902
 11
6.9525903989
 21
3.8093721796
  0
LINE
  5
273
100
AcDbEntity
  8
0
100
AcDbLine
 62
7
  6
CONTINUOUS
 10
7.4559806096
 20
3.7551203416
 11
7.4689806096
 21
3.7626203416
  0
LINE
  5
274
100
AcDbEntity
  8
0
100
AcDbLine
 62
7
  6
CONTINUOUS
 10
7.3904806096
 20
3.4371203416
 11
7.4689806096
 21
3.4626203416
  0
LINE
  5
275
100
AcDbEntity
  8
0
100
AcDbLine
 62
7
  6
CONTINUOUS
 10
7.1351413807
 20
6.3461203416
 11
7.0339806096
 21
6.3461203416
  0
LINE
  5
276
100
AcDbEntity
  8
0
100
AcDbLine
 62
7
  6
CONTINUOUS
 10
7.2753198384
 20
6.3461203416
 11
7.3764806096
 21
6.3461203416
  0
LINE
  5
277
100
AcDbEntity
  8
0
100
AcDbLine
 62
7
  6
CONTINUOUS
 10
7.1503831554
 20
6.3578522219
 11
7.0396337928
 21
6.3578522219
  0
LINE
  5
278
100
AcDbEntity
  8
0
100
AcDbLine
 62
7
  6
CONTINUOUS
 10
7.2600780637
 20
6.3578522219
 11
7.3708274263
 21
6.3578522219
  0
LINE
  5
279
100
AcDbEntity
  8
0
100
AcDbLine
 62
7
  6
CONTINUOUS
 10
7.0334806096
 20
3.2576203416
 11
7.0334806096
 21
3.4371203416
  0
LINE
  5
27A
100
AcDbEntity
  8
0
100
AcDbLine
 62
7
  6
CONTINUOUS
 10
7.0339806096
 20
6.3461203416
 11
7.0339806096
 21
6.2136203416
  0
LINE
  5
27B
100
AcDbEntity
  8
0
100
AcDbLine
 62
7
  6
CONTINUOUS
 10
7.0489806096
 20
6.7136203416
 11
7.0489806096
 21
6.6976203416
  0
LINE
  5
27C
100
AcDbEntity
  8
0
100
AcDbLine
 62
7
  6
CONTINUOUS
 10
7.0489806096
 20
6.5651203416
 11
7.0489806096
 21
6.5336203416
  0
LINE
  5
27D
100
AcDbEntity
  8
0
100
AcDbLine
 62
7
  6
CONTINUOUS
 10
7.1351413807
 20
6.3461203416
 11
7.1351413807
 21
6.2136203416
  0
LINE
  5
27E
100
AcDbEntity
  8
0
100
AcDbLine
 62
7
  6
CONTINUOUS
 10
7.1627306096
 20
3.849837143
 11
7.1627306096
 21
3.8539384997
  0
LINE
  5
27F
100
AcDbEntity
  8
0
100
AcDbLine
 62
7
  6
CONTINUOUS
 10
7.1627306096
 20
3.8416912085
 11
7.1627306096
 21
3.8481037081
  0
LINE
  5
280
100
AcDbEntity
  8
0
100
AcDbLine
 62
7
  6
CONTINUOUS
 10
7.1741159319
 20
3.8516082433
 11
7.1741159319
 21
3.8529604037
  0
LINE
  5
281
100
AcDbEntity
  8
0
100
AcDbLine
 62
7
  6
CONTINUOUS
 10
7.1747306096
 20
3.8421464606
 11
7.1747306096
 21
3.844990533
  0
LINE
  5
282
100
AcDbEntity
  8
0
100
AcDbLine
 62
7
  6
CONTINUOUS
 10
7.1747306096
 20
3.8540036747
 11
7.1747306096
 21
3.8545040727
  0
LINE
  5
283
100
AcDbEntity
  8
0
100
AcDbLine
 62
7
  6
CONTINUOUS
 10
7.1747306096
 20
3.848169378
 11
7.1747306096
 21
3.848673573
  0
LINE
  5
284
100
AcDbEntity
  8
0
100
AcDbLine
 62
7
  6
CONTINUOUS
 10
7.1813490467
 20
3.8507487324
 11
7.1813490467
 21
3.8512512417
  0
LINE
  5
285
100
AcDbEntity
  8
0
100
AcDbLine
 62
7
  6
CONTINUOUS
 10
7.1827928673
 20
3.847812571
 11
7.1827928673
 21
3.8483170001
  0
LINE
  5
286
100
AcDbEntity
  8
0
100
AcDbLine
 62
7
  6
CONTINUOUS
 10
7.1891159319
 20
3.8542926249
 11
7.1891159319
 21
3.8547928363
  0
LINE
  5
287
100
AcDbEntity
  8
0
100
AcDbLine
 62
7
  6
CONTINUOUS
 10
7.1911387728
 20
3.8386899715
 11
7.1911387728
 21
3.8387532698
  0
LINE
  5
288
100
AcDbEntity
  8
0
100
AcDbLine
 62
7
  6
CONTINUOUS
 10
7.2052306096
 20
2.6226203416
 11
7.2052306096
 21
2.7475926126
  0
LINE
  5
289
100
AcDbEntity
  8
0
100
AcDbLine
 62
7
  6
CONTINUOUS
 10
7.2218224463
 20
3.8385203958
 11
7.2218224463
 21
3.838702733
  0
LINE
  5
28A
100
AcDbEntity
  8
0
100
AcDbLine
 62
7
  6
CONTINUOUS
 10
7.2238452872
 20
3.8542365722
 11
7.2238452872
 21
3.8547368198
  0
LINE
  5
28B
100
AcDbEntity
  8
0
100
AcDbLine
 62
7
  6
CONTINUOUS
 10
7.2301683518
 20
3.8477354613
 11
7.2301683518
 21
3.848239941
  0
LINE
  5
28C
100
AcDbEntity
  8
0
100
AcDbLine
 62
7
  6
CONTINUOUS
 10
7.0489806096
 20
6.5336203416
 11
7.3614806096
 21
6.5336203416
  0
LINE
  5
28D
100
AcDbEntity
  8
0
100
AcDbLine
 62
7
  6
CONTINUOUS
 10
7.3919806096
 20
6.5651203416
 11
7.0184807139
 21
6.5651203416
  0
LINE
  5
28E
100
AcDbEntity
  8
0
100
AcDbLine
 62
7
  6
CONTINUOUS
 10
6.9734806096
 20
6.6101203416
 11
7.4369806096
 21
6.6101203416
  0
LINE
  5
28F
100
AcDbEntity
  8
0
100
AcDbLine
 62
7
  6
CONTINUOUS
 10
6.9734806096
 20
6.6371203416
 11
7.4369806096
 21
6.6371203416
  0
LINE
  5
290
100
AcDbEntity
  8
0
100
AcDbLine
 62
7
  6
CONTINUOUS
 10
7.3919806096
 20
6.6821203416
 11
7.0184807139
 21
6.6821203416
  0
LINE
  5
291
100
AcDbEntity
  8
0
100
AcDbLine
 62
7
  6
CONTINUOUS
 10
7.0489806096
 20
6.6976203416
 11
7.3614806096
 21
6.6976203416
  0
LINE
  5
292
100
AcDbEntity
  8
0
100
AcDbLine
 62
7
  6
CONTINUOUS
 10
7.0489806096
 20
6.7136203416
 11
7.3614806096
 21
6.7136203416
  0
LINE
  5
293
100
AcDbEntity
  8
0
100
AcDbLine
 62
7
  6
CONTINUOUS
 10
7.2382306096
 20
3.8420423362
 11
7.2382306096
 21
3.8448867957
  0
LINE
  5
294
100
AcDbEntity
  8
0
100
AcDbLine
 62
7
  6
CONTINUOUS
 10
7.2382306096
 20
3.8539011451
 11
7.2382306096
 21
3.8544016093
  0
LINE
  5
295
100
AcDbEntity
  8
0
100
AcDbLine
 62
7
  6
CONTINUOUS
 10
7.2382306096
 20
3.8480660698
 11
7.2382306096
 21
3.8485703326
  0
LINE
  5
296
100
AcDbEntity
  8
0
100
AcDbLine
 62
7
  6
CONTINUOUS
 10
7.2472306096
 20
3.8481312028
 11
7.2472306096
 21
3.8417189345
  0
LINE
  5
297
100
AcDbEntity
  8
0
100
AcDbLine
 62
7
  6
CONTINUOUS
 10
7.2472306096
 20
3.8539657871
 11
7.2472306096
 21
3.8527019686
  0
LINE
  5
298
100
AcDbEntity
  8
0
100
AcDbLine
 62
7
  6
CONTINUOUS
 10
7.2753198384
 20
6.3461203416
 11
7.2753198384
 21
6.2136203416
  0
LINE
  5
299
100
AcDbEntity
  8
0
100
AcDbLine
 62
7
  6
CONTINUOUS
 10
7.3614806096
 20
6.7136203416
 11
7.3614806096
 21
6.6976203416
  0
LINE
  5
29A
100
AcDbEntity
  8
0
100
AcDbLine
 62
7
  6
CONTINUOUS
 10
7.3614806096
 20
6.5651203416
 11
7.3614806096
 21
6.5336203416
  0
LINE
  5
29B
100
AcDbEntity
  8
0
100
AcDbLine
 62
7
  6
CONTINUOUS
 10
7.3764806096
 20
6.3461203416
 11
7.3764806096
 21
6.2136203416
  0
LINE
  5
29C
100
AcDbEntity
  8
0
100
AcDbLine
 62
7
  6
CONTINUOUS
 10
7.3769806096
 20
3.2576203416
 11
7.3769806096
 21
3.4371203416
  0
LINE
  5
29D
100
AcDbEntity
  8
0
100
AcDbLine
 62
7
  6
CONTINUOUS
 10
7.4369806096
 20
6.6371203416
 11
7.4369806096
 21
6.6101203416
  0
LINE
  5
29E
100
AcDbEntity
  8
0
100
AcDbLine
 62
7
  6
CONTINUOUS
 10
7.4689806096
 20
3.7626203416
 11
7.4689806096
 21
3.7982623902
  0
LINE
  5
29F
100
AcDbEntity
  8
0
100
AcDbLine
 62
7
  6
CONTINUOUS
 10
6.9349806096
 20
3.080428561
 11
6.8979136125
 21
3.0274697474
  0
LINE
  5
2A0
100
AcDbEntity
  8
0
100
AcDbLine
 62
7
  6
CONTINUOUS
 10
7.2989806096
 20
6.7761203416
 11
7.1114806096
 21
6.7761203416
  0
LINE
  5
2A1
100
AcDbEntity
  8
0
100
AcDbLine
 62
7
  6
CONTINUOUS
 10
7.4839806096
 20
3.5021203416
 11
7.4839806096
 21
3.7071203416
  0
LINE
  5
2A2
100
AcDbEntity
  8
0
100
AcDbLine
 62
7
  6
CONTINUOUS
 10
7.5334806096
 20
2.6226203416
 11
7.5334806096
 21
2.7982242205
  0
LINE
  5
2A3
100
AcDbEntity
  8
0
100
AcDbLine
 62
7
  6
CONTINUOUS
 10
7.5454855691
 20
5.7967459604
 11
7.5454855691
 21
6.0038703416
  0
LINE
  5
2A4
100
AcDbEntity
  8
0
100
AcDbLine
 62
7
  6
CONTINUOUS
 10
7.5757306096
 20
2.6226203416
 11
7.5757306096
 21
2.5916203416
  0
LINE
  5
2A5
100
AcDbEntity
  8
0
100
AcDbLine
 62
7
  6
CONTINUOUS
 10
7.6224855691
 20
5.8013703416
 11
7.6224855691
 21
6.0038703416
  0
LINE
  5
2A6
100
AcDbEntity
  8
0
100
AcDbLine
 62
7
  6
CONTINUOUS
 10
7.6415874001
 20
5.8115594067
 11
7.6415874001
 21
5.9936812765
  0
LINE
  5
2A7
100
AcDbEntity
  8
0
100
AcDbLine
 62
7
  6
CONTINUOUS
 10
6.8846488897
 20
2.8058703416
 11
6.8769806096
 21
2.7982241508
  0
LINE
  5
2A8
100
AcDbEntity
  8
0
100
AcDbLine
 62
7
  6
CONTINUOUS
 10
7.7259357584
 20
5.8168128757
 11
7.7259357584
 21
5.9884278075
  0
LINE
  5
2A9
100
AcDbEntity
  8
0
100
AcDbLine
 62
7
  6
CONTINUOUS
 10
7.7334855691
 20
5.8133703416
 11
7.7334855691
 21
5.9918703416
  0
LINE
  5
2AA
100
AcDbEntity
  8
0
100
AcDbLine
 62
7
  6
CONTINUOUS
 10
7.7489855691
 20
5.7921204308
 11
7.7489855691
 21
6.0131202524
  0
LINE
  5
2AB
100
AcDbEntity
  8
0
100
AcDbLine
 62
7
  6
CONTINUOUS
 10
7.7789855691
 20
5.7621203416
 11
7.7789855691
 21
6.0431203416
  0
LINE
  5
2AC
100
AcDbEntity
  8
0
100
AcDbLine
 62
7
  6
CONTINUOUS
 10
7.7969855691
 20
5.7621203416
 11
7.7969855691
 21
6.0431203416
  0
LINE
  5
2AD
100
AcDbEntity
  8
0
100
AcDbLine
 62
7
  6
CONTINUOUS
 10
7.8269855691
 20
5.7921204308
 11
7.8269855691
 21
6.0131202524
  0
LINE
  5
2AE
100
AcDbEntity
  8
0
100
AcDbLine
 62
7
  6
CONTINUOUS
 10
7.8427306096
 20
2.4591203416
 11
7.8427306096
 21
2.4141203416
  0
LINE
  5
2AF
100
AcDbEntity
  8
0
100
AcDbLine
 62
7
  6
CONTINUOUS
 10
7.8704855691
 20
5.8460988026
 11
7.8704855691
 21
5.9591418806
  0
LINE
  5
2B0
100
AcDbEntity
  8
0
100
AcDbLine
 62
7
  6
CONTINUOUS
 10
7.8427306096
 20
2.4141203416
 11
7.8327306096
 21
2.4041203416
  0
ARC
  5
2B1
100
AcDbEntity
  8
0
100
AcDbCircle
 62
7
  6
CONTINUOUS
 10
5.0364806096
 20
3.4017427656
 40
2.0
100
AcDbArc
 50
355.5802594225
 51
356.8800337081
  0
ARC
  5
2B2
100
AcDbEntity
  8
0
100
AcDbCircle
 62
7
  6
CONTINUOUS
 10
5.0364806096
 20
3.4017427656
 40
2.0
100
AcDbArc
 50
12.00179078
 51
18.4142808257
  0
ARC
  5
2B3
100
AcDbEntity
  8
0
100
AcDbCircle
 62
7
  6
CONTINUOUS
 10
5.0364806096
 20
5.1049979176
 40
2.0
100
AcDbArc
 50
341.5857191743
 51
12.3457930752
  0
ARC
  5
2B4
100
AcDbEntity
  8
0
100
AcDbCircle
 62
7
  6
CONTINUOUS
 10
4.8929855691
 20
6.6479959604
 40
0.90625
100
AcDbArc
 50
250.0
 51
270.0
  0
ARC
  5
2B5
100
AcDbEntity
  8
0
100
AcDbCircle
 62
7
  6
CONTINUOUS
 10
3.2547563883
 20
5.6479959604
 40
0.90625
100
AcDbArc
 50
70.0
 51
173.0397067768
  0
ARC
  5
2B6
100
AcDbEntity
  8
0
100
AcDbCircle
 62
7
  6
CONTINUOUS
 10
4.8929855691
 20
6.6479959604
 40
0.59375
100
AcDbArc
 50
250.0
 51
270.0
  0
ARC
  5
2B7
100
AcDbEntity
  8
0
100
AcDbCircle
 62
7
  6
CONTINUOUS
 10
3.2547563883
 20
5.6479959604
 40
0.59375
100
AcDbArc
 50
70.0
 51
172.0071964443
  0
ARC
  5
2B8
100
AcDbEntity
  8
0
100
AcDbCircle
 62
7
  6
CONTINUOUS
 10
2.3078297499
 20
5.7303393966
 40
0.0315
100
AcDbArc
 50
85.0
 51
250.2875420391
  0
ARC
  5
2B9
100
AcDbEntity
  8
0
100
AcDbCircle
 62
7
  6
CONTINUOUS
 10
2.7073038238
 20
5.6953899437
 40
0.0315
100
AcDbArc
 50
279.7124579609
 51
85.0
  0
ARC
  5
2BA
100
AcDbEntity
  8
0
100
AcDbCircle
 62
7
  6
CONTINUOUS
 10
2.3165634504
 20
5.3491275783
 40
0.0155
100
AcDbArc
 50
180.6286931203
 51
265.0
  0
ARC
  5
2BB
100
AcDbEntity
  8
0
100
AcDbCircle
 62
7
  6
CONTINUOUS
 10
2.6325060703
 20
5.3214861808
 40
0.0155
100
AcDbArc
 50
265.0
 51
349.3713068797
  0
ARC
  5
2BC
100
AcDbEntity
  8
0
100
AcDbCircle
 62
7
  6
CONTINUOUS
 10
7.0626049516
 20
2.6204382339
 40
0.3
100
AcDbArc
 50
120.7845236694
 51
178.3416080219
  0
ARC
  5
2BD
100
AcDbEntity
  8
0
100
AcDbCircle
 62
7
  6
CONTINUOUS
 10
6.5827306096
 20
2.6291203416
 40
0.155
100
AcDbArc
 50
270.0
 51
360.0
  0
ARC
  5
2BE
100
AcDbEntity
  8
0
100
AcDbCircle
 62
7
  6
CONTINUOUS
 10
6.7087986651
 20
2.4041203416
 40
0.0935680556
100
AcDbArc
 50
92.1854050713
 51
180.0
  0
ARC
  5
2BF
100
AcDbEntity
  8
0
100
AcDbCircle
 62
7
  6
CONTINUOUS
 10
6.7987292726
 20
2.4981203416
 40
0.0935
100
AcDbArc
 50
90.0
 51
180.3063960032
  0
ARC
  5
2C0
100
AcDbEntity
  8
0
100
AcDbCircle
 62
7
  6
CONTINUOUS
 10
6.5827306096
 20
2.4591203416
 40
0.015
100
AcDbArc
 50
90.0
 51
180.0
  0
ARC
  5
2C1
100
AcDbEntity
  8
0
100
AcDbCircle
 62
7
  6
CONTINUOUS
 10
7.1903130734
 20
3.1030024533
 40
0.7473438606
100
AcDbArc
 50
90.0446551133
 51
92.1151144109
  0
ARC
  5
2C2
100
AcDbEntity
  8
0
100
AcDbCircle
 62
7
  6
CONTINUOUS
 10
7.1662262487
 20
3.2863965366
 40
0.5650571094
100
AcDbArc
 50
87.3532425516
 51
88.4663922313
  0
ARC
  5
2C3
100
AcDbEntity
  8
0
100
AcDbCircle
 62
7
  6
CONTINUOUS
 10
7.1662267621
 20
3.2862816323
 40
0.5646696296
100
AcDbArc
 50
87.7221805793
 51
88.4653917189
  0
ARC
  5
2C4
100
AcDbEntity
  8
0
100
AcDbCircle
 62
7
  6
CONTINUOUS
 10
6.6789611585
 20
3.2596220059
 40
0.3125
100
AcDbArc
 50
325.0110095298
 51
355.1903004544
  0
ARC
  5
2C5
100
AcDbEntity
  8
0
100
AcDbCircle
 62
7
  6
CONTINUOUS
 10
6.9814681701
 20
2.96898814
 40
0.1019875605
100
AcDbArc
 50
145.0110095298
 51
213.0478355064
  0
ARC
  5
2C6
100
AcDbEntity
  8
0
100
AcDbCircle
 62
7
  6
CONTINUOUS
 10
6.8240933427
 20
2.8666008293
 40
0.0857622668
100
AcDbArc
 50
314.9173576842
 51
33.0478355064
  0
ARC
  5
2C7
100
AcDbEntity
  8
0
100
AcDbCircle
 62
7
  6
CONTINUOUS
 10
7.0058061653
 20
3.2321203416
 40
0.0155
100
AcDbArc
 50
90.0
 51
175.1903004544
  0
ARC
  5
2C8
100
AcDbEntity
  8
0
100
AcDbCircle
 62
7
  6
CONTINUOUS
 10
7.3478562675
 20
2.6204382339
 40
0.3
100
AcDbArc
 50
1.6583919781
 51
59.2154763306
  0
ARC
  5
2C9
100
AcDbEntity
  8
0
100
AcDbCircle
 62
7
  6
CONTINUOUS
 10
7.8277306096
 20
2.6291203416
 40
0.155
100
AcDbArc
 50
180.0
 51
270.0
  0
ARC
  5
2CA
100
AcDbEntity
  8
0
100
AcDbCircle
 62
7
  6
CONTINUOUS
 10
7.701662554
 20
2.4041203416
 40
0.0935680556
100
AcDbArc
 50
0.0
 51
87.8145949287
  0
ARC
  5
2CB
100
AcDbEntity
  8
0
100
AcDbCircle
 62
7
  6
CONTINUOUS
 10
7.6117319465
 20
2.4981203416
 40
0.0935
100
AcDbArc
 50
359.6936039968
 51
90.0
  0
ARC
  5
2CC
100
AcDbEntity
  8
0
100
AcDbCircle
 62
7
  6
CONTINUOUS
 10
7.8277306096
 20
2.4591203416
 40
0.015
100
AcDbArc
 50
0.0
 51
90.0
  0
ARC
  5
2CD
100
AcDbEntity
  8
0
100
AcDbCircle
 62
7
  6
CONTINUOUS
 10
7.2052306096
 20
3.0797853339
 40
0.7753350077
100
AcDbArc
 50
88.6231111619
 51
91.1920956682
  0
ARC
  5
2CE
100
AcDbEntity
  8
0
100
AcDbCircle
 62
7
  6
CONTINUOUS
 10
7.2052306096
 20
3.0797853339
 40
0.7753188855
100
AcDbArc
 50
92.2545204889
 51
104.7630312681
  0
ARC
  5
2CF
100
AcDbEntity
  8
0
100
AcDbCircle
 62
7
  6
CONTINUOUS
 10
7.2052306096
 20
3.0797853339
 40
0.7753188855
100
AcDbArc
 50
75.2369687319
 51
87.5605752481
  0
ARC
  5
2D0
100
AcDbEntity
  8
0
100
AcDbCircle
 62
7
  6
CONTINUOUS
 10
7.2052306096
 20
3.0797853339
 40
0.7751750201
100
AcDbArc
 50
88.6239946244
 51
91.1911755502
  0
ARC
  5
2D1
100
AcDbEntity
  8
0
100
AcDbCircle
 62
7
  6
CONTINUOUS
 10
7.2052306096
 20
3.0797853339
 40
0.7748188751
100
AcDbArc
 50
92.2559761406
 51
93.1443391817
  0
ARC
  5
2D2
100
AcDbEntity
  8
0
100
AcDbCircle
 62
7
  6
CONTINUOUS
 10
7.2052306096
 20
3.0797853339
 40
0.7748188751
100
AcDbArc
 50
86.8926895707
 51
87.5590000722
  0
ARC
  5
2D3
100
AcDbEntity
  8
0
100
AcDbCircle
 62
7
  6
CONTINUOUS
 10
7.2052306096
 20
3.0797853339
 40
0.7746749168
100
AcDbArc
 50
88.6231061521
 51
91.1919446428
  0
ARC
  5
2D4
100
AcDbEntity
  8
0
100
AcDbCircle
 62
7
  6
CONTINUOUS
 10
7.2052306096
 20
3.0797853339
 40
0.7746000979
100
AcDbArc
 50
88.6229731319
 51
91.1920597897
  0
ARC
  5
2D5
100
AcDbEntity
  8
0
100
AcDbCircle
 62
7
  6
CONTINUOUS
 10
7.2052306096
 20
3.0797853339
 40
0.7740569257
100
AcDbArc
 50
86.889627857
 51
87.5565957966
  0
ARC
  5
2D6
100
AcDbEntity
  8
0
100
AcDbCircle
 62
7
  6
CONTINUOUS
 10
7.2052306096
 20
3.0797853339
 40
0.7694929332
100
AcDbArc
 50
92.2715987345
 51
93.1661244052
  0
ARC
  5
2D7
100
AcDbEntity
  8
0
100
AcDbCircle
 62
7
  6
CONTINUOUS
 10
7.2052306096
 20
3.0797853339
 40
0.7694929332
100
AcDbArc
 50
86.871161409
 51
87.5420946835
  0
ARC
  5
2D8
100
AcDbEntity
  8
0
100
AcDbCircle
 62
7
  6
CONTINUOUS
 10
7.2052306096
 20
3.0797853339
 40
0.7689891346
100
AcDbArc
 50
86.8691095275
 51
87.5404834123
  0
ARC
  5
2D9
100
AcDbEntity
  8
0
100
AcDbCircle
 62
7
  6
CONTINUOUS
 10
7.2052306096
 20
3.0797853339
 40
0.7689891346
100
AcDbArc
 50
92.2730877396
 51
93.1682007883
  0
ARC
  5
2DA
100
AcDbEntity
  8
0
100
AcDbCircle
 62
7
  6
CONTINUOUS
 10
7.2052306096
 20
3.0797853339
 40
0.7688591381
100
AcDbArc
 50
88.1413005927
 51
91.6723095547
  0
ARC
  5
2DB
100
AcDbEntity
  8
0
100
AcDbCircle
 62
7
  6
CONTINUOUS
 10
7.2052306096
 20
3.0797853339
 40
0.768354924
100
AcDbArc
 50
88.1400804383
 51
91.6734072789
  0
ARC
  5
2DC
100
AcDbEntity
  8
0
100
AcDbCircle
 62
7
  6
CONTINUOUS
 10
7.2052306096
 20
3.0797853339
 40
0.7662813403
100
AcDbArc
 50
87.7562904206
 51
92.0566497773
  0
ARC
  5
2DD
100
AcDbEntity
  8
0
100
AcDbCircle
 62
7
  6
CONTINUOUS
 10
7.7315000606
 20
3.2596220059
 40
0.3125
100
AcDbArc
 50
184.8096995456
 51
214.9889904702
  0
ARC
  5
2DE
100
AcDbEntity
  8
0
100
AcDbCircle
 62
7
  6
CONTINUOUS
 10
7.428993049
 20
2.96898814
 40
0.1019875605
100
AcDbArc
 50
326.9521644936
 51
34.9889904702
  0
ARC
  5
2DF
100
AcDbEntity
  8
0
100
AcDbCircle
 62
7
  6
CONTINUOUS
 10
7.5863678764
 20
2.8666008293
 40
0.0857622668
100
AcDbArc
 50
146.9521644936
 51
225.0826423158
  0
ARC
  5
2E0
100
AcDbEntity
  8
0
100
AcDbCircle
 62
7
  6
CONTINUOUS
 10
7.4046550538
 20
3.2321203416
 40
0.0155
100
AcDbArc
 50
4.8096995456
 51
90.0
  0
ARC
  5
2E1
100
AcDbEntity
  8
0
100
AcDbCircle
 62
7
  6
CONTINUOUS
 10
7.56938
 20
3.7236612494
 40
0.68
100
AcDbArc
 50
199.0137742001
 51
202.5744557109
  0
ARC
  5
2E2
100
AcDbEntity
  8
0
100
AcDbCircle
 62
7
  6
CONTINUOUS
 10
6.8410812191
 20
3.7236612494
 40
0.68
100
AcDbArc
 50
337.4255442891
 51
340.9862257999
  0
ARC
  5
2E3
100
AcDbEntity
  8
0
100
AcDbCircle
 62
7
  6
CONTINUOUS
 10
7.5742966319
 20
3.5003973358
 40
0.68
100
AcDbArc
 50
158.7260279914
 51
162.3017225173
  0
ARC
  5
2E4
100
AcDbEntity
  8
0
100
AcDbCircle
 62
7
  6
CONTINUOUS
 10
6.8361645872
 20
3.5003973358
 40
0.68
100
AcDbArc
 50
17.6982774827
 51
21.2739720086
  0
ARC
  5
2E5
100
AcDbEntity
  8
0
100
AcDbCircle
 62
7
  6
CONTINUOUS
 10
7.1911772559
 20
4.2533703416
 40
0.3228033537
100
AcDbArc
 50
324.607754503
 51
35.392245497
  0
ARC
  5
2E6
100
AcDbEntity
  8
0
100
AcDbCircle
 62
7
  6
CONTINUOUS
 10
7.2192839632
 20
4.2533703416
 40
0.3228033537
100
AcDbArc
 50
144.607754503
 51
215.392245497
  0
ARC
  5
2E7
100
AcDbEntity
  8
0
100
AcDbCircle
 62
7
  6
CONTINUOUS
 10
7.2082691608
 20
4.1241506203
 40
0.2857694664
100
AcDbArc
 50
272.4086250074
 51
272.7184061513
  0
ARC
  5
2E8
100
AcDbEntity
  8
0
100
AcDbCircle
 62
7
  6
CONTINUOUS
 10
7.2055538191
 20
4.1226519566
 40
0.2842644155
100
AcDbArc
 50
267.0932847827
 51
267.2192321515
  0
CIRCLE
  5
2E9
100
AcDbEntity
  8
0
100
AcDbCircle
 62
7
  6
CONTINUOUS
 10
7.2052306096
 20
3.6046203416
 40
0.2344999982
  0
ARC
  5
2EA
100
AcDbEntity
  8
0
100
AcDbCircle
 62
7
  6
CONTINUOUS
 10
7.2324092946
 20
3.6383375357
 40
0.2162616378
100
AcDbArc
 50
100.6830564132
 51
101.3818884568
  0
CIRCLE
  5
2EB
100
AcDbEntity
  8
0
100
AcDbCircle
 62
7
  6
CONTINUOUS
 10
7.2052306096
 20
3.6046203416
 40
0.14075
  0
CIRCLE
  5
2EC
100
AcDbEntity
  8
0
100
AcDbCircle
 62
7
  6
CONTINUOUS
 10
7.2052306096
 20
3.6046203416
 40
0.13075
  0
CIRCLE
  5
2ED
100
AcDbEntity
  8
0
100
AcDbCircle
 62
7
  6
CONTINUOUS
 10
7.2052306096
 20
3.6046203416
 40
0.125
  0
ARC
  5
2EE
100
AcDbEntity
  8
0
100
AcDbCircle
 62
7
  6
CONTINUOUS
 10
7.3989806096
 20
3.8150201681
 40
0.015
100
AcDbArc
 50
9.982355849
 51
75.2369687319
  0
ARC
  5
2EF
100
AcDbEntity
  8
0
100
AcDbCircle
 62
7
  6
CONTINUOUS
 10
7.0114806096
 20
3.8150201681
 40
0.015
100
AcDbArc
 50
104.7630312681
 51
170.017644151
  0
ARC
  5
2F0
100
AcDbEntity
  8
0
100
AcDbCircle
 62
7
  6
CONTINUOUS
 10
7.4640516296
 20
4.4691203416
 40
0.013
100
AcDbArc
 50
270.0
 51
18.4142808257
  0
ARC
  5
2F1
100
AcDbEntity
  8
0
100
AcDbCircle
 62
7
  6
CONTINUOUS
 10
7.4640516296
 20
4.0376203416
 40
0.013
100
AcDbArc
 50
341.5857191743
 51
90.0
  0
ARC
  5
2F2
100
AcDbEntity
  8
0
100
AcDbCircle
 62
7
  6
CONTINUOUS
 10
6.9464095895
 20
4.4691203416
 40
0.013
100
AcDbArc
 50
161.5857191743
 51
270.0
  0
ARC
  5
2F3
100
AcDbEntity
  8
0
100
AcDbCircle
 62
7
  6
CONTINUOUS
 10
6.9464095895
 20
4.0376203416
 40
0.013
100
AcDbArc
 50
90.0
 51
198.4142808257
  0
ARC
  5
2F4
100
AcDbEntity
  8
0
100
AcDbCircle
 62
7
  6
CONTINUOUS
 10
7.4624806096
 20
4.0606203416
 40
0.01
100
AcDbArc
 50
144.607754503
 51
270.0
  0
ARC
  5
2F5
100
AcDbEntity
  8
0
100
AcDbCircle
 62
7
  6
CONTINUOUS
 10
6.9479806096
 20
4.0606203416
 40
0.01
100
AcDbArc
 50
270.0
 51
35.392245497
  0
ARC
  5
2F6
100
AcDbEntity
  8
0
100
AcDbCircle
 62
7
  6
CONTINUOUS
 10
7.4624806096
 20
4.4461203416
 40
0.01
100
AcDbArc
 50
90.0
 51
215.392245497
  0
ARC
  5
2F7
100
AcDbEntity
  8
0
100
AcDbCircle
 62
7
  6
CONTINUOUS
 10
6.9479806096
 20
4.4461203416
 40
0.01
100
AcDbArc
 50
324.607754503
 51
90.0
  0
ARC
  5
2F8
100
AcDbEntity
  8
0
100
AcDbCircle
 62
7
  6
CONTINUOUS
 10
9.3739806096
 20
3.4017427656
 40
2.0
100
AcDbArc
 50
183.1199662919
 51
184.4197405775
  0
ARC
  5
2F9
100
AcDbEntity
  8
0
100
AcDbCircle
 62
7
  6
CONTINUOUS
 10
9.3739806096
 20
3.4017427656
 40
2.0
100
AcDbArc
 50
161.5857191743
 51
167.99820922
  0
ARC
  5
2FA
100
AcDbEntity
  8
0
100
AcDbCircle
 62
7
  6
CONTINUOUS
 10
9.3739806096
 20
5.1049979176
 40
2.0
100
AcDbArc
 50
167.6542069248
 51
198.4142808257
  0
ARC
  5
2FB
100
AcDbEntity
  8
0
100
AcDbCircle
 62
7
  6
CONTINUOUS
 10
7.2052306096
 20
5.8979959604
 40
0.355
100
AcDbArc
 50
306.4982543829
 51
343.4285225231
  0
ARC
  5
2FC
100
AcDbEntity
  8
0
100
AcDbCircle
 62
7
  6
CONTINUOUS
 10
7.2052306096
 20
5.8979959604
 40
0.355
100
AcDbArc
 50
212.2952327441
 51
233.5017456171
  0
ARC
  5
2FD
100
AcDbEntity
  8
0
100
AcDbCircle
 62
7
  6
CONTINUOUS
 10
7.2052306096
 20
5.8979959604
 40
0.355
100
AcDbArc
 50
117.2417872344
 51
147.7047672559
  0
ARC
  5
2FE
100
AcDbEntity
  8
0
100
AcDbCircle
 62
7
  6
CONTINUOUS
 10
7.2052306096
 20
5.8979959604
 40
0.355
100
AcDbArc
 50
16.5714774769
 51
62.7582127656
  0
ARC
  5
2FF
100
AcDbEntity
  8
0
100
AcDbCircle
 62
7
  6
CONTINUOUS
 10
7.4441492268
 20
6.449883831
 40
0.1176686173
100
AcDbArc
 50
134.6323133701
 51
231.4555849098
  0
ARC
  5
300
100
AcDbEntity
  8
0
100
AcDbCircle
 62
7
  6
CONTINUOUS
 10
6.9663119923
 20
6.449883831
 40
0.1176686173
100
AcDbArc
 50
308.5444150902
 51
45.36768663
  0
ARC
  5
301
100
AcDbEntity
  8
0
100
AcDbCircle
 62
7
  6
CONTINUOUS
 10
7.2989806096
 20
6.7136203416
 40
0.0625
100
AcDbArc
 50
0.0
 51
90.0
  0
ARC
  5
302
100
AcDbEntity
  8
0
100
AcDbCircle
 62
7
  6
CONTINUOUS
 10
7.1114806096
 20
6.7136203416
 40
0.0625
100
AcDbArc
 50
90.0
 51
180.0
  0
ARC
  5
303
100
AcDbEntity
  8
0
100
AcDbCircle
 62
7
  6
CONTINUOUS
 10
7.6857707656
 20
5.7819271572
 40
0.0532
100
AcDbArc
 50
40.9762844863
 51
146.1516146287
  0
ARC
  5
304
100
AcDbEntity
  8
0
100
AcDbCircle
 62
7
  6
CONTINUOUS
 10
7.6857707656
 20
6.023313526
 40
0.0532
100
AcDbArc
 50
213.8483853713
 51
319.0237155137
  0
ARC
  5
305
100
AcDbEntity
  8
0
100
AcDbCircle
 62
7
  6
CONTINUOUS
 10
7.8269855691
 20
5.8576203416
 40
0.045
100
AcDbArc
 50
270.0
 51
345.164888418
  0
ARC
  5
306
100
AcDbEntity
  8
0
100
AcDbCircle
 62
7
  6
CONTINUOUS
 10
7.8269855691
 20
5.9476203416
 40
0.045
100
AcDbArc
 50
14.835111582
 51
90.0
  0
ARC
  5
307
100
AcDbEntity
  8
0
100
AcDbCircle
 62
7
  6
CONTINUOUS
 10
7.3919806096
 20
6.6371203416
 40
0.045
100
AcDbArc
 50
0.0
 51
90.0
  0
ARC
  5
308
100
AcDbEntity
  8
0
100
AcDbCircle
 62
7
  6
CONTINUOUS
 10
7.3919806096
 20
6.6101203416
 40
0.045
100
AcDbArc
 50
270.0
 51
360.0
  0
ARC
  5
309
100
AcDbEntity
  8
0
100
AcDbCircle
 62
7
  6
CONTINUOUS
 10
7.0184806096
 20
6.6371203416
 40
0.045
100
AcDbArc
 50
90.0
 51
180.0
  0
ARC
  5
30A
100
AcDbEntity
  8
0
100
AcDbCircle
 62
7
  6
CONTINUOUS
 10
7.0184806096
 20
6.6101203416
 40
0.045
100
AcDbArc
 50
180.0
 51
270.0
  0
ARC
  5
30B
100
AcDbEntity
  8
0
100
AcDbCircle
 62
7
  6
CONTINUOUS
 10
7.4202306096
 20
5.5726203416
 40
0.04
100
AcDbArc
 50
270.0
 51
90.0
  0
ARC
  5
30C
100
AcDbEntity
  8
0
100
AcDbCircle
 62
7
  6
CONTINUOUS
 10
6.9902306096
 20
5.5726203416
 40
0.04
100
AcDbArc
 50
90.0
 51
270.0
  0
ARC
  5
30D
100
AcDbEntity
  8
0
100
AcDbCircle
 62
7
  6
CONTINUOUS
 10
6.825805878
 20
6.0699959604
 40
0.0315
100
AcDbArc
 50
33.20382253
 51
90.0
  0
ARC
  5
30E
100
AcDbEntity
  8
0
100
AcDbCircle
 62
7
  6
CONTINUOUS
 10
6.825805878
 20
5.7259959604
 40
0.0315
100
AcDbArc
 50
270.0
 51
326.79617747
  0
ARC
  5
30F
100
AcDbEntity
  8
0
100
AcDbCircle
 62
7
  6
CONTINUOUS
 10
6.8785197282
 20
6.1044959604
 40
0.0315
100
AcDbArc
 50
213.20382253
 51
327.7047672559
  0
ARC
  5
310
100
AcDbEntity
  8
0
100
AcDbCircle
 62
7
  6
CONTINUOUS
 10
6.8785197282
 20
5.6914959604
 40
0.0315
100
AcDbArc
 50
32.2952327441
 51
146.79617747
  0
ARC
  5
311
100
AcDbEntity
  8
0
100
AcDbCircle
 62
7
  6
CONTINUOUS
 10
6.5992355691
 20
6.1014959604
 40
0.03125
100
AcDbArc
 50
0.0
 51
180.0
  0
ARC
  5
312
100
AcDbEntity
  8
0
100
AcDbCircle
 62
7
  6
CONTINUOUS
 10
6.5992355691
 20
5.6944959604
 40
0.03125
100
AcDbArc
 50
180.0
 51
360.0
  0
ARC
  5
313
100
AcDbEntity
  8
0
100
AcDbCircle
 62
7
  6
CONTINUOUS
 10
7.7969855691
 20
5.7921203416
 40
0.03
100
AcDbArc
 50
270.0
 51
360.0
  0
ARC
  5
314
100
AcDbEntity
  8
0
100
AcDbCircle
 62
7
  6
CONTINUOUS
 10
7.7789855691
 20
5.7921203416
 40
0.03
100
AcDbArc
 50
180.0
 51
270.0
  0
ARC
  5
315
100
AcDbEntity
  8
0
100
AcDbCircle
 62
7
  6
CONTINUOUS
 10
7.7969855691
 20
6.0131203416
 40
0.03
100
AcDbArc
 50
0.0
 51
90.0
  0
ARC
  5
316
100
AcDbEntity
  8
0
100
AcDbCircle
 62
7
  6
CONTINUOUS
 10
7.7789855691
 20
6.0131203416
 40
0.03
100
AcDbArc
 50
90.0
 51
180.0
  0
ARC
  5
317
100
AcDbEntity
  8
0
100
AcDbCircle
 62
7
  6
CONTINUOUS
 10
7.6224855691
 20
5.8243703416
 40
0.023
100
AcDbArc
 50
270.0
 51
326.1516146287
  0
ARC
  5
318
100
AcDbEntity
  8
0
100
AcDbCircle
 62
7
  6
CONTINUOUS
 10
7.6224855691
 20
5.9808703416
 40
0.023
100
AcDbArc
 50
33.8483853713
 51
90.0
  0
ARC
  5
319
100
AcDbEntity
  8
0
100
AcDbCircle
 62
7
  6
CONTINUOUS
 10
7.3769806096
 20
6.6976203416
 40
0.0155
100
AcDbArc
 50
180.0
 51
270.0
  0
ARC
  5
31A
100
AcDbEntity
  8
0
100
AcDbCircle
 62
7
  6
CONTINUOUS
 10
7.0334806096
 20
6.6976203416
 40
0.0155
100
AcDbArc
 50
270.0
 51
360.0
  0
ARC
  5
31B
100
AcDbEntity
  8
0
100
AcDbCircle
 62
7
  6
CONTINUOUS
 10
7.3614806096
 20
6.3461203416
 40
0.015
100
AcDbArc
 50
0.0
 51
51.4555849098
  0
ARC
  5
31C
100
AcDbEntity
  8
0
100
AcDbCircle
 62
7
  6
CONTINUOUS
 10
7.0489806096
 20
6.3461203416
 40
0.015
100
AcDbArc
 50
128.5444150902
 51
180.0
  0
ARC
  5
31D
100
AcDbEntity
  8
0
100
AcDbCircle
 62
7
  6
CONTINUOUS
 10
7.7334855691
 20
5.8233703416
 40
0.01
100
AcDbArc
 50
220.9762844863
 51
270.0
  0
ARC
  5
31E
100
AcDbEntity
  8
0
100
AcDbCircle
 62
7
  6
CONTINUOUS
 10
7.7334855691
 20
5.9818703416
 40
0.01
100
AcDbArc
 50
90.0
 51
139.0237155137
  0
SPLINE
  5
31F
100
AcDbEntity
  8
0
100
AcDbSpline
 62
7
  6
CONTINUOUS
 70
0
 71
3
 72
27
 73
23
 74
0
 42
0.0000001
 43
0.0000001
 44
0.0000000001
 40
0.0
 40
0.0
 40
0.0
 40
0.0
 40
0.1936769894
 40
0.3799050858
 40
0.5515680143
 40
0.6298692935
 40
0.7021432235
 40
0.7677066994
 40
0.8259427046
 40
0.8763122078
 40
0.898402207
 40
0.9183628004
 40
0.9361520057
 40
0.9517391561
 40
0.9650995482
 40
0.9762244374
 40
0.9851292139
 40
0.9918708568
 40
0.9944823132
 40
0.9966415604
 40
0.9984323711
 40
1.0
 40
1.0
 40
1.0
 40
1.0
 10
7.1891159319
 20
3.8542177899
 30
0.0
 10
7.1881393676
 20
3.8541974692
 30
0.0
 10
7.1862240166
 20
3.8541459547
 30
0.0
 10
7.1834443832
 20
3.8540360171
 30
0.0
 10
7.1812475805
 20
3.8539181293
 30
0.0
 10
7.1796260637
 20
3.8538091659
 30
0.0
 10
7.1785392408
 20
3.8537249739
 30
0.0
 10
7.1775542975
 20
3.8536366818
 30
0.0
 10
7.1766806513
 20
3.8535451733
 30
0.0
 10
7.1760264638
 20
3.8534639791
 30
0.0
 10
7.1755651885
 20
3.853396946
 30
0.0
 10
7.1752672679
 20
3.8533486589
 30
0.0
 10
7.1750026401
 20
3.8533002641
 30
0.0
 10
7.1747719036
 20
3.8532519222
 30
0.0
 10
7.1745755835
 20
3.8532037808
 30
0.0
 10
7.1744139668
 20
3.8531560466
 30
0.0
 10
7.1742873904
 20
3.8531088755
 30
0.0
 10
7.1742046267
 20
3.8530674339
 30
0.0
 10
7.1741576748
 20
3.8530330117
 30
0.0
 10
7.1741342527
 20
3.8530093642
 30
0.0
 10
7.1741195159
 20
3.8529853462
 30
0.0
 10
7.1741159319
 20
3.8529683097
 30
0.0
 10
7.1741159319
 20
3.8529604037
 30
0.0
  0
SPLINE
  5
320
100
AcDbEntity
  8
0
100
AcDbSpline
 62
7
  6
CONTINUOUS
 70
0
 71
3
 72
21
 73
17
 74
0
 42
0.0000001
 43
0.0000001
 44
0.0000000001
 40
0.0
 40
0.0
 40
0.0
 40
0.0
 40
0.2006707661
 40
0.3795535919
 40
0.4605749858
 40
0.5358888489
 40
0.6054583325
 40
0.6692882633
 40
0.7274262585
 40
0.7799796901
 40
0.8271418485
 40
0.8692171652
 40
0.9066828903
 40
0.9402459536
 40
0.9709109259
 40
1.0
 40
1.0
 40
1.0
 40
1.0
 10
7.1724954602
 20
3.8368124127
 30
0.0
 10
7.171750595
 20
3.8369745611
 30
0.0
 10
7.1703468404
 20
3.8373055578
 30
0.0
 10
7.1686625449
 20
3.8377823276
 30
0.0
 10
7.1674535395
 20
3.8381828426
 30
0.0
 10
7.1666480769
 20
3.8384794791
 30
0.0
 10
7.1659148744
 20
3.8387818029
 30
0.0
 10
7.1652550846
 20
3.8390892442
 30
0.0
 10
7.1646696917
 20
3.8394012596
 30
0.0
 10
7.1641595249
 20
3.8397173768
 30
0.0
 10
7.163725194
 20
3.8400371348
 30
0.0
 10
7.1633672257
 20
3.8403603814
 30
0.0
 10
7.1630860848
 20
3.8406871517
 30
0.0
 10
7.1628826616
 20
3.8410179867
 30
0.0
 10
7.1627587616
 20
3.8413528865
 30
0.0
 10
7.1627306096
 20
3.8415807046
 30
0.0
 10
7.1627306096
 20
3.8416912085
 30
0.0
  0
SPLINE
  5
321
100
AcDbEntity
  8
0
100
AcDbSpline
 62
7
  6
CONTINUOUS
 70
0
 71
3
 72
21
 73
17
 74
0
 42
0.0000001
 43
0.0000001
 44
0.0000000001
 40
0.0
 40
0.0
 40
0.0
 40
0.0
 40
0.0292254934
 40
0.0600169025
 40
0.0936863851
 40
0.1312337608
 40
0.1733650168
 40
0.220558377
 40
0.2731202566
 40
0.3312461783
 40
0.3950459025
 40
0.464569548
 40
0.539824367
 40
0.6207761571
 40
0.7994985981
 40
1.0
 40
1.0
 40
1.0
 40
1.0
 10
7.2472306096
 20
3.8417189345
 30
0.0
 10
7.2472306096
 20
3.8416092179
 30
0.0
 10
7.2472028736
 20
3.8413830986
 30
0.0
 10
7.2470807773
 20
3.841050553
 30
0.0
 10
7.2468802612
 20
3.8407219187
 30
0.0
 10
7.24660309
 20
3.8403972177
 30
0.0
 10
7.2462501442
 20
3.8400759298
 30
0.0
 10
7.245821885
 20
3.8397580198
 30
0.0
 10
7.2453188282
 20
3.8394436337
 30
0.0
 10
7.2447415672
 20
3.83913322
 30
0.0
 10
7.2440909077
 20
3.8388272389
 30
0.0
 10
7.2433678052
 20
3.838526222
 30
0.0
 10
7.2425733796
 20
3.8382307265
 30
0.0
 10
7.2413808562
 20
3.8378315467
 30
0.0
 10
7.239719197
 20
3.8373558916
 30
0.0
 10
7.2383340648
 20
3.8370252182
 30
0.0
 10
7.237599018
 20
3.8368631101
 30
0.0
  0
SPLINE
  5
322
100
AcDbEntity
  8
0
100
AcDbSpline
 62
7
  6
CONTINUOUS
 70
0
 71
3
 72
17
 73
13
 74
0
 42
0.0000001
 43
0.0000001
 44
0.0000000001
 40
0.0
 40
0.0
 40
0.0
 40
0.0
 40
0.0273594956
 40
0.0608483178
 40
0.1002741432
 40
0.1454112276
 40
0.2516789999
 40
0.3770094732
 40
0.5182418486
 40
0.6717950351
 40
0.8337598961
 40
1.0
 40
1.0
 40
1.0
 40
1.0
 10
7.2382306096
 20
3.853138503
 30
0.0
 10
7.2381025312
 20
3.8531689136
 30
0.0
 10
7.237815556
 20
3.8532275355
 30
0.0
 10
7.2373396623
 20
3.8533071849
 30
0.0
 10
7.2367771894
 20
3.8533866166
 30
0.0
 10
7.2358657023
 20
3.8534975481
 30
0.0
 10
7.234540423
 20
3.8536277653
 30
0.0
 10
7.2327519811
 20
3.8537679665
 30
0.0
 10
7.2307345396
 20
3.8538950573
 30
0.0
 10
7.2285396385
 20
3.8540056377
 30
0.0
 10
7.2262234248
 20
3.8540966666
 30
0.0
 10
7.2246449137
 20
3.85414251
 30
0.0
 10
7.2238452872
 20
3.8541617317
 30
0.0
  0
SPLINE
  5
323
100
AcDbEntity
  8
0
100
AcDbSpline
 62
7
  6
CONTINUOUS
 70
0
 71
3
 72
21
 73
17
 74
0
 42
0.0000001
 43
0.0000001
 44
0.0000000001
 40
0.0
 40
0.0
 40
0.0
 40
0.0
 40
0.0075639842
 40
0.0158652517
 40
0.0253878956
 40
0.0364490653
 40
0.0638528251
 40
0.0988477916
 40
0.1415842785
 40
0.1919101777
 40
0.2495308132
 40
0.3140120338
 40
0.4614144497
 40
0.6290720368
 40
0.8108828852
 40
1.0
 40
1.0
 40
1.0
 40
1.0
 10
7.2382306096
 20
3.8448867957
 30
0.0
 10
7.2382306096
 20
3.8448946647
 30
0.0
 10
7.2382279049
 20
3.8449112474
 30
0.0
 10
7.2382164498
 20
3.8449353277
 30
0.0
 10
7.2381979529
 20
3.8449592285
 30
0.0
 10
7.2381613791
 20
3.8449934315
 30
0.0
 10
7.2380965578
 20
3.8450348492
 30
0.0
 10
7.2379974635
 20
3.8450814115
 30
0.0
 10
7.2378723062
 20
3.8451274672
 30
0.0
 10
7.237722122
 20
3.8451726007
 30
0.0
 10
7.2375480908
 20
3.8452163003
 30
0.0
 10
7.2372738236
 20
3.8452747126
 30
0.0
 10
7.2368840999
 20
3.8453393194
 30
0.0
 10
7.2363709112
 20
3.8454021368
 30
0.0
 10
7.2358125879
 20
3.8454504516
 30
0.0
 10
7.2354272025
 20
3.8454714948
 30
0.0
 10
7.2352306096
 20
3.8454791973
 30
0.0
  0
SPLINE
  5
324
100
AcDbEntity
  8
0
100
AcDbSpline
 62
7
  6
CONTINUOUS
 70
0
 71
3
 72
21
 73
17
 74
0
 42
0.0000001
 43
0.0000001
 44
0.0000000001
 40
0.0
 40
0.0
 40
0.0
 40
0.0
 40
0.1891797553
 40
0.3710468056
 40
0.538743166
 40
0.6861579094
 40
0.7506336082
 40
0.8082408148
 40
0.8585459043
 40
0.9012552169
 40
0.9362185116
 40
0.9635892983
 40
0.9746353367
 40
0.9841453266
 40
0.9924381957
 40
1.0
 40
1.0
 40
1.0
 40
1.0
 10
7.1777306096
 20
3.8455730607
 30
0.0
 10
7.1775340353
 20
3.8455660015
 30
0.0
 10
7.1771486714
 20
3.845546221
 30
0.0
 10
7.1765903369
 20
3.8454997359
 30
0.0
 10
7.1760771184
 20
3.8454385992
 30
0.0
 10
7.1756873567
 20
3.8453752668
 30
0.0
 10
7.1754130646
 20
3.8453177498
 30
0.0
 10
7.1752390348
 20
3.8452746219
 30
0.0
 10
7.1750888587
 20
3.845229984
 30
0.0
 10
7.1749637146
 20
3.845184344
 30
0.0
 10
7.1748646359
 20
3.8451381146
 30
0.0
 10
7.1747998214
 20
3.8450969144
 30
0.0
 10
7.1747632542
 20
3.8450628359
 30
0.0
 10
7.1747447614
 20
3.8450389993
 30
0.0
 10
7.17473331
 20
3.8450149588
 30
0.0
 10
7.1747306096
 20
3.8449983955
 30
0.0
 10
7.1747306096
 20
3.844990533
 30
0.0
  0
SPLINE
  5
325
100
AcDbEntity
  8
0
100
AcDbSpline
 62
7
  6
CONTINUOUS
 70
0
 71
3
 72
25
 73
21
 74
0
 42
0.0000001
 43
0.0000001
 44
0.0000000001
 40
0.0
 40
0.0
 40
0.0
 40
0.0
 40
0.2144884731
 40
0.4081404673
 40
0.496162512
 40
0.5778472724
 40
0.652865922
 40
0.7209364403
 40
0.7818032381
 40
0.8352589889
 40
0.8811326792
 40
0.9193245167
 40
0.9355310827
 40
0.9498230974
 40
0.9622275297
 40
0.9727928724
 40
0.9816076234
 40
0.988837516
 40
0.9947881682
 40
1.0
 40
1.0
 40
1.0
 40
1.0
 10
7.1813490467
 20
3.8507487324
 30
0.0
 10
7.1808221916
 20
3.8507628468
 30
0.0
 10
7.1798198218
 20
3.8507962761
 30
0.0
 10
7.1786020606
 20
3.8508565896
 30
0.0
 10
7.1777110972
 20
3.8509148713
 30
0.0
 10
7.1771115287
 20
3.8509612494
 30
0.0
 10
7.1765614802
 20
3.851011491
 30
0.0
 10
7.1760631898
 20
3.8510653444
 30
0.0
 10
7.1756186436
 20
3.8511225731
 30
0.0
 10
7.175229586
 20
3.8511828448
 30
0.0
 10
7.1748975337
 20
3.8512458998
 30
0.0
 10
7.1746576881
 20
3.8513030276
 30
0.0
 10
7.1744958725
 20
3.8513511908
 30
0.0
 10
7.1743962603
 20
3.8513858441
 30
0.0
 10
7.1743116355
 20
3.8514209797
 30
0.0
 10
7.1742419988
 20
3.8514565826
 30
0.0
 10
7.1741872663
 20
3.8514926972
 30
0.0
 10
7.1741472846
 20
3.8515295572
 30
0.0
 10
7.1741220225
 20
3.8515678158
 30
0.0
 10
7.1741159319
 20
3.8515954367
 30
0.0
 10
7.1741159319
 20
3.8516082433
 30
0.0
  0
SPLINE
  5
326
100
AcDbEntity
  8
0
100
AcDbSpline
 62
7
  6
CONTINUOUS
 70
0
 71
3
 72
14
 73
10
 74
0
 42
0.0000001
 43
0.0000001
 44
0.0000000001
 40
0.0
 40
0.0
 40
0.0
 40
0.0
 40
0.3054729116
 40
0.4508337138
 40
0.5875294793
 40
0.7129597733
 40
0.8247903822
 40
0.9210184128
 40
1.0
 40
1.0
 40
1.0
 40
1.0
 10
7.1827928673
 20
3.847812571
 30
0.0
 10
7.1819701783
 20
3.8477885363
 30
0.0
 10
7.1807552906
 20
3.8477723052
 30
0.0
 10
7.179172374
 20
3.8477931904
 30
0.0
 10
7.1780749769
 20
3.8478290428
 30
0.0
 10
7.1770688548
 20
3.8478844761
 30
0.0
 10
7.1761731967
 20
3.8479581442
 30
0.0
 10
7.1754049597
 20
3.8480483817
 30
0.0
 10
7.174938889
 20
3.8481257428
 30
0.0
 10
7.1747306096
 20
3.848169378
 30
0.0
  0
SPLINE
  5
327
100
AcDbEntity
  8
0
100
AcDbSpline
 62
7
  6
CONTINUOUS
 70
0
 71
3
 72
14
 73
10
 74
0
 42
0.0000001
 43
0.0000001
 44
0.0000000001
 40
0.0
 40
0.0
 40
0.0
 40
0.0
 40
0.0789559765
 40
0.1751696297
 40
0.2869959918
 40
0.4124298704
 40
0.549134197
 40
0.694505742
 40
1.0
 40
1.0
 40
1.0
 40
1.0
 10
7.2382306096
 20
3.8480660698
 30
0.0
 10
7.2380222922
 20
3.8480230987
 30
0.0
 10
7.2375561489
 20
3.8479472364
 30
0.0
 10
7.2367878501
 20
3.847859486
 30
0.0
 10
7.2358921213
 20
3.8477887249
 30
0.0
 10
7.2348859409
 20
3.8477365639
 30
0.0
 10
7.2337885212
 20
3.847704286
 30
0.0
 10
7.2322056518
 20
3.8476885604
 30
0.0
 10
7.2309909032
 20
3.8477087505
 30
0.0
 10
7.2301683518
 20
3.8477354613
 30
0.0
  0
SPLINE
  5
328
100
AcDbEntity
  8
0
100
AcDbSpline
 62
7
  6
CONTINUOUS
 70
0
 71
3
 72
23
 73
19
 74
0
 42
0.0000001
 43
0.0000001
 44
0.0000000001
 40
0.0
 40
0.0
 40
0.0
 40
0.0
 40
0.0101403191
 40
0.0206454994
 40
0.0318564948
 40
0.0440535877
 40
0.0721740287
 40
0.106176681
 40
0.1466092835
 40
0.1937048156
 40
0.2475100923
 40
0.3079571948
 40
0.3748869289
 40
0.4480795311
 40
0.5272538795
 40
0.6120852414
 40
0.797191154
 40
1.0
 40
1.0
 40
1.0
 40
1.0
 10
7.2382306096
 20
3.8420423362
 30
0.0
 10
7.2382306096
 20
3.8419920574
 30
0.0
 10
7.2382201696
 20
3.8418894157
 30
0.0
 10
7.2381736946
 20
3.841737549
 30
0.0
 10
7.2380969159
 20
3.841587102
 30
0.0
 10
7.2379475618
 20
3.841378846
 30
0.0
 10
7.2376771926
 20
3.8411240102
 30
0.0
 10
7.2372540133
 20
3.8408398106
 30
0.0
 10
7.2367177621
 20
3.8405627297
 30
0.0
 10
7.2360699864
 20
3.840293901
 30
0.0
 10
7.2353127802
 20
3.8400344215
 30
0.0
 10
7.2344492292
 20
3.8397857306
 30
0.0
 10
7.2334830752
 20
3.8395491177
 30
0.0
 10
7.2324187105
 20
3.839325945
 30
0.0
 10
7.2312611062
 20
3.8391173947
 30
0.0
 10
7.2295503109
 20
3.8388527201
 30
0.0
 10
7.2272225274
 20
3.8385717054
 30
0.0
 10
7.2253057178
 20
3.8384082722
 30
0.0
 10
7.2243026162
 20
3.8383375968
 30
0.0
  0
SPLINE
  5
329
100
AcDbEntity
  8
0
100
AcDbSpline
 62
7
  6
CONTINUOUS
 70
0
 71
3
 72
26
 73
22
 74
0
 42
0.0000001
 43
0.0000001
 44
0.0000000001
 40
0.0
 40
0.0
 40
0.0
 40
0.0
 40
0.2033289568
 40
0.2983385544
 40
0.3883472406
 40
0.4729814616
 40
0.5519017632
 40
0.6248148241
 40
0.6914668967
 40
0.7516639069
 40
0.8052723943
 40
0.8295916271
 40
0.852253933
 40
0.8732736917
 40
0.8926755308
 40
0.9267722066
 40
0.9551239427
 40
0.9674892045
 40
0.9788996446
 40
0.9896273094
 40
1.0
 40
1.0
 40
1.0
 40
1.0
 10
7.187833784
 20
3.8384605965
 30
0.0
 10
7.1868841712
 20
3.8385386155
 30
0.0
 10
7.185492309
 20
3.8386734749
 30
0.0
 10
7.1836863664
 20
3.8388984778
 30
0.0
 10
7.182435699
 20
3.8390795284
 30
0.0
 10
7.1812636823
 20
3.8392757002
 30
0.0
 10
7.1801755861
 20
3.8394860175
 30
0.0
 10
7.1791762357
 20
3.8397093453
 30
0.0
 10
7.1782699445
 20
3.8399445763
 30
0.0
 10
7.1774605796
 20
3.8401904837
 30
0.0
 10
7.1768511837
 20
3.8404098367
 30
0.0
 10
7.1764161499
 20
3.8405915601
 30
0.0
 10
7.1761268609
 20
3.8407253784
 30
0.0
 10
7.1758640517
 20
3.8408609902
 30
0.0
 10
7.1755621359
 20
3.8410366812
 30
0.0
 10
7.1752470596
 20
3.8412571889
 30
0.0
 10
7.1749946928
 20
3.8415046161
 30
0.0
 10
7.1748554194
 20
3.8417061765
 30
0.0
 10
7.1747837195
 20
3.8418518652
 30
0.0
 10
7.1747403501
 20
3.8419987273
 30
0.0
 10
7.1747306096
 20
3.8420978535
 30
0.0
 10
7.1747306096
 20
3.8421464606
 30
0.0
  0
SPLINE
  5
32A
100
AcDbEntity
  8
0
100
AcDbSpline
 62
7
  6
CONTINUOUS
 70
0
 71
3
 72
33
 73
29
 74
0
 42
0.0000001
 43
0.0000001
 44
0.0000000001
 40
0.0
 40
0.0
 40
0.0
 40
0.0
 40
0.0635295583
 40
0.0951846298
 40
0.1267616394
 40
0.1582587363
 40
0.1896747094
 40
0.2522550359
 40
0.3145209923
 40
0.3455523738
 40
0.3765222755
 40
0.4074400404
 40
0.4383169227
 40
0.4691656633
 40
0.5
 40
0.5308343367
 40
0.5616830774
 40
0.5925599596
 40
0.6234777245
 40
0.6544476262
 40
0.6854790077
 40
0.7477449641
 40
0.8103252906
 40
0.8417412636
 40
0.8732383605
 40
0.9048153701
 40
0.9364704417
 40
1.0
 40
1.0
 40
1.0
 40
1.0
 10
7.5334806096
 20
2.7475926128
 30
0.0
 10
7.5271025743
 20
2.7512643657
 30
0.0
 10
7.5174394708
 20
2.756583825
 30
0.0
 10
7.5043502165
 20
2.7632419656
 30
0.0
 10
7.4944532944
 20
2.7679850943
 30
0.0
 10
7.484463958
 20
2.7724635581
 30
0.0
 10
7.4710400859
 20
2.7780475495
 30
0.0
 10
7.4540273796
 20
2.7842667846
 30
0.0
 10
7.4366781069
 20
2.7893321077
 30
0.0
 10
7.4226536137
 20
2.7925923581
 30
0.0
 10
7.4120796981
 20
2.7946216219
 30
0.0
 10
7.4014501145
 20
2.7962199079
 30
0.0
 10
7.3907769579
 20
2.7973727126
 30
0.0
 10
7.3800738949
 20
2.7980688906
 30
0.0
 10
7.3693556095
 20
2.7983016961
 30
0.0
 10
7.3586373241
 20
2.7980688906
 30
0.0
 10
7.3479342611
 20
2.7973727126
 30
0.0
 10
7.3372611045
 20
2.7962199079
 30
0.0
 10
7.3266315209
 20
2.7946216219
 30
0.0
 10
7.3160576053
 20
2.792592358
 30
0.0
 10
7.3020331122
 20
2.7893321077
 30
0.0
 10
7.2846838395
 20
2.7842667846
 30
0.0
 10
7.2676711332
 20
2.7780475494
 30
0.0
 10
7.254247261
 20
2.7724635581
 30
0.0
 10
7.2442579246
 20
2.7679850942
 30
0.0
 10
7.2343610025
 20
2.7632419655
 30
0.0
 10
7.2212717482
 20
2.756583825
 30
0.0
 10
7.2116086448
 20
2.7512643655
 30
0.0
 10
7.2052306096
 20
2.7475926126
 30
0.0
  0
SPLINE
  5
32B
100
AcDbEntity
  8
0
100
AcDbSpline
 62
7
  6
CONTINUOUS
 70
0
 71
3
 72
18
 73
14
 74
0
 42
0.0000001
 43
0.0000001
 44
0.0000000001
 40
0.0
 40
0.0
 40
0.0
 40
0.0
 40
0.0624686425
 40
0.1249458983
 40
0.1874455391
 40
0.2499584746
 40
0.3436860631
 40
0.4374392035
 40
0.5312019961
 40
0.6249690444
 40
0.7187368579
 40
0.8125023796
 40
1.0
 40
1.0
 40
1.0
 40
1.0
 10
7.1351413807
 20
6.3461203416
 30
0.0
 10
7.1351413807
 20
6.346546893
 30
0.0
 10
7.1352317134
 20
6.3474025651
 30
0.0
 10
7.1356190667
 20
6.3486300414
 30
0.0
 10
7.136213458
 20
6.3497702498
 30
0.0
 10
7.137091751
 20
6.3509834636
 30
0.0
 10
7.1382922796
 20
6.352207491
 30
0.0
 10
7.139810339
 20
6.3533901541
 30
0.0
 10
7.1414400326
 20
6.3544115409
 30
0.0
 10
7.1431458503
 20
6.3552979939
 30
0.0
 10
7.1449054847
 20
6.3560710045
 30
0.0
 10
7.1473031503
 20
6.3569728996
 30
0.0
 10
7.1491452482
 20
6.3575255674
 30
0.0
 10
7.1503831554
 20
6.3578522219
 30
0.0
  0
SPLINE
  5
32C
100
AcDbEntity
  8
0
100
AcDbSpline
 62
7
  6
CONTINUOUS
 70
0
 71
3
 72
14
 73
10
 74
0
 42
0.0000001
 43
0.0000001
 44
0.0000000001
 40
0.0
 40
0.0
 40
0.0
 40
0.0
 40
0.2499887426
 40
0.3749891793
 40
0.4999909801
 40
0.624993562
 40
0.749994822
 40
0.8749986533
 40
1.0
 40
1.0
 40
1.0
 40
1.0
 10
7.1503831554
 20
6.3578522219
 30
0.0
 10
7.1548653803
 20
6.3590349754
 30
0.0
 10
7.161616345
 20
6.3607113053
 30
0.0
 10
7.1706906426
 20
6.3626184112
 30
0.0
 10
7.1775356755
 20
6.3638505327
 30
0.0
 10
7.1844186769
 20
6.3648512574
 30
0.0
 10
7.1913350307
 20
6.365590825
 30
0.0
 10
7.1982760671
 20
6.3660451229
 30
0.0
 10
7.2029126555
 20
6.3661473204
 30
0.0
 10
7.2052306096
 20
6.3661473204
 30
0.0
  0
SPLINE
  5
32D
100
AcDbEntity
  8
0
100
AcDbSpline
 62
7
  6
CONTINUOUS
 70
0
 71
3
 72
21
 73
17
 74
0
 42
0.0000001
 43
0.0000001
 44
0.0000000001
 40
0.0
 40
0.0
 40
0.0
 40
0.0
 40
0.0625028129
 40
0.1250108962
 40
0.1875207088
 40
0.2500284439
 40
0.3437856541
 40
0.4375420297
 40
0.5312953819
 40
0.6250422375
 40
0.718772073
 40
0.8124566964
 40
0.8593487229
 40
0.906234036
 40
0.9531200879
 40
1.0
 40
1.0
 40
1.0
 40
1.0
 10
7.2600780637
 20
6.3578522219
 30
0.0
 10
7.2604907674
 20
6.3577433192
 30
0.0
 10
7.2613138002
 20
6.3575162163
 30
0.0
 10
7.2625394697
 20
6.3571447882
 30
0.0
 10
7.2637545856
 20
6.3567399023
 30
0.0
 10
7.2651570815
 20
6.3562244202
 30
0.0
 10
7.2667339731
 20
6.3555673755
 30
0.0
 10
7.268459724
 20
6.3547208161
 30
0.0
 10
7.270117864
 20
6.3537471621
 30
0.0
 10
7.2716783261
 20
6.3526213208
 30
0.0
 10
7.2730921339
 20
6.3513139448
 30
0.0
 10
7.2740831814
 20
6.3500438889
 30
0.0
 10
7.2746968395
 20
6.3489172588
 30
0.0
 10
7.2750479815
 20
6.3480199813
 30
0.0
 10
7.2752692907
 20
6.3470819038
 30
0.0
 10
7.2753198384
 20
6.3464404835
 30
0.0
 10
7.2753198384
 20
6.3461203416
 30
0.0
  0
SPLINE
  5
32E
100
AcDbEntity
  8
0
100
AcDbSpline
 62
7
  6
CONTINUOUS
 70
0
 71
3
 72
14
 73
10
 74
0
 42
0.0000001
 43
0.0000001
 44
0.0000000001
 40
0.0
 40
0.0
 40
0.0
 40
0.0
 40
0.1250013675
 40
0.2500052406
 40
0.3750065135
 40
0.5000091035
 40
0.6250108874
 40
0.7500113054
 40
1.0
 40
1.0
 40
1.0
 40
1.0
 10
7.2052306096
 20
6.3661473204
 30
0.0
 10
7.207548564
 20
6.3661473204
 30
0.0
 10
7.2121851536
 20
6.3660451223
 30
0.0
 10
7.2191261913
 20
6.3655908241
 30
0.0
 10
7.2260425464
 20
6.3648512572
 30
0.0
 10
7.2329255479
 20
6.3638505325
 30
0.0
 10
7.2397705801
 20
6.36261841
 30
0.0
 10
7.2488448763
 20
6.3607113053
 30
0.0
 10
7.2555958397
 20
6.3590349752
 30
0.0
 10
7.2600780637
 20
6.3578522219
 30
0.0
  0
SPLINE
  5
32F
100
AcDbEntity
  8
0
100
AcDbSpline
 62
7
  6
CONTINUOUS
 70
0
 71
3
 72
30
 73
26
 74
0
 42
0.0000001
 43
0.0000001
 44
0.0000000001
 40
0.0
 40
0.0
 40
0.0
 40
0.0
 40
0.063530756
 40
0.1267593141
 40
0.1896674345
 40
0.2522486632
 40
0.3145155134
 40
0.3455473422
 40
0.3765176869
 40
0.4074358968
 40
0.4383132248
 40
0.4691624058
 40
0.4999971867
 40
0.5308319674
 40
0.5616811478
 40
0.5925584749
 40
0.6234766837
 40
0.6544470269
 40
0.6854788542
 40
0.7477457007
 40
0.8103269247
 40
0.8417433465
 40
0.8732408937
 40
0.9364694593
 40
1.0
 40
1.0
 40
1.0
 40
1.0
 10
7.2052306096
 20
2.7475916502
 30
0.0
 10
7.1988525371
 20
2.7512634246
 30
0.0
 10
7.1859855474
 20
2.7583483559
 30
0.0
 10
7.1662879155
 20
2.7680993578
 30
0.0
 10
7.1462181555
 20
2.776794279
 30
0.0
 10
7.1257778179
 20
2.7842666553
 30
0.0
 10
7.1084283018
 20
2.7893320558
 30
0.0
 10
7.0944038214
 20
2.7925923138
 30
0.0
 10
7.0838298871
 20
2.7946215902
 30
0.0
 10
7.0732002916
 20
2.7962198848
 30
0.0
 10
7.0625271209
 20
2.7973726987
 30
0.0
 10
7.0518240438
 20
2.7980688847
 30
0.0
 10
7.041105744
 20
2.7983016958
 30
0.0
 10
7.030387444
 20
2.7980688964
 30
0.0
 10
7.0196843662
 20
2.7973727219
 30
0.0
 10
7.009011195
 20
2.7962199194
 30
0.0
 10
6.9983815967
 20
2.7946216355
 30
0.0
 10
6.9878076666
 20
2.7925923711
 30
0.0
 10
6.9737831551
 20
2.7893321198
 30
0.0
 10
6.9564338555
 20
2.7842667873
 30
0.0
 10
6.9394211388
 20
2.7780475601
 30
0.0
 10
6.9259972233
 20
2.7724635336
 30
0.0
 10
6.9126619302
 20
2.7664850328
 30
0.0
 10
6.896225933
 20
2.7583480302
 30
0.0
 10
6.883358663
 20
2.7512641271
 30
0.0
 10
6.8769806096
 20
2.7475923696
 30
0.0
  0
SPLINE
  5
330
100
AcDbEntity
  8
0
100
AcDbSpline
 62
7
  6
CONTINUOUS
 70
0
 71
3
 72
25
 73
21
 74
0
 42
0.0000001
 43
0.0000001
 44
0.0000000001
 40
0.0
 40
0.0
 40
0.0
 40
0.0
 40
0.0052086976
 40
0.0111566891
 40
0.0183844945
 40
0.0271976446
 40
0.0377617656
 40
0.0501652714
 40
0.0644565949
 40
0.0806626626
 40
0.1188539717
 40
0.1647276214
 40
0.2181837185
 40
0.2790511808
 40
0.3471226315
 40
0.4221424421
 40
0.50382856
 40
0.5918521319
 40
0.785507606
 40
1.0
 40
1.0
 40
1.0
 40
1.0
 10
7.1741159319
 20
3.8521101934
 30
0.0
 10
7.1741159319
 20
3.8520973947
 30
0.0
 10
7.1741220238
 20
3.8520697887
 30
0.0
 10
7.1741472874
 20
3.8520315553
 30
0.0
 10
7.174187269
 20
3.8519947203
 30
0.0
 10
7.1742420012
 20
3.8519586298
 30
0.0
 10
7.1743116377
 20
3.8519230505
 30
0.0
 10
7.1743962623
 20
3.8518879379
 30
0.0
 10
7.1744958745
 20
3.8518533073
 30
0.0
 10
7.1746576913
 20
3.8518051752
 30
0.0
 10
7.1748975377
 20
3.8517480846
 30
0.0
 10
7.1752295901
 20
3.8516850708
 30
0.0
 10
7.1756186478
 20
3.8516248384
 30
0.0
 10
7.1760631943
 20
3.851567647
 30
0.0
 10
7.1765614848
 20
3.8515138287
 30
0.0
 10
7.1771115334
 20
3.8514636199
 30
0.0
 10
7.1777111017
 20
3.8514172721
 30
0.0
 10
7.1786020648
 20
3.8513590284
 30
0.0
 10
7.1798198246
 20
3.8512987542
 30
0.0
 10
7.1808221926
 20
3.8512653469
 30
0.0
 10
7.1813490467
 20
3.8512512417
 30
0.0
  0
SPLINE
  5
331
100
AcDbEntity
  8
0
100
AcDbSpline
 62
7
  6
CONTINUOUS
 70
0
 71
3
 72
14
 73
10
 74
0
 42
0.0000001
 43
0.0000001
 44
0.0000000001
 40
0.0
 40
0.0
 40
0.0
 40
0.0
 40
0.0789806286
 40
0.1752083296
 40
0.2870389554
 40
0.4124694431
 40
0.5491654737
 40
0.6945265458
 40
1.0
 40
1.0
 40
1.0
 40
1.0
 10
7.1747306096
 20
3.848673573
 30
0.0
 10
7.1749388915
 20
3.8486299659
 30
0.0
 10
7.1754049651
 20
3.8485526554
 30
0.0
 10
7.1761732027
 20
3.8484624771
 30
0.0
 10
7.1770688613
 20
3.8483888576
 30
0.0
 10
7.1780749832
 20
3.8483334608
 30
0.0
 10
7.1791723793
 20
3.8482976321
 30
0.0
 10
7.1807552936
 20
3.8482767608
 30
0.0
 10
7.1819701791
 20
3.8482929812
 30
0.0
 10
7.1827928673
 20
3.8483170001
 30
0.0
  0
SPLINE
  5
332
100
AcDbEntity
  8
0
100
AcDbSpline
 62
7
  6
CONTINUOUS
 70
0
 71
3
 72
14
 73
10
 74
0
 42
0.0000001
 43
0.0000001
 44
0.0000000001
 40
0.0
 40
0.0
 40
0.0
 40
0.0
 40
0.3054947524
 40
0.4508665468
 40
0.5875711124
 40
0.713005188
 40
0.8248315924
 40
0.9210449412
 40
1.0
 40
1.0
 40
1.0
 40
1.0
 10
7.2301683518
 20
3.848239941
 30
0.0
 10
7.2309909025
 20
3.8482132478
 30
0.0
 10
7.2322056491
 20
3.8481930709
 30
0.0
 10
7.2337885161
 20
3.8482087861
 30
0.0
 10
7.2348859347
 20
3.8482410426
 30
0.0
 10
7.2358921149
 20
3.8482931693
 30
0.0
 10
7.2367878442
 20
3.8483638837
 30
0.0
 10
7.2375561436
 20
3.8484515764
 30
0.0
 10
7.2380222897
 20
3.8485273892
 30
0.0
 10
7.2382306096
 20
3.8485703326
 30
0.0
  0
SPLINE
  5
333
100
AcDbEntity
  8
0
100
AcDbSpline
 62
7
  6
CONTINUOUS
 70
0
 71
3
 72
25
 73
21
 74
0
 42
0.0000001
 43
0.0000001
 44
0.0000000001
 40
0.0
 40
0.0
 40
0.0
 40
0.0
 40
0.2004065987
 40
0.3852576264
 40
0.4705134049
 40
0.55034311
 40
0.6243292094
 40
0.6921083111
 40
0.753373286
 40
0.8078931467
 40
0.8555239506
 40
0.8962415931
 40
0.9140580321
 40
0.9302292697
 40
0.9448269691
 40
0.9579598226
 40
0.9697837083
 40
0.9805193197
 40
0.9904659176
 40
1.0
 40
1.0
 40
1.0
 40
1.0
 10
7.2218224463
 20
3.838702733
 30
0.0
 10
7.2229807544
 20
3.8387577391
 30
0.0
 10
7.22520606
 20
3.838896722
 30
0.0
 10
7.2279165348
 20
3.8391603266
 30
0.0
 10
7.2299246728
 20
3.8394210747
 30
0.0
 10
7.2312920283
 20
3.8396317506
 30
0.0
 10
7.2325537032
 20
3.8398613487
 30
0.0
 10
7.2337024882
 20
3.8401083123
 30
0.0
 10
7.2347319563
 20
3.8403710106
 30
0.0
 10
7.2356366403
 20
3.8406476516
 30
0.0
 10
7.2364118062
 20
3.8409364605
 30
0.0
 10
7.236969725
 20
3.841196125
 30
0.0
 10
7.2373444994
 20
3.8414120634
 30
0.0
 10
7.2375781696
 20
3.8415688446
 30
0.0
 10
7.2377769486
 20
3.8417275803
 30
0.0
 10
7.2379406575
 20
3.8418882237
 30
0.0
 10
7.2380690587
 20
3.8420508397
 30
0.0
 10
7.2381617101
 20
3.8422155997
 30
0.0
 10
7.2382179348
 20
3.842382336
 30
0.0
 10
7.2382306096
 20
3.8424954141
 30
0.0
 10
7.2382306096
 20
3.8425505812
 30
0.0
  0
SPLINE
  5
334
100
AcDbEntity
  8
0
100
AcDbSpline
 62
7
  6
CONTINUOUS
 70
0
 71
3
 72
25
 73
21
 74
0
 42
0.0000001
 43
0.0000001
 44
0.0000000001
 40
0.0
 40
0.0
 40
0.0
 40
0.0
 40
0.0095322118
 40
0.0194830581
 40
0.0302278685
 40
0.0420644875
 40
0.0552123012
 40
0.0698261486
 40
0.0860139229
 40
0.1038466537
 40
0.1445945156
 40
0.192250257
 40
0.2467882607
 40
0.3080636813
 40
0.3758451518
 40
0.4498255633
 40
0.529641852
 40
0.614877114
 40
0.7996692844
 40
1.0
 40
1.0
 40
1.0
 40
1.0
 10
7.1747306096
 20
3.8426546363
 30
0.0
 10
7.1747306096
 20
3.8425994467
 30
0.0
 10
7.1747433015
 20
3.8424862881
 30
0.0
 10
7.1747995498
 20
3.8423193811
 30
0.0
 10
7.1748922256
 20
3.8421543351
 30
0.0
 10
7.1750206547
 20
3.8419913142
 30
0.0
 10
7.1751843959
 20
3.8418301479
 30
0.0
 10
7.1753832116
 20
3.8416707736
 30
0.0
 10
7.1756169207
 20
3.8415132402
 30
0.0
 10
7.1759917267
 20
3.8412961071
 30
0.0
 10
7.1765496716
 20
3.8410346551
 30
0.0
 10
7.1773248848
 20
3.8407433415
 30
0.0
 10
7.1782295894
 20
3.8404637744
 30
0.0
 10
7.1792590476
 20
3.8401977407
 30
0.0
 10
7.1804077925
 20
3.8399470478
 30
0.0
 10
7.1816694023
 20
3.8397133444
 30
0.0
 10
7.1830366767
 20
3.8394982087
 30
0.0
 10
7.185044644
 20
3.8392309023
 30
0.0
 10
7.1877549875
 20
3.838958404
 30
0.0
 10
7.1899803907
 20
3.8388120915
 30
0.0
 10
7.1911387728
 20
3.8387532698
 30
0.0
  0
ENDSEC
  0
SECTION
  2
OBJECTS
  0
DICTIONARY
  5
C
100
AcDbDictionary
280
0
281
1
  3
ACAD_GROUP
350
D
  3
ACAD_MLINESTYLE
350
17
  3
ACAD_LAYOUT
350
1A
  3
ACAD_PLOTSETTINGS
350
19
  3
ACAD_PLOTSTYLENAME
350
E
  0
DICTIONARY
  5
D
102
{ACAD_REACTORS
330
C
102
}
100
AcDbDictionary
280
0
281
1
  0
ACDBDICTIONARYWDFLT
  5
E
102
{ACAD_REACTORS
330
C
102
}
100
AcDbDictionary
281
1
  3
Normal
350
F
100
AcDbDictionaryWithDefault
340
F
  0
DICTIONARY
  5
17
102
{ACAD_REACTORS
330
C
102
}
100
AcDbDictionary
280
0
281
1
  3
Standard
350
18
  0
DICTIONARY
  5
19
102
{ACAD_REACTORS
330
C
102
}
100
AcDbDictionary
281
1
  0
DICTIONARY
  5
1A
102
{ACAD_REACTORS
330
C
102
}
100
AcDbDictionary
281
1
  3
Model
350
335
  3
Layout1
350
336
  0
ACDBPLACEHOLDER
  5
F
102
{ACAD_REACTORS
330
E
102
}
  0
MLINESTYLE
  5
18
102
{ACAD_REACTORS
330
17
102
}
100
AcDbMlineStyle
  2
STANDARD
 70
0
  3

 62
256
 51
90.0
 52
90.0
 71
2
 49
0.5
 62
256
  6
BYLAYER
 49
-0.5
 62
256
  6
BYLAYER
  0
LAYOUT
  5
335
102
{ACAD_REACTORS
330
1A
102
}
100
AcDbPlotSettings
  1

  2
none_device
  4
ANSI_A_(11.00_x_8.50_Inches)
  6

 40
0.0
 41
0.0
 42
0.0
 43
0.0
 44
279.4
 45
215.9
 46
0.0
 47
0.0
 48
0.0
 49
0.0
140
0.0
141
0.0
142
1.0
143
1.0
 70
1024
 72
0
 73
0
 74
0
  7

 75
0
147
1.0
148
0.0
149
0.0
100
AcDbLayout
  1
Model
 70
0
 71
0
 10
0.0
 20
0.0
 11
11.0
 21
8.5
 12
0.0
 22
0.0
 32
0.0
 14
0.0
 24
0.0
 34
0.0
 15
0.0
 25
0.0
 35
0.0
146
0.0
 13
0.0
 23
0.0
 33
0.0
 16
1.0
 26
0.0
 36
0.0
 17
0.0
 27
1.0
 37
0.0
 76
0
330
202
345
0
346
0
  0
LAYOUT
  5
336
102
{ACAD_REACTORS
330
1A
102
}
100
AcDbPlotSettings
  1

  2
none_device
  4
ANSI_A_(11.00_x_8.50_Inches)
  6

 40
0.0
 41
0.0
 42
0.0
 43
0.0
 44
279.4
 45
215.9
 46
0.0
 47
0.0
 48
0.0
 49
0.0
140
0.0
141
0.0
142
1.0
143
1.0
 70
0
 72
0
 73
0
 74
0
  7

 75
0
147
1.0
148
0.0
149
0.0
100
AcDbLayout
  1
Layout1
 70
0
 71
1
 10
0.0
 20
0.0
 11
11.0
 21
8.5
 12
0.0
 22
0.0
 32
0.0
 14
0.0
 24
0.0
 34
0.0
 15
0.0
 25
0.0
 35
0.0
146
0.0
 13
0.0
 23
0.0
 33
0.0
 16
1.0
 26
0.0
 36
0.0
 17
0.0
 27
1.0
 37
0.0
 76
0
330
203
345
0
346
0
  0
ENDSEC
  0
EOF
