999
DXF file: 973_front.dxf
999
Pro/ENGINEER 2018400 by Parametric Technology Corporation
  0
SECTION
  2
HEADER
  9
$ACADVER
  1
AC1027
  9
$DWGCODEPAGE
  3
ANSI_1252
  9
$EXTMAX
 10
11.0
 20
8.5
 30
0.0
  9
$EXTMIN
 10
0.0
 20
0.0
 30
0.0
  9
$LIMMIN
 10
0.0
 20
0.0
  9
$LIMMAX
 10
11.0
 20
8.5
  9
$VIEWCTR
 10
5.5
 20
4.25
  9
$VIEWSIZE
 40
8.5
  9
$CLAYER
  8
0
  9
$LTSCALE
 40
0.605
  9
$CELTYPE
  6
BYLAYER
  9
$DIMSCALE
 40
1.0
  9
$DIMASZ
 40
0.1
  9
$DIMEXO
 40
0.0625
  9
$DIMDLI
 40
0.418
  9
$DIMEXE
 40
0.125
  9
$DIMCEN
 40
0.099
  9
$DIMLFAC
 40
1.0
  9
$DIMBLK
  1
_FILLED
  9
$DIMALT
 70
1
  9
$DIMALTD
 70
1
  9
$DIMALTTD
 70
2
  9
$DIMALTF
 40
25.4
  9
$DIMTXT
 40
0.08
  9
$DIMTOL
 70
1
  9
$DIMLIM
 70
0
  9
$DIMTFAC
 40
1.0
  9
$DIMTP
 40
0.01
  9
$DIMTM
 40
0.01
  9
$DIMGAP
 40
0.09
  9
$DIMDSEP
 70
46
  9
$AUNITS
 70
0
  9
$PDMODE
 70
3
  9
$PDSIZE
 40
0.3125
  9
$HANDSEED
  5
5D1
  9
$TILEMODE
 70
1
  9
$MEASUREMENT
 70
0
  9
$INSUNITS
 70
1
  0
ENDSEC
  0
SECTION
  2
CLASSES
  0
CLASS
  1
ACDBDICTIONARYWDFLT
  2
AcDbDictionaryWithDefault
  3
AutoCAD 2000
 90
0
 91
1
280
0
281
0
  0
CLASS
  1
ACDBPLACEHOLDER
  2
AcDbPlaceHolder
  3
AutoCAD 2000
 90
0
 91
1
280
0
281
0
  0
CLASS
  1
LAYOUT
  2
AcDbLayout
  3
AutoCAD 2000
 90
0
 91
0
280
0
281
0
  0
ENDSEC
  0
SECTION
  2
TABLES
  0
TABLE
  2
VPORT
  5
8
100
AcDbSymbolTable
 70
2
  0
VPORT
  5
1F4
100
AcDbSymbolTableRecord
100
AcDbViewportTableRecord
  2
*ACTIVE
 70
0
 10
0.0
 20
0.0
 11
1.0
 21
1.0
 12
5.5
 22
4.25
 13
0.0
 23
0.0
 14
1.0
 24
1.0
 15
0.0
 25
0.0
 16
0.0
 26
0.0
 36
1.0
 17
0.0
 27
0.0
 37
0.0
 40
8.5
 41
1.2941176471
 42
50.0
 43
0.0
 44
0.0
 50
0.0
 51
0.0
 71
0
 72
100
 73
1
 74
1
 75
0
 76
0
 77
0
 78
0
  0
ENDTAB
  0
TABLE
  2
LTYPE
  5
5
100
AcDbSymbolTable
 70
6
  0
LTYPE
  5
14
100
AcDbSymbolTableRecord
100
AcDbLinetypeTableRecord
  2
BYBLOCK
 70
0
  3

 72
65
 73
0
 40
0.0
  0
LTYPE
  5
15
100
AcDbSymbolTableRecord
100
AcDbLinetypeTableRecord
  2
BYLAYER
 70
0
  3

 72
65
 73
0
 40
0.0
  0
LTYPE
  5
16
100
AcDbSymbolTableRecord
100
AcDbLinetypeTableRecord
  2
CONTINUOUS
 70
64
  3
Solid line
 72
65
 73
0
 40
0.0
  0
LTYPE
  5
1F5
100
AcDbSymbolTableRecord
100
AcDbLinetypeTableRecord
  2
CENTER
 70
64
  3
____ _ ____ _ ____ _ ____ _ ____ _ ____ _ ____
 72
65
 73
4
 40
0.6
 49
0.375
 74
0
 49
-0.075
 74
0
 49
0.075
 74
0
 49
-0.075
 74
0
  0
LTYPE
  5
1F6
100
AcDbSymbolTableRecord
100
AcDbLinetypeTableRecord
  2
HIDDEN
 70
64
  3
- - - - - - - - - - - - - - - - - - - -
 72
65
 73
2
 40
0.2
 49
0.1
 74
0
 49
-0.1
 74
0
  0
LTYPE
  5
1F7
100
AcDbSymbolTableRecord
100
AcDbLinetypeTableRecord
  2
PHANTOM
 70
64
  3
_____ _ _ _____ _ _ _____ _ _ _____
 72
65
 73
6
 40
0.8
 49
0.45
 74
0
 49
-0.05
 74
0
 49
0.1
 74
0
 49
-0.05
 74
0
 49
0.1
 74
0
 49
-0.05
 74
0
  0
LTYPE
  5
1F8
100
AcDbSymbolTableRecord
100
AcDbLinetypeTableRecord
  2
DOT
 70
64
  3
. . . . . . . . . . . . . . . . . . . .
 72
65
 73
2
 40
0.2
 49
0.1
 74
0
 49
-0.1
 74
0
  0
LTYPE
  5
1F9
100
AcDbSymbolTableRecord
100
AcDbLinetypeTableRecord
  2
DASHED
 70
64
  3
- - - - - - - - - - - - - - - - - - - -
 72
65
 73
2
 40
0.2
 49
0.1
 74
0
 49
-0.1
 74
0
  0
ENDTAB
  0
TABLE
  2
LAYER
  5
2
100
AcDbSymbolTable
 70
36
  0
LAYER
  5
10
100
AcDbSymbolTableRecord
100
AcDbLayerTableRecord
  2
0
 70
0
 62
7
  6
CONTINUOUS
370
-3
390
F
  0
LAYER
  5
1FA
100
AcDbSymbolTableRecord
100
AcDbLayerTableRecord
  2
DEFAULT_1
 70
0
 62
7
  6
CENTER
370
-3
390
F
  0
LAYER
  5
1FB
100
AcDbSymbolTableRecord
100
AcDbLayerTableRecord
  2
DEFAULT_2
 70
0
 62
8
  6
HIDDEN
370
-3
390
F
  0
LAYER
  5
1FC
100
AcDbSymbolTableRecord
100
AcDbLayerTableRecord
  2
DEFAULT_3
 70
0
 62
7
  6
PHANTOM
370
-3
390
F
  0
LAYER
  5
1FD
100
AcDbSymbolTableRecord
100
AcDbLayerTableRecord
  2
DEFAULT_COORDINATE_SYSTEM
 70
0
 62
7
  6
CONTINUOUS
370
-3
390
F
  0
LAYER
  5
1FE
100
AcDbSymbolTableRecord
100
AcDbLayerTableRecord
  2
DEFAULT_DATUM_AXES
 70
0
 62
7
  6
CONTINUOUS
370
-3
390
F
  0
LAYER
  5
1FF
100
AcDbSymbolTableRecord
100
AcDbLayerTableRecord
  2
DEFAULT_DATUM_PLANES
 70
0
 62
7
  6
CONTINUOUS
370
-3
390
F
  0
ENDTAB
  0
TABLE
  2
STYLE
  5
3
100
AcDbSymbolTable
 70
1
  0
STYLE
  5
11
100
AcDbSymbolTableRecord
100
AcDbTextStyleTableRecord
  2
STANDARD
 70
0
 40
0.0
 41
0.8
 50
0.0
 71
0
 42
0.2
  3
txt
  4

  0
STYLE
  5
200
100
AcDbSymbolTableRecord
100
AcDbTextStyleTableRecord
  2
TEXTSTYLE_1
 70
0
 40
0.0
 41
0.8
 50
0.0
 71
0
 42
0.2
  3
gdt
  4

  0
ENDTAB
  0
TABLE
  2
VIEW
  5
6
100
AcDbSymbolTable
 70
0
  0
ENDTAB
  0
TABLE
  2
UCS
  5
7
100
AcDbSymbolTable
 70
0
  0
ENDTAB
  0
TABLE
  2
APPID
  5
9
100
AcDbSymbolTable
 70
1
  0
APPID
  5
201
100
AcDbSymbolTableRecord
100
AcDbRegAppTableRecord
  2
ACAD
 70
0
  0
ENDTAB
  0
TABLE
  2
BLOCK_RECORD
  5
1
100
AcDbSymbolTable
 70
0
  0
BLOCK_RECORD
  5
202
100
AcDbSymbolTableRecord
100
AcDbBlockTableRecord
  2
*Model_Space
  0
BLOCK_RECORD
  5
203
100
AcDbSymbolTableRecord
100
AcDbBlockTableRecord
  2
*Paper_Space
  0
BLOCK_RECORD
  5
204
100
AcDbSymbolTableRecord
100
AcDbBlockTableRecord
  2
_FILLED
  0
ENDTAB
  0
TABLE
  2
DIMSTYLE
  5
A
100
AcDbSymbolTable
 70
1
100
AcDbDimStyleTable
 71
0
  0
DIMSTYLE
105
205
100
AcDbSymbolTableRecord
100
AcDbDimStyleTableRecord
  2
STANDARD
 70
0
  3

  4

 40
1.0
 41
0.1
 42
0.0625
 43
0.38
 44
0.125
 45
0.0
 46
0.0
 47
0.01
 48
0.01
140
0.08
141
0.09
142
0.0
143
25.4
144
1.0
145
0.0
146
1.0
147
0.09
 71
1.0
 72
0.0
 73
1
 74
1
 75
0
 76
0
 77
0
 78
4
 79
1
170
1
171
1
172
0
173
0
174
0
175
0
176
0
177
0
178
0
270
2
179
2
271
2
272
2
273
2
274
2
275
0
280
0
281
0
282
0
283
1
284
4
285
0
286
0
287
3
288
0
340
11
278
46
341
204
342
204
343
204
344
204
  0
ENDTAB
  0
ENDSEC
  0
SECTION
  2
BLOCKS
  0
BLOCK
  5
20
100
AcDbEntity
  8
0
100
AcDbBlockBegin
  2
*Model_Space
 70
0
 10
0.0
 20
0.0
 30
0.0
  3
*Model_Space
  1

  0
ENDBLK
  5
21
100
AcDbEntity
  8
0
100
AcDbBlockEnd
  0
BLOCK
  5
1C
100
AcDbEntity
  8
0
100
AcDbBlockBegin
  2
*Paper_Space
 70
0
 10
0.0
 20
0.0
 30
0.0
  3
*Paper_Space
  1

  0
ENDBLK
  5
1D
100
AcDbEntity
  8
0
100
AcDbBlockEnd
  0
BLOCK
  5
206
100
AcDbEntity
  8
0
100
AcDbBlockBegin
  2
_FILLED
 70
64
 10
0.0
 20
0.0
  3
_FILLED
  1

  0
SOLID
  5
207
100
AcDbEntity
  8
0
  6
BYBLOCK
 62
0
100
AcDbTrace
 10
0.0
 20
0.0
 11
-1.0
 21
0.2
 12
-1.0
 22
-0.2
 13
-1.0
 23
-0.2
  0
ENDBLK
  5
208
100
AcDbEntity
  8
0
  6
BYBLOCK
 62
0
100
AcDbBlockEnd
  0
ENDSEC
  0
SECTION
  2
ENTITIES
  0
MTEXT
  5
209
100
AcDbEntity
  8
0
100
AcDbMText
 62
2
  6
CONTINUOUS
  7
STANDARD
 71
3
 72
1
 10
5.0964673913
 20
1.4086715839
 30
0.0
 11
1.0
 21
0.0
 31
0.0
 73
2
 44
0.9
  1
SCALE  .500
 40
0.08
 41
0.704
  0
LINE
  5
20A
100
AcDbEntity
  8
0
100
AcDbLine
 62
7
  6
CONTINUOUS
 10
0.0
 20
0.0
 11
0.0
 21
8.5
  0
LINE
  5
20B
100
AcDbEntity
  8
0
100
AcDbLine
 62
7
  6
CONTINUOUS
 10
0.0
 20
0.0
 11
11.0
 21
0.0
  0
LINE
  5
20C
100
AcDbEntity
  8
0
100
AcDbLine
 62
7
  6
CONTINUOUS
 10
0.0
 20
8.5
 11
11.0
 21
8.5
  0
LINE
  5
20D
100
AcDbEntity
  8
0
100
AcDbLine
 62
7
  6
CONTINUOUS
 10
11.0
 20
0.0
 11
11.0
 21
8.5
  0
LINE
  5
20E
100
AcDbEntity
  8
0
100
AcDbLine
 62
7
  6
CONTINUOUS
 10
0.7497119565
 20
3.4108583075
 11
0.7497119565
 21
3.6723583075
  0
LINE
  5
20F
100
AcDbEntity
  8
0
100
AcDbLine
 62
7
  6
CONTINUOUS
 10
0.7597119565
 20
3.6823583075
 11
0.7597119565
 21
3.4008583075
  0
LINE
  5
210
100
AcDbEntity
  8
0
100
AcDbLine
 62
7
  6
CONTINUOUS
 10
0.7997119565
 20
3.4008583075
 11
0.7997119565
 21
3.6823583075
  0
LINE
  5
211
100
AcDbEntity
  8
0
100
AcDbLine
 62
7
  6
CONTINUOUS
 10
0.7597119565
 20
3.4008583075
 11
0.7497119565
 21
3.4108583075
  0
LINE
  5
212
100
AcDbEntity
  8
0
100
AcDbLine
 62
7
  6
CONTINUOUS
 10
1.9442119565
 20
3.4008583075
 11
1.9442119565
 21
3.6823583075
  0
LINE
  5
213
100
AcDbEntity
  8
0
100
AcDbLine
 62
7
  6
CONTINUOUS
 10
1.9967119565
 20
3.4008583075
 11
1.9967119565
 21
3.6823583075
  0
LINE
  5
214
100
AcDbEntity
  8
0
100
AcDbLine
 62
7
  6
CONTINUOUS
 10
2.0089315048
 20
2.5617958075
 11
2.0089315048
 21
2.6867671159
  0
LINE
  5
215
100
AcDbEntity
  8
0
100
AcDbLine
 62
7
  6
CONTINUOUS
 10
2.0174619565
 20
2.5307958075
 11
2.0174619565
 21
2.5617958075
  0
LINE
  5
216
100
AcDbEntity
  8
0
100
AcDbLine
 62
7
  6
CONTINUOUS
 10
2.0967119565
 20
3.4431083075
 11
2.0967119565
 21
3.6401083075
  0
LINE
  5
217
100
AcDbEntity
  8
0
100
AcDbLine
 62
7
  6
CONTINUOUS
 10
2.1092119565
 20
3.6441083075
 11
2.1092119565
 21
3.6401083075
  0
LINE
  5
218
100
AcDbEntity
  8
0
100
AcDbLine
 62
7
  6
CONTINUOUS
 10
2.1092119565
 20
3.4431083075
 11
2.1092119565
 21
3.4391083075
  0
LINE
  5
219
100
AcDbEntity
  8
0
100
AcDbLine
 62
7
  6
CONTINUOUS
 10
2.1242119565
 20
3.735250356
 11
2.1242119565
 21
3.6996083075
  0
LINE
  5
21A
100
AcDbEntity
  8
0
100
AcDbLine
 62
7
  6
CONTINUOUS
 10
2.1267119565
 20
3.5257259273
 11
2.1267119565
 21
3.5574906876
  0
LINE
  5
21B
100
AcDbEntity
  8
0
100
AcDbLine
 62
7
  6
CONTINUOUS
 10
2.1984467307
 20
2.5617958075
 11
2.1984467307
 21
2.6867680785
  0
LINE
  5
21C
100
AcDbEntity
  8
0
100
AcDbLine
 62
7
  6
CONTINUOUS
 10
2.2162119565
 20
3.3741083075
 11
2.2162119565
 21
3.1946083075
  0
LINE
  5
21D
100
AcDbEntity
  8
0
100
AcDbLine
 62
7
  6
CONTINUOUS
 10
2.2554619565
 20
3.7795195988
 11
2.2554619565
 21
3.7800936222
  0
LINE
  5
21E
100
AcDbEntity
  8
0
100
AcDbLine
 62
7
  6
CONTINUOUS
 10
2.2637119565
 20
3.78134273
 11
2.2637119565
 21
3.7820848659
  0
LINE
  5
21F
100
AcDbEntity
  8
0
100
AcDbLine
 62
7
  6
CONTINUOUS
 10
2.2837119565
 20
3.7843255153
 11
2.2837119565
 21
3.7850514626
  0
LINE
  5
220
100
AcDbEntity
  8
0
100
AcDbLine
 62
7
  6
CONTINUOUS
 10
2.2919619565
 20
3.7855373379
 11
2.2919619565
 21
3.7849673822
  0
LINE
  5
221
100
AcDbEntity
  8
0
100
AcDbLine
 62
7
  6
CONTINUOUS
 10
2.3004619565
 20
3.7859819157
 11
2.3004619565
 21
3.7865511203
  0
LINE
  5
222
100
AcDbEntity
  8
0
100
AcDbLine
 62
7
  6
CONTINUOUS
 10
2.3087119565
 20
3.7873081098
 11
2.3087119565
 21
3.7880312497
  0
LINE
  5
223
100
AcDbEntity
  8
0
100
AcDbLine
 62
7
  6
CONTINUOUS
 10
2.7669883297
 20
2.6867695103
 11
2.7085436764
 21
2.7450458075
  0
LINE
  5
224
100
AcDbEntity
  8
0
100
AcDbLine
 62
7
  6
CONTINUOUS
 10
2.6952789536
 20
2.9666452132
 11
2.6582119565
 21
3.0196040268
  0
LINE
  5
225
100
AcDbEntity
  8
0
100
AcDbLine
 62
7
  6
CONTINUOUS
 10
2.3287119565
 20
3.7891034671
 11
2.3287119565
 21
3.7898410971
  0
LINE
  5
226
100
AcDbEntity
  8
0
100
AcDbLine
 62
7
  6
CONTINUOUS
 10
2.3369619565
 20
3.7898277169
 11
2.3369619565
 21
3.7892609267
  0
LINE
  5
227
100
AcDbEntity
  8
0
100
AcDbLine
 62
7
  6
CONTINUOUS
 10
2.3661119565
 20
3.7913001667
 11
2.3661119565
 21
3.7918003655
  0
LINE
  5
228
100
AcDbEntity
  8
0
100
AcDbLine
 62
7
  6
CONTINUOUS
 10
2.4086119565
 20
3.7913330893
 11
2.4086119565
 21
3.7918332668
  0
LINE
  5
229
100
AcDbEntity
  8
0
100
AcDbLine
 62
7
  6
CONTINUOUS
 10
2.4569619565
 20
3.7878615817
 11
2.4569619565
 21
3.7884293997
  0
LINE
  5
22A
100
AcDbEntity
  8
0
100
AcDbLine
 62
7
  6
CONTINUOUS
 10
2.4662119565
 20
3.7875054789
 11
2.4662119565
 21
3.7881477821
  0
LINE
  5
22B
100
AcDbEntity
  8
0
100
AcDbLine
 62
7
  6
CONTINUOUS
 10
2.4842119565
 20
3.7854651098
 11
2.4842119565
 21
3.7861108927
  0
LINE
  5
22C
100
AcDbEntity
  8
0
100
AcDbLine
 62
7
  6
CONTINUOUS
 10
2.4934619565
 20
3.7842913129
 11
2.4934619565
 21
3.7837204312
  0
LINE
  5
22D
100
AcDbEntity
  8
0
100
AcDbLine
 62
7
  6
CONTINUOUS
 10
2.5597119565
 20
3.3741083075
 11
2.5597119565
 21
3.1946083075
  0
LINE
  5
22E
100
AcDbEntity
  8
0
100
AcDbLine
 62
7
  6
CONTINUOUS
 10
2.5774771824
 20
2.5617958075
 11
2.5774771824
 21
2.6867678354
  0
LINE
  5
22F
100
AcDbEntity
  8
0
100
AcDbLine
 62
7
  6
CONTINUOUS
 10
2.6492119565
 20
3.5291986338
 11
2.6492119565
 21
3.5540179811
  0
LINE
  5
230
100
AcDbEntity
  8
0
100
AcDbLine
 62
7
  6
CONTINUOUS
 10
2.6517119565
 20
3.735250356
 11
2.6517119565
 21
3.6996083075
  0
LINE
  5
231
100
AcDbEntity
  8
0
100
AcDbLine
 62
7
  6
CONTINUOUS
 10
2.6563068294
 20
3.4790670547
 11
2.6563068294
 21
3.6041495602
  0
LINE
  5
232
100
AcDbEntity
  8
0
100
AcDbLine
 62
7
  6
CONTINUOUS
 10
0.7597119565
 20
3.6823583075
 11
0.7497119565
 21
3.6723583075
  0
LINE
  5
233
100
AcDbEntity
  8
0
100
AcDbLine
 62
7
  6
CONTINUOUS
 10
2.666619542
 20
3.4478110735
 11
2.6667119565
 21
3.4476191305
  0
LINE
  5
234
100
AcDbEntity
  8
0
100
AcDbLine
 62
7
  6
CONTINUOUS
 10
2.666619542
 20
3.6354055414
 11
2.666619542
 21
3.4478110735
  0
LINE
  5
235
100
AcDbEntity
  8
0
100
AcDbLine
 62
7
  6
CONTINUOUS
 10
2.6667119565
 20
3.6441083075
 11
2.6667119565
 21
3.6355974844
  0
LINE
  5
236
100
AcDbEntity
  8
0
100
AcDbLine
 62
7
  6
CONTINUOUS
 10
2.6667119565
 20
3.4476191305
 11
2.6667119565
 21
3.4391083075
  0
LINE
  5
237
100
AcDbEntity
  8
0
100
AcDbLine
 62
7
  6
CONTINUOUS
 10
2.7584619565
 20
2.5307958075
 11
2.7584619565
 21
2.5617958075
  0
LINE
  5
238
100
AcDbEntity
  8
0
100
AcDbLine
 62
7
  6
CONTINUOUS
 10
2.7669924082
 20
2.5617958075
 11
2.7669924082
 21
2.6867680785
  0
LINE
  5
239
100
AcDbEntity
  8
0
100
AcDbLine
 62
7
  6
CONTINUOUS
 10
2.7922818569
 20
3.4457865253
 11
2.7922818569
 21
3.6374300896
  0
LINE
  5
23A
100
AcDbEntity
  8
0
100
AcDbLine
 62
7
  6
CONTINUOUS
 10
2.8057688281
 20
3.4516083075
 11
2.8057688281
 21
3.6316083075
  0
LINE
  5
23B
100
AcDbEntity
  8
0
100
AcDbLine
 62
7
  6
CONTINUOUS
 10
2.8181097927
 20
3.4562396288
 11
2.8181097927
 21
3.6269769861
  0
LINE
  5
23C
100
AcDbEntity
  8
0
100
AcDbLine
 62
7
  6
CONTINUOUS
 10
2.8426928277
 20
3.4390899471
 11
2.8426928277
 21
3.6441266678
  0
LINE
  5
23D
100
AcDbEntity
  8
0
100
AcDbLine
 62
7
  6
CONTINUOUS
 10
2.6406021671
 20
3.7463601454
 11
2.6517119565
 21
3.735250356
  0
LINE
  5
23E
100
AcDbEntity
  8
0
100
AcDbLine
 62
7
  6
CONTINUOUS
 10
2.6667119565
 20
3.6355974844
 11
2.666619542
 21
3.6354055414
  0
LINE
  5
23F
100
AcDbEntity
  8
0
100
AcDbLine
 62
7
  6
CONTINUOUS
 10
9.5569619565
 20
2.3337958075
 11
9.2189619565
 21
2.3337958075
  0
LINE
  5
240
100
AcDbEntity
  8
0
100
AcDbLine
 62
7
  6
CONTINUOUS
 10
9.9654619565
 20
2.3432958075
 11
8.8104619565
 21
2.3432958075
  0
LINE
  5
241
100
AcDbEntity
  8
0
100
AcDbLine
 62
7
  6
CONTINUOUS
 10
6.9779619565
 20
2.3432958075
 11
5.7979619565
 21
2.3432958075
  0
LINE
  5
242
100
AcDbEntity
  8
0
100
AcDbLine
 62
7
  6
CONTINUOUS
 10
2.9779619565
 20
2.3432958075
 11
1.7979619565
 21
2.3432958075
  0
LINE
  5
243
100
AcDbEntity
  8
0
100
AcDbLine
 62
7
  6
CONTINUOUS
 10
3.8004619565
 20
2.3432958075
 11
4.9754619565
 21
2.3432958075
  0
LINE
  5
244
100
AcDbEntity
  8
0
100
AcDbLine
 62
7
  6
CONTINUOUS
 10
9.9754619565
 20
2.3532958075
 11
8.8004619565
 21
2.3532958075
  0
LINE
  5
245
100
AcDbEntity
  8
0
100
AcDbLine
 62
7
  6
CONTINUOUS
 10
9.9754619565
 20
2.3957958075
 11
8.8004619565
 21
2.3957958075
  0
LINE
  5
246
100
AcDbEntity
  8
0
100
AcDbLine
 62
7
  6
CONTINUOUS
 10
3.8004619565
 20
2.3957958075
 11
4.9754619565
 21
2.3957958075
  0
LINE
  5
247
100
AcDbEntity
  8
0
100
AcDbLine
 62
7
  6
CONTINUOUS
 10
9.9604619565
 20
2.4107958075
 11
8.8154619565
 21
2.4107958075
  0
LINE
  5
248
100
AcDbEntity
  8
0
100
AcDbLine
 62
7
  6
CONTINUOUS
 10
3.8154620803
 20
2.4107958075
 11
4.9604618328
 21
2.4107958075
  0
LINE
  5
249
100
AcDbEntity
  8
0
100
AcDbLine
 62
7
  6
CONTINUOUS
 10
6.8879619565
 20
2.4367958075
 11
5.8879619565
 21
2.4367958075
  0
LINE
  5
24A
100
AcDbEntity
  8
0
100
AcDbLine
 62
7
  6
CONTINUOUS
 10
2.8879619565
 20
2.4367958075
 11
1.8879619565
 21
2.4367958075
  0
LINE
  5
24B
100
AcDbEntity
  8
0
100
AcDbLine
 62
7
  6
CONTINUOUS
 10
2.1242119565
 20
3.3996083075
 11
2.2027119565
 21
3.3741083075
  0
LINE
  5
24C
100
AcDbEntity
  8
0
100
AcDbLine
 62
7
  6
CONTINUOUS
 10
1.9967119565
 20
3.6823583075
 11
2.0967119565
 21
3.6401083075
  0
LINE
  5
24D
100
AcDbEntity
  8
0
100
AcDbLine
 62
7
  6
CONTINUOUS
 10
2.1242119565
 20
3.6996083075
 11
2.1372119565
 21
3.6921083075
  0
LINE
  5
24E
100
AcDbEntity
  8
0
100
AcDbLine
 62
7
  6
CONTINUOUS
 10
2.6387119565
 20
3.6921083075
 11
2.6525581142
 21
3.6841083075
  0
LINE
  5
24F
100
AcDbEntity
  8
0
100
AcDbLine
 62
7
  6
CONTINUOUS
 10
2.8426928277
 20
3.4390899471
 11
2.8181097927
 21
3.4562396288
  0
LINE
  5
250
100
AcDbEntity
  8
0
100
AcDbLine
 62
7
  6
CONTINUOUS
 10
2.0806449594
 20
2.9666452132
 11
2.1177119565
 21
3.0196040268
  0
LINE
  5
251
100
AcDbEntity
  8
0
100
AcDbLine
 62
7
  6
CONTINUOUS
 10
2.1353217459
 20
3.7463601454
 11
2.1242119565
 21
3.735250356
  0
LINE
  5
252
100
AcDbEntity
  8
0
100
AcDbLine
 62
7
  6
CONTINUOUS
 10
9.8229619565
 20
2.5307958075
 11
8.9529619565
 21
2.5307958075
  0
LINE
  5
253
100
AcDbEntity
  8
0
100
AcDbLine
 62
7
  6
CONTINUOUS
 10
6.7944632934
 20
2.5307958075
 11
5.9814606196
 21
2.5307958075
  0
LINE
  5
254
100
AcDbEntity
  8
0
100
AcDbLine
 62
7
  6
CONTINUOUS
 10
2.7944632934
 20
2.5307958075
 11
1.9814606196
 21
2.5307958075
  0
LINE
  5
255
100
AcDbEntity
  8
0
100
AcDbLine
 62
7
  6
CONTINUOUS
 10
3.9529619767
 20
2.5307958075
 11
4.8229619364
 21
2.5307958075
  0
LINE
  5
256
100
AcDbEntity
  8
0
100
AcDbLine
 62
7
  6
CONTINUOUS
 10
2.0089315048
 20
2.5617958075
 11
2.7669924082
 21
2.5617958075
  0
LINE
  5
257
100
AcDbEntity
  8
0
100
AcDbLine
 62
7
  6
CONTINUOUS
 10
6.0089315048
 20
2.5617958075
 11
6.7669924082
 21
2.5617958075
  0
LINE
  5
258
100
AcDbEntity
  8
0
100
AcDbLine
 62
7
  6
CONTINUOUS
 10
9.6534619565
 20
2.6982958075
 11
9.1224619565
 21
2.6982958075
  0
LINE
  5
259
100
AcDbEntity
  8
0
100
AcDbLine
 62
7
  6
CONTINUOUS
 10
4.1229622126
 20
2.6982958075
 11
4.6529617004
 21
2.6982958075
  0
LINE
  5
25A
100
AcDbEntity
  8
0
100
AcDbLine
 62
7
  6
CONTINUOUS
 10
9.1273717866
 20
2.7087958075
 11
9.6485521265
 21
2.7087958075
  0
LINE
  5
25B
100
AcDbEntity
  8
0
100
AcDbLine
 62
7
  6
CONTINUOUS
 10
6.7085436764
 20
2.7450458075
 11
6.0673802367
 21
2.7450458075
  0
LINE
  5
25C
100
AcDbEntity
  8
0
100
AcDbLine
 62
7
  6
CONTINUOUS
 10
2.7085436764
 20
2.7450458075
 11
2.0673802367
 21
2.7450458075
  0
LINE
  5
25D
100
AcDbEntity
  8
0
100
AcDbLine
 62
7
  6
CONTINUOUS
 10
9.1329619565
 20
2.7712958075
 11
9.6429619565
 21
2.7712958075
  0
LINE
  5
25E
100
AcDbEntity
  8
0
100
AcDbLine
 62
7
  6
CONTINUOUS
 10
4.6029619565
 20
2.7782958075
 11
4.1729619565
 21
2.7782958075
  0
LINE
  5
25F
100
AcDbEntity
  8
0
100
AcDbLine
 62
7
  6
CONTINUOUS
 10
3.8004619565
 20
2.3957958075
 11
3.8004619565
 21
2.3432958075
  0
LINE
  5
260
100
AcDbEntity
  8
0
100
AcDbLine
 62
7
  6
CONTINUOUS
 10
9.1329619565
 20
2.8337958075
 11
9.6429619565
 21
2.8337958075
  0
LINE
  5
261
100
AcDbEntity
  8
0
100
AcDbLine
 62
7
  6
CONTINUOUS
 10
6.6972119565
 20
2.8525458075
 11
6.0787119565
 21
2.8525458075
  0
LINE
  5
262
100
AcDbEntity
  8
0
100
AcDbLine
 62
7
  6
CONTINUOUS
 10
2.6972119565
 20
2.8525458075
 11
2.0787119565
 21
2.8525458075
  0
LINE
  5
263
100
AcDbEntity
  8
0
100
AcDbLine
 62
7
  6
CONTINUOUS
 10
9.1273717866
 20
2.8962958075
 11
9.6485521265
 21
2.8962958075
  0
LINE
  5
264
100
AcDbEntity
  8
0
100
AcDbLine
 62
7
  6
CONTINUOUS
 10
6.6952789536
 20
2.9666452132
 11
6.0806449594
 21
2.9666452132
  0
LINE
  5
265
100
AcDbEntity
  8
0
100
AcDbLine
 62
7
  6
CONTINUOUS
 10
2.6952789536
 20
2.9666452132
 11
2.0806449594
 21
2.9666452132
  0
LINE
  5
266
100
AcDbEntity
  8
0
100
AcDbLine
 62
7
  6
CONTINUOUS
 10
9.1550104095
 20
3.0062958075
 11
9.6209135035
 21
3.0062958075
  0
LINE
  5
267
100
AcDbEntity
  8
0
100
AcDbLine
 62
7
  6
CONTINUOUS
 10
6.6582119565
 20
3.0196040268
 11
6.1177119565
 21
3.0196040268
  0
LINE
  5
268
100
AcDbEntity
  8
0
100
AcDbLine
 62
7
  6
CONTINUOUS
 10
2.6582119565
 20
3.0196040268
 11
2.1177119565
 21
3.0196040268
  0
LINE
  5
269
100
AcDbEntity
  8
0
100
AcDbLine
 62
7
  6
CONTINUOUS
 10
2.6152169346
 20
3.7546083075
 11
2.6406021671
 21
3.7463601454
  0
LINE
  5
26A
100
AcDbEntity
  8
0
100
AcDbLine
 62
7
  6
CONTINUOUS
 10
4.1794697075
 20
5.4865131617
 11
4.213968425
 21
5.1378180818
  0
LINE
  5
26B
100
AcDbEntity
  8
0
100
AcDbLine
 62
7
  6
CONTINUOUS
 10
4.1562119565
 20
6.4537958075
 11
4.1562119565
 21
6.4267958075
  0
LINE
  5
26C
100
AcDbEntity
  8
0
100
AcDbLine
 62
7
  6
CONTINUOUS
 10
4.2167119565
 20
6.1627958075
 11
4.2167119565
 21
6.0302958075
  0
LINE
  5
26D
100
AcDbEntity
  8
0
100
AcDbLine
 62
7
  6
CONTINUOUS
 10
4.2317119565
 20
6.5302958075
 11
4.2317119565
 21
6.5142958075
  0
LINE
  5
26E
100
AcDbEntity
  8
0
100
AcDbLine
 62
7
  6
CONTINUOUS
 10
4.2317119565
 20
6.3817958075
 11
4.2317119565
 21
6.3502958075
  0
LINE
  5
26F
100
AcDbEntity
  8
0
100
AcDbLine
 62
7
  6
CONTINUOUS
 10
4.2317119565
 20
6.1971375373
 11
4.2317119565
 21
5.559645617
  0
LINE
  5
270
100
AcDbEntity
  8
0
100
AcDbLine
 62
7
  6
CONTINUOUS
 10
2.0089341113
 20
2.6867680425
 11
2.0673802367
 21
2.7450458075
  0
LINE
  5
271
100
AcDbEntity
  8
0
100
AcDbLine
 62
7
  6
CONTINUOUS
 10
9.2102827683
 20
4.2123745203
 11
9.2197172195
 21
4.2147267932
  0
LINE
  5
272
100
AcDbEntity
  8
0
100
AcDbLine
 62
7
  6
CONTINUOUS
 10
9.6429899769
 20
4.3163525407
 11
9.6524770457
 21
4.3185428031
  0
LINE
  5
273
100
AcDbEntity
  8
0
100
AcDbLine
 62
7
  6
CONTINUOUS
 10
2.1730920927
 20
3.1725954288
 11
2.6028318203
 21
3.1725954288
  0
LINE
  5
274
100
AcDbEntity
  8
0
100
AcDbLine
 62
7
  6
CONTINUOUS
 10
6.1730920927
 20
3.1725954288
 11
6.6028318203
 21
3.1725954288
  0
LINE
  5
275
100
AcDbEntity
  8
0
100
AcDbLine
 62
7
  6
CONTINUOUS
 10
2.1885375123
 20
3.1867958075
 11
2.5873864008
 21
3.1867958075
  0
LINE
  5
276
100
AcDbEntity
  8
0
100
AcDbLine
 62
7
  6
CONTINUOUS
 10
6.1885375123
 20
3.1867958075
 11
6.5873864008
 21
3.1867958075
  0
LINE
  5
277
100
AcDbEntity
  8
0
100
AcDbLine
 62
7
  6
CONTINUOUS
 10
2.2162119459
 20
3.1946083075
 11
2.5597119671
 21
3.1946083075
  0
LINE
  5
278
100
AcDbEntity
  8
0
100
AcDbLine
 62
7
  6
CONTINUOUS
 10
6.216211969
 20
3.1946083075
 11
6.559711944
 21
3.1946083075
  0
LINE
  5
279
100
AcDbEntity
  8
0
100
AcDbLine
 62
7
  6
CONTINUOUS
 10
2.2027119565
 20
3.3741083075
 11
2.5732119565
 21
3.3741083075
  0
LINE
  5
27A
100
AcDbEntity
  8
0
100
AcDbLine
 62
7
  6
CONTINUOUS
 10
6.2027119565
 20
3.3741083075
 11
6.5732119565
 21
3.3741083075
  0
LINE
  5
27B
100
AcDbEntity
  8
0
100
AcDbLine
 62
7
  6
CONTINUOUS
 10
2.1242119565
 20
3.3996083075
 11
2.6517119565
 21
3.3996083075
  0
LINE
  5
27C
100
AcDbEntity
  8
0
100
AcDbLine
 62
7
  6
CONTINUOUS
 10
6.1242119565
 20
3.3996083075
 11
6.6517119565
 21
3.3996083075
  0
LINE
  5
27D
100
AcDbEntity
  8
0
100
AcDbLine
 62
7
  6
CONTINUOUS
 10
8.0162119565
 20
3.4008583075
 11
7.9762119565
 21
3.4008583075
  0
LINE
  5
27E
100
AcDbEntity
  8
0
100
AcDbLine
 62
7
  6
CONTINUOUS
 10
6.8317119565
 20
3.4008583075
 11
6.7792119565
 21
3.4008583075
  0
LINE
  5
27F
100
AcDbEntity
  8
0
100
AcDbLine
 62
7
  6
CONTINUOUS
 10
0.7597119565
 20
3.4008583075
 11
0.7997119565
 21
3.4008583075
  0
LINE
  5
280
100
AcDbEntity
  8
0
100
AcDbLine
 62
7
  6
CONTINUOUS
 10
1.9442119565
 20
3.4008583075
 11
1.9967119565
 21
3.4008583075
  0
LINE
  5
281
100
AcDbEntity
  8
0
100
AcDbLine
 62
7
  6
CONTINUOUS
 10
2.1092119565
 20
3.4391083075
 11
2.6667119565
 21
3.4391083075
  0
LINE
  5
282
100
AcDbEntity
  8
0
100
AcDbLine
 62
7
  6
CONTINUOUS
 10
6.1092119565
 20
3.4391083075
 11
6.6667119565
 21
3.4391083075
  0
LINE
  5
283
100
AcDbEntity
  8
0
100
AcDbLine
 62
7
  6
CONTINUOUS
 10
6.6792119565
 20
3.4431083075
 11
6.6667119565
 21
3.4431083075
  0
LINE
  5
284
100
AcDbEntity
  8
0
100
AcDbLine
 62
7
  6
CONTINUOUS
 10
2.0967119565
 20
3.4431083075
 11
2.1092119565
 21
3.4431083075
  0
LINE
  5
285
100
AcDbEntity
  8
0
100
AcDbLine
 62
7
  6
CONTINUOUS
 10
4.5442119565
 20
6.5302958075
 11
4.5442119565
 21
6.5142958075
  0
LINE
  5
286
100
AcDbEntity
  8
0
100
AcDbLine
 62
7
  6
CONTINUOUS
 10
4.5442119565
 20
6.3817958075
 11
4.5442119565
 21
6.3502958075
  0
LINE
  5
287
100
AcDbEntity
  8
0
100
AcDbLine
 62
7
  6
CONTINUOUS
 10
4.5442119565
 20
6.1971375373
 11
4.5442119565
 21
5.5596453993
  0
LINE
  5
288
100
AcDbEntity
  8
0
100
AcDbLine
 62
7
  6
CONTINUOUS
 10
4.5592119565
 20
6.1627958075
 11
4.5592119565
 21
6.0302958075
  0
LINE
  5
289
100
AcDbEntity
  8
0
100
AcDbLine
 62
7
  6
CONTINUOUS
 10
4.6197119565
 20
6.4537958075
 11
4.6197119565
 21
6.4267958075
  0
LINE
  5
28A
100
AcDbEntity
  8
0
100
AcDbLine
 62
7
  6
CONTINUOUS
 10
4.5964542055
 20
5.4865131617
 11
4.5619554881
 21
5.1378180818
  0
LINE
  5
28B
100
AcDbEntity
  8
0
100
AcDbLine
 62
7
  6
CONTINUOUS
 10
2.8426928277
 20
3.6441266678
 11
2.8181097927
 21
3.6269769861
  0
LINE
  5
28C
100
AcDbEntity
  8
0
100
AcDbLine
 62
7
  6
CONTINUOUS
 10
2.1372119565
 20
3.6921083075
 11
2.1233657989
 21
3.6841083075
  0
LINE
  5
28D
100
AcDbEntity
  8
0
100
AcDbLine
 62
7
  6
CONTINUOUS
 10
2.6517119565
 20
3.6996083075
 11
2.6387119565
 21
3.6921083075
  0
LINE
  5
28E
100
AcDbEntity
  8
0
100
AcDbLine
 62
7
  6
CONTINUOUS
 10
9.5656411447
 20
4.6802170946
 11
9.5562066936
 21
4.6778648218
  0
LINE
  5
28F
100
AcDbEntity
  8
0
100
AcDbLine
 62
7
  6
CONTINUOUS
 10
9.1329339361
 20
4.5762390742
 11
9.1234468674
 21
4.5740488118
  0
LINE
  5
290
100
AcDbEntity
  8
0
100
AcDbLine
 62
7
  6
CONTINUOUS
 10
9.1982772265
 20
4.2219996512
 11
9.207834955
 21
4.2238574855
  0
LINE
  5
291
100
AcDbEntity
  8
0
100
AcDbLine
 62
7
  6
CONTINUOUS
 10
9.6358397648
 20
4.3031834881
 11
9.6454284613
 21
4.304874234
  0
LINE
  5
292
100
AcDbEntity
  8
0
100
AcDbLine
 62
7
  6
CONTINUOUS
 10
6.2247732937
 20
3.7741828088
 11
6.2129619565
 21
3.7721006289
  0
LINE
  5
293
100
AcDbEntity
  8
0
100
AcDbLine
 62
7
  6
CONTINUOUS
 10
6.2701475162
 20
3.782039874
 11
6.2536058392
 21
3.7792877195
  0
LINE
  5
294
100
AcDbEntity
  8
0
100
AcDbLine
 62
7
  6
CONTINUOUS
 10
6.2621227763
 20
3.7807060401
 11
6.2608965425
 21
3.7805021111
  0
LINE
  5
295
100
AcDbEntity
  8
0
100
AcDbLine
 62
7
  6
CONTINUOUS
 10
6.2572314502
 20
3.7798919012
 11
6.256015926
 21
3.7796898375
  0
LINE
  5
296
100
AcDbEntity
  8
0
100
AcDbLine
 62
7
  6
CONTINUOUS
 10
6.2536058392
 20
3.7797957931
 11
6.2891869007
 21
3.7856971338
  0
LINE
  5
297
100
AcDbEntity
  8
0
100
AcDbLine
 62
7
  6
CONTINUOUS
 10
6.2737785547
 20
3.7831483173
 11
6.2748179109
 21
3.7833206097
  0
LINE
  5
298
100
AcDbEntity
  8
0
100
AcDbLine
 62
7
  6
CONTINUOUS
 10
6.2716020458
 20
3.782787423
 11
6.2727050445
 21
3.7829702421
  0
LINE
  5
299
100
AcDbEntity
  8
0
100
AcDbLine
 62
7
  6
CONTINUOUS
 10
6.2758217372
 20
3.7834868913
 11
6.2767903595
 21
3.7836473901
  0
LINE
  5
29A
100
AcDbEntity
  8
0
100
AcDbLine
 62
7
  6
CONTINUOUS
 10
6.2339630894
 20
3.7766606092
 11
6.2345133758
 21
3.776744026
  0
LINE
  5
29B
100
AcDbEntity
  8
0
100
AcDbLine
 62
7
  6
CONTINUOUS
 10
6.2339630999
 20
3.7761504396
 11
6.2369464653
 21
3.7765946263
  0
LINE
  5
29C
100
AcDbEntity
  8
0
100
AcDbLine
 62
7
  6
CONTINUOUS
 10
6.2345133797
 20
3.77674401
 11
6.2369464653
 21
3.7771044995
  0
LINE
  5
29D
100
AcDbEntity
  8
0
100
AcDbLine
 62
7
  6
CONTINUOUS
 10
6.368604919
 20
3.7918658226
 11
6.3686119565
 21
3.7918668113
  0
LINE
  5
29E
100
AcDbEntity
  8
0
100
AcDbLine
 62
7
  6
CONTINUOUS
 10
9.186798429
 20
4.2322343731
 11
9.1964402905
 21
4.2335894483
  0
LINE
  5
29F
100
AcDbEntity
  8
0
100
AcDbLine
 62
7
  6
CONTINUOUS
 10
9.6280101368
 20
4.2904066965
 11
9.6376741791
 21
4.2915932917
  0
LINE
  5
2A0
100
AcDbEntity
  8
0
100
AcDbLine
 62
7
  6
CONTINUOUS
 10
6.3863713883
 20
3.7921000656
 11
6.3863581236
 21
3.7920987779
  0
LINE
  5
2A1
100
AcDbEntity
  8
0
100
AcDbLine
 62
7
  6
CONTINUOUS
 10
6.3863164832
 20
3.7920959788
 11
6.386297865
 21
3.7920944717
  0
LINE
  5
2A2
100
AcDbEntity
  8
0
100
AcDbLine
 62
7
  6
CONTINUOUS
 10
6.3864619565
 20
3.7921068565
 11
6.3853837177
 21
3.7920282545
  0
LINE
  5
2A3
100
AcDbEntity
  8
0
100
AcDbLine
 62
7
  6
CONTINUOUS
 10
6.3685931188
 20
3.7918655281
 11
6.3686119565
 21
3.7918668113
  0
LINE
  5
2A4
100
AcDbEntity
  8
0
100
AcDbLine
 62
7
  6
CONTINUOUS
 10
6.3681342004
 20
3.7909967293
 11
6.3257352326
 21
3.7887561384
  0
LINE
  5
2A5
100
AcDbEntity
  8
0
100
AcDbLine
 62
7
  6
CONTINUOUS
 10
6.3321974741
 20
3.7890933273
 11
6.3294839638
 21
3.7889512117
  0
LINE
  5
2A6
100
AcDbEntity
  8
0
100
AcDbLine
 62
7
  6
CONTINUOUS
 10
6.3294839638
 20
3.7889512117
 11
6.3257351596
 21
3.7887561274
  0
LINE
  5
2A7
100
AcDbEntity
  8
0
100
AcDbLine
 62
7
  6
CONTINUOUS
 10
6.3090455833
 20
3.7880027857
 11
6.3079619565
 21
3.7879700154
  0
LWPOLYLINE
  5
2A8
100
AcDbEntity
  8
0
100
AcDbPolyline
 62
7
  6
CONTINUOUS
 90
6
 70
0
 10
6.3864619565
 20
3.7921068565
 10
6.3864162374
 20
3.7921066534
 10
6.3864207067
 20
3.7921063429
 10
6.3864493123
 20
3.7921059014
 10
6.3864556353
 20
3.7921052609
 10
6.386430331
 20
3.7921044118
  0
LINE
  5
2A9
100
AcDbEntity
  8
0
100
AcDbLine
 62
7
  6
CONTINUOUS
 10
6.6792119565
 20
3.6401083075
 11
6.6667119565
 21
3.6401083075
  0
LINE
  5
2AA
100
AcDbEntity
  8
0
100
AcDbLine
 62
7
  6
CONTINUOUS
 10
2.0967119565
 20
3.6401083075
 11
2.1092119565
 21
3.6401083075
  0
LINE
  5
2AB
100
AcDbEntity
  8
0
100
AcDbLine
 62
7
  6
CONTINUOUS
 10
2.1092119565
 20
3.6441083075
 11
2.6667119565
 21
3.6441083075
  0
LINE
  5
2AC
100
AcDbEntity
  8
0
100
AcDbLine
 62
7
  6
CONTINUOUS
 10
6.1092119565
 20
3.6441083075
 11
6.6667119565
 21
3.6441083075
  0
LINE
  5
2AD
100
AcDbEntity
  8
0
100
AcDbLine
 62
7
  6
CONTINUOUS
 10
8.0162119565
 20
3.6823583075
 11
7.9762119565
 21
3.6823583075
  0
LINE
  5
2AE
100
AcDbEntity
  8
0
100
AcDbLine
 62
7
  6
CONTINUOUS
 10
6.8317119565
 20
3.6823583075
 11
6.7792119565
 21
3.6823583075
  0
LINE
  5
2AF
100
AcDbEntity
  8
0
100
AcDbLine
 62
7
  6
CONTINUOUS
 10
0.7597119565
 20
3.6823583075
 11
0.7997119565
 21
3.6823583075
  0
LINE
  5
2B0
100
AcDbEntity
  8
0
100
AcDbLine
 62
7
  6
CONTINUOUS
 10
1.9442119565
 20
3.6823583075
 11
1.9967119565
 21
3.6823583075
  0
LINE
  5
2B1
100
AcDbEntity
  8
0
100
AcDbLine
 62
7
  6
CONTINUOUS
 10
2.1233657989
 20
3.6841083075
 11
2.6525581142
 21
3.6841083075
  0
LINE
  5
2B2
100
AcDbEntity
  8
0
100
AcDbLine
 62
7
  6
CONTINUOUS
 10
6.1233657989
 20
3.6841083075
 11
6.6525581142
 21
3.6841083075
  0
LINE
  5
2B3
100
AcDbEntity
  8
0
100
AcDbLine
 62
7
  6
CONTINUOUS
 10
2.1372119565
 20
3.6921083075
 11
2.6387119565
 21
3.6921083075
  0
LINE
  5
2B4
100
AcDbEntity
  8
0
100
AcDbLine
 62
7
  6
CONTINUOUS
 10
6.1372119565
 20
3.6921083075
 11
6.6387119565
 21
3.6921083075
  0
LINE
  5
2B5
100
AcDbEntity
  8
0
100
AcDbLine
 62
7
  6
CONTINUOUS
 10
2.1242119565
 20
3.6996083075
 11
2.6517119565
 21
3.6996083075
  0
LINE
  5
2B6
100
AcDbEntity
  8
0
100
AcDbLine
 62
7
  6
CONTINUOUS
 10
6.1242119565
 20
3.6996083075
 11
6.6517119565
 21
3.6996083075
  0
LINE
  5
2B7
100
AcDbEntity
  8
0
100
AcDbLine
 62
7
  6
CONTINUOUS
 10
9.1548928969
 20
3.7047958075
 11
9.6210310162
 21
3.7047958075
  0
LINE
  5
2B8
100
AcDbEntity
  8
0
100
AcDbLine
 62
7
  6
CONTINUOUS
 10
2.1242119565
 20
3.735250356
 11
2.6517119565
 21
3.735250356
  0
LINE
  5
2B9
100
AcDbEntity
  8
0
100
AcDbLine
 62
7
  6
CONTINUOUS
 10
6.1242119565
 20
3.735250356
 11
6.6517119565
 21
3.735250356
  0
LINE
  5
2BA
100
AcDbEntity
  8
0
100
AcDbLine
 62
7
  6
CONTINUOUS
 10
2.1353217459
 20
3.7463601454
 11
2.6406021671
 21
3.7463601454
  0
LINE
  5
2BB
100
AcDbEntity
  8
0
100
AcDbLine
 62
7
  6
CONTINUOUS
 10
6.1353217459
 20
3.7463601454
 11
6.6406021671
 21
3.7463601454
  0
LINE
  5
2BC
100
AcDbEntity
  8
0
100
AcDbLine
 62
7
  6
CONTINUOUS
 10
2.1607069785
 20
3.7546083075
 11
2.6152169346
 21
3.7546083075
  0
LINE
  5
2BD
100
AcDbEntity
  8
0
100
AcDbLine
 62
7
  6
CONTINUOUS
 10
6.1607069785
 20
3.7546083075
 11
6.6152169346
 21
3.7546083075
  0
LINE
  5
2BE
100
AcDbEntity
  8
0
100
AcDbLine
 62
7
  6
CONTINUOUS
 10
6.5855342848
 20
3.7665129541
 11
6.1903896282
 21
3.7665129541
  0
LINE
  5
2BF
100
AcDbEntity
  8
0
100
AcDbLine
 62
7
  6
CONTINUOUS
 10
2.5855342763
 20
3.7665130139
 11
2.1903896367
 21
3.7665130139
  0
LINE
  5
2C0
100
AcDbEntity
  8
0
100
AcDbLine
 62
7
  6
CONTINUOUS
 10
6.3264290971
 20
3.7896247845
 11
6.3265808717
 21
3.789622193
  0
LINE
  5
2C1
100
AcDbEntity
  8
0
100
AcDbLine
 62
7
  6
CONTINUOUS
 10
2.3489636315
 20
3.7910540805
 11
2.3479619565
 21
3.7910758102
  0
LINE
  5
2C2
100
AcDbEntity
  8
0
100
AcDbLine
 62
7
  6
CONTINUOUS
 10
6.3261119565
 20
3.7896374221
 11
6.3265808717
 21
3.789622193
  0
LINE
  5
2C3
100
AcDbEntity
  8
0
100
AcDbLine
 62
7
  6
CONTINUOUS
 10
6.1242119565
 20
3.3996083075
 11
6.2027119565
 21
3.3741083075
  0
LINE
  5
2C4
100
AcDbEntity
  8
0
100
AcDbLine
 62
7
  6
CONTINUOUS
 10
4.9754619565
 20
2.3957958075
 11
4.9754619565
 21
2.3432958075
  0
LINE
  5
2C5
100
AcDbEntity
  8
0
100
AcDbLine
 62
7
  6
CONTINUOUS
 10
1.9967119565
 20
3.4008583075
 11
2.0967119565
 21
3.4431083075
  0
LINE
  5
2C6
100
AcDbEntity
  8
0
100
AcDbLine
 62
7
  6
CONTINUOUS
 10
2.1607069785
 20
3.7546083075
 11
2.1353217459
 21
3.7463601454
  0
LINE
  5
2C7
100
AcDbEntity
  8
0
100
AcDbLine
 62
7
  6
CONTINUOUS
 10
9.5776466866
 20
4.6705919637
 11
9.568088958
 21
4.6687341294
  0
LINE
  5
2C8
100
AcDbEntity
  8
0
100
AcDbLine
 62
7
  6
CONTINUOUS
 10
9.1400841483
 20
4.5894081268
 11
9.1304954518
 21
4.5877173809
  0
LINE
  5
2C9
100
AcDbEntity
  8
0
100
AcDbLine
 62
7
  6
CONTINUOUS
 10
9.589125484
 20
4.6603572418
 11
9.5794836225
 21
4.6590021666
  0
LINE
  5
2CA
100
AcDbEntity
  8
0
100
AcDbLine
 62
7
  6
CONTINUOUS
 10
2.4086045865
 20
3.7918323248
 11
2.4086119565
 21
3.7918332668
  0
LINE
  5
2CB
100
AcDbEntity
  8
0
100
AcDbLine
 62
7
  6
CONTINUOUS
 10
9.1479137763
 20
4.6021849184
 11
9.1382497339
 21
4.6009983232
  0
LINE
  5
2CC
100
AcDbEntity
  8
0
100
AcDbLine
 62
7
  6
CONTINUOUS
 10
2.4086020406
 20
3.7918323925
 11
2.4086119565
 21
3.7918332668
  0
LINE
  5
2CD
100
AcDbEntity
  8
0
100
AcDbLine
 62
7
  6
CONTINUOUS
 10
9.1758710068
 20
4.2430558224
 11
9.1855705736
 21
4.2439044245
  0
LINE
  5
2CE
100
AcDbEntity
  8
0
100
AcDbLine
 62
7
  6
CONTINUOUS
 10
9.6195309708
 20
4.2780510704
 11
9.6292305593
 21
4.2787293317
  0
LINE
  5
2CF
100
AcDbEntity
  8
0
100
AcDbLine
 62
7
  6
CONTINUOUS
 10
9.1655249111
 20
4.2544343384
 11
9.1752555974
 21
4.2547741414
  0
LINE
  5
2D0
100
AcDbEntity
  8
0
100
AcDbLine
 62
7
  6
CONTINUOUS
 10
2.4264619565
 20
3.7911518425
 11
2.4254684325
 21
3.7911305192
  0
LINE
  5
2D1
100
AcDbEntity
  8
0
100
AcDbLine
 62
7
  6
CONTINUOUS
 10
4.1168065714
 20
3.8376892955
 11
4.6591173416
 21
3.8376892955
  0
LINE
  5
2D2
100
AcDbEntity
  8
0
100
AcDbLine
 62
7
  6
CONTINUOUS
 10
4.1291409364
 20
3.8547958075
 11
4.6467829766
 21
3.8547958075
  0
LINE
  5
2D3
100
AcDbEntity
  8
0
100
AcDbLine
 62
7
  6
CONTINUOUS
 10
4.1388640184
 20
3.8705875159
 11
4.6370598946
 21
3.8705875159
  0
LINE
  5
2D4
100
AcDbEntity
  8
0
100
AcDbLine
 62
7
  6
CONTINUOUS
 10
9.1327119565
 20
3.9587958075
 11
9.6432119565
 21
3.9587958075
  0
LINE
  5
2D5
100
AcDbEntity
  8
0
100
AcDbLine
 62
7
  6
CONTINUOUS
 10
9.1327119565
 20
4.0212958075
 11
9.6432119565
 21
4.0212958075
  0
LINE
  5
2D6
100
AcDbEntity
  8
0
100
AcDbLine
 62
7
  6
CONTINUOUS
 10
6.4667121072
 20
3.7874433173
 11
6.4681844249
 21
3.7873360485
  0
LINE
  5
2D7
100
AcDbEntity
  8
0
100
AcDbLine
 62
7
  6
CONTINUOUS
 10
6.4681844249
 20
3.7873360485
 11
6.4686447141
 21
3.7872832867
  0
LINE
  5
2D8
100
AcDbEntity
  8
0
100
AcDbLine
 62
7
  6
CONTINUOUS
 10
6.5490763364
 20
3.7743704763
 11
6.5252119565
 21
3.7786791743
  0
LINE
  5
2D9
100
AcDbEntity
  8
0
100
AcDbLine
 62
7
  6
CONTINUOUS
 10
6.5674619565
 20
3.7710438595
 11
6.5490763315
 21
3.7743703916
  0
LINE
  5
2DA
100
AcDbEntity
  8
0
100
AcDbLine
 62
7
  6
CONTINUOUS
 10
6.7792119565
 20
3.4008583075
 11
6.6792119565
 21
3.4431083075
  0
LINE
  5
2DB
100
AcDbEntity
  8
0
100
AcDbLine
 62
7
  6
CONTINUOUS
 10
5.9332310853
 20
3.6441266678
 11
5.9578141203
 21
3.6269769861
  0
LINE
  5
2DC
100
AcDbEntity
  8
0
100
AcDbLine
 62
7
  6
CONTINUOUS
 10
9.6000529063
 20
4.6495357925
 11
9.5903533394
 21
4.6486871904
  0
LINE
  5
2DD
100
AcDbEntity
  8
0
100
AcDbLine
 62
7
  6
CONTINUOUS
 10
9.1563929422
 20
4.6145405445
 11
9.1466933537
 21
4.6138622832
  0
LINE
  5
2DE
100
AcDbEntity
  8
0
100
AcDbLine
 62
7
  6
CONTINUOUS
 10
9.610399002
 20
4.6381572765
 11
9.6006683156
 21
4.6378174735
  0
LINE
  5
2DF
100
AcDbEntity
  8
0
100
AcDbLine
 62
7
  6
CONTINUOUS
 10
9.6104002785
 20
4.2661688059
 11
9.6201354132
 21
4.2663387333
  0
LINE
  5
2E0
100
AcDbEntity
  8
0
100
AcDbLine
 62
7
  6
CONTINUOUS
 10
4.1388640184
 20
4.244504099
 11
4.6370598946
 21
4.244504099
  0
LINE
  5
2E1
100
AcDbEntity
  8
0
100
AcDbLine
 62
7
  6
CONTINUOUS
 10
4.1291409364
 20
4.2602958075
 11
4.6467829766
 21
4.2602958075
  0
LINE
  5
2E2
100
AcDbEntity
  8
0
100
AcDbLine
 62
7
  6
CONTINUOUS
 10
4.1168065714
 20
4.2774023194
 11
4.6591173416
 21
4.2774023194
  0
LINE
  5
2E3
100
AcDbEntity
  8
0
100
AcDbLine
 62
7
  6
CONTINUOUS
 10
9.1557884999
 20
4.2663387333
 11
9.1655236345
 21
4.2661688059
  0
LINE
  5
2E4
100
AcDbEntity
  8
0
100
AcDbLine
 62
7
  6
CONTINUOUS
 10
9.6006683156
 20
4.2547741414
 11
9.610399002
 21
4.2544343384
  0
LINE
  5
2E5
100
AcDbEntity
  8
0
100
AcDbLine
 62
7
  6
CONTINUOUS
 10
6.6152169346
 20
3.7546083075
 11
6.6406021671
 21
3.7463601454
  0
LINE
  5
2E6
100
AcDbEntity
  8
0
100
AcDbLine
 62
7
  6
CONTINUOUS
 10
6.1242119565
 20
3.6996083075
 11
6.1372119565
 21
3.6921083075
  0
LINE
  5
2E7
100
AcDbEntity
  8
0
100
AcDbLine
 62
7
  6
CONTINUOUS
 10
6.6387119565
 20
3.6921083075
 11
6.6525581142
 21
3.6841083075
  0
LINE
  5
2E8
100
AcDbEntity
  8
0
100
AcDbLine
 62
7
  6
CONTINUOUS
 10
6.7669883297
 20
2.6867695103
 11
6.7085436764
 21
2.7450458075
  0
LINE
  5
2E9
100
AcDbEntity
  8
0
100
AcDbLine
 62
7
  6
CONTINUOUS
 10
2.6517119565
 20
3.3996083075
 11
2.5732119565
 21
3.3741083075
  0
LINE
  5
2EA
100
AcDbEntity
  8
0
100
AcDbLine
 62
7
  6
CONTINUOUS
 10
9.1655236345
 20
4.626422809
 11
9.1557884999
 21
4.6262528816
  0
LINE
  5
2EB
100
AcDbEntity
  8
0
100
AcDbLine
 62
7
  6
CONTINUOUS
 10
9.6201354132
 20
4.6262528816
 11
9.6104002785
 21
4.626422809
  0
LINE
  5
2EC
100
AcDbEntity
  8
0
100
AcDbLine
 62
7
  6
CONTINUOUS
 10
9.1752555974
 20
4.6378174735
 11
9.1655249111
 21
4.6381572765
  0
LINE
  5
2ED
100
AcDbEntity
  8
0
100
AcDbLine
 62
7
  6
CONTINUOUS
 10
9.1466933537
 20
4.2787293317
 11
9.1563929422
 21
4.2780510704
  0
LINE
  5
2EE
100
AcDbEntity
  8
0
100
AcDbLine
 62
7
  6
CONTINUOUS
 10
9.5903533394
 20
4.2439044245
 11
9.6000529063
 21
4.2430558224
  0
LINE
  5
2EF
100
AcDbEntity
  8
0
100
AcDbLine
 62
7
  6
CONTINUOUS
 10
9.1382497339
 20
4.2915932917
 11
9.1479137763
 21
4.2904066965
  0
LINE
  5
2F0
100
AcDbEntity
  8
0
100
AcDbLine
 62
7
  6
CONTINUOUS
 10
9.5794836225
 20
4.2335894483
 11
9.589125484
 21
4.2322343731
  0
LINE
  5
2F1
100
AcDbEntity
  8
0
100
AcDbLine
 62
7
  6
CONTINUOUS
 10
6.6952789536
 20
2.9666452132
 11
6.6582119565
 21
3.0196040268
  0
LINE
  5
2F2
100
AcDbEntity
  8
0
100
AcDbLine
 62
7
  6
CONTINUOUS
 10
6.1093043711
 20
3.6354055414
 11
6.1092119565
 21
3.6355974844
  0
LINE
  5
2F3
100
AcDbEntity
  8
0
100
AcDbLine
 62
7
  6
CONTINUOUS
 10
5.9332310853
 20
3.4390899471
 11
5.9332310853
 21
3.6441266678
  0
LINE
  5
2F4
100
AcDbEntity
  8
0
100
AcDbLine
 62
7
  6
CONTINUOUS
 10
5.9578141203
 20
3.4562396288
 11
5.9578141203
 21
3.6269769861
  0
LINE
  5
2F5
100
AcDbEntity
  8
0
100
AcDbLine
 62
7
  6
CONTINUOUS
 10
5.970155085
 20
3.6316083075
 11
5.970155085
 21
3.4516083075
  0
LINE
  5
2F6
100
AcDbEntity
  8
0
100
AcDbLine
 62
7
  6
CONTINUOUS
 10
5.9836420561
 20
3.4457865253
 11
5.9836420561
 21
3.6374300896
  0
LINE
  5
2F7
100
AcDbEntity
  8
0
100
AcDbLine
 62
7
  6
CONTINUOUS
 10
6.0089315048
 20
2.5617958075
 11
6.0089315048
 21
2.6867671159
  0
LINE
  5
2F8
100
AcDbEntity
  8
0
100
AcDbLine
 62
7
  6
CONTINUOUS
 10
6.0174619565
 20
2.5307958075
 11
6.0174619565
 21
2.5617958075
  0
LINE
  5
2F9
100
AcDbEntity
  8
0
100
AcDbLine
 62
7
  6
CONTINUOUS
 10
9.6292305593
 20
4.6138622832
 11
9.6195309708
 21
4.6145405445
  0
LINE
  5
2FA
100
AcDbEntity
  8
0
100
AcDbLine
 62
7
  6
CONTINUOUS
 10
9.1855705736
 20
4.6486871904
 11
9.1758710068
 21
4.6495357925
  0
LINE
  5
2FB
100
AcDbEntity
  8
0
100
AcDbLine
 62
7
  6
CONTINUOUS
 10
9.6376741791
 20
4.6009983232
 11
9.6280101368
 21
4.6021849184
  0
LINE
  5
2FC
100
AcDbEntity
  8
0
100
AcDbLine
 62
7
  6
CONTINUOUS
 10
9.1304954518
 20
4.304874234
 11
9.1400841483
 21
4.3031834881
  0
LINE
  5
2FD
100
AcDbEntity
  8
0
100
AcDbLine
 62
7
  6
CONTINUOUS
 10
9.568088958
 20
4.2238574855
 11
9.5776466866
 21
4.2219996512
  0
LINE
  5
2FE
100
AcDbEntity
  8
0
100
AcDbLine
 62
7
  6
CONTINUOUS
 10
9.1234468674
 20
4.3185428031
 11
9.1329339361
 21
4.3163525407
  0
LINE
  5
2FF
100
AcDbEntity
  8
0
100
AcDbLine
 62
7
  6
CONTINUOUS
 10
6.6406021671
 20
3.7463601454
 11
6.6517119565
 21
3.735250356
  0
LINE
  5
300
100
AcDbEntity
  8
0
100
AcDbLine
 62
7
  6
CONTINUOUS
 10
6.1092119565
 20
3.6441083075
 11
6.1092119565
 21
3.6355974844
  0
LINE
  5
301
100
AcDbEntity
  8
0
100
AcDbLine
 62
7
  6
CONTINUOUS
 10
6.1092119565
 20
3.4476191305
 11
6.1092119565
 21
3.4391083075
  0
LINE
  5
302
100
AcDbEntity
  8
0
100
AcDbLine
 62
7
  6
CONTINUOUS
 10
6.1093043711
 20
3.4478110735
 11
6.1093043711
 21
3.6354055414
  0
LINE
  5
303
100
AcDbEntity
  8
0
100
AcDbLine
 62
7
  6
CONTINUOUS
 10
6.1196170837
 20
3.6041495602
 11
6.1196170837
 21
3.4790670547
  0
LINE
  5
304
100
AcDbEntity
  8
0
100
AcDbLine
 62
7
  6
CONTINUOUS
 10
6.1242119565
 20
3.735250356
 11
6.1242119565
 21
3.6996083075
  0
LINE
  5
305
100
AcDbEntity
  8
0
100
AcDbLine
 62
7
  6
CONTINUOUS
 10
6.1267119565
 20
3.5540179811
 11
6.1267119565
 21
3.5291986338
  0
LINE
  5
306
100
AcDbEntity
  8
0
100
AcDbLine
 62
7
  6
CONTINUOUS
 10
6.1984467307
 20
2.5617958075
 11
6.1984467307
 21
2.6867680785
  0
LINE
  5
307
100
AcDbEntity
  8
0
100
AcDbLine
 62
7
  6
CONTINUOUS
 10
6.2162119565
 20
3.3741083075
 11
6.2162119565
 21
3.1946083075
  0
LINE
  5
308
100
AcDbEntity
  8
0
100
AcDbLine
 62
7
  6
CONTINUOUS
 10
6.2339619565
 20
3.7761501448
 11
6.2339619565
 21
3.7766603163
  0
LINE
  5
309
100
AcDbEntity
  8
0
100
AcDbLine
 62
7
  6
CONTINUOUS
 10
6.2369464653
 20
3.7765946263
 11
6.2369464653
 21
3.7771044995
  0
LINE
  5
30A
100
AcDbEntity
  8
0
100
AcDbLine
 62
7
  6
CONTINUOUS
 10
6.2536058392
 20
3.7792877195
 11
6.2536058392
 21
3.7797957931
  0
LINE
  5
30B
100
AcDbEntity
  8
0
100
AcDbLine
 62
7
  6
CONTINUOUS
 10
6.2891869007
 20
3.7852705531
 11
6.2891869007
 21
3.7856971338
  0
LINE
  5
30C
100
AcDbEntity
  8
0
100
AcDbLine
 62
7
  6
CONTINUOUS
 10
6.3261119565
 20
3.7891358226
 11
6.3261119565
 21
3.7896374221
  0
LINE
  5
30D
100
AcDbEntity
  8
0
100
AcDbLine
 62
7
  6
CONTINUOUS
 10
6.3686119565
 20
3.7913666554
 11
6.3686119565
 21
3.7918668113
  0
LINE
  5
30E
100
AcDbEntity
  8
0
100
AcDbLine
 62
7
  6
CONTINUOUS
 10
6.3929619565
 20
3.7909264656
 11
6.3929619565
 21
3.7914920385
  0
LINE
  5
30F
100
AcDbEntity
  8
0
100
AcDbLine
 62
7
  6
CONTINUOUS
 10
6.4037119565
 20
3.7912805908
 11
6.4037119565
 21
3.791947927
  0
LWPOLYLINE
  5
310
100
AcDbEntity
  8
0
100
AcDbPolyline
 62
7
  6
CONTINUOUS
 90
4
 70
0
 10
6.3864166842
 20
3.7921034514
 10
6.3864139687
 20
3.7921024221
 10
6.3863912303
 20
3.7921012854
 10
6.3863368628
 20
3.7920974166
  0
LINE
  5
311
100
AcDbEntity
  8
0
100
AcDbLine
 62
7
  6
CONTINUOUS
 10
6.1607069785
 20
3.7546083075
 11
6.1353217459
 21
3.7463601454
  0
LINE
  5
312
100
AcDbEntity
  8
0
100
AcDbLine
 62
7
  6
CONTINUOUS
 10
9.5531622412
 20
4.6891906992
 11
9.5438510675
 21
4.6863439877
  0
LINE
  5
313
100
AcDbEntity
  8
0
100
AcDbLine
 62
7
  6
CONTINUOUS
 10
9.126482738
 20
4.5627138561
 11
9.1171233005
 21
4.5600300806
  0
LINE
  5
314
100
AcDbEntity
  8
0
100
AcDbLine
 62
7
  6
CONTINUOUS
 10
4.6029619565
 20
5.3367958075
 11
4.5816416745
 21
5.3367958075
  0
LINE
  5
315
100
AcDbEntity
  8
0
100
AcDbLine
 62
7
  6
CONTINUOUS
 10
4.1942822386
 20
5.3367958075
 11
4.1729619565
 21
5.3367958075
  0
LINE
  5
316
100
AcDbEntity
  8
0
100
AcDbLine
 62
7
  6
CONTINUOUS
 10
4.170325282
 20
5.4167088122
 11
4.1863759149
 21
5.4167088122
  0
LINE
  5
317
100
AcDbEntity
  8
0
100
AcDbLine
 62
7
  6
CONTINUOUS
 10
4.5895479981
 20
5.4167088122
 11
4.6055986311
 21
5.4167088122
  0
LINE
  5
318
100
AcDbEntity
  8
0
100
AcDbLine
 62
7
  6
CONTINUOUS
 10
9.1964402905
 20
4.6590021666
 11
9.186798429
 21
4.6603572418
  0
LINE
  5
319
100
AcDbEntity
  8
0
100
AcDbLine
 62
7
  6
CONTINUOUS
 10
9.6454284613
 20
4.5877173809
 11
9.6358397648
 21
4.5894081268
  0
LINE
  5
31A
100
AcDbEntity
  8
0
100
AcDbLine
 62
7
  6
CONTINUOUS
 10
9.207834955
 20
4.6687341294
 11
9.1982772265
 21
4.6705919637
  0
LINE
  5
31B
100
AcDbEntity
  8
0
100
AcDbLine
 62
7
  6
CONTINUOUS
 10
9.5562066936
 20
4.2147267932
 11
9.5656411447
 21
4.2123745203
  0
LINE
  5
31C
100
AcDbEntity
  8
0
100
AcDbLine
 62
7
  6
CONTINUOUS
 10
9.1171233005
 20
4.3325615343
 11
9.126482738
 21
4.3298777588
  0
LINE
  5
31D
100
AcDbEntity
  8
0
100
AcDbLine
 62
7
  6
CONTINUOUS
 10
9.5438510675
 20
4.2062476272
 11
9.5531622412
 21
4.2034009157
  0
LINE
  5
31E
100
AcDbEntity
  8
0
100
AcDbLine
 62
7
  6
CONTINUOUS
 10
8.8004619565
 20
2.3532958075
 11
8.8104619565
 21
2.3432958075
  0
LWPOLYLINE
  5
31F
100
AcDbEntity
  8
0
100
AcDbPolyline
 62
7
  6
CONTINUOUS
 90
3
 70
0
 10
6.3261119565
 20
3.7896374221
 10
6.3261121974
 20
3.7896356864
 10
6.3261492991
 20
3.7896336304
  0
LINE
  5
320
100
AcDbEntity
  8
0
100
AcDbLine
 62
7
  6
CONTINUOUS
 10
6.4217119565
 20
3.7907051726
 11
6.4217119565
 21
3.7913733977
  0
LINE
  5
321
100
AcDbEntity
  8
0
100
AcDbLine
 62
7
  6
CONTINUOUS
 10
6.4367119565
 20
3.7894469718
 11
6.4367119565
 21
3.7899483695
  0
LINE
  5
322
100
AcDbEntity
  8
0
100
AcDbLine
 62
7
  6
CONTINUOUS
 10
6.4487119565
 20
3.7885962092
 11
6.4487119565
 21
3.7890981592
  0
LINE
  5
323
100
AcDbEntity
  8
0
100
AcDbLine
 62
7
  6
CONTINUOUS
 10
6.4615445515
 20
3.7877366983
 11
6.4615445515
 21
3.7882392075
  0
LINE
  5
324
100
AcDbEntity
  8
0
100
AcDbLine
 62
7
  6
CONTINUOUS
 10
6.4681844249
 20
3.7873360485
 11
6.4681844249
 21
3.7878388189
  0
LINE
  5
325
100
AcDbEntity
  8
0
100
AcDbLine
 62
7
  6
CONTINUOUS
 10
6.4829619565
 20
3.785091674
 11
6.4829619565
 21
3.7856615388
  0
LINE
  5
326
100
AcDbEntity
  8
0
100
AcDbLine
 62
7
  6
CONTINUOUS
 10
6.4879619565
 20
3.7848005368
 11
6.4879619565
 21
3.785628318
  0
LINE
  5
327
100
AcDbEntity
  8
0
100
AcDbLine
 62
7
  6
CONTINUOUS
 10
6.5061028967
 20
3.7820547888
 11
6.5061028967
 21
3.783054634
  0
LINE
  5
328
100
AcDbEntity
  8
0
100
AcDbLine
 62
7
  6
CONTINUOUS
 10
6.5091028967
 20
3.7814718755
 11
6.5091028967
 21
3.7819784989
  0
LINE
  5
329
100
AcDbEntity
  8
0
100
AcDbLine
 62
7
  6
CONTINUOUS
 10
6.5230343506
 20
3.7791344265
 11
6.5230343506
 21
3.7796426021
  0
LINE
  5
32A
100
AcDbEntity
  8
0
100
AcDbLine
 62
7
  6
CONTINUOUS
 10
6.5458019595
 20
3.775230446
 11
6.5458019595
 21
3.7757412357
  0
LINE
  5
32B
100
AcDbEntity
  8
0
100
AcDbLine
 62
7
  6
CONTINUOUS
 10
6.5482924165
 20
3.7748378552
 11
6.5482924165
 21
3.7753489092
  0
LINE
  5
32C
100
AcDbEntity
  8
0
100
AcDbLine
 62
7
  6
CONTINUOUS
 10
6.5597119565
 20
3.3741083075
 11
6.5597119565
 21
3.1946083075
  0
LINE
  5
32D
100
AcDbEntity
  8
0
100
AcDbLine
 62
7
  6
CONTINUOUS
 10
6.5774771824
 20
2.5617958075
 11
6.5774771824
 21
2.6867678354
  0
LINE
  5
32E
100
AcDbEntity
  8
0
100
AcDbLine
 62
7
  6
CONTINUOUS
 10
6.6492119565
 20
3.5257259273
 11
6.6492119565
 21
3.5574906876
  0
LINE
  5
32F
100
AcDbEntity
  8
0
100
AcDbLine
 62
7
  6
CONTINUOUS
 10
6.6517119565
 20
3.735250356
 11
6.6517119565
 21
3.6996083075
  0
LINE
  5
330
100
AcDbEntity
  8
0
100
AcDbLine
 62
7
  6
CONTINUOUS
 10
6.6667119565
 20
3.6441083075
 11
6.6667119565
 21
3.6401083075
  0
LINE
  5
331
100
AcDbEntity
  8
0
100
AcDbLine
 62
7
  6
CONTINUOUS
 10
6.6667119565
 20
3.4431083075
 11
6.6667119565
 21
3.4391083075
  0
LINE
  5
332
100
AcDbEntity
  8
0
100
AcDbLine
 62
7
  6
CONTINUOUS
 10
6.6792119565
 20
3.4431083075
 11
6.6792119565
 21
3.6401083075
  0
LINE
  5
333
100
AcDbEntity
  8
0
100
AcDbLine
 62
7
  6
CONTINUOUS
 10
6.1092119565
 20
3.4476191305
 11
6.1093043711
 21
3.4478110735
  0
LINE
  5
334
100
AcDbEntity
  8
0
100
AcDbLine
 62
7
  6
CONTINUOUS
 10
6.1353217459
 20
3.7463601454
 11
6.1242119565
 21
3.735250356
  0
LINE
  5
335
100
AcDbEntity
  8
0
100
AcDbLine
 62
7
  6
CONTINUOUS
 10
5.9332310853
 20
3.4390899471
 11
5.9578141203
 21
3.4562396288
  0
LINE
  5
336
100
AcDbEntity
  8
0
100
AcDbLine
 62
7
  6
CONTINUOUS
 10
6.1372119565
 20
3.6921083075
 11
6.1233657989
 21
3.6841083075
  0
LINE
  5
337
100
AcDbEntity
  8
0
100
AcDbLine
 62
7
  6
CONTINUOUS
 10
6.6517119565
 20
3.6996083075
 11
6.6387119565
 21
3.6921083075
  0
LINE
  5
338
100
AcDbEntity
  8
0
100
AcDbLine
 62
7
  6
CONTINUOUS
 10
6.7792119565
 20
3.6823583075
 11
6.6792119565
 21
3.6401083075
  0
LINE
  5
339
100
AcDbEntity
  8
0
100
AcDbLine
 62
7
  6
CONTINUOUS
 10
9.1157362535
 20
4.5347473002
 11
9.1067209909
 21
4.5311048977
  0
LINE
  5
33A
100
AcDbEntity
  8
0
100
AcDbLine
 62
7
  6
CONTINUOUS
 10
9.5402237036
 20
4.6975037351
 11
9.5310742758
 21
4.6941736157
  0
LINE
  5
33B
100
AcDbEntity
  8
0
100
AcDbLine
 62
7
  6
CONTINUOUS
 10
9.1207482363
 20
4.5488695443
 11
9.1115420835
 21
4.5456996117
  0
LINE
  5
33C
100
AcDbEntity
  8
0
100
AcDbLine
 62
7
  6
CONTINUOUS
 10
9.2227616718
 20
4.2034009157
 11
9.2320728455
 21
4.2062476272
  0
LINE
  5
33D
100
AcDbEntity
  8
0
100
AcDbLine
 62
7
  6
CONTINUOUS
 10
9.649441175
 20
4.3298777588
 11
9.6588006126
 21
4.3325615343
  0
LINE
  5
33E
100
AcDbEntity
  8
0
100
AcDbLine
 62
7
  6
CONTINUOUS
 10
9.6524770457
 20
4.5740488118
 11
9.6429899769
 21
4.5762390742
  0
LINE
  5
33F
100
AcDbEntity
  8
0
100
AcDbLine
 62
7
  6
CONTINUOUS
 10
9.2197172195
 20
4.6778648218
 11
9.2102827683
 21
4.6802170946
  0
LINE
  5
340
100
AcDbEntity
  8
0
100
AcDbLine
 62
7
  6
CONTINUOUS
 10
9.6588006126
 20
4.5600300806
 11
9.649441175
 21
4.5627138561
  0
LINE
  5
341
100
AcDbEntity
  8
0
100
AcDbLine
 62
7
  6
CONTINUOUS
 10
9.2320728455
 20
4.6863439877
 11
9.2227616718
 21
4.6891906992
  0
LINE
  5
342
100
AcDbEntity
  8
0
100
AcDbLine
 62
7
  6
CONTINUOUS
 10
9.1115420835
 20
4.3468920032
 11
9.1207482363
 21
4.3437220706
  0
LINE
  5
343
100
AcDbEntity
  8
0
100
AcDbLine
 62
7
  6
CONTINUOUS
 10
9.5310742758
 20
4.1984179992
 11
9.5402237036
 21
4.1950878799
  0
LINE
  5
344
100
AcDbEntity
  8
0
100
AcDbLine
 62
7
  6
CONTINUOUS
 10
9.1067209909
 20
4.3614867173
 11
9.1157362535
 21
4.3578443147
  0
LINE
  5
345
100
AcDbEntity
  8
0
100
AcDbLine
 62
7
  6
CONTINUOUS
 10
9.5179052233
 20
4.191267787
 11
9.526867827
 21
4.1874633875
  0
LINE
  5
346
100
AcDbEntity
  8
0
100
AcDbLine
 62
7
  6
CONTINUOUS
 10
8.0162119565
 20
3.6823583075
 11
8.0262119565
 21
3.6723583075
  0
LINE
  5
347
100
AcDbEntity
  8
0
100
AcDbLine
 62
7
  6
CONTINUOUS
 10
6.7584619565
 20
2.5307958075
 11
6.7584619565
 21
2.5617958075
  0
LINE
  5
348
100
AcDbEntity
  8
0
100
AcDbLine
 62
7
  6
CONTINUOUS
 10
6.7669924082
 20
2.5617958075
 11
6.7669924082
 21
2.6867680785
  0
LINE
  5
349
100
AcDbEntity
  8
0
100
AcDbLine
 62
7
  6
CONTINUOUS
 10
6.7792119565
 20
3.4008583075
 11
6.7792119565
 21
3.6823583075
  0
LINE
  5
34A
100
AcDbEntity
  8
0
100
AcDbLine
 62
7
  6
CONTINUOUS
 10
6.8317119565
 20
3.4008583075
 11
6.8317119565
 21
3.6823583075
  0
LINE
  5
34B
100
AcDbEntity
  8
0
100
AcDbLine
 62
7
  6
CONTINUOUS
 10
6.0806449594
 20
2.9666452132
 11
6.1177119565
 21
3.0196040268
  0
LINE
  5
34C
100
AcDbEntity
  8
0
100
AcDbLine
 62
7
  6
CONTINUOUS
 10
6.0089341113
 20
2.6867680425
 11
6.0673802367
 21
2.7450458075
  0
LINE
  5
34D
100
AcDbEntity
  8
0
100
AcDbLine
 62
7
  6
CONTINUOUS
 10
9.107992013
 20
4.505805256
 11
9.0993950899
 21
4.5012341909
  0
LINE
  5
34E
100
AcDbEntity
  8
0
100
AcDbLine
 62
7
  6
CONTINUOUS
 10
9.5131312191
 20
4.7120432782
 11
9.5043800052
 21
4.7077750259
  0
LINE
  5
34F
100
AcDbEntity
  8
0
100
AcDbLine
 62
7
  6
CONTINUOUS
 10
9.1114901859
 20
4.5203761951
 11
9.1026658136
 21
4.5162613227
  0
LINE
  5
350
100
AcDbEntity
  8
0
100
AcDbLine
 62
7
  6
CONTINUOUS
 10
9.526867827
 20
4.7051282274
 11
9.5179052233
 21
4.7013238279
  0
LINE
  5
351
100
AcDbEntity
  8
0
100
AcDbLine
 62
7
  6
CONTINUOUS
 10
9.6601876595
 20
4.3578443147
 11
9.6692029221
 21
4.3614867173
  0
LINE
  5
352
100
AcDbEntity
  8
0
100
AcDbLine
 62
7
  6
CONTINUOUS
 10
9.2357002095
 20
4.1950878799
 11
9.2448496372
 21
4.1984179992
  0
LINE
  5
353
100
AcDbEntity
  8
0
100
AcDbLine
 62
7
  6
CONTINUOUS
 10
9.6551756767
 20
4.3437220706
 11
9.6643818295
 21
4.3468920032
  0
LINE
  5
354
100
AcDbEntity
  8
0
100
AcDbLine
 62
7
  6
CONTINUOUS
 10
6.6517119565
 20
3.3996083075
 11
6.5732119565
 21
3.3741083075
  0
LINE
  5
355
100
AcDbEntity
  8
0
100
AcDbLine
 62
7
  6
CONTINUOUS
 10
4.2254619565
 20
6.0127958075
 11
4.2317119565
 21
6.0127958075
  0
LINE
  5
356
100
AcDbEntity
  8
0
100
AcDbLine
 62
7
  6
CONTINUOUS
 10
4.5442119565
 20
6.0127958075
 11
4.5504619565
 21
6.0127958075
  0
LINE
  5
357
100
AcDbEntity
  8
0
100
AcDbLine
 62
7
  6
CONTINUOUS
 10
4.2317119565
 20
6.0302958075
 11
4.2167119565
 21
6.0302958075
  0
LINE
  5
358
100
AcDbEntity
  8
0
100
AcDbLine
 62
7
  6
CONTINUOUS
 10
4.5442119565
 20
6.0302958075
 11
4.5592119565
 21
6.0302958075
  0
LINE
  5
359
100
AcDbEntity
  8
0
100
AcDbLine
 62
7
  6
CONTINUOUS
 10
4.2317119565
 20
6.1627958075
 11
4.2167119565
 21
6.1627958075
  0
LINE
  5
35A
100
AcDbEntity
  8
0
100
AcDbLine
 62
7
  6
CONTINUOUS
 10
4.5442119565
 20
6.1627958075
 11
4.5592119565
 21
6.1627958075
  0
LINE
  5
35B
100
AcDbEntity
  8
0
100
AcDbLine
 62
7
  6
CONTINUOUS
 10
4.2317119565
 20
6.1745276878
 11
4.2223651397
 21
6.1745276878
  0
LINE
  5
35C
100
AcDbEntity
  8
0
100
AcDbLine
 62
7
  6
CONTINUOUS
 10
4.5442119565
 20
6.1745276878
 11
4.5535587733
 21
6.1745276878
  0
LINE
  5
35D
100
AcDbEntity
  8
0
100
AcDbLine
 62
7
  6
CONTINUOUS
 10
9.6643818295
 20
4.5456996117
 11
9.6551756767
 21
4.5488695443
  0
LINE
  5
35E
100
AcDbEntity
  8
0
100
AcDbLine
 62
7
  6
CONTINUOUS
 10
9.2448496372
 20
4.6941736157
 11
9.2357002095
 21
4.6975037351
  0
LINE
  5
35F
100
AcDbEntity
  8
0
100
AcDbLine
 62
7
  6
CONTINUOUS
 10
9.6692029221
 20
4.5311048977
 11
9.6601876595
 21
4.5347473002
  0
LINE
  5
360
100
AcDbEntity
  8
0
100
AcDbLine
 62
7
  6
CONTINUOUS
 10
9.1026658136
 20
4.3763302922
 11
9.1114901859
 21
4.3722154198
  0
LINE
  5
361
100
AcDbEntity
  8
0
100
AcDbLine
 62
7
  6
CONTINUOUS
 10
9.5043800052
 20
4.184816589
 11
9.5131312191
 21
4.1805483367
  0
LINE
  5
362
100
AcDbEntity
  8
0
100
AcDbLine
 62
7
  6
CONTINUOUS
 10
9.0993950899
 20
4.391357424
 11
9.107992013
 21
4.3867863589
  0
LINE
  5
363
100
AcDbEntity
  8
0
100
AcDbLine
 62
7
  6
CONTINUOUS
 10
9.4846592532
 20
4.7236740606
 11
9.4764134492
 21
4.7185215104
  0
LINE
  5
364
100
AcDbEntity
  8
0
100
AcDbLine
 62
7
  6
CONTINUOUS
 10
9.1052612182
 20
4.4910712057
 11
9.0969153079
 21
4.4860564769
  0
LINE
  5
365
100
AcDbEntity
  8
0
100
AcDbLine
 62
7
  6
CONTINUOUS
 10
9.499051531
 20
4.7182299336
 11
9.4905356934
 21
4.7135095277
  0
LINE
  5
366
100
AcDbEntity
  8
0
100
AcDbLine
 62
7
  6
CONTINUOUS
 10
9.2627926939
 20
4.1805483367
 11
9.2715439078
 21
4.184816589
  0
LINE
  5
367
100
AcDbEntity
  8
0
100
AcDbLine
 62
7
  6
CONTINUOUS
 10
9.6644337271
 20
4.3722154198
 11
9.6732580995
 21
4.3763302922
  0
LINE
  5
368
100
AcDbEntity
  8
0
100
AcDbLine
 62
7
  6
CONTINUOUS
 10
9.249056086
 20
4.1874633875
 11
9.2580186898
 21
4.191267787
  0
LINE
  5
369
100
AcDbEntity
  8
0
100
AcDbLine
 62
7
  6
CONTINUOUS
 10
4.356899121
 20
6.3502958075
 11
4.2317119565
 21
6.3502958075
  0
LINE
  5
36A
100
AcDbEntity
  8
0
100
AcDbLine
 62
7
  6
CONTINUOUS
 10
4.4190247921
 20
6.3502958075
 11
4.5442119565
 21
6.3502958075
  0
LINE
  5
36B
100
AcDbEntity
  8
0
100
AcDbLine
 62
7
  6
CONTINUOUS
 10
4.2012120609
 20
6.3817958075
 11
4.5747118521
 21
6.3817958075
  0
LINE
  5
36C
100
AcDbEntity
  8
0
100
AcDbLine
 62
7
  6
CONTINUOUS
 10
4.1562119565
 20
6.4267958075
 11
4.6197119565
 21
6.4267958075
  0
LINE
  5
36D
100
AcDbEntity
  8
0
100
AcDbLine
 62
7
  6
CONTINUOUS
 10
4.1562119565
 20
6.4537958075
 11
4.6197119565
 21
6.4537958075
  0
LINE
  5
36E
100
AcDbEntity
  8
0
100
AcDbLine
 62
7
  6
CONTINUOUS
 10
4.2012120609
 20
6.4987958075
 11
4.5747118521
 21
6.4987958075
  0
LINE
  5
36F
100
AcDbEntity
  8
0
100
AcDbLine
 62
7
  6
CONTINUOUS
 10
4.2317119565
 20
6.5142958075
 11
4.5442119565
 21
6.5142958075
  0
LINE
  5
370
100
AcDbEntity
  8
0
100
AcDbLine
 62
7
  6
CONTINUOUS
 10
4.2317119565
 20
6.5302958075
 11
4.5442119565
 21
6.5302958075
  0
LINE
  5
371
100
AcDbEntity
  8
0
100
AcDbLine
 62
7
  6
CONTINUOUS
 10
9.2580186898
 20
4.7013238279
 11
9.249056086
 21
4.7051282274
  0
LINE
  5
372
100
AcDbEntity
  8
0
100
AcDbLine
 62
7
  6
CONTINUOUS
 10
9.6732580995
 20
4.5162613227
 11
9.6644337271
 21
4.5203761951
  0
LINE
  5
373
100
AcDbEntity
  8
0
100
AcDbLine
 62
7
  6
CONTINUOUS
 10
9.2715439078
 20
4.7077750259
 11
9.2627926939
 21
4.7120432782
  0
LINE
  5
374
100
AcDbEntity
  8
0
100
AcDbLine
 62
7
  6
CONTINUOUS
 10
9.6765288232
 20
4.5012341909
 11
9.6679319001
 21
4.505805256
  0
LINE
  5
375
100
AcDbEntity
  8
0
100
AcDbLine
 62
7
  6
CONTINUOUS
 10
9.4905356934
 20
4.1790820872
 11
9.499051531
 21
4.1743616814
  0
LINE
  5
376
100
AcDbEntity
  8
0
100
AcDbLine
 62
7
  6
CONTINUOUS
 10
9.0969153079
 20
4.406535138
 11
9.1052612182
 21
4.4015204092
  0
LINE
  5
377
100
AcDbEntity
  8
0
100
AcDbLine
 62
7
  6
CONTINUOUS
 10
9.4764134492
 20
4.1740701045
 11
9.4846592532
 21
4.1689175543
  0
LINE
  5
378
100
AcDbEntity
  8
0
100
AcDbLine
 62
7
  6
CONTINUOUS
 10
9.0952332646
 20
4.4218218333
 11
9.1033052864
 21
4.4163771858
  0
LINE
  5
379
100
AcDbEntity
  8
0
100
AcDbLine
 62
7
  6
CONTINUOUS
 10
9.4551439645
 20
4.7322602114
 11
9.4474714051
 21
4.726265751
  0
LINE
  5
37A
100
AcDbEntity
  8
0
100
AcDbLine
 62
7
  6
CONTINUOUS
 10
9.1021295788
 20
4.4612756476
 11
9.0943535702
 21
4.4554160049
  0
LINE
  5
37B
100
AcDbEntity
  8
0
100
AcDbLine
 62
7
  6
CONTINUOUS
 10
9.4700181144
 20
4.7283522725
 11
9.4620423442
 21
4.722767578
  0
LINE
  5
37C
100
AcDbEntity
  8
0
100
AcDbLine
 62
7
  6
CONTINUOUS
 10
9.1033052864
 20
4.4762144291
 11
9.0952332646
 21
4.4707697816
  0
LINE
  5
37D
100
AcDbEntity
  8
0
100
AcDbLine
 62
7
  6
CONTINUOUS
 10
9.2912646599
 20
4.1689175543
 11
9.2995104638
 21
4.1740701045
  0
LINE
  5
37E
100
AcDbEntity
  8
0
100
AcDbLine
 62
7
  6
CONTINUOUS
 10
9.6706626949
 20
4.4015204092
 11
9.6790086051
 21
4.406535138
  0
LINE
  5
37F
100
AcDbEntity
  8
0
100
AcDbLine
 62
7
  6
CONTINUOUS
 10
9.276872382
 20
4.1743616814
 11
9.2853882197
 21
4.1790820872
  0
LINE
  5
380
100
AcDbEntity
  8
0
100
AcDbLine
 62
7
  6
CONTINUOUS
 10
9.6679319001
 20
4.3867863589
 11
9.6765288232
 21
4.391357424
  0
LINE
  5
381
100
AcDbEntity
  8
0
100
AcDbLine
 62
7
  6
CONTINUOUS
 10
4.4817119565
 20
6.5927958075
 11
4.2942119565
 21
6.5927958075
  0
LINE
  5
382
100
AcDbEntity
  8
0
100
AcDbLine
 62
7
  6
CONTINUOUS
 10
9.2853882197
 20
4.7135095277
 11
9.276872382
 21
4.7182299336
  0
LINE
  5
383
100
AcDbEntity
  8
0
100
AcDbLine
 62
7
  6
CONTINUOUS
 10
9.6790086051
 20
4.4860564769
 11
9.6706626949
 21
4.4910712057
  0
LINE
  5
384
100
AcDbEntity
  8
0
100
AcDbLine
 62
7
  6
CONTINUOUS
 10
9.2995104638
 20
4.7185215104
 11
9.2912646599
 21
4.7236740606
  0
LINE
  5
385
100
AcDbEntity
  8
0
100
AcDbLine
 62
7
  6
CONTINUOUS
 10
9.4620423442
 20
4.1698240369
 11
9.4700181144
 21
4.1642393424
  0
LINE
  5
386
100
AcDbEntity
  8
0
100
AcDbLine
 62
7
  6
CONTINUOUS
 10
9.0943535702
 20
4.43717561
 11
9.1021295788
 21
4.4313159673
  0
LINE
  5
387
100
AcDbEntity
  8
0
100
AcDbLine
 62
7
  6
CONTINUOUS
 10
9.4474714051
 20
4.1663258639
 11
9.4551439645
 21
4.1603314035
  0
LINE
  5
388
100
AcDbEntity
  8
0
100
AcDbLine
 62
7
  6
CONTINUOUS
 10
9.0942784534
 20
4.4525458075
 11
9.1017269134
 21
4.4462958075
  0
LINE
  5
389
100
AcDbEntity
  8
0
100
AcDbLine
 62
7
  6
CONTINUOUS
 10
7.9762119565
 20
3.4008583075
 11
7.9762119565
 21
3.6823583075
  0
LINE
  5
38A
100
AcDbEntity
  8
0
100
AcDbLine
 62
7
  6
CONTINUOUS
 10
8.0162119565
 20
3.4008583075
 11
8.0162119565
 21
3.6823583075
  0
LINE
  5
38B
100
AcDbEntity
  8
0
100
AcDbLine
 62
7
  6
CONTINUOUS
 10
8.0262119565
 20
3.6723583075
 11
8.0262119565
 21
3.4108583075
  0
LINE
  5
38C
100
AcDbEntity
  8
0
100
AcDbLine
 62
7
  6
CONTINUOUS
 10
9.1033052864
 20
4.4163771858
 11
9.0965416635
 21
4.4093732493
  0
LINE
  5
38D
100
AcDbEntity
  8
0
100
AcDbLine
 62
7
  6
CONTINUOUS
 10
8.0162119565
 20
3.4008583075
 11
8.0262119565
 21
3.4108583075
  0
LINE
  5
38E
100
AcDbEntity
  8
0
100
AcDbLine
 62
7
  6
CONTINUOUS
 10
9.4248845147
 20
4.7377161005
 11
9.4178805781
 21
4.7309524776
  0
LINE
  5
38F
100
AcDbEntity
  8
0
100
AcDbLine
 62
7
  6
CONTINUOUS
 10
9.1021295788
 20
4.4313159673
 11
9.0950086675
 21
4.42467561
  0
LINE
  5
390
100
AcDbEntity
  8
0
100
AcDbLine
 62
7
  6
CONTINUOUS
 10
9.4400856733
 20
4.7353843417
 11
9.4327373547
 21
4.7289965458
  0
LINE
  5
391
100
AcDbEntity
  8
0
100
AcDbLine
 62
7
  6
CONTINUOUS
 10
9.1017269134
 20
4.4462958075
 11
9.0942784534
 21
4.4400458075
  0
LINE
  5
392
100
AcDbEntity
  8
0
100
AcDbLine
 62
7
  6
CONTINUOUS
 10
9.3207799486
 20
4.1603314035
 11
9.3284525079
 21
4.1663258639
  0
LINE
  5
393
100
AcDbEntity
  8
0
100
AcDbLine
 62
7
  6
CONTINUOUS
 10
9.6737943342
 20
4.4313159673
 11
9.6815703428
 21
4.43717561
  0
LINE
  5
394
100
AcDbEntity
  8
0
100
AcDbLine
 62
7
  6
CONTINUOUS
 10
9.3059057986
 20
4.1642393424
 11
9.3138815689
 21
4.1698240369
  0
LINE
  5
395
100
AcDbEntity
  8
0
100
AcDbLine
 62
7
  6
CONTINUOUS
 10
9.6726186266
 20
4.4163771858
 11
9.6806906485
 21
4.4218218333
  0
LINE
  5
396
100
AcDbEntity
  8
0
100
AcDbLine
 62
7
  6
CONTINUOUS
 10
9.6806906485
 20
4.4707697816
 11
9.6726186266
 21
4.4762144291
  0
LINE
  5
397
100
AcDbEntity
  8
0
100
AcDbLine
 62
7
  6
CONTINUOUS
 10
9.3138815689
 20
4.722767578
 11
9.3059057986
 21
4.7283522725
  0
LINE
  5
398
100
AcDbEntity
  8
0
100
AcDbLine
 62
7
  6
CONTINUOUS
 10
9.6815703428
 20
4.4554160049
 11
9.6737943342
 21
4.4612756476
  0
LINE
  5
399
100
AcDbEntity
  8
0
100
AcDbLine
 62
7
  6
CONTINUOUS
 10
9.3284525079
 20
4.726265751
 11
9.3207799486
 21
4.7322602114
  0
LINE
  5
39A
100
AcDbEntity
  8
0
100
AcDbLine
 62
7
  6
CONTINUOUS
 10
9.4327373547
 20
4.1635950691
 11
9.4400856733
 21
4.1572072732
  0
LINE
  5
39B
100
AcDbEntity
  8
0
100
AcDbLine
 62
7
  6
CONTINUOUS
 10
9.0950086675
 20
4.4679160049
 11
9.1021295788
 21
4.4612756476
  0
LINE
  5
39C
100
AcDbEntity
  8
0
100
AcDbLine
 62
7
  6
CONTINUOUS
 10
9.4178805781
 20
4.1616391373
 11
9.4248845147
 21
4.1548755144
  0
LINE
  5
39D
100
AcDbEntity
  8
0
100
AcDbLine
 62
7
  6
CONTINUOUS
 10
9.0965416635
 20
4.4832183656
 11
9.1033052864
 21
4.4762144291
  0
LINE
  5
39E
100
AcDbEntity
  8
0
100
AcDbLine
 62
7
  6
CONTINUOUS
 10
9.4029417967
 20
4.1604634297
 11
9.4095821539
 21
4.1533425184
  0
LINE
  5
39F
100
AcDbEntity
  8
0
100
AcDbLine
 62
7
  6
CONTINUOUS
 10
9.3788417591
 20
4.7399041937
 11
9.3729821164
 21
4.7321281852
  0
LINE
  5
3A0
100
AcDbEntity
  8
0
100
AcDbLine
 62
7
  6
CONTINUOUS
 10
9.107992013
 20
4.3867863589
 11
9.1019975526
 21
4.3791137995
  0
LINE
  5
3A1
100
AcDbEntity
  8
0
100
AcDbLine
 62
7
  6
CONTINUOUS
 10
9.3942119565
 20
4.7399793106
 11
9.3879619565
 21
4.7325308506
  0
LINE
  5
3A2
100
AcDbEntity
  8
0
100
AcDbLine
 62
7
  6
CONTINUOUS
 10
9.1052612182
 20
4.4015204092
 11
9.0988734223
 21
4.3941720906
  0
LINE
  5
3A3
100
AcDbEntity
  8
0
100
AcDbLine
 62
7
  6
CONTINUOUS
 10
9.4095821539
 20
4.7392490965
 11
9.4029417967
 21
4.7321281852
  0
LINE
  5
3A4
100
AcDbEntity
  8
0
100
AcDbLine
 62
7
  6
CONTINUOUS
 10
9.3510393983
 20
4.1548755144
 11
9.3580433349
 21
4.1616391373
  0
LINE
  5
3A5
100
AcDbEntity
  8
0
100
AcDbLine
 62
7
  6
CONTINUOUS
 10
9.6737943342
 20
4.4612756476
 11
9.6809152456
 21
4.4679160049
  0
LINE
  5
3A6
100
AcDbEntity
  8
0
100
AcDbLine
 62
7
  6
CONTINUOUS
 10
9.3358382397
 20
4.1572072732
 11
9.3431865583
 21
4.1635950691
  0
LINE
  5
3A7
100
AcDbEntity
  8
0
100
AcDbLine
 62
7
  6
CONTINUOUS
 10
9.6741969997
 20
4.4462958075
 11
9.6816454596
 21
4.4525458075
  0
LINE
  5
3A8
100
AcDbEntity
  8
0
100
AcDbLine
 62
7
  6
CONTINUOUS
 10
9.6816454596
 20
4.4400458075
 11
9.6741969997
 21
4.4462958075
  0
LINE
  5
3A9
100
AcDbEntity
  8
0
100
AcDbLine
 62
7
  6
CONTINUOUS
 10
9.3431865583
 20
4.7289965458
 11
9.3358382397
 21
4.7353843417
  0
LINE
  5
3AA
100
AcDbEntity
  8
0
100
AcDbLine
 62
7
  6
CONTINUOUS
 10
9.6809152456
 20
4.42467561
 11
9.6737943342
 21
4.4313159673
  0
LINE
  5
3AB
100
AcDbEntity
  8
0
100
AcDbLine
 62
7
  6
CONTINUOUS
 10
9.3580433349
 20
4.7309524776
 11
9.3510393983
 21
4.7377161005
  0
LINE
  5
3AC
100
AcDbEntity
  8
0
100
AcDbLine
 62
7
  6
CONTINUOUS
 10
9.6793822496
 20
4.4093732493
 11
9.6726186266
 21
4.4163771858
  0
LINE
  5
3AD
100
AcDbEntity
  8
0
100
AcDbLine
 62
7
  6
CONTINUOUS
 10
9.0988734223
 20
4.4984195243
 11
9.1052612182
 21
4.4910712057
  0
LINE
  5
3AE
100
AcDbEntity
  8
0
100
AcDbLine
 62
7
  6
CONTINUOUS
 10
9.3879619565
 20
4.1600607643
 11
9.3942119565
 21
4.1526123043
  0
LINE
  5
3AF
100
AcDbEntity
  8
0
100
AcDbLine
 62
7
  6
CONTINUOUS
 10
9.2066388711
 20
4.2229103292
 11
9.2061484353
 21
4.2235296593
  0
LINE
  5
3B0
100
AcDbEntity
  8
0
100
AcDbLine
 62
7
  6
CONTINUOUS
 10
9.1019975526
 20
4.5134778154
 11
9.107992013
 21
4.505805256
  0
LINE
  5
3B1
100
AcDbEntity
  8
0
100
AcDbLine
 62
7
  6
CONTINUOUS
 10
9.3729821164
 20
4.1604634297
 11
9.3788417591
 21
4.1526874212
  0
LINE
  5
3B2
100
AcDbEntity
  8
0
100
AcDbLine
 62
7
  6
CONTINUOUS
 10
9.333023573
 20
4.7348626741
 11
9.3284525079
 21
4.726265751
  0
LINE
  5
3B3
100
AcDbEntity
  8
0
100
AcDbLine
 62
7
  6
CONTINUOUS
 10
9.1207482363
 20
4.3437220706
 11
9.1160278304
 21
4.335206233
  0
LINE
  5
3B4
100
AcDbEntity
  8
0
100
AcDbLine
 62
7
  6
CONTINUOUS
 10
9.3482012871
 20
4.7373424561
 11
9.3431865583
 21
4.7289965458
  0
LINE
  5
3B5
100
AcDbEntity
  8
0
100
AcDbLine
 62
7
  6
CONTINUOUS
 10
9.1157362535
 20
4.3578443147
 11
9.1105837034
 21
4.3495985108
  0
LINE
  5
3B6
100
AcDbEntity
  8
0
100
AcDbLine
 62
7
  6
CONTINUOUS
 10
9.3634879824
 20
4.7390244994
 11
9.3580433349
 21
4.7309524776
  0
LINE
  5
3B7
100
AcDbEntity
  8
0
100
AcDbLine
 62
7
  6
CONTINUOUS
 10
9.1114901859
 20
4.3722154198
 11
9.1059054915
 21
4.3642396496
  0
LINE
  5
3B8
100
AcDbEntity
  8
0
100
AcDbLine
 62
7
  6
CONTINUOUS
 10
9.3970821539
 20
4.1526874212
 11
9.4029417967
 21
4.1604634297
  0
LINE
  5
3B9
100
AcDbEntity
  8
0
100
AcDbLine
 62
7
  6
CONTINUOUS
 10
9.6679319001
 20
4.505805256
 11
9.6739263604
 21
4.5134778154
  0
LINE
  5
3BA
100
AcDbEntity
  8
0
100
AcDbLine
 62
7
  6
CONTINUOUS
 10
9.3817119565
 20
4.1526123043
 11
9.3879619565
 21
4.1600607643
  0
LINE
  5
3BB
100
AcDbEntity
  8
0
100
AcDbLine
 62
7
  6
CONTINUOUS
 10
9.6706626949
 20
4.4910712057
 11
9.6770504908
 21
4.4984195243
  0
LINE
  5
3BC
100
AcDbEntity
  8
0
100
AcDbLine
 62
7
  6
CONTINUOUS
 10
9.3663417591
 20
4.1533425184
 11
9.3729821164
 21
4.1604634297
  0
LINE
  5
3BD
100
AcDbEntity
  8
0
100
AcDbLine
 62
7
  6
CONTINUOUS
 10
9.6726186266
 20
4.4762144291
 11
9.6793822496
 21
4.4832183656
  0
LINE
  5
3BE
100
AcDbEntity
  8
0
100
AcDbLine
 62
7
  6
CONTINUOUS
 10
9.3729821164
 20
4.7321281852
 11
9.3663417591
 21
4.7392490965
  0
LINE
  5
3BF
100
AcDbEntity
  8
0
100
AcDbLine
 62
7
  6
CONTINUOUS
 10
9.6770504908
 20
4.3941720906
 11
9.6706626949
 21
4.4015204092
  0
LINE
  5
3C0
100
AcDbEntity
  8
0
100
AcDbLine
 62
7
  6
CONTINUOUS
 10
9.3879619565
 20
4.7325308506
 11
9.3817119565
 21
4.7399793106
  0
LINE
  5
3C1
100
AcDbEntity
  8
0
100
AcDbLine
 62
7
  6
CONTINUOUS
 10
9.6739263604
 20
4.3791137995
 11
9.6679319001
 21
4.3867863589
  0
LINE
  5
3C2
100
AcDbEntity
  8
0
100
AcDbLine
 62
7
  6
CONTINUOUS
 10
9.4029417967
 20
4.7321281852
 11
9.3970821539
 21
4.7399041937
  0
LINE
  5
3C3
100
AcDbEntity
  8
0
100
AcDbLine
 62
7
  6
CONTINUOUS
 10
9.1059054915
 20
4.5283519653
 11
9.1114901859
 21
4.5203761951
  0
LINE
  5
3C4
100
AcDbEntity
  8
0
100
AcDbLine
 62
7
  6
CONTINUOUS
 10
9.3580433349
 20
4.1616391373
 11
9.3634879824
 21
4.1535671155
  0
LINE
  5
3C5
100
AcDbEntity
  8
0
100
AcDbLine
 62
7
  6
CONTINUOUS
 10
9.1105837034
 20
4.5429931041
 11
9.1157362535
 21
4.5347473002
  0
LINE
  5
3C6
100
AcDbEntity
  8
0
100
AcDbLine
 62
7
  6
CONTINUOUS
 10
9.3431865583
 20
4.1635950691
 11
9.3482012871
 21
4.1552491588
  0
LINE
  5
3C7
100
AcDbEntity
  8
0
100
AcDbLine
 62
7
  6
CONTINUOUS
 10
9.1160278304
 20
4.557385382
 11
9.1207482363
 21
4.5488695443
  0
LINE
  5
3C8
100
AcDbEntity
  8
0
100
AcDbLine
 62
7
  6
CONTINUOUS
 10
9.3284525079
 20
4.1663258639
 11
9.333023573
 21
4.1577289408
  0
LINE
  5
3C9
100
AcDbEntity
  8
0
100
AcDbLine
 62
7
  6
CONTINUOUS
 10
8.8004619565
 20
2.3532958075
 11
8.8004619565
 21
2.3957958075
  0
LINE
  5
3CA
100
AcDbEntity
  8
0
100
AcDbLine
 62
7
  6
CONTINUOUS
 10
9.2602089522
 20
4.7108108966
 11
9.2580186898
 21
4.7013238279
  0
LINE
  5
3CB
100
AcDbEntity
  8
0
100
AcDbLine
 62
7
  6
CONTINUOUS
 10
9.1563929422
 20
4.2780510704
 11
9.1540406694
 21
4.2686166193
  0
LINE
  5
3CC
100
AcDbEntity
  8
0
100
AcDbLine
 62
7
  6
CONTINUOUS
 10
9.2742276834
 20
4.7171344635
 11
9.2715439078
 21
4.7077750259
  0
LINE
  5
3CD
100
AcDbEntity
  8
0
100
AcDbLine
 62
7
  6
CONTINUOUS
 10
9.1479137763
 20
4.2904066965
 11
9.1450670648
 21
4.2810955227
  0
LINE
  5
3CE
100
AcDbEntity
  8
0
100
AcDbLine
 62
7
  6
CONTINUOUS
 10
9.2885581523
 20
4.7227156805
 11
9.2853882197
 21
4.7135095277
  0
LINE
  5
3CF
100
AcDbEntity
  8
0
100
AcDbLine
 62
7
  6
CONTINUOUS
 10
9.1400841483
 20
4.3031834881
 11
9.1367540289
 21
4.2940340604
  0
LINE
  5
3D0
100
AcDbEntity
  8
0
100
AcDbLine
 62
7
  6
CONTINUOUS
 10
9.3031528663
 20
4.727536773
 11
9.2995104638
 21
4.7185215104
  0
LINE
  5
3D1
100
AcDbEntity
  8
0
100
AcDbLine
 62
7
  6
CONTINUOUS
 10
9.1329339361
 20
4.3163525407
 11
9.1291295365
 21
4.307389937
  0
LINE
  5
3D2
100
AcDbEntity
  8
0
100
AcDbLine
 62
7
  6
CONTINUOUS
 10
9.3179964413
 20
4.7315919504
 11
9.3138815689
 21
4.722767578
  0
LINE
  5
3D3
100
AcDbEntity
  8
0
100
AcDbLine
 62
7
  6
CONTINUOUS
 10
9.126482738
 20
4.3298777588
 11
9.1222144858
 21
4.3211265448
  0
LINE
  5
3D4
100
AcDbEntity
  8
0
100
AcDbLine
 62
7
  6
CONTINUOUS
 10
9.44290034
 20
4.1577289408
 11
9.4474714051
 21
4.1663258639
  0
LINE
  5
3D5
100
AcDbEntity
  8
0
100
AcDbLine
 62
7
  6
CONTINUOUS
 10
9.6551756767
 20
4.5488695443
 11
9.6598960826
 21
4.557385382
  0
LINE
  5
3D6
100
AcDbEntity
  8
0
100
AcDbLine
 62
7
  6
CONTINUOUS
 10
9.427722626
 20
4.1552491588
 11
9.4327373547
 21
4.1635950691
  0
LINE
  5
3D7
100
AcDbEntity
  8
0
100
AcDbLine
 62
7
  6
CONTINUOUS
 10
9.6601876595
 20
4.5347473002
 11
9.6653402097
 21
4.5429931041
  0
LINE
  5
3D8
100
AcDbEntity
  8
0
100
AcDbLine
 62
7
  6
CONTINUOUS
 10
9.4124359307
 20
4.1535671155
 11
9.4178805781
 21
4.1616391373
  0
LINE
  5
3D9
100
AcDbEntity
  8
0
100
AcDbLine
 62
7
  6
CONTINUOUS
 10
9.6644337271
 20
4.5203761951
 11
9.6700184215
 21
4.5283519653
  0
LINE
  5
3DA
100
AcDbEntity
  8
0
100
AcDbLine
 62
7
  6
CONTINUOUS
 10
9.5697871996
 20
4.2235265217
 11
9.5692935457
 21
4.2228987013
  0
LINE
  5
3DB
100
AcDbEntity
  8
0
100
AcDbLine
 62
7
  6
CONTINUOUS
 10
9.5697843416
 20
4.2235279363
 11
9.5692850773
 21
4.2229025651
  0
LINE
  5
3DC
100
AcDbEntity
  8
0
100
AcDbLine
 62
7
  6
CONTINUOUS
 10
9.6700184215
 20
4.3642396496
 11
9.6644337271
 21
4.3722154198
  0
LINE
  5
3DD
100
AcDbEntity
  8
0
100
AcDbLine
 62
7
  6
CONTINUOUS
 10
9.4178805781
 20
4.7309524776
 11
9.4124359307
 21
4.7390244994
  0
LINE
  5
3DE
100
AcDbEntity
  8
0
100
AcDbLine
 62
7
  6
CONTINUOUS
 10
9.6653402097
 20
4.3495985108
 11
9.6601876595
 21
4.3578443147
  0
LINE
  5
3DF
100
AcDbEntity
  8
0
100
AcDbLine
 62
7
  6
CONTINUOUS
 10
9.4327373547
 20
4.7289965458
 11
9.427722626
 21
4.7373424561
  0
LINE
  5
3E0
100
AcDbEntity
  8
0
100
AcDbLine
 62
7
  6
CONTINUOUS
 10
9.6598960826
 20
4.335206233
 11
9.6551756767
 21
4.3437220706
  0
LINE
  5
3E1
100
AcDbEntity
  8
0
100
AcDbLine
 62
7
  6
CONTINUOUS
 10
9.4474714051
 20
4.726265751
 11
9.44290034
 21
4.7348626741
  0
LINE
  5
3E2
100
AcDbEntity
  8
0
100
AcDbLine
 62
7
  6
CONTINUOUS
 10
9.1222144858
 20
4.5714650701
 11
9.126482738
 21
4.5627138561
  0
LINE
  5
3E3
100
AcDbEntity
  8
0
100
AcDbLine
 62
7
  6
CONTINUOUS
 10
9.3138815689
 20
4.1698240369
 11
9.3179964413
 21
4.1609996645
  0
LINE
  5
3E4
100
AcDbEntity
  8
0
100
AcDbLine
 62
7
  6
CONTINUOUS
 10
9.1291295365
 20
4.585201678
 11
9.1329339361
 21
4.5762390742
  0
LINE
  5
3E5
100
AcDbEntity
  8
0
100
AcDbLine
 62
7
  6
CONTINUOUS
 10
9.2995104638
 20
4.1740701045
 11
9.3031528663
 21
4.1650548419
  0
LINE
  5
3E6
100
AcDbEntity
  8
0
100
AcDbLine
 62
7
  6
CONTINUOUS
 10
9.1367540289
 20
4.5985575545
 11
9.1400841483
 21
4.5894081268
  0
LINE
  5
3E7
100
AcDbEntity
  8
0
100
AcDbLine
 62
7
  6
CONTINUOUS
 10
9.2853882197
 20
4.1790820872
 11
9.2885581523
 21
4.1698759344
  0
LINE
  5
3E8
100
AcDbEntity
  8
0
100
AcDbLine
 62
7
  6
CONTINUOUS
 10
9.1450670648
 20
4.6114960922
 11
9.1479137763
 21
4.6021849184
  0
LINE
  5
3E9
100
AcDbEntity
  8
0
100
AcDbLine
 62
7
  6
CONTINUOUS
 10
9.2715439078
 20
4.184816589
 11
9.2742276834
 21
4.1754571514
  0
LINE
  5
3EA
100
AcDbEntity
  8
0
100
AcDbLine
 62
7
  6
CONTINUOUS
 10
9.1540406694
 20
4.6239749956
 11
9.1563929422
 21
4.6145405445
  0
LINE
  5
3EB
100
AcDbEntity
  8
0
100
AcDbLine
 62
7
  6
CONTINUOUS
 10
9.2580186898
 20
4.191267787
 11
9.2602089522
 21
4.1817807183
  0
LINE
  5
3EC
100
AcDbEntity
  8
0
100
AcDbLine
 62
7
  6
CONTINUOUS
 10
9.1847219715
 20
4.6583867572
 11
9.1855705736
 21
4.6486871904
  0
LINE
  5
3ED
100
AcDbEntity
  8
0
100
AcDbLine
 62
7
  6
CONTINUOUS
 10
9.2197172195
 20
4.2147267932
 11
9.2203954808
 21
4.2050272046
  0
LINE
  5
3EE
100
AcDbEntity
  8
0
100
AcDbLine
 62
7
  6
CONTINUOUS
 10
9.1961004875
 20
4.6687328529
 11
9.1964402905
 21
4.6590021666
  0
LINE
  5
3EF
100
AcDbEntity
  8
0
100
AcDbLine
 62
7
  6
CONTINUOUS
 10
9.207834955
 20
4.2238574855
 11
9.2080048824
 21
4.2141223508
  0
LINE
  5
3F0
100
AcDbEntity
  8
0
100
AcDbLine
 62
7
  6
CONTINUOUS
 10
9.1329619565
 20
2.8337958075
 11
9.1329619565
 21
2.7712958075
  0
LINE
  5
3F1
100
AcDbEntity
  8
0
100
AcDbLine
 62
7
  6
CONTINUOUS
 10
9.1379619565
 20
4.0212958075
 11
9.1379619565
 21
4.29205884
  0
LINE
  5
3F2
100
AcDbEntity
  8
0
100
AcDbLine
 62
7
  6
CONTINUOUS
 10
9.1379619565
 20
4.2973528142
 11
9.1379619565
 21
4.3035576878
  0
LINE
  5
3F3
100
AcDbEntity
  8
0
100
AcDbLine
 62
7
  6
CONTINUOUS
 10
9.2080048824
 20
4.6784692641
 11
9.207834955
 21
4.6687341294
  0
LINE
  5
3F4
100
AcDbEntity
  8
0
100
AcDbLine
 62
7
  6
CONTINUOUS
 10
9.1964402905
 20
4.2335894483
 11
9.1961004875
 21
4.223858762
  0
LINE
  5
3F5
100
AcDbEntity
  8
0
100
AcDbLine
 62
7
  6
CONTINUOUS
 10
9.2203954808
 20
4.6875644103
 11
9.2197172195
 21
4.6778648218
  0
LINE
  5
3F6
100
AcDbEntity
  8
0
100
AcDbLine
 62
7
  6
CONTINUOUS
 10
9.1855705736
 20
4.2439044245
 11
9.1847219715
 21
4.2342048577
  0
LINE
  5
3F7
100
AcDbEntity
  8
0
100
AcDbLine
 62
7
  6
CONTINUOUS
 10
9.2332594407
 20
4.69600803
 11
9.2320728455
 21
4.6863439877
  0
LINE
  5
3F8
100
AcDbEntity
  8
0
100
AcDbLine
 62
7
  6
CONTINUOUS
 10
9.1752555974
 20
4.2547741414
 11
9.1739005221
 21
4.2451322799
  0
LINE
  5
3F9
100
AcDbEntity
  8
0
100
AcDbLine
 62
7
  6
CONTINUOUS
 10
9.2465403831
 20
4.7037623122
 11
9.2448496372
 21
4.6941736157
  0
LINE
  5
3FA
100
AcDbEntity
  8
0
100
AcDbLine
 62
7
  6
CONTINUOUS
 10
9.1655236345
 20
4.2661688059
 11
9.1636658003
 21
4.2566110774
  0
LINE
  5
3FB
100
AcDbEntity
  8
0
100
AcDbLine
 62
7
  6
CONTINUOUS
 10
9.6195309708
 20
4.6145405445
 11
9.6218832437
 21
4.6239749956
  0
LINE
  5
3FC
100
AcDbEntity
  8
0
100
AcDbLine
 62
7
  6
CONTINUOUS
 10
9.5016962297
 20
4.1754571514
 11
9.5043800052
 21
4.184816589
  0
LINE
  5
3FD
100
AcDbEntity
  8
0
100
AcDbLine
 62
7
  6
CONTINUOUS
 10
9.6280101368
 20
4.6021849184
 11
9.6308568483
 21
4.6114960922
  0
LINE
  5
3FE
100
AcDbEntity
  8
0
100
AcDbLine
 62
7
  6
CONTINUOUS
 10
9.4873657608
 20
4.1698759344
 11
9.4905356934
 21
4.1790820872
  0
LINE
  5
3FF
100
AcDbEntity
  8
0
100
AcDbLine
 62
7
  6
CONTINUOUS
 10
9.6358397648
 20
4.5894081268
 11
9.6391698841
 21
4.5985575545
  0
LINE
  5
400
100
AcDbEntity
  8
0
100
AcDbLine
 62
7
  6
CONTINUOUS
 10
9.4727710467
 20
4.1650548419
 11
9.4764134492
 21
4.1740701045
  0
LINE
  5
401
100
AcDbEntity
  8
0
100
AcDbLine
 62
7
  6
CONTINUOUS
 10
9.6429899769
 20
4.5762390742
 11
9.6467943765
 21
4.585201678
  0
LINE
  5
402
100
AcDbEntity
  8
0
100
AcDbLine
 62
7
  6
CONTINUOUS
 10
9.4579274718
 20
4.1609996645
 11
9.4620423442
 21
4.1698240369
  0
LINE
  5
403
100
AcDbEntity
  8
0
100
AcDbLine
 62
7
  6
CONTINUOUS
 10
9.649441175
 20
4.5627138561
 11
9.6537094272
 21
4.5714650701
  0
LINE
  5
404
100
AcDbEntity
  8
0
100
AcDbLine
 62
7
  6
CONTINUOUS
 10
9.6537094272
 20
4.3211265448
 11
9.649441175
 21
4.3298777588
  0
LINE
  5
405
100
AcDbEntity
  8
0
100
AcDbLine
 62
7
  6
CONTINUOUS
 10
9.4620423442
 20
4.722767578
 11
9.4579274718
 21
4.7315919504
  0
LINE
  5
406
100
AcDbEntity
  8
0
100
AcDbLine
 62
7
  6
CONTINUOUS
 10
9.6467943765
 20
4.307389937
 11
9.6429899769
 21
4.3163525407
  0
LINE
  5
407
100
AcDbEntity
  8
0
100
AcDbLine
 62
7
  6
CONTINUOUS
 10
9.4764134492
 20
4.7185215104
 11
9.4727710467
 21
4.727536773
  0
LINE
  5
408
100
AcDbEntity
  8
0
100
AcDbLine
 62
7
  6
CONTINUOUS
 10
9.6391698841
 20
4.2940340604
 11
9.6358397648
 21
4.3031834881
  0
LINE
  5
409
100
AcDbEntity
  8
0
100
AcDbLine
 62
7
  6
CONTINUOUS
 10
9.4905356934
 20
4.7135095277
 11
9.4873657608
 21
4.7227156805
  0
LINE
  5
40A
100
AcDbEntity
  8
0
100
AcDbLine
 62
7
  6
CONTINUOUS
 10
9.6308568483
 20
4.2810955227
 11
9.6280101368
 21
4.2904066965
  0
LINE
  5
40B
100
AcDbEntity
  8
0
100
AcDbLine
 62
7
  6
CONTINUOUS
 10
9.5043800052
 20
4.7077750259
 11
9.5016962297
 21
4.7171344635
  0
LINE
  5
40C
100
AcDbEntity
  8
0
100
AcDbLine
 62
7
  6
CONTINUOUS
 10
9.6218832437
 20
4.2686166193
 11
9.6195309708
 21
4.2780510704
  0
LINE
  5
40D
100
AcDbEntity
  8
0
100
AcDbLine
 62
7
  6
CONTINUOUS
 10
9.5179052233
 20
4.7013238279
 11
9.5157149609
 21
4.7108108966
  0
LINE
  5
40E
100
AcDbEntity
  8
0
100
AcDbLine
 62
7
  6
CONTINUOUS
 10
9.1636658003
 20
4.6359805375
 11
9.1655236345
 21
4.626422809
  0
LINE
  5
40F
100
AcDbEntity
  8
0
100
AcDbLine
 62
7
  6
CONTINUOUS
 10
9.2448496372
 20
4.1984179992
 11
9.2465403831
 21
4.1888293027
  0
LINE
  5
410
100
AcDbEntity
  8
0
100
AcDbLine
 62
7
  6
CONTINUOUS
 10
9.1739005221
 20
4.647459335
 11
9.1752555974
 21
4.6378174735
  0
LINE
  5
411
100
AcDbEntity
  8
0
100
AcDbLine
 62
7
  6
CONTINUOUS
 10
9.2320728455
 20
4.2062476272
 11
9.2332594407
 21
4.1965835849
  0
LINE
  5
412
100
AcDbEntity
  8
0
100
AcDbLine
 62
7
  6
CONTINUOUS
 10
9.5912019416
 20
4.2342048577
 11
9.5903533394
 21
4.2439044245
  0
LINE
  5
413
100
AcDbEntity
  8
0
100
AcDbLine
 62
7
  6
CONTINUOUS
 10
9.5562066936
 20
4.6778648218
 11
9.5555284323
 21
4.6875644103
  0
LINE
  5
414
100
AcDbEntity
  8
0
100
AcDbLine
 62
7
  6
CONTINUOUS
 10
9.5798234256
 20
4.223858762
 11
9.5794836225
 21
4.2335894483
  0
LINE
  5
415
100
AcDbEntity
  8
0
100
AcDbLine
 62
7
  6
CONTINUOUS
 10
9.568088958
 20
4.6687341294
 11
9.5679190306
 21
4.6784692641
  0
LINE
  5
416
100
AcDbEntity
  8
0
100
AcDbLine
 62
7
  6
CONTINUOUS
 10
9.6379619565
 20
4.0212958075
 11
9.6379619565
 21
4.29205884
  0
LINE
  5
417
100
AcDbEntity
  8
0
100
AcDbLine
 62
7
  6
CONTINUOUS
 10
9.6379619565
 20
4.2973528142
 11
9.6379619565
 21
4.3035576878
  0
LINE
  5
418
100
AcDbEntity
  8
0
100
AcDbLine
 62
7
  6
CONTINUOUS
 10
9.6429619565
 20
2.8337958075
 11
9.6429619565
 21
2.7712958075
  0
LINE
  5
419
100
AcDbEntity
  8
0
100
AcDbLine
 62
7
  6
CONTINUOUS
 10
9.5679190306
 20
4.2141223508
 11
9.568088958
 21
4.2238574855
  0
LINE
  5
41A
100
AcDbEntity
  8
0
100
AcDbLine
 62
7
  6
CONTINUOUS
 10
9.5794836225
 20
4.6590021666
 11
9.5798234256
 21
4.6687328529
  0
LINE
  5
41B
100
AcDbEntity
  8
0
100
AcDbLine
 62
7
  6
CONTINUOUS
 10
9.5555284323
 20
4.2050272046
 11
9.5562066936
 21
4.2147267932
  0
LINE
  5
41C
100
AcDbEntity
  8
0
100
AcDbLine
 62
7
  6
CONTINUOUS
 10
9.5903533394
 20
4.6486871904
 11
9.5912019416
 21
4.6583867572
  0
LINE
  5
41D
100
AcDbEntity
  8
0
100
AcDbLine
 62
7
  6
CONTINUOUS
 10
9.5426644723
 20
4.1965835849
 11
9.5438510675
 21
4.2062476272
  0
LINE
  5
41E
100
AcDbEntity
  8
0
100
AcDbLine
 62
7
  6
CONTINUOUS
 10
9.6006683156
 20
4.6378174735
 11
9.6020233909
 21
4.647459335
  0
LINE
  5
41F
100
AcDbEntity
  8
0
100
AcDbLine
 62
7
  6
CONTINUOUS
 10
9.5293835299
 20
4.1888293027
 11
9.5310742758
 21
4.1984179992
  0
LINE
  5
420
100
AcDbEntity
  8
0
100
AcDbLine
 62
7
  6
CONTINUOUS
 10
9.6104002785
 20
4.626422809
 11
9.6122581127
 21
4.6359805375
  0
LINE
  5
421
100
AcDbEntity
  8
0
100
AcDbLine
 62
7
  6
CONTINUOUS
 10
9.5157149609
 20
4.1817807183
 11
9.5179052233
 21
4.191267787
  0
LINE
  5
422
100
AcDbEntity
  8
0
100
AcDbLine
 62
7
  6
CONTINUOUS
 10
9.6122581127
 20
4.2566110774
 11
9.6104002785
 21
4.2661688059
  0
LINE
  5
423
100
AcDbEntity
  8
0
100
AcDbLine
 62
7
  6
CONTINUOUS
 10
9.5310742758
 20
4.6941736157
 11
9.5293835299
 21
4.7037623122
  0
LINE
  5
424
100
AcDbEntity
  8
0
100
AcDbLine
 62
7
  6
CONTINUOUS
 10
9.6020233909
 20
4.2451322799
 11
9.6006683156
 21
4.2547741414
  0
LINE
  5
425
100
AcDbEntity
  8
0
100
AcDbLine
 62
7
  6
CONTINUOUS
 10
9.5438510675
 20
4.6863439877
 11
9.5426644723
 21
4.69600803
  0
LINE
  5
426
100
AcDbEntity
  8
0
100
AcDbLine
 62
7
  6
CONTINUOUS
 10
9.9754619565
 20
2.3532958075
 11
9.9754619565
 21
2.3957958075
  0
LINE
  5
427
100
AcDbEntity
  8
0
100
AcDbLine
 62
7
  6
CONTINUOUS
 10
9.9754619565
 20
2.3532958075
 11
9.9654619565
 21
2.3432958075
  0
ARC
  5
428
100
AcDbEntity
  8
0
100
AcDbCircle
 62
7
  6
CONTINUOUS
 10
1.8915300121
 20
2.3432958075
 40
0.0935680556
100
AcDbArc
 50
92.1854050713
 51
180.0
  0
ARC
  5
429
100
AcDbEntity
  8
0
100
AcDbCircle
 62
7
  6
CONTINUOUS
 10
1.9814606196
 20
2.4372958075
 40
0.0935
100
AcDbArc
 50
90.0
 51
180.3063960032
  0
ARC
  5
42A
100
AcDbEntity
  8
0
100
AcDbCircle
 62
7
  6
CONTINUOUS
 10
2.2192119565
 20
3.2059182314
 40
2.0
100
AcDbArc
 50
347.6542069248
 51
18.4142808257
  0
ARC
  5
42B
100
AcDbEntity
  8
0
100
AcDbCircle
 62
7
  6
CONTINUOUS
 10
1.8616925055
 20
3.1987974717
 40
0.3125
100
AcDbArc
 50
325.0110095298
 51
355.1903004544
  0
ARC
  5
42C
100
AcDbEntity
  8
0
100
AcDbCircle
 62
7
  6
CONTINUOUS
 10
2.1641995171
 20
2.9081636058
 40
0.1019875605
100
AcDbArc
 50
145.0110095298
 51
213.0478355064
  0
ARC
  5
42D
100
AcDbEntity
  8
0
100
AcDbCircle
 62
7
  6
CONTINUOUS
 10
2.0068246897
 20
2.8057762952
 40
0.0857622668
100
AcDbArc
 50
314.9173576842
 51
33.0478355064
  0
ARC
  5
42E
100
AcDbEntity
  8
0
100
AcDbCircle
 62
7
  6
CONTINUOUS
 10
2.1885375123
 20
3.1712958075
 40
0.0155
100
AcDbArc
 50
90.0
 51
175.1903004543
  0
ARC
  5
42F
100
AcDbEntity
  8
0
100
AcDbCircle
 62
7
  6
CONTINUOUS
 10
2.884393901
 20
2.3432958075
 40
0.0935680556
100
AcDbArc
 50
0.0
 51
87.8145949287
  0
ARC
  5
430
100
AcDbEntity
  8
0
100
AcDbCircle
 62
7
  6
CONTINUOUS
 10
2.7944632934
 20
2.4372958075
 40
0.0935
100
AcDbArc
 50
359.6936039968
 51
90.0
  0
ARC
  5
431
100
AcDbEntity
  8
0
100
AcDbCircle
 62
7
  6
CONTINUOUS
 10
2.3879619565
 20
3.0167716114
 40
0.775336696
100
AcDbArc
 50
88.473827208
 51
91.6148836456
  0
ARC
  5
432
100
AcDbEntity
  8
0
100
AcDbCircle
 62
7
  6
CONTINUOUS
 10
2.3879619565
 20
3.0167716114
 40
0.775336696
100
AcDbArc
 50
75.2370022574
 51
82.8689275621
  0
ARC
  5
433
100
AcDbEntity
  8
0
100
AcDbCircle
 62
7
  6
CONTINUOUS
 10
2.3879619565
 20
3.0167716114
 40
0.775336696
100
AcDbArc
 50
99.221579184
 51
104.7629977426
  0
ARC
  5
434
100
AcDbEntity
  8
0
100
AcDbCircle
 62
7
  6
CONTINUOUS
 10
2.3879619565
 20
3.0167716114
 40
0.775336696
100
AcDbArc
 50
92.9572301428
 51
94.3827253199
  0
ARC
  5
435
100
AcDbEntity
  8
0
100
AcDbCircle
 62
7
  6
CONTINUOUS
 10
2.3879619565
 20
3.0167716114
 40
0.775336696
100
AcDbArc
 50
84.2076250178
 51
87.1537590823
  0
ARC
  5
436
100
AcDbEntity
  8
0
100
AcDbCircle
 62
7
  6
CONTINUOUS
 10
2.3879619565
 20
3.0167716114
 40
0.7753341165
100
AcDbArc
 50
96.0895835634
 51
97.5036217175
  0
ARC
  5
437
100
AcDbEntity
  8
0
100
AcDbCircle
 62
7
  6
CONTINUOUS
 10
2.3879619565
 20
3.0167716114
 40
0.774836696
100
AcDbArc
 50
82.8687745639
 51
84.2038744154
  0
ARC
  5
438
100
AcDbEntity
  8
0
100
AcDbCircle
 62
7
  6
CONTINUOUS
 10
2.3879619565
 20
3.0167716114
 40
0.774836696
100
AcDbArc
 50
94.3855590149
 51
95.870581614
  0
ARC
  5
439
100
AcDbEntity
  8
0
100
AcDbCircle
 62
7
  6
CONTINUOUS
 10
2.3879619565
 20
3.0167716114
 40
0.774836696
100
AcDbArc
 50
97.7347338023
 51
99.2216419429
  0
ARC
  5
43A
100
AcDbEntity
  8
0
100
AcDbCircle
 62
7
  6
CONTINUOUS
 10
2.3879619565
 20
3.0167716114
 40
0.774836696
100
AcDbArc
 50
91.6159260019
 51
92.3356269003
  0
ARC
  5
43B
100
AcDbEntity
  8
0
100
AcDbCircle
 62
7
  6
CONTINUOUS
 10
2.3879619565
 20
3.0167716114
 40
0.774836696
100
AcDbArc
 50
87.7882039153
 51
88.4728421397
  0
ARC
  5
43C
100
AcDbEntity
  8
0
100
AcDbCircle
 62
7
  6
CONTINUOUS
 10
2.3879619565
 20
3.0167716114
 40
0.7741710032
100
AcDbArc
 50
93.7772047905
 51
96.4896726718
  0
ARC
  5
43D
100
AcDbEntity
  8
0
100
AcDbCircle
 62
7
  6
CONTINUOUS
 10
2.3879619565
 20
3.0167716114
 40
0.7741710032
100
AcDbArc
 50
97.1232192299
 51
99.8547367444
  0
ARC
  5
43E
100
AcDbEntity
  8
0
100
AcDbCircle
 62
7
  6
CONTINUOUS
 10
2.3879619565
 20
3.0167716114
 40
0.7741710032
100
AcDbArc
 50
82.1676580455
 51
84.8865797045
  0
ARC
  5
43F
100
AcDbEntity
  8
0
100
AcDbCircle
 62
7
  6
CONTINUOUS
 10
2.9142314076
 20
3.1987974717
 40
0.3125
100
AcDbArc
 50
184.8096995456
 51
214.9889904702
  0
ARC
  5
440
100
AcDbEntity
  8
0
100
AcDbCircle
 62
7
  6
CONTINUOUS
 10
2.611724396
 20
2.9081636058
 40
0.1019875605
100
AcDbArc
 50
326.9521644936
 51
34.9889904702
  0
ARC
  5
441
100
AcDbEntity
  8
0
100
AcDbCircle
 62
7
  6
CONTINUOUS
 10
2.7690992233
 20
2.8057762952
 40
0.0857622668
100
AcDbArc
 50
146.9521644936
 51
225.0826423158
  0
ARC
  5
442
100
AcDbEntity
  8
0
100
AcDbCircle
 62
7
  6
CONTINUOUS
 10
2.5873864008
 20
3.1712958075
 40
0.0155
100
AcDbArc
 50
4.8096995457
 51
90.0
  0
ARC
  5
443
100
AcDbEntity
  8
0
100
AcDbCircle
 62
7
  6
CONTINUOUS
 10
2.7570279789
 20
3.4373853016
 40
0.68
100
AcDbArc
 50
158.7260279914
 51
162.3017225173
  0
ARC
  5
444
100
AcDbEntity
  8
0
100
AcDbCircle
 62
7
  6
CONTINUOUS
 10
2.7521113469
 20
3.6606492152
 40
0.68
100
AcDbArc
 50
199.0137742001
 51
202.5744557109
  0
ARC
  5
445
100
AcDbEntity
  8
0
100
AcDbCircle
 62
7
  6
CONTINUOUS
 10
2.0188959341
 20
3.4373853016
 40
0.68
100
AcDbArc
 50
17.6982774827
 51
21.2739720086
  0
ARC
  5
446
100
AcDbEntity
  8
0
100
AcDbCircle
 62
7
  6
CONTINUOUS
 10
2.0238125661
 20
3.6606492152
 40
0.68
100
AcDbArc
 50
337.4255442891
 51
340.9862257999
  0
ARC
  5
447
100
AcDbEntity
  8
0
100
AcDbCircle
 62
7
  6
CONTINUOUS
 10
2.1791454003
 20
4.188097824
 40
0.4155795128
100
AcDbArc
 50
280.5947987424
 51
280.7210448829
  0
ARC
  5
448
100
AcDbEntity
  8
0
100
AcDbCircle
 62
7
  6
CONTINUOUS
 10
2.2497073461
 20
4.1864751118
 40
0.4036313845
100
AcDbArc
 50
277.2328994891
 51
277.3685996189
  0
ARC
  5
449
100
AcDbEntity
  8
0
100
AcDbCircle
 62
7
  6
CONTINUOUS
 10
2.247488769
 20
4.1831269784
 40
0.4000692273
100
AcDbArc
 50
276.2318580925
 51
276.3824038422
  0
ARC
  5
44A
100
AcDbEntity
  8
0
100
AcDbCircle
 62
7
  6
CONTINUOUS
 10
2.3160554846
 20
4.1841020284
 40
0.3948282073
100
AcDbArc
 50
272.8839264056
 51
273.0352772256
  0
ARC
  5
44B
100
AcDbEntity
  8
0
100
AcDbCircle
 62
7
  6
CONTINUOUS
 10
0.8884723732
 20
3.5416083075
 40
0.1867604167
100
AcDbArc
 50
137.9864211385
 51
222.0135788615
  0
ARC
  5
44C
100
AcDbEntity
  8
0
100
AcDbCircle
 62
7
  6
CONTINUOUS
 10
2.9142119565
 20
3.5416083075
 40
0.125
100
AcDbArc
 50
235.0995
 51
124.9005
  0
ARC
  5
44D
100
AcDbEntity
  8
0
100
AcDbCircle
 62
7
  6
CONTINUOUS
 10
2.7284958175
 20
3.3781083075
 40
0.093
100
AcDbArc
 50
46.6958241996
 51
131.6319105028
  0
ARC
  5
44E
100
AcDbEntity
  8
0
100
AcDbCircle
 62
7
  6
CONTINUOUS
 10
2.7284958175
 20
3.7051083075
 40
0.093
100
AcDbArc
 50
228.3680894972
 51
313.3041758004
  0
ARC
  5
44F
100
AcDbEntity
  8
0
100
AcDbCircle
 62
7
  6
CONTINUOUS
 10
2.5817119565
 20
3.7520081916
 40
0.015
100
AcDbArc
 50
9.9845346997
 51
75.2370022574
  0
ARC
  5
450
100
AcDbEntity
  8
0
100
AcDbCircle
 62
7
  6
CONTINUOUS
 10
2.1942119565
 20
3.7520081916
 40
0.015
100
AcDbArc
 50
104.7629977426
 51
170.0154653003
  0
ARC
  5
451
100
AcDbEntity
  8
0
100
AcDbCircle
 62
7
  6
CONTINUOUS
 10
2.8135325685
 20
3.4496784537
 40
0.008
100
AcDbArc
 50
55.0995
 51
166.0407512246
  0
ARC
  5
452
100
AcDbEntity
  8
0
100
AcDbCircle
 62
7
  6
CONTINUOUS
 10
2.7977688281
 20
3.4516083075
 40
0.008
100
AcDbArc
 50
226.6958241996
 51
360.0
  0
ARC
  5
453
100
AcDbEntity
  8
0
100
AcDbCircle
 62
7
  6
CONTINUOUS
 10
2.8135325685
 20
3.6335381612
 40
0.008
100
AcDbArc
 50
193.9592487754
 51
304.9005
  0
ARC
  5
454
100
AcDbEntity
  8
0
100
AcDbCircle
 62
7
  6
CONTINUOUS
 10
2.7977688281
 20
3.6316083075
 40
0.008
100
AcDbArc
 50
0.0
 51
133.3041758004
  0
ARC
  5
455
100
AcDbEntity
  8
0
100
AcDbCircle
 62
7
  6
CONTINUOUS
 10
4.613435491
 20
2.5175676732
 40
0.185
100
AcDbArc
 50
4.100343755
 51
77.663276837
  0
ARC
  5
456
100
AcDbEntity
  8
0
100
AcDbCircle
 62
7
  6
CONTINUOUS
 10
4.162488422
 20
2.5175676732
 40
0.185
100
AcDbArc
 50
102.336723163
 51
175.899656245
  0
ARC
  5
457
100
AcDbEntity
  8
0
100
AcDbCircle
 62
7
  6
CONTINUOUS
 10
4.9478619165
 20
2.5357958075
 40
0.125
100
AcDbArc
 50
182.292442776
 51
270.0
  0
ARC
  5
458
100
AcDbEntity
  8
0
100
AcDbCircle
 62
7
  6
CONTINUOUS
 10
3.8280619966
 20
2.5357958075
 40
0.125
100
AcDbArc
 50
270.0
 51
357.707557224
  0
ARC
  5
459
100
AcDbEntity
  8
0
100
AcDbCircle
 62
7
  6
CONTINUOUS
 10
4.6029619565
 20
2.7382958075
 40
0.04
100
AcDbArc
 50
270.0
 51
90.0
  0
ARC
  5
45A
100
AcDbEntity
  8
0
100
AcDbCircle
 62
7
  6
CONTINUOUS
 10
4.1729619565
 20
2.7382958075
 40
0.04
100
AcDbArc
 50
90.0
 51
270.0
  0
ARC
  5
45B
100
AcDbEntity
  8
0
100
AcDbCircle
 62
7
  6
CONTINUOUS
 10
4.9604619565
 20
2.3957958075
 40
0.015
100
AcDbArc
 50
0.0
 51
90.0
  0
ARC
  5
45C
100
AcDbEntity
  8
0
100
AcDbCircle
 62
7
  6
CONTINUOUS
 10
3.8154619565
 20
2.3957958075
 40
0.015
100
AcDbArc
 50
90.0
 51
180.0
  0
ARC
  5
45D
100
AcDbEntity
  8
0
100
AcDbCircle
 62
7
  6
CONTINUOUS
 10
4.3739086029
 20
4.0575458075
 40
0.3228033537
100
AcDbArc
 50
324.607754503
 51
35.392245497
  0
ARC
  5
45E
100
AcDbEntity
  8
0
100
AcDbCircle
 62
7
  6
CONTINUOUS
 10
4.4020153102
 20
4.0575458075
 40
0.3228033537
100
AcDbArc
 50
144.607754503
 51
215.392245497
  0
ARC
  5
45F
100
AcDbEntity
  8
0
100
AcDbCircle
 62
7
  6
CONTINUOUS
 10
4.6467829766
 20
4.2732958075
 40
0.013
100
AcDbArc
 50
270.0
 51
18.4142808257
  0
ARC
  5
460
100
AcDbEntity
  8
0
100
AcDbCircle
 62
7
  6
CONTINUOUS
 10
4.6467829766
 20
3.8417958075
 40
0.013
100
AcDbArc
 50
341.5857191743
 51
90.0
  0
ARC
  5
461
100
AcDbEntity
  8
0
100
AcDbCircle
 62
7
  6
CONTINUOUS
 10
4.1291409364
 20
4.2732958075
 40
0.013
100
AcDbArc
 50
161.5857191743
 51
270.0
  0
ARC
  5
462
100
AcDbEntity
  8
0
100
AcDbCircle
 62
7
  6
CONTINUOUS
 10
4.1291409364
 20
3.8417958075
 40
0.013
100
AcDbArc
 50
90.0
 51
198.4142808257
  0
ARC
  5
463
100
AcDbEntity
  8
0
100
AcDbCircle
 62
7
  6
CONTINUOUS
 10
4.6452119565
 20
3.8647958075
 40
0.01
100
AcDbArc
 50
144.607754503
 51
270.0
  0
ARC
  5
464
100
AcDbEntity
  8
0
100
AcDbCircle
 62
7
  6
CONTINUOUS
 10
4.1307119565
 20
3.8647958075
 40
0.01
100
AcDbArc
 50
270.0
 51
35.392245497
  0
ARC
  5
465
100
AcDbEntity
  8
0
100
AcDbCircle
 62
7
  6
CONTINUOUS
 10
4.6452119565
 20
4.2502958075
 40
0.01
100
AcDbArc
 50
90.0
 51
215.392245497
  0
ARC
  5
466
100
AcDbEntity
  8
0
100
AcDbCircle
 62
7
  6
CONTINUOUS
 10
4.1307119565
 20
4.2502958075
 40
0.01
100
AcDbArc
 50
324.607754503
 51
90.0
  0
ARC
  5
467
100
AcDbEntity
  8
0
100
AcDbCircle
 62
7
  6
CONTINUOUS
 10
2.2192119565
 20
4.9091733835
 40
2.0
100
AcDbArc
 50
341.5857191743
 51
12.3457930752
  0
ARC
  5
468
100
AcDbEntity
  8
0
100
AcDbCircle
 62
7
  6
CONTINUOUS
 10
4.3879619565
 20
5.6971714263
 40
0.355
100
AcDbArc
 50
307.8111678058
 51
62.7582127656
  0
ARC
  5
469
100
AcDbEntity
  8
0
100
AcDbCircle
 62
7
  6
CONTINUOUS
 10
4.3879619565
 20
5.6971714263
 40
0.355
100
AcDbArc
 50
117.2417872344
 51
232.1888321942
  0
ARC
  5
46A
100
AcDbEntity
  8
0
100
AcDbCircle
 62
7
  6
CONTINUOUS
 10
4.3879619565
 20
5.6971714263
 40
0.23475
100
AcDbArc
 50
322.8591110092
 51
48.2688112862
  0
ARC
  5
46B
100
AcDbEntity
  8
0
100
AcDbCircle
 62
7
  6
CONTINUOUS
 10
4.3879619565
 20
5.6971714263
 40
0.23475
100
AcDbArc
 50
131.7311887138
 51
217.1408051577
  0
ARC
  5
46C
100
AcDbEntity
  8
0
100
AcDbCircle
 62
7
  6
CONTINUOUS
 10
4.3879619565
 20
5.6971714263
 40
0.2035
100
AcDbArc
 50
140.1622562743
 51
219.8377437257
  0
ARC
  5
46D
100
AcDbEntity
  8
0
100
AcDbCircle
 62
7
  6
CONTINUOUS
 10
4.3879619565
 20
5.6971714263
 40
0.2035
100
AcDbArc
 50
320.1622562743
 51
39.8377437257
  0
ARC
  5
46E
100
AcDbEntity
  8
0
100
AcDbCircle
 62
7
  6
CONTINUOUS
 10
4.3879619565
 20
6.1971714263
 40
0.15625
100
AcDbArc
 50
0.0
 51
180.0
  0
ARC
  5
46F
100
AcDbEntity
  8
0
100
AcDbCircle
 62
7
  6
CONTINUOUS
 10
4.6268805738
 20
6.2665592968
 40
0.1176686173
100
AcDbArc
 50
225.3638630491
 51
231.4555849098
  0
ARC
  5
470
100
AcDbEntity
  8
0
100
AcDbCircle
 62
7
  6
CONTINUOUS
 10
4.6268805738
 20
6.2665592968
 40
0.1176686173
100
AcDbArc
 50
134.63231337
 51
167.446418064
  0
ARC
  5
471
100
AcDbEntity
  8
0
100
AcDbCircle
 62
7
  6
CONTINUOUS
 10
4.1490433392
 20
6.2665592968
 40
0.1176686173
100
AcDbArc
 50
308.5444150902
 51
314.6361369509
  0
ARC
  5
472
100
AcDbEntity
  8
0
100
AcDbCircle
 62
7
  6
CONTINUOUS
 10
4.1490433392
 20
6.2665592968
 40
0.1176686173
100
AcDbArc
 50
12.553581936
 51
45.36768663
  0
ARC
  5
473
100
AcDbEntity
  8
0
100
AcDbCircle
 62
7
  6
CONTINUOUS
 10
4.4817119565
 20
6.5302958075
 40
0.0625
100
AcDbArc
 50
0.0
 51
90.0
  0
ARC
  5
474
100
AcDbEntity
  8
0
100
AcDbCircle
 62
7
  6
CONTINUOUS
 10
4.2942119565
 20
6.5302958075
 40
0.0625
100
AcDbArc
 50
90.0
 51
180.0
  0
ARC
  5
475
100
AcDbEntity
  8
0
100
AcDbCircle
 62
7
  6
CONTINUOUS
 10
4.5747119565
 20
6.4537958075
 40
0.045
100
AcDbArc
 50
0.0
 51
90.0
  0
ARC
  5
476
100
AcDbEntity
  8
0
100
AcDbCircle
 62
7
  6
CONTINUOUS
 10
4.5747119565
 20
6.4267958075
 40
0.045
100
AcDbArc
 50
270.0
 51
360.0
  0
ARC
  5
477
100
AcDbEntity
  8
0
100
AcDbCircle
 62
7
  6
CONTINUOUS
 10
4.2012119565
 20
6.4537958075
 40
0.045
100
AcDbArc
 50
90.0
 51
180.0
  0
ARC
  5
478
100
AcDbEntity
  8
0
100
AcDbCircle
 62
7
  6
CONTINUOUS
 10
4.2012119565
 20
6.4267958075
 40
0.045
100
AcDbArc
 50
180.0
 51
270.0
  0
ARC
  5
479
100
AcDbEntity
  8
0
100
AcDbCircle
 62
7
  6
CONTINUOUS
 10
4.6029619565
 20
5.3767958075
 40
0.04
100
AcDbArc
 50
270.0
 51
86.2205015298
  0
ARC
  5
47A
100
AcDbEntity
  8
0
100
AcDbCircle
 62
7
  6
CONTINUOUS
 10
4.1729619565
 20
5.3767958075
 40
0.04
100
AcDbArc
 50
93.7794984702
 51
270.0
  0
ARC
  5
47B
100
AcDbEntity
  8
0
100
AcDbCircle
 62
7
  6
CONTINUOUS
 10
4.5597119565
 20
6.5142958075
 40
0.0155
100
AcDbArc
 50
180.0
 51
270.0
  0
ARC
  5
47C
100
AcDbEntity
  8
0
100
AcDbCircle
 62
7
  6
CONTINUOUS
 10
4.2162119565
 20
6.5142958075
 40
0.0155
100
AcDbArc
 50
270.0
 51
360.0
  0
ARC
  5
47D
100
AcDbEntity
  8
0
100
AcDbCircle
 62
7
  6
CONTINUOUS
 10
4.5442119565
 20
6.1627958075
 40
0.015
100
AcDbArc
 50
0.0
 51
51.4555849098
  0
ARC
  5
47E
100
AcDbEntity
  8
0
100
AcDbCircle
 62
7
  6
CONTINUOUS
 10
4.2317119565
 20
6.1627958075
 40
0.015
100
AcDbArc
 50
128.5444150902
 51
180.0
  0
ARC
  5
47F
100
AcDbEntity
  8
0
100
AcDbCircle
 62
7
  6
CONTINUOUS
 10
6.884393901
 20
2.3432958075
 40
0.0935680556
100
AcDbArc
 50
0.0
 51
87.8145949287
  0
ARC
  5
480
100
AcDbEntity
  8
0
100
AcDbCircle
 62
7
  6
CONTINUOUS
 10
5.8915300121
 20
2.3432958075
 40
0.0935680556
100
AcDbArc
 50
92.1854050713
 51
180.0
  0
ARC
  5
481
100
AcDbEntity
  8
0
100
AcDbCircle
 62
7
  6
CONTINUOUS
 10
6.7944632934
 20
2.4372958075
 40
0.0935
100
AcDbArc
 50
359.6936039968
 51
90.0
  0
ARC
  5
482
100
AcDbEntity
  8
0
100
AcDbCircle
 62
7
  6
CONTINUOUS
 10
5.9814606196
 20
2.4372958075
 40
0.0935
100
AcDbArc
 50
90.0
 51
180.3063960032
  0
ARC
  5
483
100
AcDbEntity
  8
0
100
AcDbCircle
 62
7
  6
CONTINUOUS
 10
6.7690992233
 20
2.8057762952
 40
0.0857622668
100
AcDbArc
 50
146.9521644936
 51
225.0826423158
  0
ARC
  5
484
100
AcDbEntity
  8
0
100
AcDbCircle
 62
7
  6
CONTINUOUS
 10
6.0068246897
 20
2.8057762952
 40
0.0857622668
100
AcDbArc
 50
314.9173576842
 51
33.0478355064
  0
ARC
  5
485
100
AcDbEntity
  8
0
100
AcDbCircle
 62
7
  6
CONTINUOUS
 10
6.1641995171
 20
2.9081636058
 40
0.1019875605
100
AcDbArc
 50
145.0110095298
 51
213.0478355064
  0
ARC
  5
486
100
AcDbEntity
  8
0
100
AcDbCircle
 62
7
  6
CONTINUOUS
 10
6.3685086537
 20
3.1343718231
 40
0.6561376386
100
AcDbArc
 50
96.2161845714
 51
96.9435818356
  0
ARC
  5
487
100
AcDbEntity
  8
0
100
AcDbCircle
 62
7
  6
CONTINUOUS
 10
5.8616925055
 20
3.1987974717
 40
0.3125
100
AcDbArc
 50
325.0110095298
 51
355.1903004544
  0
ARC
  5
488
100
AcDbEntity
  8
0
100
AcDbCircle
 62
7
  6
CONTINUOUS
 10
6.1885375123
 20
3.1712958075
 40
0.0155
100
AcDbArc
 50
90.0
 51
175.1903004543
  0
ARC
  5
489
100
AcDbEntity
  8
0
100
AcDbCircle
 62
7
  6
CONTINUOUS
 10
6.3879619565
 20
3.0167732997
 40
0.7753350077
100
AcDbArc
 50
78.0669933483
 51
81.2354682492
  0
ARC
  5
48A
100
AcDbEntity
  8
0
100
AcDbCircle
 62
7
  6
CONTINUOUS
 10
6.3879619565
 20
3.0167732997
 40
0.7753350077
100
AcDbArc
 50
91.4300766046
 51
94.5754586167
  0
ARC
  5
48B
100
AcDbEntity
  8
0
100
AcDbCircle
 62
7
  6
CONTINUOUS
 10
6.3879619565
 20
3.0167732997
 40
0.7753350077
100
AcDbArc
 50
95.9223880643
 51
101.456409806
  0
ARC
  5
48C
100
AcDbEntity
  8
0
100
AcDbCircle
 62
7
  6
CONTINUOUS
 10
6.3879619565
 20
3.0167732997
 40
0.7753350077
100
AcDbArc
 50
88.836024953
 51
90.1108472106
  0
ARC
  5
48D
100
AcDbEntity
  8
0
100
AcDbCircle
 62
7
  6
CONTINUOUS
 10
6.3879619565
 20
3.0167732997
 40
0.7753350077
100
AcDbArc
 50
82.589547494
 51
87.505151011
  0
ARC
  5
48E
100
AcDbEntity
  8
0
100
AcDbCircle
 62
7
  6
CONTINUOUS
 10
6.3879619565
 20
3.0167732997
 40
0.7753350077
100
AcDbArc
 50
75.2369687319
 51
76.6139015814
  0
ARC
  5
48F
100
AcDbEntity
  8
0
100
AcDbCircle
 62
7
  6
CONTINUOUS
 10
6.3879619565
 20
3.0167732997
 40
0.7753350077
100
AcDbArc
 50
103.0445666344
 51
104.7630312681
  0
ARC
  5
490
100
AcDbEntity
  8
0
100
AcDbCircle
 62
7
  6
CONTINUOUS
 10
6.3879619565
 20
3.0167732997
 40
0.7748350077
100
AcDbArc
 50
101.4639028364
 51
102.158859732
  0
ARC
  5
491
100
AcDbEntity
  8
0
100
AcDbCircle
 62
7
  6
CONTINUOUS
 10
6.3879619565
 20
3.0167732997
 40
0.7748350077
100
AcDbArc
 50
94.5784174525
 51
95.2987660515
  0
ARC
  5
492
100
AcDbEntity
  8
0
100
AcDbCircle
 62
7
  6
CONTINUOUS
 10
6.3879619565
 20
3.0167732997
 40
0.7748350077
100
AcDbArc
 50
90.7468645017
 51
91.430999623
  0
ARC
  5
493
100
AcDbEntity
  8
0
100
AcDbCircle
 62
7
  6
CONTINUOUS
 10
6.3879619565
 20
3.0167732997
 40
0.7748350077
100
AcDbArc
 50
77.3978250151
 51
78.0591795779
  0
ARC
  5
494
100
AcDbEntity
  8
0
100
AcDbCircle
 62
7
  6
CONTINUOUS
 10
6.3879619565
 20
3.0167732997
 40
0.7748350077
100
AcDbArc
 50
81.235244294
 51
82.5847386687
  0
ARC
  5
495
100
AcDbEntity
  8
0
100
AcDbCircle
 62
7
  6
CONTINUOUS
 10
6.3879619565
 20
3.0167732997
 40
0.7748350077
100
AcDbArc
 50
87.503540069
 51
88.835273738
  0
ARC
  5
496
100
AcDbEntity
  8
0
100
AcDbCircle
 62
7
  6
CONTINUOUS
 10
6.3879619565
 20
3.0167732997
 40
0.7747348735
100
AcDbArc
 50
79.9593632588
 51
81.0040654587
  0
ARC
  5
497
100
AcDbEntity
  8
0
100
AcDbCircle
 62
7
  6
CONTINUOUS
 10
6.3879619565
 20
3.0167732997
 40
0.7747104305
100
AcDbArc
 50
85.5024540677
 51
86.3921798126
  0
ARC
  5
498
100
AcDbEntity
  8
0
100
AcDbCircle
 62
7
  6
CONTINUOUS
 10
6.3879619565
 20
3.0167732997
 40
0.7742344859
100
AcDbArc
 50
79.9528066769
 51
80.9982030894
  0
ARC
  5
499
100
AcDbEntity
  8
0
100
AcDbCircle
 62
7
  6
CONTINUOUS
 10
6.3879619565
 20
3.0167732997
 40
0.7742100271
100
AcDbArc
 50
85.49954113
 51
86.3898448421
  0
ARC
  5
49A
100
AcDbEntity
  8
0
100
AcDbCircle
 62
7
  6
CONTINUOUS
 10
6.3879619565
 20
3.0167732997
 40
0.7741693124
100
AcDbArc
 50
84.0880697177
 51
89.6299506004
  0
ARC
  5
49B
100
AcDbEntity
  8
0
100
AcDbCircle
 62
7
  6
CONTINUOUS
 10
6.3879619565
 20
3.0167732997
 40
0.7741693124
100
AcDbArc
 50
79.7882367111
 51
82.9513441199
  0
ARC
  5
49C
100
AcDbEntity
  8
0
100
AcDbCircle
 62
7
  6
CONTINUOUS
 10
6.611724396
 20
2.9081636058
 40
0.1019875605
100
AcDbArc
 50
326.9521644936
 51
34.9889904702
  0
ARC
  5
49D
100
AcDbEntity
  8
0
100
AcDbCircle
 62
7
  6
CONTINUOUS
 10
6.5567119565
 20
3.2059182314
 40
2.0
100
AcDbArc
 50
161.5857191743
 51
192.3457930752
  0
ARC
  5
49E
100
AcDbEntity
  8
0
100
AcDbCircle
 62
7
  6
CONTINUOUS
 10
6.4035047825
 20
3.2213482069
 40
0.5701710881
100
AcDbArc
 50
83.0535751546
 51
83.4864024216
  0
ARC
  5
49F
100
AcDbEntity
  8
0
100
AcDbCircle
 62
7
  6
CONTINUOUS
 10
6.460726967
 20
3.2164386952
 40
0.5652309043
100
AcDbArc
 50
81.1862287023
 51
81.3433028419
  0
ARC
  5
4A0
100
AcDbEntity
  8
0
100
AcDbCircle
 62
7
  6
CONTINUOUS
 10
6.9142314076
 20
3.1987974717
 40
0.3125
100
AcDbArc
 50
184.8096995456
 51
214.9889904702
  0
ARC
  5
4A1
100
AcDbEntity
  8
0
100
AcDbCircle
 62
7
  6
CONTINUOUS
 10
6.5873864008
 20
3.1712958075
 40
0.0155
100
AcDbArc
 50
4.8096995457
 51
90.0
  0
ARC
  5
4A2
100
AcDbEntity
  8
0
100
AcDbCircle
 62
7
  6
CONTINUOUS
 10
8.1349619565
 20
3.3557958075
 40
1.5265
100
AcDbArc
 50
346.7644365334
 51
13.2162850744
  0
ARC
  5
4A3
100
AcDbEntity
  8
0
100
AcDbCircle
 62
7
  6
CONTINUOUS
 10
6.0188959341
 20
3.4373853016
 40
0.68
100
AcDbArc
 50
17.6982774827
 51
21.2739720086
  0
ARC
  5
4A4
100
AcDbEntity
  8
0
100
AcDbCircle
 62
7
  6
CONTINUOUS
 10
6.0238125661
 20
3.6606492152
 40
0.68
100
AcDbArc
 50
337.4255442891
 51
340.9862257999
  0
ARC
  5
4A5
100
AcDbEntity
  8
0
100
AcDbCircle
 62
7
  6
CONTINUOUS
 10
6.7570279789
 20
3.4373853016
 40
0.68
100
AcDbArc
 50
158.7260279914
 51
162.3017225173
  0
ARC
  5
4A6
100
AcDbEntity
  8
0
100
AcDbCircle
 62
7
  6
CONTINUOUS
 10
6.7521113469
 20
3.6606492152
 40
0.68
100
AcDbArc
 50
199.0137742001
 51
202.5744557109
  0
ARC
  5
4A7
100
AcDbEntity
  8
0
100
AcDbCircle
 62
7
  6
CONTINUOUS
 10
6.5047133318
 20
3.9950075027
 40
0.2104729316
100
AcDbArc
 50
264.0681629882
 51
264.2956558542
  0
ARC
  5
4A8
100
AcDbEntity
  8
0
100
AcDbCircle
 62
7
  6
CONTINUOUS
 10
6.4523670279
 20
3.580786478
 40
0.207655633
100
AcDbArc
 50
85.631475316
 51
87.4669374742
  0
ARC
  5
4A9
100
AcDbEntity
  8
0
100
AcDbCircle
 62
7
  6
CONTINUOUS
 10
6.4523709655
 20
3.5804980585
 40
0.2074415785
100
AcDbArc
 50
86.0357858793
 51
87.465410597
  0
ARC
  5
4AA
100
AcDbEntity
  8
0
100
AcDbCircle
 62
7
  6
CONTINUOUS
 10
6.5040977929
 20
3.98832903
 40
0.2042681024
100
AcDbArc
 50
264.0609152567
 51
264.2953311114
  0
ARC
  5
4AB
100
AcDbEntity
  8
0
100
AcDbCircle
 62
7
  6
CONTINUOUS
 10
7.8874515399
 20
3.5416083075
 40
0.1867604167
100
AcDbArc
 50
317.9864211385
 51
42.0135788615
  0
ARC
  5
4AC
100
AcDbEntity
  8
0
100
AcDbCircle
 62
7
  6
CONTINUOUS
 10
5.8617119565
 20
3.5416083075
 40
0.125
100
AcDbArc
 50
55.0995
 51
304.9005
  0
ARC
  5
4AD
100
AcDbEntity
  8
0
100
AcDbCircle
 62
7
  6
CONTINUOUS
 10
6.0474280956
 20
3.3781083075
 40
0.093
100
AcDbArc
 50
48.3680894972
 51
133.3041758004
  0
ARC
  5
4AE
100
AcDbEntity
  8
0
100
AcDbCircle
 62
7
  6
CONTINUOUS
 10
6.0474280956
 20
3.7051083075
 40
0.093
100
AcDbArc
 50
226.6958241996
 51
311.6319105028
  0
ARC
  5
4AF
100
AcDbEntity
  8
0
100
AcDbCircle
 62
7
  6
CONTINUOUS
 10
6.4725858194
 20
3.7636537528
 40
0.023680624
100
AcDbArc
 50
90.2996903336
 51
101.9040740022
  0
ARC
  5
4B0
100
AcDbEntity
  8
0
100
AcDbCircle
 62
7
  6
CONTINUOUS
 10
6.5817119565
 20
3.752008134
 40
0.015
100
AcDbArc
 50
9.9847582361
 51
75.2369687319
  0
ARC
  5
4B1
100
AcDbEntity
  8
0
100
AcDbCircle
 62
7
  6
CONTINUOUS
 10
6.1942119565
 20
3.752008134
 40
0.015
100
AcDbArc
 50
104.7630312681
 51
170.0152417639
  0
ARC
  5
4B2
100
AcDbEntity
  8
0
100
AcDbCircle
 62
7
  6
CONTINUOUS
 10
5.9623913446
 20
3.4496784537
 40
0.008
100
AcDbArc
 50
13.9592487754
 51
124.9005
  0
ARC
  5
4B3
100
AcDbEntity
  8
0
100
AcDbCircle
 62
7
  6
CONTINUOUS
 10
5.978155085
 20
3.4516083075
 40
0.008
100
AcDbArc
 50
180.0
 51
313.3041758004
  0
ARC
  5
4B4
100
AcDbEntity
  8
0
100
AcDbCircle
 62
7
  6
CONTINUOUS
 10
5.9623913446
 20
3.6335381612
 40
0.008
100
AcDbArc
 50
235.0995
 51
346.0407512246
  0
ARC
  5
4B5
100
AcDbEntity
  8
0
100
AcDbCircle
 62
7
  6
CONTINUOUS
 10
5.978155085
 20
3.6316083075
 40
0.008
100
AcDbArc
 50
46.6958241996
 51
180.0
  0
ARC
  5
4B6
100
AcDbEntity
  8
0
100
AcDbCircle
 62
7
  6
CONTINUOUS
 10
10.6409619565
 20
3.3557958075
 40
1.5265
100
AcDbArc
 50
166.7837149256
 51
193.2355634666
  0
ARC
  5
4B7
100
AcDbEntity
  8
0
100
AcDbCircle
 62
7
  6
CONTINUOUS
 10
9.8238751134
 20
2.9585586637
 40
0.2085
100
AcDbArc
 50
166.7644365334
 51
197.3749047622
  0
ARC
  5
4B8
100
AcDbEntity
  8
0
100
AcDbCircle
 62
7
  6
CONTINUOUS
 10
8.9520487996
 20
2.9585586637
 40
0.2085
100
AcDbArc
 50
342.6250952378
 51
13.2355634666
  0
ARC
  5
4B9
100
AcDbEntity
  8
0
100
AcDbCircle
 62
7
  6
CONTINUOUS
 10
9.6134275071
 20
2.5176795212
 40
0.185
100
AcDbArc
 50
4.0656154981
 51
77.5021822312
  0
ARC
  5
4BA
100
AcDbEntity
  8
0
100
AcDbCircle
 62
7
  6
CONTINUOUS
 10
9.162496406
 20
2.5176795212
 40
0.185
100
AcDbArc
 50
102.4978177688
 51
175.9343845019
  0
ARC
  5
4BB
100
AcDbEntity
  8
0
100
AcDbCircle
 62
7
  6
CONTINUOUS
 10
9.9478619165
 20
2.5357958075
 40
0.125
100
AcDbArc
 50
182.292442776
 51
270.0
  0
ARC
  5
4BC
100
AcDbEntity
  8
0
100
AcDbCircle
 62
7
  6
CONTINUOUS
 10
8.8280619966
 20
2.5357958075
 40
0.125
100
AcDbArc
 50
270.0
 51
357.707557224
  0
ARC
  5
4BD
100
AcDbEntity
  8
0
100
AcDbCircle
 62
7
  6
CONTINUOUS
 10
9.6119619565
 20
2.6687958075
 40
0.04
100
AcDbArc
 50
90.0
 51
132.4811128754
  0
ARC
  5
4BE
100
AcDbEntity
  8
0
100
AcDbCircle
 62
7
  6
CONTINUOUS
 10
9.1639619565
 20
2.6687958075
 40
0.04
100
AcDbArc
 50
47.5188871246
 51
90.0
  0
ARC
  5
4BF
100
AcDbEntity
  8
0
100
AcDbCircle
 62
7
  6
CONTINUOUS
 10
9.6429619565
 20
2.8652958075
 40
0.0315
100
AcDbArc
 50
270.0
 51
79.7778206094
  0
ARC
  5
4C0
100
AcDbEntity
  8
0
100
AcDbCircle
 62
7
  6
CONTINUOUS
 10
9.6429619565
 20
2.7397958075
 40
0.0315
100
AcDbArc
 50
280.2221793906
 51
90.0
  0
ARC
  5
4C1
100
AcDbEntity
  8
0
100
AcDbCircle
 62
7
  6
CONTINUOUS
 10
9.1329619565
 20
2.8652958075
 40
0.0315
100
AcDbArc
 50
100.2221793906
 51
270.0
  0
ARC
  5
4C2
100
AcDbEntity
  8
0
100
AcDbCircle
 62
7
  6
CONTINUOUS
 10
9.1329619565
 20
2.7397958075
 40
0.0315
100
AcDbArc
 50
90.0
 51
259.7778206094
  0
ARC
  5
4C3
100
AcDbEntity
  8
0
100
AcDbCircle
 62
7
  6
CONTINUOUS
 10
9.5569619565
 20
2.3487958075
 40
0.015
100
AcDbArc
 50
270.0
 51
338.4898117331
  0
ARC
  5
4C4
100
AcDbEntity
  8
0
100
AcDbCircle
 62
7
  6
CONTINUOUS
 10
9.2189619565
 20
2.3487958075
 40
0.015
100
AcDbArc
 50
201.5101882669
 51
270.0
  0
ARC
  5
4C5
100
AcDbEntity
  8
0
100
AcDbCircle
 62
7
  6
CONTINUOUS
 10
9.9604619565
 20
2.3957958075
 40
0.015
100
AcDbArc
 50
0.0
 51
90.0
  0
ARC
  5
4C6
100
AcDbEntity
  8
0
100
AcDbCircle
 62
7
  6
CONTINUOUS
 10
8.8154619565
 20
2.3957958075
 40
0.015
100
AcDbArc
 50
90.0
 51
180.0
  0
ARC
  5
4C7
100
AcDbEntity
  8
0
100
AcDbCircle
 62
7
  6
CONTINUOUS
 10
10.0488904015
 20
3.8052776286
 40
0.4395
100
AcDbArc
 50
159.5553787122
 51
193.2162850744
  0
ARC
  5
4C8
100
AcDbEntity
  8
0
100
AcDbCircle
 62
7
  6
CONTINUOUS
 10
8.7270335116
 20
3.8052776286
 40
0.4395
100
AcDbArc
 50
346.7837149256
 51
20.4446212878
  0
ARC
  5
4C9
100
AcDbEntity
  8
0
100
AcDbCircle
 62
7
  6
CONTINUOUS
 10
9.3366571633
 20
4.4063265802
 40
0.2962523809
100
AcDbArc
 50
321.3610372927
 51
321.7451181328
  0
ARC
  5
4CA
100
AcDbEntity
  8
0
100
AcDbCircle
 62
7
  6
CONTINUOUS
 10
9.4391450037
 20
4.4062287015
 40
0.2960962077
100
AcDbArc
 50
218.2531626552
 51
218.639784743
  0
ARC
  5
4CB
100
AcDbEntity
  8
0
100
AcDbCircle
 62
7
  6
CONTINUOUS
 10
9.3445297242
 20
4.3997522238
 40
0.2859947866
100
AcDbArc
 50
317.5809011172
 51
319.340366137
  0
ARC
  5
4CC
100
AcDbEntity
  8
0
100
AcDbCircle
 62
7
  6
CONTINUOUS
 10
9.4306967982
 20
4.3991348714
 40
0.2850635698
100
AcDbArc
 50
220.6569257982
 51
222.4224161702
  0
ARC
  5
4CD
100
AcDbEntity
  8
0
100
AcDbCircle
 62
7
  6
CONTINUOUS
 10
9.4265693118
 20
4.3953360488
 40
0.2794538957
100
AcDbArc
 50
223.2819317886
 51
223.4566814524
  0
ARC
  5
4CE
100
AcDbEntity
  8
0
100
AcDbCircle
 62
7
  6
CONTINUOUS
 10
9.6432119565
 20
3.9900458075
 40
0.03125
100
AcDbArc
 50
270.0
 51
90.0
  0
ARC
  5
4CF
100
AcDbEntity
  8
0
100
AcDbCircle
 62
7
  6
CONTINUOUS
 10
9.1327119565
 20
3.9900458075
 40
0.03125
100
AcDbArc
 50
90.0
 51
270.0
  0
CIRCLE
  5
4D0
100
AcDbEntity
  8
0
100
AcDbCircle
 62
7
  6
CONTINUOUS
 10
9.4485779367
 20
4.2999512716
 40
0.0103675275
  0
CIRCLE
  5
4D1
100
AcDbEntity
  8
0
100
AcDbCircle
 62
7
  6
CONTINUOUS
 10
9.4999674492
 20
4.3342878175
 40
0.0103675275
  0
CIRCLE
  5
4D2
100
AcDbEntity
  8
0
100
AcDbCircle
 62
7
  6
CONTINUOUS
 10
9.3273427135
 20
4.2999526231
 40
0.0103675275
  0
CIRCLE
  5
4D3
100
AcDbEntity
  8
0
100
AcDbCircle
 62
7
  6
CONTINUOUS
 10
9.3879601907
 20
4.2878943547
 40
0.0103675275
  0
CIRCLE
  5
4D4
100
AcDbEntity
  8
0
100
AcDbCircle
 62
7
  6
CONTINUOUS
 10
9.5343051421
 20
4.3856765636
 40
0.0103675275
  0
CIRCLE
  5
4D5
100
AcDbEntity
  8
0
100
AcDbCircle
 62
7
  6
CONTINUOUS
 10
9.2416174196
 20
4.3856798268
 40
0.0103675273
  0
CIRCLE
  5
4D6
100
AcDbEntity
  8
0
100
AcDbCircle
 62
7
  6
CONTINUOUS
 10
9.2759539657
 20
4.3342903138
 40
0.0103675273
  0
CIRCLE
  5
4D7
100
AcDbEntity
  8
0
100
AcDbCircle
 62
7
  6
CONTINUOUS
 10
9.456967567
 20
4.3772902215
 40
0.0097939913
  0
CIRCLE
  5
4D8
100
AcDbEntity
  8
0
100
AcDbCircle
 62
7
  6
CONTINUOUS
 10
9.3189563709
 20
4.3772901982
 40
0.0097939902
  0
CIRCLE
  5
4D9
100
AcDbEntity
  8
0
100
AcDbCircle
 62
7
  6
CONTINUOUS
 10
9.3879619732
 20
4.3487071557
 40
0.0097939902
  0
ARC
  5
4DA
100
AcDbEntity
  8
0
100
AcDbCircle
 62
7
  6
CONTINUOUS
 10
6.5567119565
 20
4.9091733835
 40
2.0
100
AcDbArc
 50
167.6542069248
 51
198.4142808257
  0
CIRCLE
  5
4DB
100
AcDbEntity
  8
0
100
AcDbCircle
 62
7
  6
CONTINUOUS
 10
9.2416187711
 20
4.506915051
 40
0.0103675273
  0
CIRCLE
  5
4DC
100
AcDbEntity
  8
0
100
AcDbCircle
 62
7
  6
CONTINUOUS
 10
9.2295566436
 20
4.4462958147
 40
0.0103635969
  0
CIRCLE
  5
4DD
100
AcDbEntity
  8
0
100
AcDbCircle
 62
7
  6
CONTINUOUS
 10
9.3189563482
 20
4.5153013926
 40
0.0097939888
  0
CIRCLE
  5
4DE
100
AcDbEntity
  8
0
100
AcDbCircle
 62
7
  6
CONTINUOUS
 10
9.2903736676
 20
4.4462959157
 40
0.0097937627
  0
ARC
  5
4DF
100
AcDbEntity
  8
0
100
AcDbCircle
 62
7
  6
CONTINUOUS
 10
9.38796015
 20
4.604697445
 40
0.0103675573
100
AcDbArc
 50
259.4577336209
 51
78.0602664605
  0
CIRCLE
  5
4E0
100
AcDbEntity
  8
0
100
AcDbCircle
 62
7
  6
CONTINUOUS
 10
9.2759564639
 20
4.5583037972
 40
0.0103675274
  0
CIRCLE
  5
4E1
100
AcDbEntity
  8
0
100
AcDbCircle
 62
7
  6
CONTINUOUS
 10
9.3273459764
 20
4.592640343
 40
0.0103675274
  0
ARC
  5
4E2
100
AcDbEntity
  8
0
100
AcDbCircle
 62
7
  6
CONTINUOUS
 10
9.3879619389
 20
4.5438844601
 40
0.0097939912
100
AcDbArc
 50
211.711412873
 51
30.6305751798
  0
ARC
  5
4E3
100
AcDbEntity
  8
0
100
AcDbCircle
 62
7
  6
CONTINUOUS
 10
9.3879619565
 20
4.4462958075
 40
0.29375
100
AcDbArc
 50
106.2208244843
 51
106.780848866
  0
ARC
  5
4E4
100
AcDbEntity
  8
0
100
AcDbCircle
 62
7
  6
CONTINUOUS
 10
9.3879619565
 20
4.4462958075
 40
0.29375
100
AcDbArc
 50
109.219151134
 51
109.7791755157
  0
ARC
  5
4E5
100
AcDbEntity
  8
0
100
AcDbCircle
 62
7
  6
CONTINUOUS
 10
9.3879619565
 20
4.4462958075
 40
0.29375
100
AcDbArc
 50
112.2208244843
 51
112.7791755157
  0
ARC
  5
4E6
100
AcDbEntity
  8
0
100
AcDbCircle
 62
7
  6
CONTINUOUS
 10
9.3879619565
 20
4.4462958075
 40
0.29375
100
AcDbArc
 50
115.2208244843
 51
115.7791755157
  0
ARC
  5
4E7
100
AcDbEntity
  8
0
100
AcDbCircle
 62
7
  6
CONTINUOUS
 10
9.3879619565
 20
4.4462958075
 40
0.29375
100
AcDbArc
 50
118.2208244843
 51
118.7791755157
  0
ARC
  5
4E8
100
AcDbEntity
  8
0
100
AcDbCircle
 62
7
  6
CONTINUOUS
 10
9.3879619565
 20
4.4462958075
 40
0.29375
100
AcDbArc
 50
121.2208244843
 51
121.7791755157
  0
ARC
  5
4E9
100
AcDbEntity
  8
0
100
AcDbCircle
 62
7
  6
CONTINUOUS
 10
9.3879619565
 20
4.4462958075
 40
0.29375
100
AcDbArc
 50
124.2208244843
 51
124.780848866
  0
ARC
  5
4EA
100
AcDbEntity
  8
0
100
AcDbCircle
 62
7
  6
CONTINUOUS
 10
9.3879619565
 20
4.4462958075
 40
0.29375
100
AcDbArc
 50
127.219151134
 51
127.7791755157
  0
ARC
  5
4EB
100
AcDbEntity
  8
0
100
AcDbCircle
 62
7
  6
CONTINUOUS
 10
9.3879619565
 20
4.4462958075
 40
0.29375
100
AcDbArc
 50
130.2208244843
 51
130.7791755157
  0
ARC
  5
4EC
100
AcDbEntity
  8
0
100
AcDbCircle
 62
7
  6
CONTINUOUS
 10
9.3879619565
 20
4.4462958075
 40
0.29375
100
AcDbArc
 50
133.2208244843
 51
133.7791755157
  0
ARC
  5
4ED
100
AcDbEntity
  8
0
100
AcDbCircle
 62
7
  6
CONTINUOUS
 10
9.3879619565
 20
4.4462958075
 40
0.29375
100
AcDbArc
 50
136.2208244843
 51
136.7791755157
  0
ARC
  5
4EE
100
AcDbEntity
  8
0
100
AcDbCircle
 62
7
  6
CONTINUOUS
 10
9.3879619565
 20
4.4462958075
 40
0.29375
100
AcDbArc
 50
139.2208244843
 51
139.7791755157
  0
ARC
  5
4EF
100
AcDbEntity
  8
0
100
AcDbCircle
 62
7
  6
CONTINUOUS
 10
9.3879619565
 20
4.4462958075
 40
0.29375
100
AcDbArc
 50
142.2208244843
 51
142.780848866
  0
ARC
  5
4F0
100
AcDbEntity
  8
0
100
AcDbCircle
 62
7
  6
CONTINUOUS
 10
9.3879619565
 20
4.4462958075
 40
0.29375
100
AcDbArc
 50
145.219151134
 51
145.7791755157
  0
ARC
  5
4F1
100
AcDbEntity
  8
0
100
AcDbCircle
 62
7
  6
CONTINUOUS
 10
9.3879619565
 20
4.4462958075
 40
0.29375
100
AcDbArc
 50
148.2208244843
 51
148.7791755157
  0
ARC
  5
4F2
100
AcDbEntity
  8
0
100
AcDbCircle
 62
7
  6
CONTINUOUS
 10
9.3879619565
 20
4.4462958075
 40
0.29375
100
AcDbArc
 50
151.2208244843
 51
151.7791755157
  0
ARC
  5
4F3
100
AcDbEntity
  8
0
100
AcDbCircle
 62
7
  6
CONTINUOUS
 10
9.3879619565
 20
4.4462958075
 40
0.29375
100
AcDbArc
 50
154.2208244843
 51
154.7791755157
  0
ARC
  5
4F4
100
AcDbEntity
  8
0
100
AcDbCircle
 62
7
  6
CONTINUOUS
 10
9.3879619565
 20
4.4462958075
 40
0.29375
100
AcDbArc
 50
157.2208244843
 51
157.7791755157
  0
ARC
  5
4F5
100
AcDbEntity
  8
0
100
AcDbCircle
 62
7
  6
CONTINUOUS
 10
9.3879619565
 20
4.4462958075
 40
0.29375
100
AcDbArc
 50
160.2208244843
 51
160.780848866
  0
ARC
  5
4F6
100
AcDbEntity
  8
0
100
AcDbCircle
 62
7
  6
CONTINUOUS
 10
9.3879619565
 20
4.4462958075
 40
0.29375
100
AcDbArc
 50
163.219151134
 51
163.7791755157
  0
ARC
  5
4F7
100
AcDbEntity
  8
0
100
AcDbCircle
 62
7
  6
CONTINUOUS
 10
9.3879619565
 20
4.4462958075
 40
0.29375
100
AcDbArc
 50
166.2208244843
 51
166.7791755157
  0
ARC
  5
4F8
100
AcDbEntity
  8
0
100
AcDbCircle
 62
7
  6
CONTINUOUS
 10
9.3879619565
 20
4.4462958075
 40
0.29375
100
AcDbArc
 50
169.2208244843
 51
169.7791755157
  0
ARC
  5
4F9
100
AcDbEntity
  8
0
100
AcDbCircle
 62
7
  6
CONTINUOUS
 10
9.3879619565
 20
4.4462958075
 40
0.29375
100
AcDbArc
 50
172.2208244843
 51
172.7791755157
  0
ARC
  5
4FA
100
AcDbEntity
  8
0
100
AcDbCircle
 62
7
  6
CONTINUOUS
 10
9.3879619565
 20
4.4462958075
 40
0.29375
100
AcDbArc
 50
175.2208244843
 51
175.7791755157
  0
ARC
  5
4FB
100
AcDbEntity
  8
0
100
AcDbCircle
 62
7
  6
CONTINUOUS
 10
9.3879619565
 20
4.4462958075
 40
0.29375
100
AcDbArc
 50
178.2208244843
 51
178.780848866
  0
ARC
  5
4FC
100
AcDbEntity
  8
0
100
AcDbCircle
 62
7
  6
CONTINUOUS
 10
9.3879619565
 20
4.4462958075
 40
0.29375
100
AcDbArc
 50
181.219151134
 51
181.7791755157
  0
ARC
  5
4FD
100
AcDbEntity
  8
0
100
AcDbCircle
 62
7
  6
CONTINUOUS
 10
9.3879619565
 20
4.4462958075
 40
0.29375
100
AcDbArc
 50
184.2208244843
 51
184.7791755157
  0
ARC
  5
4FE
100
AcDbEntity
  8
0
100
AcDbCircle
 62
7
  6
CONTINUOUS
 10
9.3879619565
 20
4.4462958075
 40
0.29375
100
AcDbArc
 50
187.2208244843
 51
187.7791755157
  0
ARC
  5
4FF
100
AcDbEntity
  8
0
100
AcDbCircle
 62
7
  6
CONTINUOUS
 10
9.3879619565
 20
4.4462958075
 40
0.29375
100
AcDbArc
 50
190.2208244843
 51
190.7791755157
  0
ARC
  5
500
100
AcDbEntity
  8
0
100
AcDbCircle
 62
7
  6
CONTINUOUS
 10
9.3879619565
 20
4.4462958075
 40
0.29375
100
AcDbArc
 50
193.2208244843
 51
193.7791755157
  0
ARC
  5
501
100
AcDbEntity
  8
0
100
AcDbCircle
 62
7
  6
CONTINUOUS
 10
9.3879619565
 20
4.4462958075
 40
0.29375
100
AcDbArc
 50
196.2208244843
 51
196.780848866
  0
ARC
  5
502
100
AcDbEntity
  8
0
100
AcDbCircle
 62
7
  6
CONTINUOUS
 10
9.3879619565
 20
4.4462958075
 40
0.29375
100
AcDbArc
 50
199.219151134
 51
199.7791755157
  0
ARC
  5
503
100
AcDbEntity
  8
0
100
AcDbCircle
 62
7
  6
CONTINUOUS
 10
9.3879619565
 20
4.4462958075
 40
0.29375
100
AcDbArc
 50
202.2208244843
 51
202.7791755157
  0
ARC
  5
504
100
AcDbEntity
  8
0
100
AcDbCircle
 62
7
  6
CONTINUOUS
 10
9.3879619565
 20
4.4462958075
 40
0.29375
100
AcDbArc
 50
205.2208244843
 51
205.7791755157
  0
ARC
  5
505
100
AcDbEntity
  8
0
100
AcDbCircle
 62
7
  6
CONTINUOUS
 10
9.3879619565
 20
4.4462958075
 40
0.29375
100
AcDbArc
 50
208.2208244843
 51
208.7791755157
  0
ARC
  5
506
100
AcDbEntity
  8
0
100
AcDbCircle
 62
7
  6
CONTINUOUS
 10
9.3879619565
 20
4.4462958075
 40
0.29375
100
AcDbArc
 50
211.2208244843
 51
211.7791755157
  0
ARC
  5
507
100
AcDbEntity
  8
0
100
AcDbCircle
 62
7
  6
CONTINUOUS
 10
9.3879619565
 20
4.4462958075
 40
0.29375
100
AcDbArc
 50
214.2208244843
 51
214.780848866
  0
ARC
  5
508
100
AcDbEntity
  8
0
100
AcDbCircle
 62
7
  6
CONTINUOUS
 10
9.3879619565
 20
4.4462958075
 40
0.29375
100
AcDbArc
 50
217.219151134
 51
217.7791755157
  0
ARC
  5
509
100
AcDbEntity
  8
0
100
AcDbCircle
 62
7
  6
CONTINUOUS
 10
9.3879619565
 20
4.4462958075
 40
0.29375
100
AcDbArc
 50
220.2208244843
 51
220.7791755157
  0
ARC
  5
50A
100
AcDbEntity
  8
0
100
AcDbCircle
 62
7
  6
CONTINUOUS
 10
9.3879619565
 20
4.4462958075
 40
0.29375
100
AcDbArc
 50
223.2208244843
 51
223.7791755157
  0
ARC
  5
50B
100
AcDbEntity
  8
0
100
AcDbCircle
 62
7
  6
CONTINUOUS
 10
9.3879619565
 20
4.4462958075
 40
0.29375
100
AcDbArc
 50
226.2208244843
 51
226.7791755157
  0
ARC
  5
50C
100
AcDbEntity
  8
0
100
AcDbCircle
 62
7
  6
CONTINUOUS
 10
9.3879619565
 20
4.4462958075
 40
0.29375
100
AcDbArc
 50
229.2208244843
 51
229.7791755157
  0
ARC
  5
50D
100
AcDbEntity
  8
0
100
AcDbCircle
 62
7
  6
CONTINUOUS
 10
9.3879619565
 20
4.4462958075
 40
0.29375
100
AcDbArc
 50
103.2208244843
 51
103.7791755157
  0
ARC
  5
50E
100
AcDbEntity
  8
0
100
AcDbCircle
 62
7
  6
CONTINUOUS
 10
9.3879619565
 20
4.4462958075
 40
0.29375
100
AcDbArc
 50
100.2208244843
 51
100.7791755157
  0
ARC
  5
50F
100
AcDbEntity
  8
0
100
AcDbCircle
 62
7
  6
CONTINUOUS
 10
9.3879619565
 20
4.4462958075
 40
0.29375
100
AcDbArc
 50
97.2208244843
 51
97.7791755157
  0
ARC
  5
510
100
AcDbEntity
  8
0
100
AcDbCircle
 62
7
  6
CONTINUOUS
 10
9.3879619565
 20
4.4462958075
 40
0.29375
100
AcDbArc
 50
94.2208244843
 51
94.7791755157
  0
ARC
  5
511
100
AcDbEntity
  8
0
100
AcDbCircle
 62
7
  6
CONTINUOUS
 10
9.3879619565
 20
4.4462958075
 40
0.29375
100
AcDbArc
 50
91.219151134
 51
91.7791755157
  0
ARC
  5
512
100
AcDbEntity
  8
0
100
AcDbCircle
 62
7
  6
CONTINUOUS
 10
9.3879619565
 20
4.4462958075
 40
0.29375
100
AcDbArc
 50
232.2208244843
 51
232.780848866
  0
ARC
  5
513
100
AcDbEntity
  8
0
100
AcDbCircle
 62
7
  6
CONTINUOUS
 10
9.3879619565
 20
4.4462958075
 40
0.29375
100
AcDbArc
 50
235.219151134
 51
235.7791755157
  0
ARC
  5
514
100
AcDbEntity
  8
0
100
AcDbCircle
 62
7
  6
CONTINUOUS
 10
9.3879619565
 20
4.4462958075
 40
0.29375
100
AcDbArc
 50
238.2208244843
 51
238.7791755157
  0
ARC
  5
515
100
AcDbEntity
  8
0
100
AcDbCircle
 62
7
  6
CONTINUOUS
 10
9.3879619565
 20
4.4462958075
 40
0.29375
100
AcDbArc
 50
241.2208244843
 51
241.7791755157
  0
ARC
  5
516
100
AcDbEntity
  8
0
100
AcDbCircle
 62
7
  6
CONTINUOUS
 10
9.3879619565
 20
4.4462958075
 40
0.29375
100
AcDbArc
 50
244.2208244843
 51
244.7791755157
  0
ARC
  5
517
100
AcDbEntity
  8
0
100
AcDbCircle
 62
7
  6
CONTINUOUS
 10
9.3879619565
 20
4.4462958075
 40
0.29375
100
AcDbArc
 50
247.2208244843
 51
247.7791755157
  0
ARC
  5
518
100
AcDbEntity
  8
0
100
AcDbCircle
 62
7
  6
CONTINUOUS
 10
9.3879619565
 20
4.4462958075
 40
0.29375
100
AcDbArc
 50
250.2208244843
 51
250.780848866
  0
ARC
  5
519
100
AcDbEntity
  8
0
100
AcDbCircle
 62
7
  6
CONTINUOUS
 10
9.3879619565
 20
4.4462958075
 40
0.29375
100
AcDbArc
 50
253.219151134
 51
253.7791755157
  0
ARC
  5
51A
100
AcDbEntity
  8
0
100
AcDbCircle
 62
7
  6
CONTINUOUS
 10
9.3879619565
 20
4.4462958075
 40
0.29375
100
AcDbArc
 50
256.2208244843
 51
256.7791755157
  0
ARC
  5
51B
100
AcDbEntity
  8
0
100
AcDbCircle
 62
7
  6
CONTINUOUS
 10
9.3879619565
 20
4.4462958075
 40
0.29375
100
AcDbArc
 50
259.2208244843
 51
259.7791755157
  0
ARC
  5
51C
100
AcDbEntity
  8
0
100
AcDbCircle
 62
7
  6
CONTINUOUS
 10
9.3879619565
 20
4.4462958075
 40
0.29375
100
AcDbArc
 50
262.2208244843
 51
262.7791755157
  0
ARC
  5
51D
100
AcDbEntity
  8
0
100
AcDbCircle
 62
7
  6
CONTINUOUS
 10
9.3879619565
 20
4.4462958075
 40
0.29375
100
AcDbArc
 50
265.2208244843
 51
265.7791755157
  0
ARC
  5
51E
100
AcDbEntity
  8
0
100
AcDbCircle
 62
7
  6
CONTINUOUS
 10
9.3879619565
 20
4.4462958075
 40
0.29375
100
AcDbArc
 50
268.2208244843
 51
268.780848866
  0
ARC
  5
51F
100
AcDbEntity
  8
0
100
AcDbCircle
 62
7
  6
CONTINUOUS
 10
9.3879619565
 20
4.4462958075
 40
0.29375
100
AcDbArc
 50
271.219151134
 51
271.7791755157
  0
ARC
  5
520
100
AcDbEntity
  8
0
100
AcDbCircle
 62
7
  6
CONTINUOUS
 10
9.3879619565
 20
4.4462958075
 40
0.29375
100
AcDbArc
 50
274.2208244843
 51
274.7791755157
  0
ARC
  5
521
100
AcDbEntity
  8
0
100
AcDbCircle
 62
7
  6
CONTINUOUS
 10
9.3879619565
 20
4.4462958075
 40
0.29375
100
AcDbArc
 50
277.2208244843
 51
277.7791755157
  0
ARC
  5
522
100
AcDbEntity
  8
0
100
AcDbCircle
 62
7
  6
CONTINUOUS
 10
9.3879619565
 20
4.4462958075
 40
0.29375
100
AcDbArc
 50
280.2208244843
 51
280.7791755157
  0
ARC
  5
523
100
AcDbEntity
  8
0
100
AcDbCircle
 62
7
  6
CONTINUOUS
 10
9.3879619565
 20
4.4462958075
 40
0.29375
100
AcDbArc
 50
283.2208244843
 51
283.7791755157
  0
ARC
  5
524
100
AcDbEntity
  8
0
100
AcDbCircle
 62
7
  6
CONTINUOUS
 10
9.3879619565
 20
4.4462958075
 40
0.29375
100
AcDbArc
 50
286.2208244843
 51
286.780848866
  0
ARC
  5
525
100
AcDbEntity
  8
0
100
AcDbCircle
 62
7
  6
CONTINUOUS
 10
9.3879619565
 20
4.4462958075
 40
0.29375
100
AcDbArc
 50
289.219151134
 51
289.7791755157
  0
ARC
  5
526
100
AcDbEntity
  8
0
100
AcDbCircle
 62
7
  6
CONTINUOUS
 10
9.3879619565
 20
4.4462958075
 40
0.29375
100
AcDbArc
 50
292.2208244843
 51
292.7791755157
  0
ARC
  5
527
100
AcDbEntity
  8
0
100
AcDbCircle
 62
7
  6
CONTINUOUS
 10
9.3879619565
 20
4.4462958075
 40
0.29375
100
AcDbArc
 50
295.2208244843
 51
295.7791755157
  0
ARC
  5
528
100
AcDbEntity
  8
0
100
AcDbCircle
 62
7
  6
CONTINUOUS
 10
9.3879619565
 20
4.4462958075
 40
0.29375
100
AcDbArc
 50
298.2208244843
 51
298.7791755157
  0
ARC
  5
529
100
AcDbEntity
  8
0
100
AcDbCircle
 62
7
  6
CONTINUOUS
 10
9.3879619565
 20
4.4462958075
 40
0.29375
100
AcDbArc
 50
301.2208244843
 51
301.7791755157
  0
ARC
  5
52A
100
AcDbEntity
  8
0
100
AcDbCircle
 62
7
  6
CONTINUOUS
 10
9.3879619565
 20
4.4462958075
 40
0.29375
100
AcDbArc
 50
304.2208244843
 51
304.780848866
  0
ARC
  5
52B
100
AcDbEntity
  8
0
100
AcDbCircle
 62
7
  6
CONTINUOUS
 10
9.3879619565
 20
4.4462958075
 40
0.29375
100
AcDbArc
 50
307.219151134
 51
307.7791755157
  0
ARC
  5
52C
100
AcDbEntity
  8
0
100
AcDbCircle
 62
7
  6
CONTINUOUS
 10
9.3879619565
 20
4.4462958075
 40
0.29375
100
AcDbArc
 50
310.2208244843
 51
310.7791755157
  0
ARC
  5
52D
100
AcDbEntity
  8
0
100
AcDbCircle
 62
7
  6
CONTINUOUS
 10
9.3879619565
 20
4.4462958075
 40
0.29375
100
AcDbArc
 50
313.2208244843
 51
313.7791755157
  0
ARC
  5
52E
100
AcDbEntity
  8
0
100
AcDbCircle
 62
7
  6
CONTINUOUS
 10
9.3879619565
 20
4.4462958075
 40
0.29375
100
AcDbArc
 50
316.2208244843
 51
316.7791755157
  0
ARC
  5
52F
100
AcDbEntity
  8
0
100
AcDbCircle
 62
7
  6
CONTINUOUS
 10
9.3879619565
 20
4.4462958075
 40
0.29375
100
AcDbArc
 50
319.2208244843
 51
319.7791755157
  0
ARC
  5
530
100
AcDbEntity
  8
0
100
AcDbCircle
 62
7
  6
CONTINUOUS
 10
9.3879619565
 20
4.4462958075
 40
0.29375
100
AcDbArc
 50
322.2208244843
 51
322.780848866
  0
ARC
  5
531
100
AcDbEntity
  8
0
100
AcDbCircle
 62
7
  6
CONTINUOUS
 10
9.3879619565
 20
4.4462958075
 40
0.29375
100
AcDbArc
 50
325.219151134
 51
325.7791755157
  0
ARC
  5
532
100
AcDbEntity
  8
0
100
AcDbCircle
 62
7
  6
CONTINUOUS
 10
9.3879619565
 20
4.4462958075
 40
0.29375
100
AcDbArc
 50
328.2208244843
 51
328.7791755157
  0
ARC
  5
533
100
AcDbEntity
  8
0
100
AcDbCircle
 62
7
  6
CONTINUOUS
 10
9.3879619565
 20
4.4462958075
 40
0.29375
100
AcDbArc
 50
331.2208244843
 51
331.7791755157
  0
ARC
  5
534
100
AcDbEntity
  8
0
100
AcDbCircle
 62
7
  6
CONTINUOUS
 10
9.3879619565
 20
4.4462958075
 40
0.29375
100
AcDbArc
 50
334.2208244843
 51
334.7791755157
  0
ARC
  5
535
100
AcDbEntity
  8
0
100
AcDbCircle
 62
7
  6
CONTINUOUS
 10
9.3879619565
 20
4.4462958075
 40
0.29375
100
AcDbArc
 50
337.2208244843
 51
337.7791755157
  0
ARC
  5
536
100
AcDbEntity
  8
0
100
AcDbCircle
 62
7
  6
CONTINUOUS
 10
9.3879619565
 20
4.4462958075
 40
0.29375
100
AcDbArc
 50
340.2208244843
 51
340.780848866
  0
ARC
  5
537
100
AcDbEntity
  8
0
100
AcDbCircle
 62
7
  6
CONTINUOUS
 10
9.3879619565
 20
4.4462958075
 40
0.29375
100
AcDbArc
 50
343.219151134
 51
343.7791755157
  0
ARC
  5
538
100
AcDbEntity
  8
0
100
AcDbCircle
 62
7
  6
CONTINUOUS
 10
9.3879619565
 20
4.4462958075
 40
0.29375
100
AcDbArc
 50
346.2208244843
 51
346.7791755157
  0
ARC
  5
539
100
AcDbEntity
  8
0
100
AcDbCircle
 62
7
  6
CONTINUOUS
 10
9.3879619565
 20
4.4462958075
 40
0.29375
100
AcDbArc
 50
349.2208244843
 51
349.7791755157
  0
ARC
  5
53A
100
AcDbEntity
  8
0
100
AcDbCircle
 62
7
  6
CONTINUOUS
 10
9.3879619565
 20
4.4462958075
 40
0.29375
100
AcDbArc
 50
352.2208244843
 51
352.7791755157
  0
ARC
  5
53B
100
AcDbEntity
  8
0
100
AcDbCircle
 62
7
  6
CONTINUOUS
 10
9.3879619565
 20
4.4462958075
 40
0.29375
100
AcDbArc
 50
355.2208244843
 51
355.7791755157
  0
ARC
  5
53C
100
AcDbEntity
  8
0
100
AcDbCircle
 62
7
  6
CONTINUOUS
 10
9.3879619565
 20
4.4462958075
 40
0.29375
100
AcDbArc
 50
358.2208244843
 51
358.780848866
  0
ARC
  5
53D
100
AcDbEntity
  8
0
100
AcDbCircle
 62
7
  6
CONTINUOUS
 10
9.3879619565
 20
4.4462958075
 40
0.29375
100
AcDbArc
 50
1.219151134
 51
1.7791755157
  0
ARC
  5
53E
100
AcDbEntity
  8
0
100
AcDbCircle
 62
7
  6
CONTINUOUS
 10
9.3879619565
 20
4.4462958075
 40
0.29375
100
AcDbArc
 50
4.2208244843
 51
4.7791755157
  0
ARC
  5
53F
100
AcDbEntity
  8
0
100
AcDbCircle
 62
7
  6
CONTINUOUS
 10
9.3879619565
 20
4.4462958075
 40
0.29375
100
AcDbArc
 50
7.2208244843
 51
7.7791755157
  0
ARC
  5
540
100
AcDbEntity
  8
0
100
AcDbCircle
 62
7
  6
CONTINUOUS
 10
9.3879619565
 20
4.4462958075
 40
0.29375
100
AcDbArc
 50
10.2208244843
 51
10.7791755157
  0
ARC
  5
541
100
AcDbEntity
  8
0
100
AcDbCircle
 62
7
  6
CONTINUOUS
 10
9.3879619565
 20
4.4462958075
 40
0.29375
100
AcDbArc
 50
13.2208244843
 51
13.7791755157
  0
ARC
  5
542
100
AcDbEntity
  8
0
100
AcDbCircle
 62
7
  6
CONTINUOUS
 10
9.3879619565
 20
4.4462958075
 40
0.29375
100
AcDbArc
 50
16.2208244843
 51
16.780848866
  0
ARC
  5
543
100
AcDbEntity
  8
0
100
AcDbCircle
 62
7
  6
CONTINUOUS
 10
9.3879619565
 20
4.4462958075
 40
0.29375
100
AcDbArc
 50
19.219151134
 51
19.7791755157
  0
ARC
  5
544
100
AcDbEntity
  8
0
100
AcDbCircle
 62
7
  6
CONTINUOUS
 10
9.3879619565
 20
4.4462958075
 40
0.29375
100
AcDbArc
 50
22.2208244843
 51
22.7791755157
  0
ARC
  5
545
100
AcDbEntity
  8
0
100
AcDbCircle
 62
7
  6
CONTINUOUS
 10
9.3879619565
 20
4.4462958075
 40
0.29375
100
AcDbArc
 50
25.2208244843
 51
25.7791755157
  0
ARC
  5
546
100
AcDbEntity
  8
0
100
AcDbCircle
 62
7
  6
CONTINUOUS
 10
9.3879619565
 20
4.4462958075
 40
0.29375
100
AcDbArc
 50
28.2208244843
 51
28.7791755157
  0
ARC
  5
547
100
AcDbEntity
  8
0
100
AcDbCircle
 62
7
  6
CONTINUOUS
 10
9.3879619565
 20
4.4462958075
 40
0.29375
100
AcDbArc
 50
31.2208244843
 51
31.7791755157
  0
ARC
  5
548
100
AcDbEntity
  8
0
100
AcDbCircle
 62
7
  6
CONTINUOUS
 10
9.3879619565
 20
4.4462958075
 40
0.29375
100
AcDbArc
 50
34.2208244843
 51
34.780848866
  0
ARC
  5
549
100
AcDbEntity
  8
0
100
AcDbCircle
 62
7
  6
CONTINUOUS
 10
9.3879619565
 20
4.4462958075
 40
0.29375
100
AcDbArc
 50
37.219151134
 51
37.7791755157
  0
ARC
  5
54A
100
AcDbEntity
  8
0
100
AcDbCircle
 62
7
  6
CONTINUOUS
 10
9.3879619565
 20
4.4462958075
 40
0.29375
100
AcDbArc
 50
40.2208244843
 51
40.7791755157
  0
ARC
  5
54B
100
AcDbEntity
  8
0
100
AcDbCircle
 62
7
  6
CONTINUOUS
 10
9.3879619565
 20
4.4462958075
 40
0.29375
100
AcDbArc
 50
43.2208244843
 51
43.7791755157
  0
ARC
  5
54C
100
AcDbEntity
  8
0
100
AcDbCircle
 62
7
  6
CONTINUOUS
 10
9.3879619565
 20
4.4462958075
 40
0.29375
100
AcDbArc
 50
46.2208244843
 51
46.7791755157
  0
ARC
  5
54D
100
AcDbEntity
  8
0
100
AcDbCircle
 62
7
  6
CONTINUOUS
 10
9.3879619565
 20
4.4462958075
 40
0.29375
100
AcDbArc
 50
49.2208244843
 51
49.7791755157
  0
ARC
  5
54E
100
AcDbEntity
  8
0
100
AcDbCircle
 62
7
  6
CONTINUOUS
 10
9.3879619565
 20
4.4462958075
 40
0.29375
100
AcDbArc
 50
52.2208244843
 51
52.780848866
  0
ARC
  5
54F
100
AcDbEntity
  8
0
100
AcDbCircle
 62
7
  6
CONTINUOUS
 10
9.3879619565
 20
4.4462958075
 40
0.29375
100
AcDbArc
 50
55.219151134
 51
55.7791755157
  0
ARC
  5
550
100
AcDbEntity
  8
0
100
AcDbCircle
 62
7
  6
CONTINUOUS
 10
9.3879619565
 20
4.4462958075
 40
0.29375
100
AcDbArc
 50
58.2208244843
 51
58.7791755157
  0
ARC
  5
551
100
AcDbEntity
  8
0
100
AcDbCircle
 62
7
  6
CONTINUOUS
 10
9.3879619565
 20
4.4462958075
 40
0.29375
100
AcDbArc
 50
61.2208244843
 51
61.7791755157
  0
ARC
  5
552
100
AcDbEntity
  8
0
100
AcDbCircle
 62
7
  6
CONTINUOUS
 10
9.3879619565
 20
4.4462958075
 40
0.29375
100
AcDbArc
 50
64.2208244843
 51
64.7791755157
  0
ARC
  5
553
100
AcDbEntity
  8
0
100
AcDbCircle
 62
7
  6
CONTINUOUS
 10
9.3879619565
 20
4.4462958075
 40
0.29375
100
AcDbArc
 50
67.2208244843
 51
67.7791755157
  0
ARC
  5
554
100
AcDbEntity
  8
0
100
AcDbCircle
 62
7
  6
CONTINUOUS
 10
9.3879619565
 20
4.4462958075
 40
0.29375
100
AcDbArc
 50
70.2208244843
 51
70.780848866
  0
ARC
  5
555
100
AcDbEntity
  8
0
100
AcDbCircle
 62
7
  6
CONTINUOUS
 10
9.3879619565
 20
4.4462958075
 40
0.29375
100
AcDbArc
 50
73.219151134
 51
73.7791755157
  0
ARC
  5
556
100
AcDbEntity
  8
0
100
AcDbCircle
 62
7
  6
CONTINUOUS
 10
9.3879619565
 20
4.4462958075
 40
0.29375
100
AcDbArc
 50
76.2208244843
 51
76.7791755157
  0
ARC
  5
557
100
AcDbEntity
  8
0
100
AcDbCircle
 62
7
  6
CONTINUOUS
 10
9.3879619565
 20
4.4462958075
 40
0.29375
100
AcDbArc
 50
79.2208244843
 51
79.7791755157
  0
ARC
  5
558
100
AcDbEntity
  8
0
100
AcDbCircle
 62
7
  6
CONTINUOUS
 10
9.3879619565
 20
4.4462958075
 40
0.29375
100
AcDbArc
 50
82.2208244843
 51
82.7791755157
  0
ARC
  5
559
100
AcDbEntity
  8
0
100
AcDbCircle
 62
7
  6
CONTINUOUS
 10
9.3879619565
 20
4.4462958075
 40
0.29375
100
AcDbArc
 50
85.2208244843
 51
85.7791755157
  0
ARC
  5
55A
100
AcDbEntity
  8
0
100
AcDbCircle
 62
7
  6
CONTINUOUS
 10
9.3879619565
 20
4.4462958075
 40
0.29375
100
AcDbArc
 50
88.2208244843
 51
88.780848866
  0
CIRCLE
  5
55B
100
AcDbEntity
  8
0
100
AcDbCircle
 62
7
  6
CONTINUOUS
 10
9.3879619565
 20
4.4462958075
 40
0.2775
  0
CIRCLE
  5
55C
100
AcDbEntity
  8
0
100
AcDbCircle
 62
7
  6
CONTINUOUS
 10
9.3879619565
 20
4.4462958075
 40
0.2766395935
  0
CIRCLE
  5
55D
100
AcDbEntity
  8
0
100
AcDbCircle
 62
7
  6
CONTINUOUS
 10
9.3879619565
 20
4.4462958075
 40
0.2264874498
  0
CIRCLE
  5
55E
100
AcDbEntity
  8
0
100
AcDbCircle
 62
7
  6
CONTINUOUS
 10
9.3879619565
 20
4.4462958075
 40
0.2223478564
  0
CIRCLE
  5
55F
100
AcDbEntity
  8
0
100
AcDbCircle
 62
7
  6
CONTINUOUS
 10
9.3879619565
 20
4.4462958075
 40
0.2067928977
  0
CIRCLE
  5
560
100
AcDbEntity
  8
0
100
AcDbCircle
 62
7
  6
CONTINUOUS
 10
9.3879619565
 20
4.4462958075
 40
0.2037155146
  0
CIRCLE
  5
561
100
AcDbEntity
  8
0
100
AcDbCircle
 62
7
  6
CONTINUOUS
 10
9.4569675421
 20
4.5153014179
 40
0.0097939912
  0
CIRCLE
  5
562
100
AcDbEntity
  8
0
100
AcDbCircle
 62
7
  6
CONTINUOUS
 10
9.5463672694
 20
4.4462958002
 40
0.0103635969
  0
CIRCLE
  5
563
100
AcDbEntity
  8
0
100
AcDbCircle
 62
7
  6
CONTINUOUS
 10
9.4855502454
 20
4.4462956992
 40
0.0097937627
  0
CIRCLE
  5
564
100
AcDbEntity
  8
0
100
AcDbCircle
 62
7
  6
CONTINUOUS
 10
9.5343064938
 20
4.506911788
 40
0.0103675275
  0
CIRCLE
  5
565
100
AcDbEntity
  8
0
100
AcDbCircle
 62
7
  6
CONTINUOUS
 10
9.4999699477
 20
4.558301301
 40
0.0103675275
  0
CIRCLE
  5
566
100
AcDbEntity
  8
0
100
AcDbCircle
 62
7
  6
CONTINUOUS
 10
9.4485811994
 20
4.5926389916
 40
0.0103675274
  0
ARC
  5
567
100
AcDbEntity
  8
0
100
AcDbCircle
 62
7
  6
CONTINUOUS
 10
9.3879637223
 20
4.6046972599
 40
0.0103675274
100
AcDbArc
 50
78.0797938437
 51
259.4381378262
  0
ARC
  5
568
100
AcDbEntity
  8
0
100
AcDbCircle
 62
7
  6
CONTINUOUS
 10
9.3879619707
 20
4.5438850953
 40
0.0097939931
100
AcDbArc
 50
30.6274723015
 51
211.7144763582
  0
LINE
  5
569
100
AcDbEntity
  8
0
100
AcDbLine
 62
7
  6
CONTINUOUS
 10
6.2974619565
 20
3.7866516462
 11
6.2247732937
 21
3.7741828088
  0
LINE
  5
56A
100
AcDbEntity
  8
0
100
AcDbLine
 62
7
  6
CONTINUOUS
 10
6.3853837177
 20
3.7920282545
 11
6.3693205354
 21
3.7910607897
  0
LINE
  5
56B
100
AcDbEntity
  8
0
100
AcDbLine
 62
7
  6
CONTINUOUS
 10
6.3693205354
 20
3.7910607897
 11
6.3681341892
 21
3.7909967294
  0
LINE
  5
56C
100
AcDbEntity
  8
0
100
AcDbLine
 62
7
  6
CONTINUOUS
 10
6.3257352326
 20
3.7887561384
 11
6.3090455833
 21
3.7880027857
  0
SPLINE
  5
56D
100
AcDbEntity
  8
0
100
AcDbSpline
 62
7
  6
CONTINUOUS
 70
0
 71
3
 72
46
 73
42
 74
0
 42
0.0000001
 43
0.0000001
 44
0.0000000001
 40
0.0
 40
0.0
 40
0.0
 40
0.0
 40
0.0847706981
 40
0.1682955334
 40
0.2493543468
 40
0.3267788978
 40
0.3637848292
 40
0.3994828033
 40
0.4337554762
 40
0.4664956927
 40
0.4976085883
 40
0.5270144317
 40
0.5546526473
 40
0.5804878591
 40
0.604519281
 40
0.6267956865
 40
0.6474438693
 40
0.6667177264
 40
0.6759750456
 40
0.6850929555
 40
0.6941942704
 40
0.7034451604
 40
0.7130685654
 40
0.7233498518
 40
0.7346253065
 40
0.7472257138
 40
0.7613624295
 40
0.7770130482
 40
0.7939291009
 40
0.811754491
 40
0.8301527304
 40
0.8488478887
 40
0.867610353
 40
0.8862228357
 40
0.9044428075
 40
0.9219686505
 40
0.9384476805
 40
0.9535467816
 40
0.9670917632
 40
0.9791573043
 40
1.0
 40
1.0
 40
1.0
 40
1.0
 10
4.3879619565
 20
5.5659958359
 30
0.0
 10
4.379614558
 20
5.5659958359
 30
0.0
 10
4.3630423015
 20
5.5659071802
 30
0.0
 10
4.3384910371
 20
5.5655092354
 30
0.0
 10
4.3146689354
 20
5.5648523793
 30
0.0
 10
4.2954336908
 20
5.5640861954
 30
0.0
 10
4.2806690518
 20
5.5633434429
 30
0.0
 10
4.270152435
 20
5.5627363503
 30
0.0
 10
4.2600601448
 20
5.5620726595
 30
0.0
 10
4.2504242856
 20
5.561354089
 30
0.0
 10
4.2412733792
 20
5.5605822311
 30
0.0
 10
4.2326315283
 20
5.5597583093
 30
0.0
 10
4.2245172303
 20
5.5588828448
 30
0.0
 10
4.2169415929
 20
5.5579550758
 30
0.0
 10
4.2099056085
 20
5.5569718836
 30
0.0
 10
4.2033953478
 20
5.5559258444
 30
0.0
 10
4.1973740738
 20
5.5548009898
 30
0.0
 10
4.1926437718
 20
5.5537576131
 30
0.0
 10
4.1890513027
 20
5.5528407015
 30
0.0
 10
4.1864473115
 20
5.5521048253
 30
0.0
 10
4.1838672439
 20
5.5512906682
 30
0.0
 10
4.1812712991
 20
5.5503666505
 30
0.0
 10
4.1786108733
 20
5.5492844853
 30
0.0
 10
4.1758327117
 20
5.5479729363
 30
0.0
 10
4.1728930639
 20
5.5463319832
 30
0.0
 10
4.1697855926
 20
5.5442355701
 30
0.0
 10
4.1665770062
 20
5.5415522278
 30
0.0
 10
4.163425184
 20
5.5381851473
 30
0.0
 10
4.1605572508
 20
5.5341140598
 30
0.0
 10
4.1582149539
 20
5.5294107966
 30
0.0
 10
4.1566011632
 20
5.5242239287
 30
0.0
 10
4.1558517208
 20
5.5187490885
 30
0.0
 10
4.156027798
 20
5.5132045556
 30
0.0
 10
4.1571149477
 20
5.5078132991
 30
0.0
 10
4.1590242519
 20
5.5027876988
 30
0.0
 10
4.1615923128
 20
5.4983088844
 30
0.0
 10
4.1645969809
 20
5.4945000022
 30
0.0
 10
4.1677945437
 20
5.4913984197
 30
0.0
 10
4.1709790394
 20
5.4889511044
 30
0.0
 10
4.1748599407
 20
5.4865206791
 30
0.0
 10
4.177791337
 20
5.4851133016
 30
0.0
 10
4.1796873469
 20
5.4843275284
 30
0.0
  0
SPLINE
  5
56E
100
AcDbEntity
  8
0
100
AcDbSpline
 62
7
  6
CONTINUOUS
 70
0
 71
3
 72
43
 73
39
 74
0
 42
0.0000001
 43
0.0000001
 44
0.0000000001
 40
0.0
 40
0.0
 40
0.0
 40
0.0
 40
0.0084148673
 40
0.0167051945
 40
0.0248457955
 40
0.0327696781
 40
0.0477670628
 40
0.0614109447
 40
0.0676851326
 40
0.0736018612
 40
0.0791797424
 40
0.0844532581
 40
0.0942297088
 40
0.0988120746
 40
0.1032390421
 40
0.1117523505
 40
0.1199965496
 40
0.1281418069
 40
0.1363196968
 40
0.1446271098
 40
0.1531378045
 40
0.1709746347
 40
0.1901291917
 40
0.2107704105
 40
0.2329908423
 40
0.2568317742
 40
0.2823030246
 40
0.3093918892
 40
0.3380682589
 40
0.3682889606
 40
0.4331411215
 40
0.503427386
 40
0.5785258045
 40
0.6577384539
 40
0.7403089083
 40
0.8254356826
 40
0.912284126
 40
1.0
 40
1.0
 40
1.0
 40
1.0
 10
4.213968425
 20
5.1378180818
 30
0.0
 10
4.2140190384
 20
5.1373065076
 30
0.0
 10
4.2141663166
 20
5.1362949084
 30
0.0
 10
4.2145222033
 20
5.1348173698
 30
0.0
 10
4.2149982596
 20
5.1334055894
 30
0.0
 10
4.2157592698
 20
5.1316651486
 30
0.0
 10
4.2169027433
 20
5.1297343418
 30
0.0
 10
4.2182545973
 20
5.1280752899
 30
0.0
 10
4.2193674238
 20
5.1269549934
 30
0.0
 10
4.2201767003
 20
5.1262306485
 30
0.0
 10
4.2209750806
 20
5.1255881141
 30
0.0
 10
4.2219943425
 20
5.1248464527
 30
0.0
 10
4.2230075028
 20
5.1242019117
 30
0.0
 10
4.2240081053
 20
5.1236396114
 30
0.0
 10
4.224957063
 20
5.1231438982
 30
0.0
 10
4.2261294004
 20
5.1225941942
 30
0.0
 10
4.2275355054
 20
5.1220122944
 30
0.0
 10
4.2289440033
 20
5.1214930422
 30
0.0
 10
4.2303720655
 20
5.1210182563
 30
0.0
 10
4.2318340863
 20
5.1205768639
 30
0.0
 10
4.2338748848
 20
5.120013011
 30
0.0
 10
4.2365767548
 20
5.1193566419
 30
0.0
 10
4.2400230086
 20
5.1186337955
 30
0.0
 10
4.2437497419
 20
5.1179499157
 30
0.0
 10
4.2477723116
 20
5.1172973532
 30
0.0
 10
4.2520975739
 20
5.1166724066
 30
0.0
 10
4.2567265076
 20
5.1160732106
 30
0.0
 10
4.2616561193
 20
5.1154991179
 30
0.0
 10
4.2668804105
 20
5.1149501192
 30
0.0
 10
4.274406596
 20
5.1142352901
 30
0.0
 10
4.2844759251
 20
5.1134179591
 30
0.0
 10
4.2972917157
 20
5.1125682031
 30
0.0
 10
4.3109933132
 20
5.1118352295
 30
0.0
 10
4.3254520497
 20
5.1112256101
 30
0.0
 10
4.34052859
 20
5.1107451703
 30
0.0
 10
4.3560753788
 20
5.1103985669
 30
0.0
 10
4.3719389624
 20
5.1101892197
 30
0.0
 10
4.3826033145
 20
5.1101426201
 30
0.0
 10
4.3879619565
 20
5.1101426201
 30
0.0
  0
SPLINE
  5
56F
100
AcDbEntity
  8
0
100
AcDbSpline
 62
7
  6
CONTINUOUS
 70
0
 71
3
 72
47
 73
43
 74
0
 42
0.0000001
 43
0.0000001
 44
0.0000000001
 40
0.0
 40
0.0
 40
0.0
 40
0.0
 40
0.0099948898
 40
0.0208530738
 40
0.0329179807
 40
0.0464616235
 40
0.0615587592
 40
0.0780351854
 40
0.0955582507
 40
0.113775673
 40
0.1323867376
 40
0.1511487709
 40
0.1698447137
 40
0.1882447245
 40
0.206071833
 40
0.2229904068
 40
0.2386428639
 40
0.2527808333
 40
0.2653815945
 40
0.2766573714
 40
0.2869385968
 40
0.291813513
 40
0.2965629472
 40
0.3058137511
 40
0.3149145165
 40
0.3332883867
 40
0.3525621985
 40
0.3732103571
 40
0.3954867964
 40
0.4195181024
 40
0.4453531602
 40
0.4729911878
 40
0.5023968096
 40
0.5335094488
 40
0.5662493747
 40
0.600521724
 40
0.6362193429
 40
0.6732248897
 40
0.7506485939
 40
0.8317064766
 40
0.9152303243
 40
1.0
 40
1.0
 40
1.0
 40
1.0
 10
4.5962373847
 20
5.4843278119
 30
0.0
 10
4.5971465815
 20
5.4847046722
 30
0.0
 10
4.5990234402
 20
5.4855407109
 30
0.0
 10
4.6018984517
 20
5.4870432832
 30
0.0
 10
4.6049456137
 20
5.488951549
 30
0.0
 10
4.6081295635
 20
5.4913986509
 30
0.0
 10
4.6113267945
 20
5.494499864
 30
0.0
 10
4.6143310261
 20
5.4983081718
 30
0.0
 10
4.6168990099
 20
5.5027861689
 30
0.0
 10
4.6188082451
 20
5.5078111157
 30
0.0
 10
4.6198958154
 20
5.5132018662
 30
0.0
 10
4.6200723576
 20
5.5187463273
 30
0.0
 10
4.619323254
 20
5.5242214528
 30
0.0
 10
4.617709842
 20
5.5294089332
 30
0.0
 10
4.6153673129
 20
5.5341127901
 30
0.0
 10
4.6124992563
 20
5.5381845609
 30
0.0
 10
4.6093470631
 20
5.5415521091
 30
0.0
 10
4.6061382214
 20
5.5442357094
 30
0.0
 10
4.6030305527
 20
5.5463322483
 30
0.0
 10
4.6000907831
 20
5.5479730646
 30
0.0
 10
4.5977356758
 20
5.5490851338
 30
0.0
 10
4.5959295365
 20
5.5498470839
 30
0.0
 10
4.5941999371
 20
5.5505280263
 30
0.0
 10
4.5920561505
 20
5.5512908663
 30
0.0
 10
4.5886067772
 20
5.5523791267
 30
0.0
 10
4.5841561969
 20
5.5535642541
 30
0.0
 10
4.5785494122
 20
5.5548011239
 30
0.0
 10
4.5725279719
 20
5.5559259331
 30
0.0
 10
4.5660177148
 20
5.5569719763
 30
0.0
 10
4.558981694
 20
5.5579551566
 30
0.0
 10
4.5514060537
 20
5.5588829176
 30
0.0
 10
4.5432917555
 20
5.5597583727
 30
0.0
 10
4.5346499125
 20
5.5605822867
 30
0.0
 10
4.5254990206
 20
5.5613541369
 30
0.0
 10
4.5158631831
 20
5.5620727003
 30
0.0
 10
4.5057709213
 20
5.5627363845
 30
0.0
 10
4.4952543395
 20
5.5633434709
 30
0.0
 10
4.480489759
 20
5.5640862156
 30
0.0
 10
4.4612546003
 20
5.5648523914
 30
0.0
 10
4.4374326137
 20
5.5655092406
 30
0.0
 10
4.4128814771
 20
5.5659071811
 30
0.0
 10
4.3963093093
 20
5.5659958359
 30
0.0
 10
4.3879619565
 20
5.5659958359
 30
0.0
  0
SPLINE
  5
570
100
AcDbEntity
  8
0
100
AcDbSpline
 62
7
  6
CONTINUOUS
 70
0
 71
3
 72
42
 73
38
 74
0
 42
0.0000001
 43
0.0000001
 44
0.0000000001
 40
0.0
 40
0.0
 40
0.0
 40
0.0
 40
0.0877173104
 40
0.1745671684
 40
0.259695295
 40
0.3422670196
 40
0.4214808293
 40
0.4965802799
 40
0.566867419
 40
0.6317202982
 40
0.6619412852
 40
0.6906178921
 40
0.717706974
 40
0.7431783883
 40
0.7670193877
 40
0.7892398315
 40
0.8098810484
 40
0.8290354639
 40
0.8381046121
 40
0.8468728989
 40
0.8553840218
 40
0.8636910385
 40
0.8718695257
 40
0.8800146001
 40
0.8967683232
 40
0.9057759655
 40
0.9105504429
 40
0.9155549214
 40
0.9208275487
 40
0.9264068551
 40
0.9385926114
 40
0.9522349208
 40
0.9672316118
 40
0.9751545664
 40
0.9832939715
 40
0.9915874861
 40
1.0
 40
1.0
 40
1.0
 40
1.0
 10
4.3879619565
 20
5.1101426201
 30
0.0
 10
4.3933206417
 20
5.1101426201
 30
0.0
 10
4.4039850793
 20
5.1101892205
 30
0.0
 10
4.4198487876
 20
5.110398571
 30
0.0
 10
4.4353956936
 20
5.11074518
 30
0.0
 10
4.4504723394
 20
5.1112256272
 30
0.0
 10
4.4649311667
 20
5.1118352561
 30
0.0
 10
4.478632837
 20
5.1125682408
 30
0.0
 10
4.4914486803
 20
5.1134180095
 30
0.0
 10
4.5015180394
 20
5.1142353526
 30
0.0
 10
4.5090442368
 20
5.1149501926
 30
0.0
 10
4.5142685288
 20
5.1154991987
 30
0.0
 10
4.5191981356
 20
5.1160733005
 30
0.0
 10
4.5238270579
 20
5.1166725039
 30
0.0
 10
4.5281522931
 20
5.1172974623
 30
0.0
 10
4.5321748466
 20
5.1179500165
 30
0.0
 10
4.5359014883
 20
5.118633966
 30
0.0
 10
4.538823562
 20
5.1192467061
 30
0.0
 10
4.5410234877
 20
5.1197640867
 30
0.0
 10
4.5425836237
 20
5.1201606359
 30
0.0
 10
4.5440903464
 20
5.120577076
 30
0.0
 10
4.5455523979
 20
5.1210183954
 30
0.0
 10
4.5469804779
 20
5.1214932698
 30
0.0
 10
4.5488765546
 20
5.1221924018
 30
0.0
 10
4.5507775973
 20
5.1230239289
 30
0.0
 10
4.5524196366
 20
5.1239117998
 30
0.0
 10
4.5533996549
 20
5.1245095366
 30
0.0
 10
4.5541660145
 20
5.125018117
 30
0.0
 10
4.55494915
 20
5.1255888415
 30
0.0
 10
4.5560464198
 20
5.1264708636
 30
0.0
 10
4.5574413099
 20
5.1277951533
 30
0.0
 10
4.5590213463
 20
5.1297346411
 30
0.0
 10
4.5601648145
 20
5.1316653986
 30
0.0
 10
4.5609256596
 20
5.1334056763
 30
0.0
 10
4.5614018371
 20
5.1348174793
 30
0.0
 10
4.561757532
 20
5.1362950289
 30
0.0
 10
4.5619048892
 20
5.1373066549
 30
0.0
 10
4.5619554881
 20
5.1378180818
 30
0.0
  0
SPLINE
  5
571
100
AcDbEntity
  8
0
100
AcDbSpline
 62
7
  6
CONTINUOUS
 70
0
 71
3
 72
90
 73
86
 74
0
 42
0.0000001
 43
0.0000001
 44
0.0000000001
 40
0.0
 40
0.0
 40
0.0
 40
0.0
 40
0.0625016007
 40
0.1250032042
 40
0.1875048037
 40
0.2500064069
 40
0.3125080124
 40
0.3437593587
 40
0.3750107045
 40
0.4062620508
 40
0.4375133975
 40
0.4687647439
 40
0.5000160901
 40
0.5312674366
 40
0.5625187831
 40
0.5781445245
 40
0.5937702658
 40
0.609396007
 40
0.625021748
 40
0.6406474893
 40
0.6562732312
 40
0.6640861106
 40
0.6718989894
 40
0.6797118675
 40
0.687524746
 40
0.6953376263
 40
0.7031505078
 40
0.7109633815
 40
0.7148698193
 40
0.7187762641
 40
0.722682715
 40
0.7265891344
 40
0.72854234
 40
0.7304955744
 40
0.7324488559
 40
0.7344021273
 40
0.7353787298
 40
0.7363552964
 40
0.7373318211
 40
0.7383083517
 40
0.7392849976
 40
0.7397734095
 40
0.7402618954
 40
0.7407503939
 40
0.7412388267
 40
0.7417271365
 40
0.7422153109
 40
0.7427034058
 40
0.7431915549
 40
0.7441682236
 40
0.7446566266
 40
0.7451449754
 40
0.7461215762
 40
0.7470981644
 40
0.7480747689
 40
0.7490513789
 40
0.7500279866
 40
0.7519811885
 40
0.7539343964
 40
0.755887619
 40
0.757840853
 40
0.7597940852
 40
0.7617473055
 40
0.7656536801
 40
0.7695600556
 40
0.7734664501
 40
0.7773728473
 40
0.7812792387
 40
0.789091698
 40
0.7969041589
 40
0.8047166288
 40
0.8125290957
 40
0.820341562
 40
0.8281540292
 40
0.8437764722
 40
0.8593989459
 40
0.8750212986
 40
0.8906436808
 40
0.9062662147
 40
0.9218888249
 40
0.9375110545
 40
0.9531331266
 40
0.9687554921
 40
0.9843778145
 40
1.0
 40
1.0
 40
1.0
 40
1.0
 10
1.9442119565
 20
3.4008583075
 30
0.0
 10
1.9196419039
 20
3.4019829079
 30
0.0
 10
1.8704732517
 20
3.4036517539
 30
0.0
 10
1.7966833479
 20
3.4044132825
 30
0.0
 10
1.7228955387
 20
3.4034327973
 30
0.0
 10
1.649151788
 20
3.4007100296
 30
0.0
 10
1.5877684647
 20
3.3969907068
 30
0.0
 10
1.5387259857
 20
3.3931464488
 30
0.0
 10
1.5019802079
 20
3.3898291916
 30
0.0
 10
1.4652762124
 20
3.3860783041
 30
0.0
 10
1.4286190404
 20
3.3818943739
 30
0.0
 10
1.392013823
 20
3.3772779694
 30
0.0
 10
1.3554656553
 20
3.3722296868
 30
0.0
 10
1.3189796567
 20
3.366750305
 30
0.0
 10
1.2886305737
 20
3.3618255085
 30
0.0
 10
1.2643876152
 20
3.3576709087
 30
0.0
 10
1.2462240431
 20
3.3544476697
 30
0.0
 10
1.2280798221
 20
3.3511172627
 30
0.0
 10
1.2099555747
 20
3.3476798044
 30
0.0
 10
1.1918519369
 20
3.3441354242
 30
0.0
 10
1.1767832542
 20
3.3410927795
 30
0.0
 10
1.1647392617
 20
3.3386053252
 30
0.0
 10
1.1557118079
 20
3.3367130689
 30
0.0
 10
1.1466899844
 20
3.3347941539
 30
0.0
 10
1.137673861
 20
3.332848629
 30
0.0
 10
1.1286635119
 20
3.330876529
 30
0.0
 10
1.1196589977
 20
3.3288779649
 30
0.0
 10
1.1121602458
 20
3.3271900807
 30
0.0
 10
1.1061642581
 20
3.3258264858
 30
0.0
 10
1.1016687407
 20
3.3247973039
 30
0.0
 10
1.0971746114
 20
3.3237621074
 30
0.0
 10
1.0934310707
 20
3.3228926999
 30
0.0
 10
1.0904370969
 20
3.3221934966
 30
0.0
 10
1.0881917559
 20
3.3216683651
 30
0.0
 10
1.0859462695
 20
3.3211437425
 30
0.0
 10
1.0840753615
 20
3.32070514
 30
0.0
 10
1.0825793093
 20
3.3203515402
 30
0.0
 10
1.0814577121
 20
3.320084707
 30
0.0
 10
1.0803367479
 20
3.3198153492
 30
0.0
 10
1.0792159233
 20
3.3195452816
 30
0.0
 10
1.0782810219
 20
3.3193235959
 30
0.0
 10
1.0775320324
 20
3.3191503463
 30
0.0
 10
1.0769696096
 20
3.3190229666
 30
0.0
 10
1.0764071184
 20
3.3188958575
 30
0.0
 10
1.0758451437
 20
3.3187667799
 30
0.0
 10
1.0752842818
 20
3.3186334744
 30
0.0
 10
1.0747251217
 20
3.3184937149
 30
0.0
 10
1.074168283
 20
3.318345159
 30
0.0
 10
1.0734296472
 20
3.3181328131
 30
0.0
 10
1.0726949422
 20
3.3179068748
 30
0.0
 10
1.0719599782
 20
3.3176816027
 30
0.0
 10
1.0712234067
 20
3.3174617022
 30
0.0
 10
1.0703002689
 20
3.3171952827
 30
0.0
 10
1.0691907741
 20
3.3168817687
 30
0.0
 10
1.0680805549
 20
3.3165708116
 30
0.0
 10
1.0669692372
 20
3.3162637702
 30
0.0
 10
1.0654859272
 20
3.3158600619
 30
0.0
 10
1.06362835
 20
3.3153681436
 30
0.0
 10
1.0613937023
 20
3.3147992305
 30
0.0
 10
1.0591538905
 20
3.3142509537
 30
0.0
 10
1.0569091932
 20
3.313723001
 30
0.0
 10
1.0546599269
 20
3.3132148676
 30
0.0
 10
1.0516551285
 20
3.3125636616
 30
0.0
 10
1.0478885251
 20
3.3117994455
 30
0.0
 10
1.0433529356
 20
3.3109634668
 30
0.0
 10
1.03880308
 20
3.3102089185
 30
0.0
 10
1.0342404616
 20
3.3095357097
 30
0.0
 10
1.0281421296
 20
3.3087467876
 30
0.0
 10
1.0204942135
 20
3.3079648021
 30
0.0
 10
1.0112893514
 20
3.3073548547
 30
0.0
 10
1.0020685107
 20
3.3070739086
 30
0.0
 10
0.9928435647
 20
3.3071224131
 30
0.0
 10
0.9836261066
 20
3.3075001853
 30
0.0
 10
0.97136355
 20
3.3084420778
 30
0.0
 10
0.956109616
 20
3.3104400978
 30
0.0
 10
0.9380251447
 20
3.3141376261
 30
0.0
 10
0.9202498324
 20
3.3191152401
 30
0.0
 10
0.9028757578
 20
3.3253502364
 30
0.0
 10
0.8859899365
 20
3.3328072399
 30
0.0
 10
0.8696795939
 20
3.3414506679
 30
0.0
 10
0.8540279439
 20
3.351236365
 30
0.0
 10
0.8391182028
 20
3.36211871
 30
0.0
 10
0.8250203129
 20
3.3740341824
 30
0.0
 10
0.8118051141
 20
3.3869204159
 30
0.0
 10
0.8036282843
 20
3.396119496
 30
0.0
 10
0.7997119565
 20
3.4008583075
 30
0.0
  0
SPLINE
  5
572
100
AcDbEntity
  8
0
100
AcDbSpline
 62
7
  6
CONTINUOUS
 70
0
 71
3
 72
90
 73
86
 74
0
 42
0.0000001
 43
0.0000001
 44
0.0000000001
 40
0.0
 40
0.0
 40
0.0
 40
0.0
 40
0.0625016007
 40
0.1250032042
 40
0.1875048037
 40
0.2500064069
 40
0.3125080124
 40
0.3437593587
 40
0.3750107045
 40
0.4062620508
 40
0.4375133975
 40
0.4687647439
 40
0.5000160901
 40
0.5312674366
 40
0.5625187831
 40
0.5781445245
 40
0.5937702658
 40
0.609396007
 40
0.625021748
 40
0.6406474893
 40
0.6562732312
 40
0.6640861106
 40
0.6718989894
 40
0.6797118675
 40
0.687524746
 40
0.6953376263
 40
0.7031505078
 40
0.7109633815
 40
0.7148698193
 40
0.7187762641
 40
0.722682715
 40
0.7265891344
 40
0.72854234
 40
0.7304955744
 40
0.7324488559
 40
0.7344021273
 40
0.7353787298
 40
0.7363552964
 40
0.7373318211
 40
0.7383083517
 40
0.7392849976
 40
0.7397734095
 40
0.7402618954
 40
0.7407503939
 40
0.7412388267
 40
0.7417271365
 40
0.7422153109
 40
0.7427034058
 40
0.7431915549
 40
0.7441682236
 40
0.7446566266
 40
0.7451449754
 40
0.7461215762
 40
0.7470981644
 40
0.7480747689
 40
0.7490513789
 40
0.7500279866
 40
0.7519811885
 40
0.7539343964
 40
0.755887619
 40
0.757840853
 40
0.7597940852
 40
0.7617473055
 40
0.7656536801
 40
0.7695600556
 40
0.7734664501
 40
0.7773728473
 40
0.7812792387
 40
0.789091698
 40
0.7969041589
 40
0.8047166288
 40
0.8125290957
 40
0.820341562
 40
0.8281540292
 40
0.8437764722
 40
0.8593989459
 40
0.8750212986
 40
0.8906436808
 40
0.9062662147
 40
0.9218888249
 40
0.9375110545
 40
0.9531331266
 40
0.9687554921
 40
0.9843778145
 40
1.0
 40
1.0
 40
1.0
 40
1.0
 10
1.9442119565
 20
3.6823583075
 30
0.0
 10
1.9196419039
 20
3.681233707
 30
0.0
 10
1.8704732517
 20
3.679564861
 30
0.0
 10
1.7966833479
 20
3.6788033324
 30
0.0
 10
1.7228955387
 20
3.6797838176
 30
0.0
 10
1.649151788
 20
3.6825065853
 30
0.0
 10
1.5877684647
 20
3.6862259081
 30
0.0
 10
1.5387259857
 20
3.6900701661
 30
0.0
 10
1.5019802079
 20
3.6933874233
 30
0.0
 10
1.4652762124
 20
3.6971383108
 30
0.0
 10
1.4286190404
 20
3.701322241
 30
0.0
 10
1.392013823
 20
3.7059386455
 30
0.0
 10
1.3554656553
 20
3.7109869281
 30
0.0
 10
1.3189796567
 20
3.7164663099
 30
0.0
 10
1.2886305737
 20
3.7213911064
 30
0.0
 10
1.2643876152
 20
3.7255457062
 30
0.0
 10
1.2462240431
 20
3.7287689453
 30
0.0
 10
1.2280798221
 20
3.7320993522
 30
0.0
 10
1.2099555747
 20
3.7355368105
 30
0.0
 10
1.1918519369
 20
3.7390811907
 30
0.0
 10
1.1767832542
 20
3.7421238354
 30
0.0
 10
1.1647392617
 20
3.7446112897
 30
0.0
 10
1.1557118079
 20
3.746503546
 30
0.0
 10
1.1466899844
 20
3.748422461
 30
0.0
 10
1.137673861
 20
3.7503679859
 30
0.0
 10
1.1286635119
 20
3.7523400859
 30
0.0
 10
1.1196589977
 20
3.75433865
 30
0.0
 10
1.1121602458
 20
3.7560265342
 30
0.0
 10
1.1061642581
 20
3.7573901292
 30
0.0
 10
1.1016687407
 20
3.758419311
 30
0.0
 10
1.0971746114
 20
3.7594545075
 30
0.0
 10
1.0934310707
 20
3.760323915
 30
0.0
 10
1.0904370969
 20
3.7610231183
 30
0.0
 10
1.0881917559
 20
3.7615482498
 30
0.0
 10
1.0859462695
 20
3.7620728724
 30
0.0
 10
1.0840753615
 20
3.7625114749
 30
0.0
 10
1.0825793093
 20
3.7628650747
 30
0.0
 10
1.0814577121
 20
3.7631319079
 30
0.0
 10
1.0803367479
 20
3.7634012657
 30
0.0
 10
1.0792159233
 20
3.7636713333
 30
0.0
 10
1.0782810219
 20
3.763893019
 30
0.0
 10
1.0775320324
 20
3.7640662686
 30
0.0
 10
1.0769696096
 20
3.7641936483
 30
0.0
 10
1.0764071184
 20
3.7643207574
 30
0.0
 10
1.0758451437
 20
3.764449835
 30
0.0
 10
1.0752842818
 20
3.7645831405
 30
0.0
 10
1.0747251217
 20
3.7647229
 30
0.0
 10
1.074168283
 20
3.7648714559
 30
0.0
 10
1.0734296472
 20
3.7650838018
 30
0.0
 10
1.0726949422
 20
3.7653097401
 30
0.0
 10
1.0719599782
 20
3.7655350122
 30
0.0
 10
1.0712234067
 20
3.7657549127
 30
0.0
 10
1.0703002689
 20
3.7660213322
 30
0.0
 10
1.0691907741
 20
3.7663348462
 30
0.0
 10
1.0680805549
 20
3.7666458034
 30
0.0
 10
1.0669692372
 20
3.7669528447
 30
0.0
 10
1.0654859272
 20
3.7673565531
 30
0.0
 10
1.06362835
 20
3.7678484713
 30
0.0
 10
1.0613937023
 20
3.7684173844
 30
0.0
 10
1.0591538905
 20
3.7689656612
 30
0.0
 10
1.0569091932
 20
3.7694936139
 30
0.0
 10
1.0546599269
 20
3.7700017473
 30
0.0
 10
1.0516551285
 20
3.7706529533
 30
0.0
 10
1.0478885251
 20
3.7714171694
 30
0.0
 10
1.0433529356
 20
3.7722531481
 30
0.0
 10
1.03880308
 20
3.7730076964
 30
0.0
 10
1.0342404616
 20
3.7736809053
 30
0.0
 10
1.0281421296
 20
3.7744698273
 30
0.0
 10
1.0204942135
 20
3.7752518128
 30
0.0
 10
1.0112893514
 20
3.7758617602
 30
0.0
 10
1.0020685107
 20
3.7761427063
 30
0.0
 10
0.9928435647
 20
3.7760942018
 30
0.0
 10
0.9836261066
 20
3.7757164296
 30
0.0
 10
0.97136355
 20
3.7747745371
 30
0.0
 10
0.956109616
 20
3.7727765171
 30
0.0
 10
0.9380251447
 20
3.7690789888
 30
0.0
 10
0.9202498324
 20
3.7641013748
 30
0.0
 10
0.9028757578
 20
3.7578663785
 30
0.0
 10
0.8859899365
 20
3.750409375
 30
0.0
 10
0.8696795939
 20
3.7417659471
 30
0.0
 10
0.8540279439
 20
3.7319802499
 30
0.0
 10
0.8391182028
 20
3.7210979049
 30
0.0
 10
0.8250203129
 20
3.7091824325
 30
0.0
 10
0.8118051141
 20
3.696296199
 30
0.0
 10
0.8036282843
 20
3.6870971189
 30
0.0
 10
0.7997119565
 20
3.6823583075
 30
0.0
  0
SPLINE
  5
573
100
AcDbEntity
  8
0
100
AcDbSpline
 62
7
  6
CONTINUOUS
 70
0
 71
3
 72
90
 73
86
 74
0
 42
0.0000001
 43
0.0000001
 44
0.0000000001
 40
0.0
 40
0.0
 40
0.0
 40
0.0
 40
0.0625016007
 40
0.1250032042
 40
0.1875048037
 40
0.2500064069
 40
0.3125080124
 40
0.3437593587
 40
0.3750107045
 40
0.4062620508
 40
0.4375133975
 40
0.4687647439
 40
0.5000160901
 40
0.5312674366
 40
0.5625187831
 40
0.5781445245
 40
0.5937702658
 40
0.609396007
 40
0.625021748
 40
0.6406474893
 40
0.6562732312
 40
0.6640861106
 40
0.6718989894
 40
0.6797118675
 40
0.687524746
 40
0.6953376263
 40
0.7031505078
 40
0.7109633815
 40
0.7148698193
 40
0.7187762641
 40
0.722682715
 40
0.7265891344
 40
0.72854234
 40
0.7304955744
 40
0.7324488559
 40
0.7344021273
 40
0.7353787298
 40
0.7363552964
 40
0.7373318211
 40
0.7383083517
 40
0.7392849976
 40
0.7397734095
 40
0.7402618954
 40
0.7407503939
 40
0.7412388267
 40
0.7417271365
 40
0.7422153109
 40
0.7427034058
 40
0.7431915549
 40
0.7441682236
 40
0.7446566266
 40
0.7451449754
 40
0.7461215762
 40
0.7470981644
 40
0.7480747689
 40
0.7490513789
 40
0.7500279866
 40
0.7519811885
 40
0.7539343964
 40
0.755887619
 40
0.757840853
 40
0.7597940852
 40
0.7617473055
 40
0.7656536801
 40
0.7695600556
 40
0.7734664501
 40
0.7773728473
 40
0.7812792387
 40
0.789091698
 40
0.7969041589
 40
0.8047166288
 40
0.8125290957
 40
0.820341562
 40
0.8281540292
 40
0.8437764722
 40
0.8593989459
 40
0.8750212986
 40
0.8906436808
 40
0.9062662147
 40
0.9218888249
 40
0.9375110545
 40
0.9531331266
 40
0.9687554921
 40
0.9843778145
 40
1.0
 40
1.0
 40
1.0
 40
1.0
 10
6.8317119565
 20
3.4008583075
 30
0.0
 10
6.8562820091
 20
3.4019829079
 30
0.0
 10
6.9054506614
 20
3.4036517539
 30
0.0
 10
6.9792405651
 20
3.4044132825
 30
0.0
 10
7.0530283744
 20
3.4034327973
 30
0.0
 10
7.126772125
 20
3.4007100296
 30
0.0
 10
7.1881554484
 20
3.3969907068
 30
0.0
 10
7.2371979273
 20
3.3931464488
 30
0.0
 10
7.2739437051
 20
3.3898291916
 30
0.0
 10
7.3106477006
 20
3.3860783041
 30
0.0
 10
7.3473048727
 20
3.3818943739
 30
0.0
 10
7.38391009
 20
3.3772779694
 30
0.0
 10
7.4204582577
 20
3.3722296868
 30
0.0
 10
7.4569442563
 20
3.366750305
 30
0.0
 10
7.4872933394
 20
3.3618255085
 30
0.0
 10
7.5115362978
 20
3.3576709087
 30
0.0
 10
7.52969987
 20
3.3544476697
 30
0.0
 10
7.5478440909
 20
3.3511172627
 30
0.0
 10
7.5659683383
 20
3.3476798044
 30
0.0
 10
7.5840719762
 20
3.3441354242
 30
0.0
 10
7.5991406589
 20
3.3410927795
 30
0.0
 10
7.6111846514
 20
3.3386053252
 30
0.0
 10
7.6202121051
 20
3.3367130689
 30
0.0
 10
7.6292339286
 20
3.3347941539
 30
0.0
 10
7.638250052
 20
3.332848629
 30
0.0
 10
7.6472604012
 20
3.330876529
 30
0.0
 10
7.6562649153
 20
3.3288779649
 30
0.0
 10
7.6637636672
 20
3.3271900807
 30
0.0
 10
7.6697596549
 20
3.3258264858
 30
0.0
 10
7.6742551724
 20
3.3247973039
 30
0.0
 10
7.6787493016
 20
3.3237621074
 30
0.0
 10
7.6824928423
 20
3.3228926999
 30
0.0
 10
7.6854868161
 20
3.3221934966
 30
0.0
 10
7.6877321572
 20
3.3216683651
 30
0.0
 10
7.6899776435
 20
3.3211437425
 30
0.0
 10
7.6918485515
 20
3.32070514
 30
0.0
 10
7.6933446038
 20
3.3203515402
 30
0.0
 10
7.6944662009
 20
3.320084707
 30
0.0
 10
7.6955871652
 20
3.3198153492
 30
0.0
 10
7.6967079898
 20
3.3195452816
 30
0.0
 10
7.6976428911
 20
3.3193235959
 30
0.0
 10
7.6983918807
 20
3.3191503463
 30
0.0
 10
7.6989543034
 20
3.3190229666
 30
0.0
 10
7.6995167946
 20
3.3188958575
 30
0.0
 10
7.7000787694
 20
3.3187667799
 30
0.0
 10
7.7006396313
 20
3.3186334744
 30
0.0
 10
7.7011987913
 20
3.3184937149
 30
0.0
 10
7.7017556301
 20
3.318345159
 30
0.0
 10
7.7024942658
 20
3.3181328131
 30
0.0
 10
7.7032289708
 20
3.3179068748
 30
0.0
 10
7.7039639348
 20
3.3176816027
 30
0.0
 10
7.7047005064
 20
3.3174617022
 30
0.0
 10
7.7056236441
 20
3.3171952827
 30
0.0
 10
7.7067331389
 20
3.3168817687
 30
0.0
 10
7.7078433581
 20
3.3165708116
 30
0.0
 10
7.7089546758
 20
3.3162637702
 30
0.0
 10
7.7104379859
 20
3.3158600619
 30
0.0
 10
7.7122955631
 20
3.3153681436
 30
0.0
 10
7.7145302107
 20
3.3147992305
 30
0.0
 10
7.7167700226
 20
3.3142509537
 30
0.0
 10
7.7190147198
 20
3.313723001
 30
0.0
 10
7.7212639861
 20
3.3132148676
 30
0.0
 10
7.7242687845
 20
3.3125636616
 30
0.0
 10
7.7280353879
 20
3.3117994455
 30
0.0
 10
7.7325709775
 20
3.3109634668
 30
0.0
 10
7.737120833
 20
3.3102089185
 30
0.0
 10
7.7416834514
 20
3.3095357097
 30
0.0
 10
7.7477817834
 20
3.3087467876
 30
0.0
 10
7.7554296995
 20
3.3079648021
 30
0.0
 10
7.7646345616
 20
3.3073548547
 30
0.0
 10
7.7738554023
 20
3.3070739086
 30
0.0
 10
7.7830803483
 20
3.3071224131
 30
0.0
 10
7.7922978065
 20
3.3075001853
 30
0.0
 10
7.804560363
 20
3.3084420778
 30
0.0
 10
7.819814297
 20
3.3104400978
 30
0.0
 10
7.8378987684
 20
3.3141376261
 30
0.0
 10
7.8556740807
 20
3.3191152401
 30
0.0
 10
7.8730481552
 20
3.3253502364
 30
0.0
 10
7.8899339765
 20
3.3328072399
 30
0.0
 10
7.9062443191
 20
3.3414506679
 30
0.0
 10
7.9218959692
 20
3.351236365
 30
0.0
 10
7.9368057102
 20
3.36211871
 30
0.0
 10
7.9509036001
 20
3.3740341824
 30
0.0
 10
7.9641187989
 20
3.3869204159
 30
0.0
 10
7.9722956287
 20
3.396119496
 30
0.0
 10
7.9762119565
 20
3.4008583075
 30
0.0
  0
SPLINE
  5
574
100
AcDbEntity
  8
0
100
AcDbSpline
 62
7
  6
CONTINUOUS
 70
0
 71
3
 72
90
 73
86
 74
0
 42
0.0000001
 43
0.0000001
 44
0.0000000001
 40
0.0
 40
0.0
 40
0.0
 40
0.0
 40
0.0625016007
 40
0.1250032042
 40
0.1875048037
 40
0.2500064069
 40
0.3125080124
 40
0.3437593587
 40
0.3750107045
 40
0.4062620508
 40
0.4375133975
 40
0.4687647439
 40
0.5000160901
 40
0.5312674366
 40
0.5625187831
 40
0.5781445245
 40
0.5937702658
 40
0.609396007
 40
0.625021748
 40
0.6406474893
 40
0.6562732312
 40
0.6640861106
 40
0.6718989894
 40
0.6797118675
 40
0.687524746
 40
0.6953376263
 40
0.7031505078
 40
0.7109633815
 40
0.7148698193
 40
0.7187762641
 40
0.722682715
 40
0.7265891344
 40
0.72854234
 40
0.7304955744
 40
0.7324488559
 40
0.7344021273
 40
0.7353787298
 40
0.7363552964
 40
0.7373318211
 40
0.7383083517
 40
0.7392849976
 40
0.7397734095
 40
0.7402618954
 40
0.7407503939
 40
0.7412388267
 40
0.7417271365
 40
0.7422153109
 40
0.7427034058
 40
0.7431915549
 40
0.7441682236
 40
0.7446566266
 40
0.7451449754
 40
0.7461215762
 40
0.7470981644
 40
0.7480747689
 40
0.7490513789
 40
0.7500279866
 40
0.7519811885
 40
0.7539343964
 40
0.755887619
 40
0.757840853
 40
0.7597940852
 40
0.7617473055
 40
0.7656536801
 40
0.7695600556
 40
0.7734664501
 40
0.7773728473
 40
0.7812792387
 40
0.789091698
 40
0.7969041589
 40
0.8047166288
 40
0.8125290957
 40
0.820341562
 40
0.8281540292
 40
0.8437764722
 40
0.8593989459
 40
0.8750212986
 40
0.8906436808
 40
0.9062662147
 40
0.9218888249
 40
0.9375110545
 40
0.9531331266
 40
0.9687554921
 40
0.9843778145
 40
1.0
 40
1.0
 40
1.0
 40
1.0
 10
6.8317119565
 20
3.6823583075
 30
0.0
 10
6.8562820091
 20
3.681233707
 30
0.0
 10
6.9054506614
 20
3.679564861
 30
0.0
 10
6.9792405651
 20
3.6788033324
 30
0.0
 10
7.0530283744
 20
3.6797838176
 30
0.0
 10
7.126772125
 20
3.6825065853
 30
0.0
 10
7.1881554484
 20
3.6862259081
 30
0.0
 10
7.2371979273
 20
3.6900701661
 30
0.0
 10
7.2739437051
 20
3.6933874233
 30
0.0
 10
7.3106477006
 20
3.6971383108
 30
0.0
 10
7.3473048727
 20
3.701322241
 30
0.0
 10
7.38391009
 20
3.7059386455
 30
0.0
 10
7.4204582577
 20
3.7109869281
 30
0.0
 10
7.4569442563
 20
3.7164663099
 30
0.0
 10
7.4872933394
 20
3.7213911064
 30
0.0
 10
7.5115362978
 20
3.7255457062
 30
0.0
 10
7.52969987
 20
3.7287689453
 30
0.0
 10
7.5478440909
 20
3.7320993522
 30
0.0
 10
7.5659683383
 20
3.7355368105
 30
0.0
 10
7.5840719762
 20
3.7390811907
 30
0.0
 10
7.5991406589
 20
3.7421238354
 30
0.0
 10
7.6111846514
 20
3.7446112897
 30
0.0
 10
7.6202121051
 20
3.746503546
 30
0.0
 10
7.6292339286
 20
3.748422461
 30
0.0
 10
7.638250052
 20
3.7503679859
 30
0.0
 10
7.6472604012
 20
3.7523400859
 30
0.0
 10
7.6562649153
 20
3.75433865
 30
0.0
 10
7.6637636672
 20
3.7560265342
 30
0.0
 10
7.6697596549
 20
3.7573901292
 30
0.0
 10
7.6742551724
 20
3.758419311
 30
0.0
 10
7.6787493016
 20
3.7594545075
 30
0.0
 10
7.6824928423
 20
3.760323915
 30
0.0
 10
7.6854868161
 20
3.7610231183
 30
0.0
 10
7.6877321572
 20
3.7615482498
 30
0.0
 10
7.6899776435
 20
3.7620728724
 30
0.0
 10
7.6918485515
 20
3.7625114749
 30
0.0
 10
7.6933446038
 20
3.7628650747
 30
0.0
 10
7.6944662009
 20
3.7631319079
 30
0.0
 10
7.6955871652
 20
3.7634012657
 30
0.0
 10
7.6967079898
 20
3.7636713333
 30
0.0
 10
7.6976428911
 20
3.763893019
 30
0.0
 10
7.6983918807
 20
3.7640662686
 30
0.0
 10
7.6989543034
 20
3.7641936483
 30
0.0
 10
7.6995167946
 20
3.7643207574
 30
0.0
 10
7.7000787694
 20
3.764449835
 30
0.0
 10
7.7006396313
 20
3.7645831405
 30
0.0
 10
7.7011987913
 20
3.7647229
 30
0.0
 10
7.7017556301
 20
3.7648714559
 30
0.0
 10
7.7024942658
 20
3.7650838018
 30
0.0
 10
7.7032289708
 20
3.7653097401
 30
0.0
 10
7.7039639348
 20
3.7655350122
 30
0.0
 10
7.7047005064
 20
3.7657549127
 30
0.0
 10
7.7056236441
 20
3.7660213322
 30
0.0
 10
7.7067331389
 20
3.7663348462
 30
0.0
 10
7.7078433581
 20
3.7666458034
 30
0.0
 10
7.7089546758
 20
3.7669528447
 30
0.0
 10
7.7104379859
 20
3.7673565531
 30
0.0
 10
7.7122955631
 20
3.7678484713
 30
0.0
 10
7.7145302107
 20
3.7684173844
 30
0.0
 10
7.7167700226
 20
3.7689656612
 30
0.0
 10
7.7190147198
 20
3.7694936139
 30
0.0
 10
7.7212639861
 20
3.7700017473
 30
0.0
 10
7.7242687845
 20
3.7706529533
 30
0.0
 10
7.7280353879
 20
3.7714171694
 30
0.0
 10
7.7325709775
 20
3.7722531481
 30
0.0
 10
7.737120833
 20
3.7730076964
 30
0.0
 10
7.7416834514
 20
3.7736809053
 30
0.0
 10
7.7477817834
 20
3.7744698273
 30
0.0
 10
7.7554296995
 20
3.7752518128
 30
0.0
 10
7.7646345616
 20
3.7758617602
 30
0.0
 10
7.7738554023
 20
3.7761427063
 30
0.0
 10
7.7830803483
 20
3.7760942018
 30
0.0
 10
7.7922978065
 20
3.7757164296
 30
0.0
 10
7.804560363
 20
3.7747745371
 30
0.0
 10
7.819814297
 20
3.7727765171
 30
0.0
 10
7.8378987684
 20
3.7690789888
 30
0.0
 10
7.8556740807
 20
3.7641013748
 30
0.0
 10
7.8730481552
 20
3.7578663785
 30
0.0
 10
7.8899339765
 20
3.750409375
 30
0.0
 10
7.9062443191
 20
3.7417659471
 30
0.0
 10
7.9218959692
 20
3.7319802499
 30
0.0
 10
7.9368057102
 20
3.7210979049
 30
0.0
 10
7.9509036001
 20
3.7091824325
 30
0.0
 10
7.9641187989
 20
3.696296199
 30
0.0
 10
7.9722956287
 20
3.6870971189
 30
0.0
 10
7.9762119565
 20
3.6823583075
 30
0.0
  0
LINE
  5
575
100
AcDbEntity
  8
0
100
AcDbLine
 62
7
  6
CONTINUOUS
 10
2.4254684325
 20
3.7911305192
 11
2.4086945238
 21
3.7909891019
  0
LINE
  5
576
100
AcDbEntity
  8
0
100
AcDbLine
 62
7
  6
CONTINUOUS
 10
2.4086945238
 20
3.7909891019
 11
2.3655662085
 21
3.7909410315
  0
LINE
  5
577
100
AcDbEntity
  8
0
100
AcDbLine
 62
7
  6
CONTINUOUS
 10
2.3655662085
 20
3.7909410315
 11
2.3489636315
 21
3.7910540805
  0
LINE
  5
578
100
AcDbEntity
  8
0
100
AcDbLine
 62
7
  6
CONTINUOUS
 10
2.3087119565
 20
3.7880312497
 11
2.3082121498
 21
3.7879886961
  0
LINE
  5
579
100
AcDbEntity
  8
0
100
AcDbLine
 62
7
  6
CONTINUOUS
 10
2.3082121498
 20
3.7879886961
 11
2.3057119565
 21
3.7877307087
  0
LINE
  5
57A
100
AcDbEntity
  8
0
100
AcDbLine
 62
7
  6
CONTINUOUS
 10
2.2867119565
 20
3.7854662385
 11
2.2837119565
 21
3.7850514626
  0
SPLINE
  5
57B
100
AcDbEntity
  8
0
100
AcDbSpline
 62
7
  6
CONTINUOUS
 70
0
 71
3
 72
51
 73
47
 74
0
 42
0.0000001
 43
0.0000001
 44
0.0000000001
 40
0.0
 40
0.0
 40
0.0
 40
0.0
 40
0.0000047583
 40
0.0000190318
 40
0.0000428186
 40
0.0000761169
 40
0.0001189247
 40
0.0001712401
 40
0.0003043862
 40
0.0004755399
 40
0.0006846859
 40
0.000931809
 40
0.0012168939
 40
0.0019008881
 40
0.0027365466
 40
0.0037237474
 40
0.004862353
 40
0.0061520828
 40
0.0075925785
 40
0.0091834813
 40
0.0109244325
 40
0.014855046
 40
0.0193814453
 40
0.0244996264
 40
0.0302050092
 40
0.0364930126
 40
0.0433587773
 40
0.0507964642
 40
0.0588000302
 40
0.0764801993
 40
0.0963452655
 40
0.1183373702
 40
0.1423944569
 40
0.1684522306
 40
0.1964435651
 40
0.2263002277
 40
0.2579522959
 40
0.2913294631
 40
0.3629735412
 40
0.4406604454
 40
0.5238114127
 40
0.6118366765
 40
0.704126818
 40
0.8000434391
 40
0.8989073419
 40
1.0
 40
1.0
 40
1.0
 40
1.0
 10
2.1092119565
 20
3.4431083075
 30
0.0
 10
2.1092120805
 20
3.4431082556
 30
0.0
 10
2.1092120671
 20
3.4431091971
 30
0.0
 10
2.1092126566
 20
3.4431099171
 30
0.0
 10
2.1092132225
 20
3.4431120566
 30
0.0
 10
2.1092142101
 20
3.4431146104
 30
0.0
 10
2.1092154011
 20
3.4431180708
 30
0.0
 10
2.1092175589
 20
3.4431241294
 30
0.0
 10
2.1092209099
 20
3.4431336379
 30
0.0
 10
2.1092257441
 20
3.4431473045
 30
0.0
 10
2.1092316459
 20
3.4431640143
 30
0.0
 10
2.1092386189
 20
3.4431837559
 30
0.0
 10
2.1092500547
 20
3.4432161448
 30
0.0
 10
2.1092670176
 20
3.4432642089
 30
0.0
 10
2.1092905675
 20
3.4433309766
 30
0.0
 10
2.1093183734
 20
3.4434098574
 30
0.0
 10
2.1093504265
 20
3.4435008385
 30
0.0
 10
2.1093867079
 20
3.4436039033
 30
0.0
 10
2.1094271944
 20
3.44371903
 30
0.0
 10
2.1094718629
 20
3.4438461945
 30
0.0
 10
2.1095397625
 20
3.4440397376
 30
0.0
 10
2.1096349282
 20
3.4443115738
 30
0.0
 10
2.1097612835
 20
3.4446735473
 30
0.0
 10
2.1099037142
 20
3.4450829985
 30
0.0
 10
2.1100619192
 20
3.4455396378
 30
0.0
 10
2.110235595
 20
3.4460431505
 30
0.0
 10
2.1104244198
 20
3.4465931899
 30
0.0
 10
2.110627997
 20
3.4471893909
 30
0.0
 10
2.1109286844
 20
3.4480751683
 30
0.0
 10
2.1113386224
 20
3.4492945045
 30
0.0
 10
2.111867471
 20
3.4508906449
 30
0.0
 10
2.1124443116
 20
3.4526605895
 30
0.0
 10
2.1130647249
 20
3.4546002539
 30
0.0
 10
2.1137241302
 20
3.4567052957
 30
0.0
 10
2.1144175745
 20
3.4589712661
 30
0.0
 10
2.1151400094
 20
3.4613935295
 30
0.0
 10
2.1158860898
 20
3.4639673942
 30
0.0
 10
2.1169300789
 20
3.4676835239
 30
0.0
 10
2.1182582488
 20
3.4726700816
 30
0.0
 10
2.1198215354
 20
3.4790475527
 30
0.0
 10
2.1213432036
 20
3.485909949
 30
0.0
 10
2.1227765618
 20
3.4932122771
 30
0.0
 10
2.124075982
 20
3.5009056924
 30
0.0
 10
2.1251982573
 20
3.5089363458
 30
0.0
 10
2.1261043836
 20
3.5172444541
 30
0.0
 10
2.1265387053
 20
3.5228761102
 30
0.0
 10
2.1267119565
 20
3.5257259273
 30
0.0
  0
SPLINE
  5
57C
100
AcDbEntity
  8
0
100
AcDbSpline
 62
7
  6
CONTINUOUS
 70
0
 71
3
 72
14
 73
10
 74
0
 42
0.0000001
 43
0.0000001
 44
0.0000000001
 40
0.0
 40
0.0
 40
0.0
 40
0.0
 40
0.0849826259
 40
0.1672500323
 40
0.2779302226
 40
0.4175762653
 40
0.5856896715
 40
0.7806752272
 40
1.0
 40
1.0
 40
1.0
 40
1.0
 10
2.666619542
 20
3.6354055414
 30
0.0
 10
2.666214383
 20
3.6345640167
 30
0.0
 10
2.6654508145
 20
3.6328914861
 30
0.0
 10
2.6642647934
 20
3.6300763213
 30
0.0
 10
2.6629398562
 20
3.6266690285
 30
0.0
 10
2.6614011693
 20
3.6223345817
 30
0.0
 10
2.6597151219
 20
3.6170718363
 30
0.0
 10
2.6579585574
 20
3.6109154737
 30
0.0
 10
2.656853949
 20
3.6064970786
 30
0.0
 10
2.6563068294
 20
3.6041495602
 30
0.0
  0
SPLINE
  5
57D
100
AcDbEntity
  8
0
100
AcDbSpline
 62
7
  6
CONTINUOUS
 70
0
 71
3
 72
11
 73
7
 74
0
 42
0.0000001
 43
0.0000001
 44
0.0000000001
 40
0.0
 40
0.0
 40
0.0
 40
0.0
 40
0.2254584998
 40
0.4702660149
 40
0.7300468494
 40
1.0
 40
1.0
 40
1.0
 40
1.0
 10
2.6563068294
 20
3.6041495602
 30
0.0
 10
2.6554420366
 20
3.6004390058
 30
0.0
 10
2.6537821126
 20
3.5926650603
 30
0.0
 10
2.6517004257
 20
3.5805010725
 30
0.0
 10
2.6500865485
 20
3.5675071947
 30
0.0
 10
2.6494284083
 20
3.5585747505
 30
0.0
 10
2.6492119565
 20
3.5540179811
 30
0.0
  0
SPLINE
  5
57E
100
AcDbEntity
  8
0
100
AcDbSpline
 62
7
  6
CONTINUOUS
 70
0
 71
3
 72
11
 73
7
 74
0
 42
0.0000001
 43
0.0000001
 44
0.0000000001
 40
0.0
 40
0.0
 40
0.0
 40
0.0
 40
0.2699531451
 40
0.5297339777
 40
0.774541495
 40
1.0
 40
1.0
 40
1.0
 40
1.0
 10
2.6492119565
 20
3.5291986338
 30
0.0
 10
2.6494284083
 20
3.5246418645
 30
0.0
 10
2.6500865484
 20
3.5157094204
 30
0.0
 10
2.6517004257
 20
3.5027155427
 30
0.0
 10
2.6537821126
 20
3.4905515548
 30
0.0
 10
2.6554420366
 20
3.4827776091
 30
0.0
 10
2.6563068294
 20
3.4790670547
 30
0.0
  0
SPLINE
  5
57F
100
AcDbEntity
  8
0
100
AcDbSpline
 62
7
  6
CONTINUOUS
 70
0
 71
3
 72
14
 73
10
 74
0
 42
0.0000001
 43
0.0000001
 44
0.0000000001
 40
0.0
 40
0.0
 40
0.0
 40
0.0
 40
0.2193247517
 40
0.4143103487
 40
0.5824237713
 40
0.7220698014
 40
0.8327499814
 40
0.9150173855
 40
1.0
 40
1.0
 40
1.0
 40
1.0
 10
2.6563068294
 20
3.4790670547
 30
0.0
 10
2.6568539489
 20
3.4767195365
 30
0.0
 10
2.6579585574
 20
3.4723011412
 30
0.0
 10
2.659715122
 20
3.4661447782
 30
0.0
 10
2.6614011696
 20
3.4608820324
 30
0.0
 10
2.6629398565
 20
3.4565475857
 30
0.0
 10
2.6642647936
 20
3.4531402931
 30
0.0
 10
2.6654508145
 20
3.4503251286
 30
0.0
 10
2.666214383
 20
3.4486525981
 30
0.0
 10
2.666619542
 20
3.4478110735
 30
0.0
  0
SPLINE
  5
580
100
AcDbEntity
  8
0
100
AcDbSpline
 62
7
  6
CONTINUOUS
 70
0
 71
3
 72
67
 73
63
 74
0
 42
0.0000001
 43
0.0000001
 44
0.0000000001
 40
0.0
 40
0.0
 40
0.0
 40
0.0
 40
0.0483978703
 40
0.0963326573
 40
0.1433473354
 40
0.1889925966
 40
0.232833145
 40
0.2744515589
 40
0.3134526999
 40
0.3494677682
 40
0.3662487392
 40
0.3821590259
 40
0.397161918
 40
0.4112231562
 40
0.4243110962
 40
0.4363970692
 40
0.4474555956
 40
0.4574647029
 40
0.4664066352
 40
0.474268867
 40
0.4777932324
 40
0.4810463178
 40
0.4840289749
 40
0.486743226
 40
0.4891924109
 40
0.4913817862
 40
0.4933196315
 40
0.4950185097
 40
0.496497807
 40
0.4977876103
 40
0.4989334704
 40
0.5
 40
0.5010665296
 40
0.5022123897
 40
0.503502193
 40
0.5049814903
 40
0.5066803685
 40
0.5086182138
 40
0.5108075891
 40
0.513256774
 40
0.5159710251
 40
0.5189536822
 40
0.5222067676
 40
0.525731133
 40
0.5335933648
 40
0.5425352971
 40
0.5525444044
 40
0.5636029308
 40
0.5756889038
 40
0.5887768438
 40
0.602838082
 40
0.6178409741
 40
0.6337512608
 40
0.6505322318
 40
0.6865473001
 40
0.7255484411
 40
0.767166855
 40
0.8110074034
 40
0.8566526646
 40
0.9036673427
 40
0.9516021297
 40
1.0
 40
1.0
 40
1.0
 40
1.0
 10
4.3879619565
 20
5.1102016023
 30
0.0
 10
4.3931430398
 20
5.1102016023
 30
0.0
 10
4.4034556878
 20
5.1102455473
 30
0.0
 10
4.4188002053
 20
5.1104429644
 30
0.0
 10
4.4338477941
 20
5.1107698162
 30
0.0
 10
4.4484536281
 20
5.1112228604
 30
0.0
 10
4.4624770605
 20
5.1117975837
 30
0.0
 10
4.4757831386
 20
5.1124882087
 30
0.0
 10
4.4882437958
 20
5.1132878355
 30
0.0
 10
4.4980413076
 20
5.1140550247
 30
0.0
 10
4.50536607
 20
5.1147238083
 30
0.0
 10
4.5104461791
 20
5.1152356904
 30
0.0
 10
4.5152313088
 20
5.1157684324
 30
0.0
 10
4.519709963
 20
5.1163207174
 30
0.0
 10
4.5238713932
 20
5.1168911447
 30
0.0
 10
4.5277056446
 20
5.1174782419
 30
0.0
 10
4.5312035736
 20
5.118080473
 30
0.0
 10
4.5343569457
 20
5.1186961854
 30
0.0
 10
4.5371583225
 20
5.1193237554
 30
0.0
 10
4.5392647537
 20
5.1198731234
 30
0.0
 10
4.540766249
 20
5.1203227183
 30
0.0
 10
4.5417588007
 20
5.1206495886
 30
0.0
 10
4.542658957
 20
5.1209783298
 30
0.0
 10
4.5434662711
 20
5.1213087374
 30
0.0
 10
4.5441804028
 20
5.1216406086
 30
0.0
 10
4.5448011236
 20
5.1219738113
 30
0.0
 10
4.5453283778
 20
5.1223082661
 30
0.0
 10
4.5457622647
 20
5.1226441484
 30
0.0
 10
4.5461029232
 20
5.1229821138
 30
0.0
 10
4.5463501202
 20
5.1233235268
 30
0.0
 10
4.5465018676
 20
5.1236703319
 30
0.0
 10
4.5465534641
 20
5.1240223011
 30
0.0
 10
4.5465018676
 20
5.1243742702
 30
0.0
 10
4.5463501202
 20
5.1247210753
 30
0.0
 10
4.5461029232
 20
5.1250624884
 30
0.0
 10
4.5457622647
 20
5.1254004538
 30
0.0
 10
4.5453283778
 20
5.125736336
 30
0.0
 10
4.5448011236
 20
5.1260707909
 30
0.0
 10
4.5441804028
 20
5.1264039935
 30
0.0
 10
4.5434662711
 20
5.1267358647
 30
0.0
 10
4.542658957
 20
5.1270662724
 30
0.0
 10
4.5417588007
 20
5.1273950136
 30
0.0
 10
4.540766249
 20
5.1277218838
 30
0.0
 10
4.5392647537
 20
5.1281714787
 30
0.0
 10
4.5371583225
 20
5.1287208467
 30
0.0
 10
4.5343569457
 20
5.1293484168
 30
0.0
 10
4.5312035736
 20
5.1299641291
 30
0.0
 10
4.5277056446
 20
5.1305663602
 30
0.0
 10
4.5238713932
 20
5.1311534574
 30
0.0
 10
4.519709963
 20
5.1317238848
 30
0.0
 10
4.5152313088
 20
5.1322761697
 30
0.0
 10
4.5104461791
 20
5.1328089118
 30
0.0
 10
4.50536607
 20
5.1333207939
 30
0.0
 10
4.4980413076
 20
5.1339895774
 30
0.0
 10
4.4882437958
 20
5.1347567667
 30
0.0
 10
4.4757831386
 20
5.1355563934
 30
0.0
 10
4.4624770605
 20
5.1362470185
 30
0.0
 10
4.4484536281
 20
5.1368217417
 30
0.0
 10
4.4338477941
 20
5.1372747859
 30
0.0
 10
4.4188002053
 20
5.1376016378
 30
0.0
 10
4.4034556878
 20
5.1377990549
 30
0.0
 10
4.3931430398
 20
5.1378429999
 30
0.0
 10
4.3879619565
 20
5.1378429999
 30
0.0
  0
SPLINE
  5
581
100
AcDbEntity
  8
0
100
AcDbSpline
 62
7
  6
CONTINUOUS
 70
0
 71
3
 72
67
 73
63
 74
0
 42
0.0000001
 43
0.0000001
 44
0.0000000001
 40
0.0
 40
0.0
 40
0.0
 40
0.0
 40
0.0483978703
 40
0.0963326573
 40
0.1433473354
 40
0.1889925966
 40
0.232833145
 40
0.2744515589
 40
0.3134526999
 40
0.3494677682
 40
0.3662487392
 40
0.3821590259
 40
0.397161918
 40
0.4112231562
 40
0.4243110962
 40
0.4363970692
 40
0.4474555956
 40
0.4574647029
 40
0.4664066352
 40
0.474268867
 40
0.4777932324
 40
0.4810463178
 40
0.4840289749
 40
0.486743226
 40
0.4891924109
 40
0.4913817862
 40
0.4933196315
 40
0.4950185097
 40
0.496497807
 40
0.4977876103
 40
0.4989334704
 40
0.5
 40
0.5010665296
 40
0.5022123897
 40
0.503502193
 40
0.5049814903
 40
0.5066803685
 40
0.5086182138
 40
0.5108075891
 40
0.513256774
 40
0.5159710251
 40
0.5189536822
 40
0.5222067676
 40
0.525731133
 40
0.5335933648
 40
0.5425352971
 40
0.5525444044
 40
0.5636029308
 40
0.5756889038
 40
0.5887768438
 40
0.602838082
 40
0.6178409741
 40
0.6337512608
 40
0.6505322318
 40
0.6865473001
 40
0.7255484411
 40
0.767166855
 40
0.8110074034
 40
0.8566526646
 40
0.9036673427
 40
0.9516021297
 40
1.0
 40
1.0
 40
1.0
 40
1.0
 10
4.3879619565
 20
5.1102016023
 30
0.0
 10
4.3827808732
 20
5.1102016023
 30
0.0
 10
4.3724682252
 20
5.1102455473
 30
0.0
 10
4.3571237078
 20
5.1104429644
 30
0.0
 10
4.3420761189
 20
5.1107698162
 30
0.0
 10
4.327470285
 20
5.1112228604
 30
0.0
 10
4.3134468526
 20
5.1117975837
 30
0.0
 10
4.3001407744
 20
5.1124882087
 30
0.0
 10
4.2876801172
 20
5.1132878355
 30
0.0
 10
4.2778826054
 20
5.1140550247
 30
0.0
 10
4.270557843
 20
5.1147238083
 30
0.0
 10
4.265477734
 20
5.1152356904
 30
0.0
 10
4.2606926042
 20
5.1157684324
 30
0.0
 10
4.25621395
 20
5.1163207174
 30
0.0
 10
4.2520525199
 20
5.1168911447
 30
0.0
 10
4.2482182684
 20
5.1174782419
 30
0.0
 10
4.2447203395
 20
5.118080473
 30
0.0
 10
4.2415669674
 20
5.1186961854
 30
0.0
 10
4.2387655905
 20
5.1193237554
 30
0.0
 10
4.2366591594
 20
5.1198731234
 30
0.0
 10
4.235157664
 20
5.1203227183
 30
0.0
 10
4.2341651124
 20
5.1206495886
 30
0.0
 10
4.2332649561
 20
5.1209783298
 30
0.0
 10
4.232457642
 20
5.1213087374
 30
0.0
 10
4.2317435102
 20
5.1216406086
 30
0.0
 10
4.2311227894
 20
5.1219738113
 30
0.0
 10
4.2305955353
 20
5.1223082661
 30
0.0
 10
4.2301616483
 20
5.1226441484
 30
0.0
 10
4.2298209899
 20
5.1229821138
 30
0.0
 10
4.2295737929
 20
5.1233235268
 30
0.0
 10
4.2294220455
 20
5.1236703319
 30
0.0
 10
4.2293704489
 20
5.1240223011
 30
0.0
 10
4.2294220455
 20
5.1243742702
 30
0.0
 10
4.2295737929
 20
5.1247210753
 30
0.0
 10
4.2298209899
 20
5.1250624884
 30
0.0
 10
4.2301616483
 20
5.1254004538
 30
0.0
 10
4.2305955353
 20
5.125736336
 30
0.0
 10
4.2311227894
 20
5.1260707909
 30
0.0
 10
4.2317435102
 20
5.1264039935
 30
0.0
 10
4.232457642
 20
5.1267358647
 30
0.0
 10
4.2332649561
 20
5.1270662724
 30
0.0
 10
4.2341651124
 20
5.1273950136
 30
0.0
 10
4.235157664
 20
5.1277218838
 30
0.0
 10
4.2366591594
 20
5.1281714787
 30
0.0
 10
4.2387655905
 20
5.1287208467
 30
0.0
 10
4.2415669674
 20
5.1293484168
 30
0.0
 10
4.2447203395
 20
5.1299641291
 30
0.0
 10
4.2482182684
 20
5.1305663602
 30
0.0
 10
4.2520525199
 20
5.1311534574
 30
0.0
 10
4.25621395
 20
5.1317238848
 30
0.0
 10
4.2606926042
 20
5.1322761697
 30
0.0
 10
4.265477734
 20
5.1328089118
 30
0.0
 10
4.270557843
 20
5.1333207939
 30
0.0
 10
4.2778826054
 20
5.1339895774
 30
0.0
 10
4.2876801172
 20
5.1347567667
 30
0.0
 10
4.3001407744
 20
5.1355563934
 30
0.0
 10
4.3134468526
 20
5.1362470185
 30
0.0
 10
4.327470285
 20
5.1368217417
 30
0.0
 10
4.3420761189
 20
5.1372747859
 30
0.0
 10
4.3571237078
 20
5.1376016378
 30
0.0
 10
4.3724682252
 20
5.1377990549
 30
0.0
 10
4.3827808732
 20
5.1378429999
 30
0.0
 10
4.3879619565
 20
5.1378429999
 30
0.0
  0
SPLINE
  5
582
100
AcDbEntity
  8
0
100
AcDbSpline
 62
7
  6
CONTINUOUS
 70
0
 71
3
 72
51
 73
47
 74
0
 42
0.0000001
 43
0.0000001
 44
0.0000000001
 40
0.0
 40
0.0
 40
0.0
 40
0.0
 40
0.1010926553
 40
0.1999565554
 40
0.2958731787
 40
0.3881633194
 40
0.4761885844
 40
0.5593395514
 40
0.6370264566
 40
0.7086705348
 40
0.7420477029
 40
0.7736997715
 40
0.8035564341
 40
0.8315477683
 40
0.8576055424
 40
0.881662631
 40
0.9036547368
 40
0.9235198014
 40
0.9411999678
 40
0.9492035332
 40
0.9566412198
 40
0.9635069838
 40
0.9697949869
 40
0.9755003701
 40
0.9806185516
 40
0.9851449507
 40
0.9890755647
 40
0.9908165165
 40
0.9924074199
 40
0.993847916
 40
0.995137646
 40
0.9962762515
 40
0.9972634523
 40
0.9980991109
 40
0.9987831054
 40
0.9990681904
 40
0.9993153136
 40
0.9995244597
 40
0.9996956135
 40
0.9998287597
 40
0.9998810752
 40
0.999923883
 40
0.9999571813
 40
0.9999809682
 40
0.9999952417
 40
1.0
 40
1.0
 40
1.0
 40
1.0
 10
2.1267119565
 20
3.5574906876
 30
0.0
 10
2.1265387053
 20
3.5603405046
 30
0.0
 10
2.1261043836
 20
3.5659721606
 30
0.0
 10
2.1251982573
 20
3.5742802688
 30
0.0
 10
2.124075982
 20
3.5823109221
 30
0.0
 10
2.1227765618
 20
3.5900043375
 30
0.0
 10
2.1213432037
 20
3.5973066656
 30
0.0
 10
2.1198215354
 20
3.604169062
 30
0.0
 10
2.1182582488
 20
3.6105465331
 30
0.0
 10
2.116930079
 20
3.6155330909
 30
0.0
 10
2.1158860898
 20
3.6192492206
 30
0.0
 10
2.1151400094
 20
3.6218230853
 30
0.0
 10
2.1144175745
 20
3.6242453488
 30
0.0
 10
2.1137241302
 20
3.6265113191
 30
0.0
 10
2.1130647249
 20
3.628616361
 30
0.0
 10
2.1124443115
 20
3.6305560255
 30
0.0
 10
2.111867471
 20
3.6323259701
 30
0.0
 10
2.1113386224
 20
3.6339221104
 30
0.0
 10
2.1109286845
 20
3.6351414465
 30
0.0
 10
2.1106279971
 20
3.6360272238
 30
0.0
 10
2.1104244198
 20
3.6366234247
 30
0.0
 10
2.110235595
 20
3.6371734641
 30
0.0
 10
2.1100619193
 20
3.6376769768
 30
0.0
 10
2.1099037143
 20
3.6381336161
 30
0.0
 10
2.1097612836
 20
3.6385430673
 30
0.0
 10
2.1096349283
 20
3.6389050408
 30
0.0
 10
2.1095397626
 20
3.6391768771
 30
0.0
 10
2.109471863
 20
3.6393704203
 30
0.0
 10
2.1094271945
 20
3.6394975848
 30
0.0
 10
2.1093867079
 20
3.6396127115
 30
0.0
 10
2.1093504265
 20
3.6397157763
 30
0.0
 10
2.1093183734
 20
3.6398067574
 30
0.0
 10
2.1092905675
 20
3.6398856382
 30
0.0
 10
2.1092670176
 20
3.6399524059
 30
0.0
 10
2.1092500549
 20
3.6400004701
 30
0.0
 10
2.1092386187
 20
3.6400328589
 30
0.0
 10
2.1092316467
 20
3.6400526006
 30
0.0
 10
2.1092257419
 20
3.6400693101
 30
0.0
 10
2.1092209158
 20
3.6400829776
 30
0.0
 10
2.1092175464
 20
3.6400924841
 30
0.0
 10
2.1092154167
 20
3.6400985459
 30
0.0
 10
2.1092141668
 20
3.6401019994
 30
0.0
 10
2.1092133312
 20
3.640104571
 30
0.0
 10
2.1092124213
 20
3.6401066705
 30
0.0
 10
2.1092124352
 20
3.6401074606
 30
0.0
 10
2.109211824
 20
3.6401083295
 30
0.0
 10
2.1092119565
 20
3.6401083075
 30
0.0
  0
LINE
  5
583
100
AcDbEntity
  8
0
100
AcDbLine
 62
7
  6
CONTINUOUS
 10
6.5482763031
 20
3.7753533445
 11
6.5480138134
 21
3.7753985335
  0
LINE
  5
584
100
AcDbEntity
  8
0
100
AcDbLine
 62
7
  6
CONTINUOUS
 10
6.5480138134
 20
3.7753985335
 11
6.5458019595
 21
3.7757412357
  0
SPLINE
  5
585
100
AcDbEntity
  8
0
100
AcDbSpline
 62
7
  6
CONTINUOUS
 70
0
 71
3
 72
39
 73
35
 74
0
 42
0.0000001
 43
0.0000001
 44
0.0000000001
 40
0.0
 40
0.0
 40
0.0
 40
0.0
 40
0.0352249384
 40
0.0699583162
 40
0.1041765515
 40
0.13785342
 40
0.1709667047
 40
0.2034995706
 40
0.2354403254
 40
0.2667855615
 40
0.2975420565
 40
0.3277292452
 40
0.3573816275
 40
0.3865502503
 40
0.4153036641
 40
0.443727478
 40
0.4719221403
 40
0.499999224
 40
0.5280763093
 40
0.556270976
 40
0.584694797
 40
0.6134482201
 40
0.6426168543
 40
0.6722692494
 40
0.7024564518
 40
0.733212962
 40
0.7645582138
 40
0.7964989758
 40
0.8290318687
 40
0.8621451954
 40
0.8958219511
 40
0.9300402109
 40
0.9647743927
 40
1.0
 40
1.0
 40
1.0
 40
1.0
 10
6.1984467307
 20
2.6867678355
 30
0.0
 10
6.1966137595
 20
2.6885955237
 30
0.0
 10
6.1929332684
 20
2.6921854697
 30
0.0
 10
6.1873251186
 20
2.6973974531
 30
0.0
 10
6.1816666171
 20
2.7023845936
 30
0.0
 10
6.1759554755
 20
2.707127414
 30
0.0
 10
6.1701907513
 20
2.7116061851
 30
0.0
 10
6.1643723535
 20
2.7158008628
 30
0.0
 10
6.1585003217
 20
2.7196900897
 30
0.0
 10
6.1525754595
 20
2.7232518975
 30
0.0
 10
6.1465993665
 20
2.7264640217
 30
0.0
 10
6.1405746214
 20
2.7293044186
 30
0.0
 10
6.1345048265
 20
2.7317516779
 30
0.0
 10
6.128394727
 20
2.733785652
 30
0.0
 10
6.1222503665
 20
2.735388456
 30
0.0
 10
6.1160789616
 20
2.7365450089
 30
0.0
 10
6.1098887972
 20
2.7372436817
 30
0.0
 10
6.1036890399
 20
2.7374773571
 30
0.0
 10
6.0974892828
 20
2.73724367
 30
0.0
 10
6.0912991188
 20
2.7365449856
 30
0.0
 10
6.0851277144
 20
2.7353884213
 30
0.0
 10
6.0789833547
 20
2.7337856063
 30
0.0
 10
6.0728732561
 20
2.7317516216
 30
0.0
 10
6.0668034624
 20
2.729304352
 30
0.0
 10
6.0607787182
 20
2.7264639461
 30
0.0
 10
6.0548026266
 20
2.7232518125
 30
0.0
 10
6.0488777675
 20
2.719689994
 30
0.0
 10
6.0430057322
 20
2.7158007661
 30
0.0
 10
6.037187335
 20
2.7116060771
 30
0.0
 10
6.0314226411
 20
2.7071272729
 30
0.0
 10
6.025711457
 20
2.7023845112
 30
0.0
 10
6.0200528717
 20
2.6973973821
 30
0.0
 10
6.0144449121
 20
2.6921850279
 30
0.0
 10
6.0107645094
 20
2.6885948403
 30
0.0
 10
6.0089315048
 20
2.6867671159
 30
0.0
  0
SPLINE
  5
586
100
AcDbEntity
  8
0
100
AcDbSpline
 62
7
  6
CONTINUOUS
 70
0
 71
3
 72
33
 73
29
 74
0
 42
0.0000001
 43
0.0000001
 44
0.0000000001
 40
0.0
 40
0.0
 40
0.0
 40
0.0
 40
0.0624986917
 40
0.0937494909
 40
0.1250001737
 40
0.1562510231
 40
0.1875020004
 40
0.2499978623
 40
0.3124925232
 40
0.3437436734
 40
0.3749949141
 40
0.4062461404
 40
0.4374973939
 40
0.4687487061
 40
0.5
 40
0.531251294
 40
0.5625026062
 40
0.5937538597
 40
0.625005086
 40
0.6562563266
 40
0.6875074769
 40
0.7500021378
 40
0.8124979996
 40
0.8437489769
 40
0.8749998263
 40
0.906250509
 40
0.9375013083
 40
1.0
 40
1.0
 40
1.0
 40
1.0
 10
6.5774771824
 20
2.6867680786
 30
0.0
 10
6.5700956906
 20
2.6904481988
 30
0.0
 10
6.5589237324
 20
2.695773117
 30
0.0
 10
6.5438262629
 20
2.7024234417
 30
0.0
 10
6.5323977324
 20
2.7071664256
 30
0.0
 10
6.5208626706
 20
2.7116446241
 30
0.0
 10
6.5053414633
 20
2.7172354932
 30
0.0
 10
6.4856723832
 20
2.7234593441
 30
0.0
 10
6.4656672954
 20
2.7285143806
 30
0.0
 10
6.4494930647
 20
2.7317700422
 30
0.0
 10
6.4372851539
 20
2.7337986035
 30
0.0
 10
6.4250133346
 20
2.7353962687
 30
0.0
 10
6.4126915454
 20
2.7365485803
 30
0.0
 10
6.4003354738
 20
2.7372444415
 30
0.0
 10
6.3879619565
 20
2.7374771376
 30
0.0
 10
6.3755884391
 20
2.7372444415
 30
0.0
 10
6.3632323675
 20
2.7365485803
 30
0.0
 10
6.3509105783
 20
2.7353962687
 30
0.0
 10
6.338638759
 20
2.7337986035
 30
0.0
 10
6.3264308483
 20
2.7317700422
 30
0.0
 10
6.3102566176
 20
2.7285143805
 30
0.0
 10
6.2902515298
 20
2.7234593441
 30
0.0
 10
6.2705824496
 20
2.7172354932
 30
0.0
 10
6.2550612423
 20
2.7116446241
 30
0.0
 10
6.2435261806
 20
2.7071664256
 30
0.0
 10
6.2320976501
 20
2.7024234417
 30
0.0
 10
6.2170001806
 20
2.695773117
 30
0.0
 10
6.2058282224
 20
2.6904481986
 30
0.0
 10
6.1984467307
 20
2.6867680785
 30
0.0
  0
LINE
  5
587
100
AcDbEntity
  8
0
100
AcDbLine
 62
7
  6
CONTINUOUS
 10
6.2369464653
 20
3.7771044995
 11
6.2536058392
 21
3.7797957931
  0
SPLINE
  5
588
100
AcDbEntity
  8
0
100
AcDbSpline
 62
7
  6
CONTINUOUS
 70
0
 71
3
 72
30
 73
26
 74
0
 42
0.0000001
 43
0.0000001
 44
0.0000000001
 40
0.0
 40
0.0
 40
0.0
 40
0.0
 40
0.2084417472
 40
0.3071700807
 40
0.4013772282
 40
0.4904718665
 40
0.5738731731
 40
0.6510462111
 40
0.7214942251
 40
0.7847701882
 40
0.8404644144
 40
0.8882255978
 40
0.9090329003
 40
0.9277488464
 40
0.9443430741
 40
0.9587884857
 40
0.9710668135
 40
0.981162702
 40
0.989064308
 40
0.9921925328
 40
0.9947753534
 40
0.9968183502
 40
0.9983339652
 40
0.999355436
 40
1.0
 40
1.0
 40
1.0
 40
1.0
 10
6.3929619565
 20
3.7914920385
 30
0.0
 10
6.3937098952
 20
3.7914959108
 30
0.0
 10
6.3948120866
 20
3.7915035359
 30
0.0
 10
6.3962522715
 20
3.7915179688
 30
0.0
 10
6.3972642013
 20
3.7915303639
 30
0.0
 10
6.398221106
 20
3.791544438
 30
0.0
 10
6.3991168541
 20
3.7915600998
 30
0.0
 10
6.399945653
 20
3.791577238
 30
0.0
 10
6.4007021877
 20
3.7915957382
 30
0.0
 10
6.4013815915
 20
3.7916154569
 30
0.0
 10
6.4019795131
 20
3.7916362614
 30
0.0
 10
6.4024250122
 20
3.7916551005
 30
0.0
 10
6.4027378148
 20
3.791670939
 30
0.0
 10
6.402938853
 20
3.7916824468
 30
0.0
 10
6.4031170118
 20
3.7916941082
 30
0.0
 10
6.4032720042
 20
3.791705901
 30
0.0
 10
6.4034035962
 20
3.7917177768
 30
0.0
 10
6.4035115838
 20
3.7917297047
 30
0.0
 10
6.4035866781
 20
3.7917402472
 30
0.0
 10
6.4036347304
 20
3.7917490658
 30
0.0
 10
6.4036618857
 20
3.7917551704
 30
0.0
 10
6.4036831134
 20
3.7917611438
 30
0.0
 10
6.4036984324
 20
3.7917672608
 30
0.0
 10
6.4037083654
 20
3.7917728927
 30
0.0
 10
6.4037119565
 20
3.7917784893
 30
0.0
 10
6.4037119565
 20
3.7917808022
 30
0.0
  0
LINE
  5
589
100
AcDbEntity
  8
0
100
AcDbLine
 62
7
  6
CONTINUOUS
 10
2.3661119565
 20
3.7918003655
 11
2.3666112136
 21
3.7917590204
  0
SPLINE
  5
58A
100
AcDbEntity
  8
0
100
AcDbSpline
 62
7
  6
CONTINUOUS
 70
0
 71
3
 72
23
 73
19
 74
0
 42
0.0000001
 43
0.0000001
 44
0.0000000001
 40
0.0
 40
0.0
 40
0.0
 40
0.0
 40
0.0200496335
 40
0.0551361354
 40
0.1091255375
 40
0.1825095406
 40
0.2709720493
 40
0.3703291871
 40
0.4765426509
 40
0.5835094739
 40
0.6846252334
 40
0.7756747498
 40
0.8531724451
 40
0.9131969696
 40
0.9549590115
 40
0.9810040256
 40
0.9949086773
 40
1.0
 40
1.0
 40
1.0
 40
1.0
 10
2.3666112136
 20
3.7917590204
 30
0.0
 10
2.366891327
 20
3.791741187
 30
0.0
 10
2.3676623699
 20
3.7917041033
 30
0.0
 10
2.3691892973
 20
3.7916551688
 30
0.0
 10
2.371463212
 20
3.7916096976
 30
0.0
 10
2.3744845544
 20
3.7915734463
 30
0.0
 10
2.3781410998
 20
3.791543305
 30
0.0
 10
2.382257301
 20
3.7915215792
 30
0.0
 10
2.3866326078
 20
3.7915133562
 30
0.0
 10
2.3910325223
 20
3.7915271642
 30
0.0
 10
2.395220063
 20
3.7915563044
 30
0.0
 10
2.3989949707
 20
3.791593737
 30
0.0
 10
2.4021945497
 20
3.7916352093
 30
0.0
 10
2.404703986
 20
3.791682286
 30
0.0
 10
2.4064928794
 20
3.7917315469
 30
0.0
 10
2.4076359853
 20
3.7917754347
 30
0.0
 10
2.4082656596
 20
3.791808622
 30
0.0
 10
2.4085310253
 20
3.7918263146
 30
0.0
 10
2.4086020406
 20
3.7918323925
 30
0.0
  0
SPLINE
  5
58B
100
AcDbEntity
  8
0
100
AcDbSpline
 62
7
  6
CONTINUOUS
 70
0
 71
3
 72
39
 73
35
 74
0
 42
0.0000001
 43
0.0000001
 44
0.0000000001
 40
0.0
 40
0.0
 40
0.0
 40
0.0
 40
0.0352256072
 40
0.0699597889
 40
0.1041780487
 40
0.1378548044
 40
0.1709681311
 40
0.2035010241
 40
0.235441786
 40
0.2667870378
 40
0.297543548
 40
0.3277307504
 40
0.3573831456
 40
0.3865517797
 40
0.4153052029
 40
0.4437290239
 40
0.4719236905
 40
0.5000007758
 40
0.5280778595
 40
0.5562725218
 40
0.5846963358
 40
0.6134497495
 40
0.6426183723
 40
0.6722707546
 40
0.7024579433
 40
0.7332144383
 40
0.7645596743
 40
0.7965004292
 40
0.8290332951
 40
0.8621465797
 40
0.8958234482
 40
0.9300416836
 40
0.9647750615
 40
1.0
 40
1.0
 40
1.0
 40
1.0
 10
6.7669924082
 20
2.686767116
 30
0.0
 10
6.7651594037
 20
2.6885948404
 30
0.0
 10
6.7614790009
 20
2.692185028
 30
0.0
 10
6.7558710413
 20
2.6973973821
 30
0.0
 10
6.750212456
 20
2.7023845112
 30
0.0
 10
6.744501272
 20
2.7071272729
 30
0.0
 10
6.738736578
 20
2.7116060771
 30
0.0
 10
6.7329181809
 20
2.7158007661
 30
0.0
 10
6.7270461455
 20
2.719689994
 30
0.0
 10
6.7211212865
 20
2.7232518125
 30
0.0
 10
6.7151451948
 20
2.7264639461
 30
0.0
 10
6.7091204506
 20
2.729304352
 30
0.0
 10
6.7030506569
 20
2.7317516216
 30
0.0
 10
6.6969405583
 20
2.7337856063
 30
0.0
 10
6.6907961986
 20
2.7353884213
 30
0.0
 10
6.6846247942
 20
2.7365449856
 30
0.0
 10
6.6784346302
 20
2.73724367
 30
0.0
 10
6.6722348731
 20
2.7374773571
 30
0.0
 10
6.6660351158
 20
2.7372436817
 30
0.0
 10
6.6598449515
 20
2.7365450089
 30
0.0
 10
6.6536735465
 20
2.735388456
 30
0.0
 10
6.647529186
 20
2.733785652
 30
0.0
 10
6.6414190865
 20
2.7317516779
 30
0.0
 10
6.6353492916
 20
2.7293044186
 30
0.0
 10
6.6293245465
 20
2.7264640217
 30
0.0
 10
6.6233484536
 20
2.7232518975
 30
0.0
 10
6.6174235913
 20
2.7196900897
 30
0.0
 10
6.6115515595
 20
2.7158008628
 30
0.0
 10
6.6057331618
 20
2.7116061851
 30
0.0
 10
6.5999684375
 20
2.707127414
 30
0.0
 10
6.5942572959
 20
2.7023845936
 30
0.0
 10
6.5885987944
 20
2.6973974531
 30
0.0
 10
6.5829906446
 20
2.6921854696
 30
0.0
 10
6.5793101536
 20
2.6885955236
 30
0.0
 10
6.5774771824
 20
2.6867678354
 30
0.0
  0
LINE
  5
58C
100
AcDbEntity
  8
0
100
AcDbLine
 62
7
  6
CONTINUOUS
 10
6.4487119565
 20
3.7890981592
 11
6.4615445515
 21
3.7882392075
  0
SPLINE
  5
58D
100
AcDbEntity
  8
0
100
AcDbSpline
 62
7
  6
CONTINUOUS
 70
0
 71
3
 72
28
 73
24
 74
0
 42
0.0000001
 43
0.0000001
 44
0.0000000001
 40
0.0
 40
0.0
 40
0.0
 40
0.0
 40
0.0006075346
 40
0.0016719335
 40
0.0054829395
 40
0.0116364931
 40
0.0201462405
 40
0.0310021531
 40
0.0441817685
 40
0.0596555138
 40
0.0773869981
 40
0.0973337769
 40
0.119448327
 40
0.1699614865
 40
0.2284401768
 40
0.2943215587
 40
0.3669719621
 40
0.4456920824
 40
0.5297228712
 40
0.6182582899
 40
0.710449141
 40
0.8054060077
 40
1.0
 40
1.0
 40
1.0
 40
1.0
 10
6.4217119565
 20
3.7912057557
 30
0.0
 10
6.4217119565
 20
3.7912027051
 30
0.0
 10
6.4217179454
 20
3.7911953054
 30
0.0
 10
6.4217420198
 20
3.7911828794
 30
0.0
 10
6.4217957272
 20
3.7911664908
 30
0.0
 10
6.4218860022
 20
3.7911466421
 30
0.0
 10
6.4220123245
 20
3.7911240837
 30
0.0
 10
6.422173806
 20
3.7910993293
 30
0.0
 10
6.4223703887
 20
3.7910724157
 30
0.0
 10
6.4226014949
 20
3.7910434922
 30
0.0
 10
6.4228666033
 20
3.7910126377
 30
0.0
 10
6.4231650572
 20
3.7909799426
 30
0.0
 10
6.4236274097
 20
3.7909318448
 30
0.0
 10
6.4242826651
 20
3.7908682576
 30
0.0
 10
6.4251571749
 20
3.7907889669
 30
0.0
 10
6.4261428165
 20
3.7907044964
 30
0.0
 10
6.4272300865
 20
3.7906156745
 30
0.0
 10
6.4284085031
 20
3.7905233779
 30
0.0
 10
6.42966672
 20
3.7904285024
 30
0.0
 10
6.4309926398
 20
3.7903319677
 30
0.0
 10
6.4323735112
 20
3.7902347059
 30
0.0
 10
6.4342859117
 20
3.7901042403
 30
0.0
 10
6.4357367757
 20
3.7900098563
 30
0.0
 10
6.4367119565
 20
3.7899483695
 30
0.0
  0
LINE
  5
58E
100
AcDbEntity
  8
0
100
AcDbLine
 62
7
  6
CONTINUOUS
 10
6.4837933338
 20
3.7855768254
 11
6.4879619565
 21
3.7853049659
  0
SPLINE
  5
58F
100
AcDbEntity
  8
0
100
AcDbSpline
 62
7
  6
CONTINUOUS
 70
0
 71
3
 72
23
 73
19
 74
0
 42
0.0000001
 43
0.0000001
 44
0.0000000001
 40
0.0
 40
0.0
 40
0.0
 40
0.0
 40
0.0194905863
 40
0.0539989437
 40
0.1075374381
 40
0.180766689
 40
0.2693719786
 40
0.3690559958
 40
0.4757196211
 40
0.5831973004
 40
0.6847987147
 40
0.7762425097
 40
0.8539780347
 40
0.9140345682
 40
0.9556762078
 40
0.9815111735
 40
0.9951663958
 40
1.0
 40
1.0
 40
1.0
 40
1.0
 10
6.3265808717
 20
3.789622193
 30
0.0
 10
6.3268543059
 20
3.7896185333
 30
0.0
 10
6.3276119948
 20
3.7896205274
 30
0.0
 10
6.3291205355
 20
3.7896492873
 30
0.0
 10
6.3313822229
 20
3.7897202476
 30
0.0
 10
6.3344016206
 20
3.7898397014
 30
0.0
 10
6.3380673561
 20
3.7899988505
 30
0.0
 10
6.3422011937
 20
3.7901906024
 30
0.0
 10
6.3465988219
 20
3.7904095778
 30
0.0
 10
6.3510221644
 20
3.7906520001
 30
0.0
 10
6.3552313633
 20
3.7908988689
 30
0.0
 10
6.3590233143
 20
3.7911324559
 30
0.0
 10
6.3622328669
 20
3.7913399688
 30
0.0
 10
6.364744166
 20
3.7915170598
 30
0.0
 10
6.3665279017
 20
3.7916586685
 30
0.0
 10
6.3676616342
 20
3.7917610709
 30
0.0
 10
6.3682801218
 20
3.7918259501
 30
0.0
 10
6.3685377415
 20
3.7918565319
 30
0.0
 10
6.368604919
 20
3.7918658226
 30
0.0
  0
SPLINE
  5
590
100
AcDbEntity
  8
0
100
AcDbSpline
 62
7
  6
CONTINUOUS
 70
0
 71
3
 72
46
 73
42
 74
0
 42
0.0000001
 43
0.0000001
 44
0.0000000001
 40
0.0
 40
0.0
 40
0.0
 40
0.0
 40
0.0000190061
 40
0.0000427636
 40
0.0000760242
 40
0.0001710545
 40
0.0003040968
 40
0.0004751512
 40
0.0006842177
 40
0.0009312963
 40
0.0012163862
 40
0.0019005212
 40
0.0027363901
 40
0.003723743
 40
0.0048623304
 40
0.0061519029
 40
0.0075922108
 40
0.0109240194
 40
0.0148550007
 40
0.0193813652
 40
0.0244992504
 40
0.0302047376
 40
0.0364930267
 40
0.0433586466
 40
0.0587998456
 40
0.0764800271
 40
0.0963451422
 40
0.1183371997
 40
0.1423943942
 40
0.1684521418
 40
0.1964435655
 40
0.2263001659
 40
0.2913289289
 40
0.3629729829
 40
0.4406598757
 40
0.5238109042
 40
0.6118362168
 40
0.7041264118
 40
0.8000430492
 40
0.8989073279
 40
1.0
 40
1.0
 40
1.0
 40
1.0
 10
6.6667119387
 20
3.6401082892
 30
0.0
 10
6.666711567
 20
3.640107902
 30
0.0
 10
6.6667114694
 20
3.6401065755
 30
0.0
 10
6.666710597
 20
3.640104648
 30
0.0
 10
6.6667092571
 20
3.6401005435
 30
0.0
 10
6.6667067328
 20
3.6400936252
 30
0.0
 10
6.666703012
 20
3.6400829762
 30
0.0
 10
6.666698174
 20
3.640069318
 30
0.0
 10
6.6666922809
 20
3.6400526124
 30
0.0
 10
6.6666853093
 20
3.6400328737
 30
0.0
 10
6.6666738727
 20
3.6400004822
 30
0.0
 10
6.6666569004
 20
3.6399524107
 30
0.0
 10
6.6666333378
 20
3.6398856326
 30
0.0
 10
6.6666055226
 20
3.6398067447
 30
0.0
 10
6.6665734716
 20
3.6397157637
 30
0.0
 10
6.6665372006
 20
3.6396127063
 30
0.0
 10
6.6664804172
 20
3.6394512025
 30
0.0
 10
6.6663990061
 20
3.639219282
 30
0.0
 10
6.6662889696
 20
3.6389050391
 30
0.0
 10
6.6661626205
 20
3.6385430627
 30
0.0
 10
6.6660202102
 20
3.6381336116
 30
0.0
 10
6.6658619965
 20
3.6376769729
 30
0.0
 10
6.6656883007
 20
3.6371734602
 30
0.0
 10
6.6654261018
 20
3.636409621
 30
0.0
 10
6.6650621588
 20
3.6353405493
 30
0.0
 10
6.6645852936
 20
3.6339221046
 30
0.0
 10
6.6640564339
 20
3.6323259688
 30
0.0
 10
6.6634796069
 20
3.6305560182
 30
0.0
 10
6.6628591774
 20
3.6286163597
 30
0.0
 10
6.6621997888
 20
3.6265113098
 30
0.0
 10
6.6615063279
 20
3.6242453454
 30
0.0
 10
6.6605145033
 20
3.6209197642
 30
0.0
 10
6.6592239189
 20
3.6163969113
 30
0.0
 10
6.6576656655
 20
3.610546543
 30
0.0
 10
6.6561023782
 20
3.6041690666
 30
0.0
 10
6.6545807096
 20
3.5973066766
 30
0.0
 10
6.6531473507
 20
3.5900043493
 30
0.0
 10
6.651847931
 20
3.5823109373
 30
0.0
 10
6.6507256538
 20
3.5742802782
 30
0.0
 10
6.64981953
 20
3.5659721651
 30
0.0
 10
6.6493852076
 20
3.5603405027
 30
0.0
 10
6.6492119565
 20
3.5574906876
 30
0.0
  0
SPLINE
  5
591
100
AcDbEntity
  8
0
100
AcDbSpline
 62
7
  6
CONTINUOUS
 70
0
 71
3
 72
20
 73
16
 74
0
 42
0.0000001
 43
0.0000001
 44
0.0000000001
 40
0.0
 40
0.0
 40
0.0
 40
0.0
 40
0.0666418048
 40
0.1331218882
 40
0.1992902238
 40
0.2650120162
 40
0.3301764687
 40
0.3946982064
 40
0.4585171457
 40
0.5215965933
 40
0.5839195717
 40
0.6454852621
 40
0.7663670826
 40
0.8844586747
 40
1.0
 40
1.0
 40
1.0
 40
1.0
 10
9.3879619565
 20
4.1280458075
 30
0.0
 10
9.3838370418
 20
4.128045866
 30
0.0
 10
9.3755950817
 20
4.1282977327
 30
0.0
 10
9.3633034968
 20
4.1294178852
 30
0.0
 10
9.3511573841
 20
4.131265876
 30
0.0
 10
9.3392218171
 20
4.1338113745
 30
0.0
 10
9.3275520518
 20
4.1370158281
 30
0.0
 10
9.316193641
 20
4.1408356937
 30
0.0
 10
9.3051817602
 20
4.1452239947
 30
0.0
 10
9.2945422187
 20
4.1501330634
 30
0.0
 10
9.2842916857
 20
4.1555156458
 30
0.0
 10
9.2712379331
 20
4.163215561
 30
0.0
 10
9.2559018553
 20
4.1737954614
 30
0.0
 10
9.2389891149
 20
4.1878148003
 30
0.0
 10
9.228634182
 20
4.1979346608
 30
0.0
 10
9.2237152394
 20
4.2031259941
 30
0.0
  0
LINE
  5
592
100
AcDbEntity
  8
0
100
AcDbLine
 62
7
  6
CONTINUOUS
 10
6.4686447128
 20
3.787283271
 11
6.4697141977
 21
3.7871591769
  0
LINE
  5
593
100
AcDbEntity
  8
0
100
AcDbLine
 62
7
  6
CONTINUOUS
 10
2.4086119565
 20
3.7913330893
 11
2.4077058359
 21
3.7912804775
  0
SPLINE
  5
594
100
AcDbEntity
  8
0
100
AcDbSpline
 62
7
  6
CONTINUOUS
 70
0
 71
3
 72
22
 73
18
 74
0
 42
0.0000001
 43
0.0000001
 44
0.0000000001
 40
0.0
 40
0.0
 40
0.0
 40
0.0
 40
0.0227391847
 40
0.0566005125
 40
0.1033031638
 40
0.1631888523
 40
0.2343847295
 40
0.3145140572
 40
0.4015755767
 40
0.4930915643
 40
0.6739448609
 40
0.7563599858
 40
0.8302781324
 40
0.8930950243
 40
0.9420495929
 40
0.9770313377
 40
1.0
 40
1.0
 40
1.0
 40
1.0
 10
2.4077058359
 20
3.7912804775
 30
0.0
 10
2.4073977719
 20
3.7912663566
 30
0.0
 10
2.4066307167
 20
3.7912366386
 30
0.0
 10
2.4052303094
 20
3.7911956681
 30
0.0
 10
2.4033259626
 20
3.7911547386
 30
0.0
 10
2.4009151424
 20
3.7911174736
 30
0.0
 10
2.3980509101
 20
3.7910835354
 30
0.0
 10
2.3948180624
 20
3.7910531854
 30
0.0
 10
2.3913095735
 20
3.7910291402
 30
0.0
 10
2.3864350172
 20
3.7910107508
 30
0.0
 10
2.3816234188
 20
3.7910223358
 30
0.0
 10
2.3770506052
 20
3.7910513482
 30
0.0
 10
2.3740786174
 20
3.7910778357
 30
0.0
 10
2.3715604886
 20
3.7911089184
 30
0.0
 10
2.3695705646
 20
3.7911466787
 30
0.0
 10
2.3681212852
 20
3.7911877484
 30
0.0
 10
2.3673359776
 20
3.7912196269
 30
0.0
 10
2.3670248777
 20
3.7912354036
 30
0.0
  0
LINE
  5
595
100
AcDbEntity
  8
0
100
AcDbLine
 62
7
  6
CONTINUOUS
 10
2.3670248777
 20
3.7912354036
 11
2.3661119565
 21
3.7913001667
  0
LINE
  5
596
100
AcDbEntity
  8
0
100
AcDbLine
 62
7
  6
CONTINUOUS
 10
2.2637119565
 20
3.78134273
 11
2.2636207869
 21
3.7812895969
  0
LINE
  5
597
100
AcDbEntity
  8
0
100
AcDbLine
 62
7
  6
CONTINUOUS
 10
2.2636207869
 20
3.7812895969
 11
2.256454626
 21
3.7797724451
  0
SPLINE
  5
598
100
AcDbEntity
  8
0
100
AcDbSpline
 62
7
  6
CONTINUOUS
 70
0
 71
3
 72
8
 73
4
 74
0
 42
0.0000001
 43
0.0000001
 44
0.0000000001
 40
0.0
 40
0.0
 40
0.0
 40
0.0
 40
1.0
 40
1.0
 40
1.0
 40
1.0
 10
2.2555547305
 20
3.7796030924
 30
0.0
 10
2.2555238065
 20
3.7795973073
 30
0.0
 10
2.2554928818
 20
3.7795915255
 30
0.0
 10
2.2554619565
 20
3.7795857471
 30
0.0
  0
LINE
  5
599
100
AcDbEntity
  8
0
100
AcDbLine
 62
7
  6
CONTINUOUS
 10
6.3686119565
 20
3.7913666554
 11
6.3675467786
 21
3.7912519427
  0
SPLINE
  5
59A
100
AcDbEntity
  8
0
100
AcDbSpline
 62
7
  6
CONTINUOUS
 70
0
 71
3
 72
23
 73
19
 74
0
 42
0.0000001
 43
0.0000001
 44
0.0000000001
 40
0.0
 40
0.0
 40
0.0
 40
0.0
 40
0.0242705845
 40
0.0594729466
 40
0.1070441236
 40
0.1670539901
 40
0.2375721933
 40
0.316448603
 40
0.401834498
 40
0.4914328832
 40
0.5817558385
 40
0.6689584119
 40
0.7503818398
 40
0.8239658946
 40
0.8873913893
 40
0.9379307644
 40
0.9749499097
 40
1.0
 40
1.0
 40
1.0
 40
1.0
 10
6.3675467786
 20
3.7912519427
 30
0.0
 10
6.3672215062
 20
3.7912210185
 30
0.0
 10
6.3664239613
 20
3.7911504404
 30
0.0
 10
6.364987423
 20
3.7910361335
 30
0.0
 10
6.3630702111
 20
3.7908975437
 30
0.0
 10
6.3606778772
 20
3.7907380938
 30
0.0
 10
6.3578644396
 20
3.7905598339
 30
0.0
 10
6.3547095992
 20
3.7903674594
 30
0.0
 10
6.3512978708
 20
3.7901678104
 30
0.0
 10
6.3477317011
 20
3.7899697275
 30
0.0
 10
6.3441403337
 20
3.7897848127
 30
0.0
 10
6.3406583071
 20
3.7896170477
 30
0.0
 10
6.3374009786
 20
3.7894683733
 30
0.0
 10
6.3344630905
 20
3.7893415512
 30
0.0
 10
6.3319402589
 20
3.7892404665
 30
0.0
 10
6.3299088253
 20
3.7891710373
 30
0.0
 10
6.3283933218
 20
3.7891323769
 30
0.0
 10
6.3275577781
 20
3.7891204869
 30
0.0
 10
6.3272205494
 20
3.7891187634
 30
0.0
  0
LINE
  5
59B
100
AcDbEntity
  8
0
100
AcDbLine
 62
7
  6
CONTINUOUS
 10
6.3272205494
 20
3.7891187634
 11
6.3261119565
 21
3.7891358226
  0
LINE
  5
59C
100
AcDbEntity
  8
0
100
AcDbLine
 62
7
  6
CONTINUOUS
 10
2.2919619565
 20
3.7850330614
 11
2.2914347334
 21
3.7849744063
  0
LINE
  5
59D
100
AcDbEntity
  8
0
100
AcDbLine
 62
7
  6
CONTINUOUS
 10
2.2914347334
 20
3.7849744063
 11
2.2909171538
 21
3.7849175066
  0
LINE
  5
59E
100
AcDbEntity
  8
0
100
AcDbLine
 62
7
  6
CONTINUOUS
 10
2.2909171538
 20
3.7849175066
 11
2.2837119565
 21
3.7843255153
  0
LINE
  5
59F
100
AcDbEntity
  8
0
100
AcDbLine
 62
7
  6
CONTINUOUS
 10
6.4037119565
 20
3.7912805908
 11
6.4034415049
 21
3.7912218524
  0
LINE
  5
5A0
100
AcDbEntity
  8
0
100
AcDbLine
 62
7
  6
CONTINUOUS
 10
6.4034415049
 20
3.7912218524
 11
6.3936409435
 21
3.7909955267
  0
LINE
  5
5A1
100
AcDbEntity
  8
0
100
AcDbLine
 62
7
  6
CONTINUOUS
 10
6.3936409435
 20
3.7909955267
 11
6.3929619565
 21
3.7909916405
  0
SPLINE
  5
5A2
100
AcDbEntity
  8
0
100
AcDbSpline
 62
7
  6
CONTINUOUS
 70
0
 71
3
 72
11
 73
7
 74
0
 42
0.0000001
 43
0.0000001
 44
0.0000000001
 40
0.0
 40
0.0
 40
0.0
 40
0.0
 40
0.2699531632
 40
0.5297340019
 40
0.7745414889
 40
1.0
 40
1.0
 40
1.0
 40
1.0
 10
6.1267119565
 20
3.5540179811
 30
0.0
 10
6.1264955048
 20
3.5585747508
 30
0.0
 10
6.1258373645
 20
3.5675071952
 30
0.0
 10
6.1242234873
 20
3.5805010728
 30
0.0
 10
6.1221418004
 20
3.5926650604
 30
0.0
 10
6.1204818765
 20
3.6004390057
 30
0.0
 10
6.1196170837
 20
3.6041495602
 30
0.0
  0
SPLINE
  5
5A3
100
AcDbEntity
  8
0
100
AcDbSpline
 62
7
  6
CONTINUOUS
 70
0
 71
3
 72
14
 73
10
 74
0
 42
0.0000001
 43
0.0000001
 44
0.0000000001
 40
0.0
 40
0.0
 40
0.0
 40
0.0
 40
0.2193251681
 40
0.4143110235
 40
0.5824247861
 40
0.7220711266
 40
0.8327511611
 40
0.9150180158
 40
1.0
 40
1.0
 40
1.0
 40
1.0
 10
6.1196170837
 20
3.6041495602
 30
0.0
 10
6.1190699631
 20
3.6064970828
 30
0.0
 10
6.1179653528
 20
3.6109154854
 30
0.0
 10
6.1162087842
 20
3.6170718588
 30
0.0
 10
6.114522733
 20
3.622334614
 30
0.0
 10
6.1129840431
 20
3.6266690655
 30
0.0
 10
6.1116591068
 20
3.6300763539
 30
0.0
 10
6.1104730914
 20
3.632891505
 30
0.0
 10
6.109709527
 20
3.634564023
 30
0.0
 10
6.1093043711
 20
3.6354055414
 30
0.0
  0
LINE
  5
5A4
100
AcDbEntity
  8
0
100
AcDbLine
 62
7
  6
CONTINUOUS
 10
2.3087119565
 20
3.7873081098
 11
2.308622279
 21
3.7872611892
  0
LINE
  5
5A5
100
AcDbEntity
  8
0
100
AcDbLine
 62
7
  6
CONTINUOUS
 10
2.308622279
 20
3.7872611892
 11
2.3014739195
 21
3.7861770773
  0
LINE
  5
5A6
100
AcDbEntity
  8
0
100
AcDbLine
 62
7
  6
CONTINUOUS
 10
6.4615445515
 20
3.7877366983
 11
6.4487119565
 21
3.7885962092
  0
LINE
  5
5A7
100
AcDbEntity
  8
0
100
AcDbLine
 62
7
  6
CONTINUOUS
 10
2.3369619565
 20
3.7893262409
 11
2.336436516
 21
3.7892987155
  0
LINE
  5
5A8
100
AcDbEntity
  8
0
100
AcDbLine
 62
7
  6
CONTINUOUS
 10
2.336436516
 20
3.7892987155
 11
2.3359204743
 21
3.7892723604
  0
LINE
  5
5A9
100
AcDbEntity
  8
0
100
AcDbLine
 62
7
  6
CONTINUOUS
 10
2.3359204743
 20
3.7892723604
 11
2.3287119565
 21
3.7891034671
  0
SPLINE
  5
5AA
100
AcDbEntity
  8
0
100
AcDbSpline
 62
7
  6
CONTINUOUS
 70
0
 71
3
 72
28
 73
24
 74
0
 42
0.0000001
 43
0.0000001
 44
0.0000000001
 40
0.0
 40
0.0
 40
0.0
 40
0.0
 40
0.1945913263
 40
0.2895469997
 40
0.3817365991
 40
0.4702706152
 40
0.5543010329
 40
0.6330219441
 40
0.7056735371
 40
0.7715567225
 40
0.8300371113
 40
0.8805510907
 40
0.902665724
 40
0.9226125972
 40
0.9403440219
 40
0.9558177891
 40
0.9689973039
 40
0.9798532134
 40
0.9883628991
 40
0.9945164928
 40
0.9983276391
 40
0.9993921835
 40
1.0
 40
1.0
 40
1.0
 40
1.0
 10
6.4367119565
 20
3.7894469718
 30
0.0
 10
6.4357367864
 20
3.7895084978
 30
0.0
 10
6.4342859378
 20
3.789602942
 30
0.0
 10
6.4323735584
 20
3.7897334907
 30
0.0
 10
6.4309927032
 20
3.7898308142
 30
0.0
 10
6.4296667959
 20
3.7899274104
 30
0.0
 10
6.4284085819
 20
3.790022347
 30
0.0
 10
6.4272301555
 20
3.7901147039
 30
0.0
 10
6.4261428653
 20
3.7902035847
 30
0.0
 10
6.4251571996
 20
3.7902881119
 30
0.0
 10
6.4242826681
 20
3.7903674558
 30
0.0
 10
6.4236274002
 20
3.7904310854
 30
0.0
 10
6.4231650434
 20
3.7904792149
 30
0.0
 10
6.4228665895
 20
3.7905119311
 30
0.0
 10
6.4226014818
 20
3.7905428058
 30
0.0
 10
6.4223703774
 20
3.7905717477
 30
0.0
 10
6.4221737964
 20
3.7905986788
 30
0.0
 10
6.4220123172
 20
3.790623449
 30
0.0
 10
6.421885997
 20
3.7906460218
 30
0.0
 10
6.4217957233
 20
3.7906658836
 30
0.0
 10
6.4217420175
 20
3.7906822815
 30
0.0
 10
6.421717943
 20
3.790694717
 30
0.0
 10
6.4217119565
 20
3.7907021206
 30
0.0
 10
6.4217119565
 20
3.7907051726
 30
0.0
  0
LINE
  5
5AB
100
AcDbEntity
  8
0
100
AcDbLine
 62
7
  6
CONTINUOUS
 10
6.5473335436
 20
3.7749951167
 11
6.5482412718
 21
3.7748490718
  0
SPLINE
  5
5AC
100
AcDbEntity
  8
0
100
AcDbSpline
 62
7
  6
CONTINUOUS
 70
0
 71
3
 72
9
 73
5
 74
0
 42
0.0000001
 43
0.0000001
 44
0.0000000001
 40
0.0
 40
0.0
 40
0.0
 40
0.0
 40
0.3022491204
 40
1.0
 40
1.0
 40
1.0
 40
1.0
 10
6.5482412718
 20
3.7748490718
 30
0.0
 10
6.5482448077
 20
3.7748484234
 30
0.0
 10
6.5482565017
 20
3.7748462536
 30
0.0
 10
6.5482681837
 20
3.7748440106
 30
0.0
 10
6.5482763031
 20
3.7748422935
 30
0.0
  0
LINE
  5
5AD
100
AcDbEntity
  8
0
100
AcDbLine
 62
7
  6
CONTINUOUS
 10
6.5061028967
 20
3.7825610265
 11
6.5091028967
 21
3.7819784989
  0
LINE
  5
5AE
100
AcDbEntity
  8
0
100
AcDbLine
 62
7
  6
CONTINUOUS
 10
6.5230343506
 20
3.7796426021
 11
6.5250429599
 21
3.7792875961
  0
LINE
  5
5AF
100
AcDbEntity
  8
0
100
AcDbLine
 62
7
  6
CONTINUOUS
 10
6.5250429599
 20
3.7792875961
 11
6.5260426272
 21
3.7791113894
  0
LINE
  5
5B0
100
AcDbEntity
  8
0
100
AcDbLine
 62
7
  6
CONTINUOUS
 10
6.5260426272
 20
3.7791113894
 11
6.5458019595
 21
3.7757412357
  0
SPLINE
  5
5B1
100
AcDbEntity
  8
0
100
AcDbSpline
 62
7
  6
CONTINUOUS
 70
0
 71
3
 72
39
 73
35
 74
0
 42
0.0000001
 43
0.0000001
 44
0.0000000001
 40
0.0
 40
0.0
 40
0.0
 40
0.0
 40
0.0010616361
 40
0.0021296114
 40
0.004360972
 40
0.0068430225
 40
0.0096812032
 40
0.0129457962
 40
0.0166822998
 40
0.0209202078
 40
0.0256784654
 40
0.030969518
 40
0.0368012904
 40
0.0431783678
 40
0.0501033089
 40
0.0575767989
 40
0.0655981137
 40
0.0832762017
 40
0.1031144316
 40
0.1250779747
 40
0.149123342
 40
0.1751994834
 40
0.2032487295
 40
0.2332075439
 40
0.2650069093
 40
0.2985725505
 40
0.3706816553
 40
0.448851546
 40
0.532335076
 40
0.6203309322
 40
0.7119921668
 40
0.8064349524
 40
0.9027470565
 40
1.0
 40
1.0
 40
1.0
 40
1.0
 10
4.2139684269
 20
5.1378180818
 30
0.0
 10
4.2139622818
 20
5.1378801777
 30
0.0
 10
4.2139587202
 20
5.1380058032
 30
0.0
 10
4.2139879127
 20
5.1382612116
 30
0.0
 10
4.214097918
 20
5.1385871758
 30
0.0
 10
4.2143356442
 20
5.1389655452
 30
0.0
 10
4.2146774181
 20
5.1393395145
 30
0.0
 10
4.2151225835
 20
5.1397107035
 30
0.0
 10
4.2156712414
 20
5.1400801712
 30
0.0
 10
4.2163235715
 20
5.1404481908
 30
0.0
 10
4.2170795453
 20
5.1408148022
 30
0.0
 10
4.2179389817
 20
5.1411798385
 30
0.0
 10
4.2189015377
 20
5.1415430879
 30
0.0
 10
4.2199667448
 20
5.1419043387
 30
0.0
 10
4.221134042
 20
5.1422633288
 30
0.0
 10
4.2224027705
 20
5.1426198444
 30
0.0
 10
4.2242907082
 20
5.1431075141
 30
0.0
 10
4.2269006215
 20
5.1437034383
 30
0.0
 10
4.2303299957
 20
5.1443845499
 30
0.0
 10
4.2341427653
 20
5.1450508668
 30
0.0
 10
4.2383297645
 20
5.1457006347
 30
0.0
 10
4.2428809386
 20
5.1463321002
 30
0.0
 10
4.24778527
 20
5.1469436268
 30
0.0
 10
4.2530308706
 20
5.147533633
 30
0.0
 10
4.2586050018
 20
5.148100641
 30
0.0
 10
4.2666512825
 20
5.148841836
 30
0.0
 10
4.2774240192
 20
5.1496921293
 30
0.0
 10
4.2911355205
 20
5.1505783832
 30
0.0
 10
4.3057893786
 20
5.1513440101
 30
0.0
 10
4.3212430071
 20
5.1519812795
 30
0.0
 10
4.3373460508
 20
5.1524837015
 30
0.0
 10
4.3539417529
 20
5.1528462221
 30
0.0
 10
4.3708686332
 20
5.1530651978
 30
0.0
 10
4.3822457695
 20
5.1531139432
 30
0.0
 10
4.3879619565
 20
5.1531139432
 30
0.0
  0
SPLINE
  5
5B2
100
AcDbEntity
  8
0
100
AcDbSpline
 62
7
  6
CONTINUOUS
 70
0
 71
3
 72
41
 73
37
 74
0
 42
0.0000001
 43
0.0000001
 44
0.0000000001
 40
0.0
 40
0.0
 40
0.0
 40
0.0
 40
0.0010616306
 40
0.0021296002
 40
0.0032245202
 40
0.0043655192
 40
0.0068475614
 40
0.009685728
 40
0.0129502924
 40
0.0166867969
 40
0.0209246727
 40
0.0256828914
 40
0.030973951
 40
0.0368056633
 40
0.0431827086
 40
0.0501076454
 40
0.0575810535
 40
0.0656023613
 40
0.0832803142
 40
0.1031184712
 40
0.1250819417
 40
0.1491271474
 40
0.1752031215
 40
0.2032522649
 40
0.2332109581
 40
0.2650101112
 40
0.2985755572
 40
0.3338283361
 40
0.370684907
 40
0.4488543549
 40
0.532337483
 40
0.6203328708
 40
0.7119936423
 40
0.8064359108
 40
0.9027476529
 40
1.0
 40
1.0
 40
1.0
 40
1.0
 10
4.1794697096
 20
5.4865131617
 30
0.0
 10
4.1794623463
 20
5.4865875697
 30
0.0
 10
4.1794580608
 20
5.4867380943
 30
0.0
 10
4.1794840063
 20
5.4869644327
 30
0.0
 10
4.1795422065
 20
5.4871904643
 30
0.0
 10
4.1796659662
 20
5.4874997041
 30
0.0
 10
4.1799097526
 20
5.4878883423
 30
0.0
 10
4.1803192715
 20
5.4883361897
 30
0.0
 10
4.1808527067
 20
5.4887810694
 30
0.0
 10
4.1815101518
 20
5.4892237591
 30
0.0
 10
4.1822918216
 20
5.4896647602
 30
0.0
 10
4.1831976861
 20
5.4901040617
 30
0.0
 10
4.1842275301
 20
5.49054147
 30
0.0
 10
4.1853809357
 20
5.4909767485
 30
0.0
 10
4.1866573482
 20
5.4914096259
 30
0.0
 10
4.1880560927
 20
5.4918397905
 30
0.0
 10
4.1895763791
 20
5.4922670016
 30
0.0
 10
4.1918386475
 20
5.4928513564
 30
0.0
 10
4.1949660429
 20
5.493565446
 30
0.0
 10
4.199075382
 20
5.4943816017
 30
0.0
 10
4.2036441342
 20
5.4951800315
 30
0.0
 10
4.2086613117
 20
5.4959586347
 30
0.0
 10
4.2141148714
 20
5.4967153067
 30
0.0
 10
4.2199916164
 20
5.4974480809
 30
0.0
 10
4.2262772949
 20
5.4981550738
 30
0.0
 10
4.2329566387
 20
5.4988344904
 30
0.0
 10
4.2400134143
 20
5.4994846105
 30
0.0
 10
4.2474304581
 20
5.5001038248
 30
0.0
 10
4.2579846794
 20
5.5009018383
 30
0.0
 10
4.2719372028
 20
5.5018034723
 30
0.0
 10
4.2894965306
 20
5.5027209689
 30
0.0
 10
4.3080142517
 20
5.5034845765
 30
0.0
 10
4.3273101345
 20
5.5040866204
 30
0.0
 10
4.3471963721
 20
5.5045210199
 30
0.0
 10
4.3674794441
 20
5.5047834127
 30
0.0
 10
4.3811123945
 20
5.5048418232
 30
0.0
 10
4.3879619565
 20
5.5048418232
 30
0.0
  0
SPLINE
  5
5B3
100
AcDbEntity
  8
0
100
AcDbSpline
 62
7
  6
CONTINUOUS
 70
0
 71
3
 72
39
 73
35
 74
0
 42
0.0000001
 43
0.0000001
 44
0.0000000001
 40
0.0
 40
0.0
 40
0.0
 40
0.0
 40
0.0010616361
 40
0.0021296114
 40
0.004360972
 40
0.0068430225
 40
0.0096812032
 40
0.0129457962
 40
0.0166822998
 40
0.0209202078
 40
0.0256784654
 40
0.030969518
 40
0.0368012904
 40
0.0431783678
 40
0.0501033089
 40
0.0575767989
 40
0.0655981137
 40
0.0832762017
 40
0.1031144316
 40
0.1250779747
 40
0.149123342
 40
0.1751994834
 40
0.2032487295
 40
0.2332075439
 40
0.2650069093
 40
0.2985725505
 40
0.3706816553
 40
0.448851546
 40
0.532335076
 40
0.6203309322
 40
0.7119921668
 40
0.8064349524
 40
0.9027470565
 40
1.0
 40
1.0
 40
1.0
 40
1.0
 10
4.5619554861
 20
5.1378180818
 30
0.0
 10
4.5619616313
 20
5.1378801777
 30
0.0
 10
4.5619651929
 20
5.1380058032
 30
0.0
 10
4.5619360003
 20
5.1382612116
 30
0.0
 10
4.5618259951
 20
5.1385871758
 30
0.0
 10
4.5615882688
 20
5.1389655452
 30
0.0
 10
4.561246495
 20
5.1393395145
 30
0.0
 10
4.5608013296
 20
5.1397107035
 30
0.0
 10
4.5602526716
 20
5.1400801712
 30
0.0
 10
4.5596003415
 20
5.1404481908
 30
0.0
 10
4.5588443677
 20
5.1408148022
 30
0.0
 10
4.5579849313
 20
5.1411798385
 30
0.0
 10
4.5570223753
 20
5.1415430879
 30
0.0
 10
4.5559571683
 20
5.1419043387
 30
0.0
 10
4.5547898711
 20
5.1422633288
 30
0.0
 10
4.5535211425
 20
5.1426198444
 30
0.0
 10
4.5516332048
 20
5.1431075141
 30
0.0
 10
4.5490232916
 20
5.1437034383
 30
0.0
 10
4.5455939173
 20
5.1443845499
 30
0.0
 10
4.5417811477
 20
5.1450508668
 30
0.0
 10
4.5375941485
 20
5.1457006347
 30
0.0
 10
4.5330429744
 20
5.1463321002
 30
0.0
 10
4.528138643
 20
5.1469436268
 30
0.0
 10
4.5228930425
 20
5.147533633
 30
0.0
 10
4.5173189112
 20
5.148100641
 30
0.0
 10
4.5092726306
 20
5.148841836
 30
0.0
 10
4.4984998939
 20
5.1496921293
 30
0.0
 10
4.4847883925
 20
5.1505783832
 30
0.0
 10
4.4701345344
 20
5.1513440101
 30
0.0
 10
4.454680906
 20
5.1519812795
 30
0.0
 10
4.4385778622
 20
5.1524837015
 30
0.0
 10
4.4219821601
 20
5.1528462221
 30
0.0
 10
4.4050552799
 20
5.1530651978
 30
0.0
 10
4.3936781435
 20
5.1531139432
 30
0.0
 10
4.3879619565
 20
5.1531139432
 30
0.0
  0
LINE
  5
5B4
100
AcDbEntity
  8
0
100
AcDbLine
 62
7
  6
CONTINUOUS
 10
6.4879619565
 20
3.7848005368
 11
6.4875142283
 21
3.7847716869
  0
LINE
  5
5B5
100
AcDbEntity
  8
0
100
AcDbLine
 62
7
  6
CONTINUOUS
 10
6.4875142283
 20
3.7847716869
 11
6.4837933732
 21
3.7850725708
  0
SPLINE
  5
5B6
100
AcDbEntity
  8
0
100
AcDbSpline
 62
7
  6
CONTINUOUS
 70
0
 71
3
 72
24
 73
20
 74
0
 42
0.0000001
 43
0.0000001
 44
0.0000000001
 40
0.0
 40
0.0
 40
0.0
 40
0.0
 40
0.1155058568
 40
0.2335650369
 40
0.2936448543
 40
0.3544523037
 40
0.4160079527
 40
0.4783235665
 40
0.541398706
 40
0.6052167663
 40
0.6697413627
 40
0.7022539934
 40
0.7349190021
 40
0.7677246232
 40
0.8006579373
 40
0.8337039188
 40
0.8668466335
 40
0.9333418915
 40
1.0
 40
1.0
 40
1.0
 40
1.0
 10
9.5526223981
 20
4.2035636305
 30
0.0
 10
9.5477000248
 20
4.1983461444
 30
0.0
 10
9.5373360021
 20
4.1881744307
 30
0.0
 10
9.5233010941
 20
4.1764949558
 30
0.0
 10
9.5112916007
 20
4.1677719918
 30
0.0
 10
9.5018251569
 20
4.1615391384
 30
0.0
 10
9.4919526673
 20
4.155693842
 30
0.0
 10
9.4816779366
 20
4.1502785875
 30
0.0
 10
9.4710107442
 20
4.1453388949
 30
0.0
 10
9.4599682817
 20
4.1409226211
 30
0.0
 10
9.4504982285
 20
4.1377263373
 30
0.0
 10
9.4427635925
 20
4.1354754119
 30
0.0
 10
9.4368737696
 20
4.1339437559
 30
0.0
 10
9.4309165569
 20
4.1325777839
 30
0.0
 10
9.4248987029
 20
4.131382063
 30
0.0
 10
9.4188273124
 20
4.1303618968
 30
0.0
 10
9.4106630766
 20
4.1292409231
 30
0.0
 10
9.4003724176
 20
4.1282996319
 30
0.0
 10
9.3921014745
 20
4.1280459048
 30
0.0
 10
9.3879619565
 20
4.1280458075
 30
0.0
  0
SPLINE
  5
5B7
100
AcDbEntity
  8
0
100
AcDbSpline
 62
7
  6
CONTINUOUS
 70
0
 71
3
 72
41
 73
37
 74
0
 42
0.0000001
 43
0.0000001
 44
0.0000000001
 40
0.0
 40
0.0
 40
0.0
 40
0.0
 40
0.0010616306
 40
0.0021296002
 40
0.0032245202
 40
0.0043655192
 40
0.0068475614
 40
0.009685728
 40
0.0129502924
 40
0.0166867969
 40
0.0209246727
 40
0.0256828914
 40
0.030973951
 40
0.0368056633
 40
0.0431827086
 40
0.0501076454
 40
0.0575810535
 40
0.0656023613
 40
0.0832803142
 40
0.1031184712
 40
0.1250819417
 40
0.1491271474
 40
0.1752031215
 40
0.2032522649
 40
0.2332109581
 40
0.2650101112
 40
0.2985755572
 40
0.3338283361
 40
0.370684907
 40
0.4488543549
 40
0.532337483
 40
0.6203328708
 40
0.7119936423
 40
0.8064359108
 40
0.9027476529
 40
1.0
 40
1.0
 40
1.0
 40
1.0
 10
4.5964542034
 20
5.4865131617
 30
0.0
 10
4.5964615668
 20
5.4865875697
 30
0.0
 10
4.5964658523
 20
5.4867380943
 30
0.0
 10
4.5964399067
 20
5.4869644327
 30
0.0
 10
4.5963817065
 20
5.4871904643
 30
0.0
 10
4.5962579468
 20
5.4874997041
 30
0.0
 10
4.5960141604
 20
5.4878883423
 30
0.0
 10
4.5956046416
 20
5.4883361897
 30
0.0
 10
4.5950712064
 20
5.4887810694
 30
0.0
 10
4.5944137613
 20
5.4892237591
 30
0.0
 10
4.5936320915
 20
5.4896647602
 30
0.0
 10
4.592726227
 20
5.4901040617
 30
0.0
 10
4.591696383
 20
5.49054147
 30
0.0
 10
4.5905429773
 20
5.4909767485
 30
0.0
 10
4.5892665649
 20
5.4914096259
 30
0.0
 10
4.5878678204
 20
5.4918397905
 30
0.0
 10
4.5863475339
 20
5.4922670016
 30
0.0
 10
4.5840852655
 20
5.4928513564
 30
0.0
 10
4.5809578701
 20
5.493565446
 30
0.0
 10
4.576848531
 20
5.4943816017
 30
0.0
 10
4.5722797788
 20
5.4951800315
 30
0.0
 10
4.5672626013
 20
5.4959586347
 30
0.0
 10
4.5618090416
 20
5.4967153067
 30
0.0
 10
4.5559322966
 20
5.4974480809
 30
0.0
 10
4.5496466181
 20
5.4981550738
 30
0.0
 10
4.5429672744
 20
5.4988344904
 30
0.0
 10
4.5359104987
 20
5.4994846105
 30
0.0
 10
4.5284934549
 20
5.5001038248
 30
0.0
 10
4.5179392337
 20
5.5009018383
 30
0.0
 10
4.5039867103
 20
5.5018034723
 30
0.0
 10
4.4864273824
 20
5.5027209689
 30
0.0
 10
4.4679096613
 20
5.5034845765
 30
0.0
 10
4.4486137785
 20
5.5040866204
 30
0.0
 10
4.4287275409
 20
5.5045210199
 30
0.0
 10
4.408444469
 20
5.5047834127
 30
0.0
 10
4.3948115185
 20
5.5048418232
 30
0.0
 10
4.3879619565
 20
5.5048418232
 30
0.0
  0
SPLINE
  5
5B8
100
AcDbEntity
  8
0
100
AcDbSpline
 62
7
  6
CONTINUOUS
 70
0
 71
3
 72
39
 73
35
 74
0
 42
0.0000001
 43
0.0000001
 44
0.0000000001
 40
0.0
 40
0.0
 40
0.0
 40
0.0
 40
0.0352249384
 40
0.0699583162
 40
0.1041765515
 40
0.13785342
 40
0.1709667047
 40
0.2034995706
 40
0.2354403254
 40
0.2667855615
 40
0.2975420565
 40
0.3277292452
 40
0.3573816275
 40
0.3865502503
 40
0.4153036641
 40
0.443727478
 40
0.4719221403
 40
0.499999224
 40
0.5280763093
 40
0.556270976
 40
0.584694797
 40
0.6134482201
 40
0.6426168543
 40
0.6722692494
 40
0.7024564518
 40
0.733212962
 40
0.7645582138
 40
0.7964989758
 40
0.8290318687
 40
0.8621451954
 40
0.8958219511
 40
0.9300402109
 40
0.9647743927
 40
1.0
 40
1.0
 40
1.0
 40
1.0
 10
2.1984467307
 20
2.6867678355
 30
0.0
 10
2.1966137595
 20
2.6885955237
 30
0.0
 10
2.1929332684
 20
2.6921854697
 30
0.0
 10
2.1873251186
 20
2.6973974531
 30
0.0
 10
2.1816666171
 20
2.7023845936
 30
0.0
 10
2.1759554755
 20
2.707127414
 30
0.0
 10
2.1701907513
 20
2.7116061851
 30
0.0
 10
2.1643723535
 20
2.7158008628
 30
0.0
 10
2.1585003217
 20
2.7196900897
 30
0.0
 10
2.1525754595
 20
2.7232518975
 30
0.0
 10
2.1465993665
 20
2.7264640217
 30
0.0
 10
2.1405746214
 20
2.7293044186
 30
0.0
 10
2.1345048265
 20
2.7317516779
 30
0.0
 10
2.128394727
 20
2.733785652
 30
0.0
 10
2.1222503665
 20
2.735388456
 30
0.0
 10
2.1160789616
 20
2.7365450089
 30
0.0
 10
2.1098887972
 20
2.7372436817
 30
0.0
 10
2.1036890399
 20
2.7374773571
 30
0.0
 10
2.0974892828
 20
2.73724367
 30
0.0
 10
2.0912991188
 20
2.7365449856
 30
0.0
 10
2.0851277144
 20
2.7353884213
 30
0.0
 10
2.0789833547
 20
2.7337856063
 30
0.0
 10
2.0728732561
 20
2.7317516216
 30
0.0
 10
2.0668034624
 20
2.729304352
 30
0.0
 10
2.0607787182
 20
2.7264639461
 30
0.0
 10
2.0548026266
 20
2.7232518125
 30
0.0
 10
2.0488777675
 20
2.719689994
 30
0.0
 10
2.0430057322
 20
2.7158007661
 30
0.0
 10
2.037187335
 20
2.7116060771
 30
0.0
 10
2.0314226411
 20
2.7071272729
 30
0.0
 10
2.025711457
 20
2.7023845112
 30
0.0
 10
2.0200528717
 20
2.6973973821
 30
0.0
 10
2.0144449121
 20
2.6921850279
 30
0.0
 10
2.0107645094
 20
2.6885948403
 30
0.0
 10
2.0089315048
 20
2.6867671159
 30
0.0
  0
SPLINE
  5
5B9
100
AcDbEntity
  8
0
100
AcDbSpline
 62
7
  6
CONTINUOUS
 70
0
 71
3
 72
14
 73
10
 74
0
 42
0.0000001
 43
0.0000001
 44
0.0000000001
 40
0.0
 40
0.0
 40
0.0
 40
0.0
 40
0.0849819626
 40
0.1672488102
 40
0.2779288746
 40
0.4175752519
 40
0.5856890068
 40
0.7806748133
 40
1.0
 40
1.0
 40
1.0
 40
1.0
 10
6.1093043711
 20
3.4478110735
 30
0.0
 10
6.1097095269
 20
3.4486525917
 30
0.0
 10
6.1104730912
 20
3.4503251094
 30
0.0
 10
6.1116591067
 20
3.4531402605
 30
0.0
 10
6.1129840432
 20
3.4565475495
 30
0.0
 10
6.1145227333
 20
3.4608820016
 30
0.0
 10
6.1162087843
 20
3.4661447566
 30
0.0
 10
6.1179653528
 20
3.4723011297
 30
0.0
 10
6.119069963
 20
3.4767195319
 30
0.0
 10
6.1196170837
 20
3.4790670547
 30
0.0
  0
SPLINE
  5
5BA
100
AcDbEntity
  8
0
100
AcDbSpline
 62
7
  6
CONTINUOUS
 70
0
 71
3
 72
11
 73
7
 74
0
 42
0.0000001
 43
0.0000001
 44
0.0000000001
 40
0.0
 40
0.0
 40
0.0
 40
0.0
 40
0.2254585079
 40
0.4702659871
 40
0.7300468305
 40
1.0
 40
1.0
 40
1.0
 40
1.0
 10
6.1196170837
 20
3.4790670547
 30
0.0
 10
6.1204818765
 20
3.4827776092
 30
0.0
 10
6.1221418004
 20
3.4905515543
 30
0.0
 10
6.1242234872
 20
3.5027155418
 30
0.0
 10
6.1258373645
 20
3.5157094194
 30
0.0
 10
6.1264955047
 20
3.524641864
 30
0.0
 10
6.1267119565
 20
3.5291986338
 30
0.0
  0
LINE
  5
5BB
100
AcDbEntity
  8
0
100
AcDbLine
 62
7
  6
CONTINUOUS
 10
2.4662119565
 20
3.7875054789
 11
2.4657125995
 21
3.7874638281
  0
LINE
  5
5BC
100
AcDbEntity
  8
0
100
AcDbLine
 62
7
  6
CONTINUOUS
 10
2.4657125995
 20
3.7874638281
 11
2.4575754057
 21
3.7878859276
  0
LINE
  5
5BD
100
AcDbEntity
  8
0
100
AcDbLine
 62
7
  6
CONTINUOUS
 10
2.4575754057
 20
3.7878859276
 11
2.4569619565
 21
3.7879270144
  0
SPLINE
  5
5BE
100
AcDbEntity
  8
0
100
AcDbSpline
 62
7
  6
CONTINUOUS
 70
0
 71
3
 72
33
 73
29
 74
0
 42
0.0000001
 43
0.0000001
 44
0.0000000001
 40
0.0
 40
0.0
 40
0.0
 40
0.0
 40
0.0624986917
 40
0.0937494909
 40
0.1250001737
 40
0.1562510231
 40
0.1875020004
 40
0.2499978623
 40
0.3124925232
 40
0.3437436734
 40
0.3749949141
 40
0.4062461404
 40
0.4374973939
 40
0.4687487061
 40
0.5
 40
0.531251294
 40
0.5625026062
 40
0.5937538597
 40
0.625005086
 40
0.6562563266
 40
0.6875074769
 40
0.7500021378
 40
0.8124979996
 40
0.8437489769
 40
0.8749998263
 40
0.906250509
 40
0.9375013083
 40
1.0
 40
1.0
 40
1.0
 40
1.0
 10
2.5774771824
 20
2.6867680786
 30
0.0
 10
2.5700956906
 20
2.6904481988
 30
0.0
 10
2.5589237324
 20
2.695773117
 30
0.0
 10
2.5438262629
 20
2.7024234417
 30
0.0
 10
2.5323977324
 20
2.7071664256
 30
0.0
 10
2.5208626706
 20
2.7116446241
 30
0.0
 10
2.5053414633
 20
2.7172354932
 30
0.0
 10
2.4856723832
 20
2.7234593441
 30
0.0
 10
2.4656672954
 20
2.7285143806
 30
0.0
 10
2.4494930647
 20
2.7317700422
 30
0.0
 10
2.4372851539
 20
2.7337986035
 30
0.0
 10
2.4250133346
 20
2.7353962687
 30
0.0
 10
2.4126915454
 20
2.7365485803
 30
0.0
 10
2.4003354738
 20
2.7372444415
 30
0.0
 10
2.3879619565
 20
2.7374771376
 30
0.0
 10
2.3755884391
 20
2.7372444415
 30
0.0
 10
2.3632323675
 20
2.7365485803
 30
0.0
 10
2.3509105783
 20
2.7353962687
 30
0.0
 10
2.338638759
 20
2.7337986035
 30
0.0
 10
2.3264308483
 20
2.7317700422
 30
0.0
 10
2.3102566176
 20
2.7285143805
 30
0.0
 10
2.2902515298
 20
2.7234593441
 30
0.0
 10
2.2705824496
 20
2.7172354932
 30
0.0
 10
2.2550612423
 20
2.7116446241
 30
0.0
 10
2.2435261806
 20
2.7071664256
 30
0.0
 10
2.2320976501
 20
2.7024234417
 30
0.0
 10
2.2170001806
 20
2.695773117
 30
0.0
 10
2.2058282224
 20
2.6904481986
 30
0.0
 10
2.1984467307
 20
2.6867680785
 30
0.0
  0
LINE
  5
5BF
100
AcDbEntity
  8
0
100
AcDbLine
 62
7
  6
CONTINUOUS
 10
2.4933821046
 20
3.7837989719
 11
2.492786669
 21
3.7838944049
  0
LINE
  5
5C0
100
AcDbEntity
  8
0
100
AcDbLine
 62
7
  6
CONTINUOUS
 10
2.492786669
 20
3.7838944049
 11
2.4842119565
 21
3.7854651098
  0
LINE
  5
5C1
100
AcDbEntity
  8
0
100
AcDbLine
 62
7
  6
CONTINUOUS
 10
6.5458019595
 20
3.775230446
 11
6.526042665
 21
3.7786028527
  0
LINE
  5
5C2
100
AcDbEntity
  8
0
100
AcDbLine
 62
7
  6
CONTINUOUS
 10
6.526042665
 20
3.7786028527
 11
6.5250429862
 21
3.778779179
  0
LINE
  5
5C3
100
AcDbEntity
  8
0
100
AcDbLine
 62
7
  6
CONTINUOUS
 10
6.5250429862
 20
3.778779179
 11
6.5230343506
 21
3.7791344265
  0
LINE
  5
5C4
100
AcDbEntity
  8
0
100
AcDbLine
 62
7
  6
CONTINUOUS
 10
6.5091028967
 20
3.7814718755
 11
6.5061028967
 21
3.7820547888
  0
SPLINE
  5
5C5
100
AcDbEntity
  8
0
100
AcDbSpline
 62
7
  6
CONTINUOUS
 70
0
 71
3
 72
47
 73
43
 74
0
 42
0.0000001
 43
0.0000001
 44
0.0000000001
 40
0.0
 40
0.0
 40
0.0
 40
0.0
 40
0.1010926125
 40
0.1999568302
 40
0.2958734127
 40
0.3881635589
 40
0.4761888194
 40
0.5593398018
 40
0.637026652
 40
0.7086706695
 40
0.7420478163
 40
0.7736999525
 40
0.8035565363
 40
0.8315479446
 40
0.8576056785
 40
0.881662861
 40
0.9036549084
 40
0.9235200139
 40
0.941200186
 40
0.9566413769
 40
0.9635069931
 40
0.9697952788
 40
0.9755007631
 40
0.9806186455
 40
0.9851450074
 40
0.9890759865
 40
0.9924077934
 40
0.9938481006
 40
0.9951376722
 40
0.996276259
 40
0.9972636113
 40
0.9980994797
 40
0.9987836145
 40
0.9990687043
 40
0.9993157828
 40
0.9995248492
 40
0.9996959035
 40
0.9998289457
 40
0.9999239759
 40
0.9999572365
 40
0.999980994
 40
1.0
 40
1.0
 40
1.0
 40
1.0
 10
6.6492119565
 20
3.5257259273
 30
0.0
 10
6.6493852076
 20
3.5228761123
 30
0.0
 10
6.6498195299
 20
3.5172444501
 30
0.0
 10
6.6507256538
 20
3.5089363374
 30
0.0
 10
6.6518479309
 20
3.5009056784
 30
0.0
 10
6.6531473506
 20
3.4932122663
 30
0.0
 10
6.6545807093
 20
3.4859099399
 30
0.0
 10
6.6561023787
 20
3.4790475471
 30
0.0
 10
6.6576656629
 20
3.4726700801
 30
0.0
 10
6.658993839
 20
3.4676835295
 30
0.0
 10
6.6600378155
 20
3.4639673978
 30
0.0
 10
6.6607839084
 20
3.4613935384
 30
0.0
 10
6.6615063279
 20
3.4589712692
 30
0.0
 10
6.6621997885
 20
3.4567053059
 30
0.0
 10
6.6628591772
 20
3.4546002557
 30
0.0
 10
6.6634796068
 20
3.4526605971
 30
0.0
 10
6.6640564338
 20
3.4508906463
 30
0.0
 10
6.6645852935
 20
3.4492945104
 30
0.0
 10
6.6650621588
 20
3.4478760657
 30
0.0
 10
6.6654261018
 20
3.446806994
 30
0.0
 10
6.6656883007
 20
3.4460431547
 30
0.0
 10
6.6658619965
 20
3.445539642
 30
0.0
 10
6.6660202102
 20
3.4450830033
 30
0.0
 10
6.6661626205
 20
3.4446735522
 30
0.0
 10
6.6662889696
 20
3.4443115758
 30
0.0
 10
6.6663990061
 20
3.4439973329
 30
0.0
 10
6.6664804172
 20
3.4437654124
 30
0.0
 10
6.6665372006
 20
3.4436039086
 30
0.0
 10
6.6665734715
 20
3.4435008512
 30
0.0
 10
6.6666055227
 20
3.4434098701
 30
0.0
 10
6.6666333376
 20
3.4433309825
 30
0.0
 10
6.6666569009
 20
3.4432642037
 30
0.0
 10
6.6666738716
 20
3.4432161339
 30
0.0
 10
6.6666853108
 20
3.4431837397
 30
0.0
 10
6.6666922764
 20
3.4431640072
 30
0.0
 10
6.666698187
 20
3.4431472833
 30
0.0
 10
6.6667029766
 20
3.4431336757
 30
0.0
 10
6.6667068215
 20
3.4431228971
 30
0.0
 10
6.6667090886
 20
3.4431162475
 30
0.0
 10
6.6667107741
 20
3.4431117818
 30
0.0
 10
6.6667110407
 20
3.4431104874
 30
0.0
 10
6.6667123092
 20
3.4431079373
 30
0.0
 10
6.6667119387
 20
3.4431083257
 30
0.0
  0
LINE
  5
5C6
100
AcDbEntity
  8
0
100
AcDbLine
 62
7
  6
CONTINUOUS
 10
6.2536058392
 20
3.7792877195
 11
6.2369464653
 21
3.7765946263
  0
SPLINE
  5
5C7
100
AcDbEntity
  8
0
100
AcDbSpline
 62
7
  6
CONTINUOUS
 70
0
 71
3
 72
39
 73
35
 74
0
 42
0.0000001
 43
0.0000001
 44
0.0000000001
 40
0.0
 40
0.0
 40
0.0
 40
0.0
 40
0.0352256072
 40
0.0699597889
 40
0.1041780487
 40
0.1378548044
 40
0.1709681311
 40
0.2035010241
 40
0.235441786
 40
0.2667870378
 40
0.297543548
 40
0.3277307504
 40
0.3573831456
 40
0.3865517797
 40
0.4153052029
 40
0.4437290239
 40
0.4719236905
 40
0.5000007758
 40
0.5280778595
 40
0.5562725218
 40
0.5846963358
 40
0.6134497495
 40
0.6426183723
 40
0.6722707546
 40
0.7024579433
 40
0.7332144383
 40
0.7645596743
 40
0.7965004292
 40
0.8290332951
 40
0.8621465797
 40
0.8958234482
 40
0.9300416836
 40
0.9647750615
 40
1.0
 40
1.0
 40
1.0
 40
1.0
 10
2.7669924082
 20
2.686767116
 30
0.0
 10
2.7651594037
 20
2.6885948404
 30
0.0
 10
2.7614790009
 20
2.692185028
 30
0.0
 10
2.7558710413
 20
2.6973973821
 30
0.0
 10
2.750212456
 20
2.7023845112
 30
0.0
 10
2.744501272
 20
2.7071272729
 30
0.0
 10
2.738736578
 20
2.7116060771
 30
0.0
 10
2.7329181809
 20
2.7158007661
 30
0.0
 10
2.7270461455
 20
2.719689994
 30
0.0
 10
2.7211212865
 20
2.7232518125
 30
0.0
 10
2.7151451948
 20
2.7264639461
 30
0.0
 10
2.7091204506
 20
2.729304352
 30
0.0
 10
2.7030506569
 20
2.7317516216
 30
0.0
 10
2.6969405583
 20
2.7337856063
 30
0.0
 10
2.6907961986
 20
2.7353884213
 30
0.0
 10
2.6846247942
 20
2.7365449856
 30
0.0
 10
2.6784346302
 20
2.73724367
 30
0.0
 10
2.6722348731
 20
2.7374773571
 30
0.0
 10
2.6660351158
 20
2.7372436817
 30
0.0
 10
2.6598449515
 20
2.7365450089
 30
0.0
 10
2.6536735465
 20
2.735388456
 30
0.0
 10
2.647529186
 20
2.733785652
 30
0.0
 10
2.6414190865
 20
2.7317516779
 30
0.0
 10
2.6353492916
 20
2.7293044186
 30
0.0
 10
2.6293245465
 20
2.7264640217
 30
0.0
 10
2.6233484536
 20
2.7232518975
 30
0.0
 10
2.6174235913
 20
2.7196900897
 30
0.0
 10
2.6115515595
 20
2.7158008628
 30
0.0
 10
2.6057331618
 20
2.7116061851
 30
0.0
 10
2.5999684375
 20
2.707127414
 30
0.0
 10
2.5942572959
 20
2.7023845936
 30
0.0
 10
2.5885987944
 20
2.6973974531
 30
0.0
 10
2.5829906446
 20
2.6921854696
 30
0.0
 10
2.5793101536
 20
2.6885955236
 30
0.0
 10
2.5774771824
 20
2.6867678354
 30
0.0
  0
LINE
  5
5C8
100
AcDbEntity
  8
0
100
AcDbLine
 62
7
  6
CONTINUOUS
 10
2.3287119565
 20
3.7896050877
 11
2.3359203815
 21
3.7897738667
  0
LINE
  5
5C9
100
AcDbEntity
  8
0
100
AcDbLine
 62
7
  6
CONTINUOUS
 10
2.3004619565
 20
3.7865511203
 11
2.3087119565
 21
3.7878108984
  0
LINE
  5
5CA
100
AcDbEntity
  8
0
100
AcDbLine
 62
7
  6
CONTINUOUS
 10
2.2837119565
 20
3.7848302563
 11
2.2909171299
 21
3.7854218563
  0
LINE
  5
5CB
100
AcDbEntity
  8
0
100
AcDbLine
 62
7
  6
CONTINUOUS
 10
2.2554619565
 20
3.7800936222
 11
2.2637119565
 21
3.7818494388
  0
LINE
  5
5CC
100
AcDbEntity
  8
0
100
AcDbLine
 62
7
  6
CONTINUOUS
 10
2.4842119565
 20
3.7859691031
 11
2.4934619565
 21
3.7842913129
  0
LINE
  5
5CD
100
AcDbEntity
  8
0
100
AcDbLine
 62
7
  6
CONTINUOUS
 10
2.4569619565
 20
3.7884293997
 11
2.4575754038
 21
3.7883883398
  0
LINE
  5
5CE
100
AcDbEntity
  8
0
100
AcDbLine
 62
7
  6
CONTINUOUS
 10
2.4575754038
 20
3.7883883398
 11
2.4662119565
 21
3.7880081388
  0
ENDSEC
  0
SECTION
  2
OBJECTS
  0
DICTIONARY
  5
C
100
AcDbDictionary
280
0
281
1
  3
ACAD_GROUP
350
D
  3
ACAD_MLINESTYLE
350
17
  3
ACAD_LAYOUT
350
1A
  3
ACAD_PLOTSETTINGS
350
19
  3
ACAD_PLOTSTYLENAME
350
E
  0
DICTIONARY
  5
D
102
{ACAD_REACTORS
330
C
102
}
100
AcDbDictionary
280
0
281
1
  0
ACDBDICTIONARYWDFLT
  5
E
102
{ACAD_REACTORS
330
C
102
}
100
AcDbDictionary
281
1
  3
Normal
350
F
100
AcDbDictionaryWithDefault
340
F
  0
DICTIONARY
  5
17
102
{ACAD_REACTORS
330
C
102
}
100
AcDbDictionary
280
0
281
1
  3
Standard
350
18
  0
DICTIONARY
  5
19
102
{ACAD_REACTORS
330
C
102
}
100
AcDbDictionary
281
1
  0
DICTIONARY
  5
1A
102
{ACAD_REACTORS
330
C
102
}
100
AcDbDictionary
281
1
  3
Model
350
5CF
  3
Layout1
350
5D0
  0
ACDBPLACEHOLDER
  5
F
102
{ACAD_REACTORS
330
E
102
}
  0
MLINESTYLE
  5
18
102
{ACAD_REACTORS
330
17
102
}
100
AcDbMlineStyle
  2
STANDARD
 70
0
  3

 62
256
 51
90.0
 52
90.0
 71
2
 49
0.5
 62
256
  6
BYLAYER
 49
-0.5
 62
256
  6
BYLAYER
  0
LAYOUT
  5
5CF
102
{ACAD_REACTORS
330
1A
102
}
100
AcDbPlotSettings
  1

  2
none_device
  4
ANSI_A_(11.00_x_8.50_Inches)
  6

 40
0.0
 41
0.0
 42
0.0
 43
0.0
 44
279.4
 45
215.9
 46
0.0
 47
0.0
 48
0.0
 49
0.0
140
0.0
141
0.0
142
1.0
143
1.0
 70
1024
 72
0
 73
0
 74
0
  7

 75
0
147
1.0
148
0.0
149
0.0
100
AcDbLayout
  1
Model
 70
0
 71
0
 10
0.0
 20
0.0
 11
11.0
 21
8.5
 12
0.0
 22
0.0
 32
0.0
 14
0.0
 24
0.0
 34
0.0
 15
0.0
 25
0.0
 35
0.0
146
0.0
 13
0.0
 23
0.0
 33
0.0
 16
1.0
 26
0.0
 36
0.0
 17
0.0
 27
1.0
 37
0.0
 76
0
330
202
345
0
346
0
  0
LAYOUT
  5
5D0
102
{ACAD_REACTORS
330
1A
102
}
100
AcDbPlotSettings
  1

  2
none_device
  4
ANSI_A_(11.00_x_8.50_Inches)
  6

 40
0.0
 41
0.0
 42
0.0
 43
0.0
 44
279.4
 45
215.9
 46
0.0
 47
0.0
 48
0.0
 49
0.0
140
0.0
141
0.0
142
1.0
143
1.0
 70
0
 72
0
 73
0
 74
0
  7

 75
0
147
1.0
148
0.0
149
0.0
100
AcDbLayout
  1
Layout1
 70
0
 71
1
 10
0.0
 20
0.0
 11
11.0
 21
8.5
 12
0.0
 22
0.0
 32
0.0
 14
0.0
 24
0.0
 34
0.0
 15
0.0
 25
0.0
 35
0.0
146
0.0
 13
0.0
 23
0.0
 33
0.0
 16
1.0
 26
0.0
 36
0.0
 17
0.0
 27
1.0
 37
0.0
 76
0
330
203
345
0
346
0
  0
ENDSEC
  0
EOF
