999
DXF file: E:\BT Custom\CADOUTPUT\_FRONT.dxf
999
Pro/ENGINEER 2018400 by Parametric Technology Corporation
  0
SECTION
  2
HEADER
  9
$ACADVER
  1
AC1018
  9
$DWGCODEPAGE
  3
ANSI_1252
  9
$EXTMAX
 10
22.0
 20
17.0
 30
0.0
  9
$EXTMIN
 10
0.0
 20
0.0
 30
0.0
  9
$LIMMIN
 10
0.0
 20
0.0
  9
$LIMMAX
 10
22.0
 20
17.0
  9
$VIEWCTR
 10
11.0
 20
8.5
  9
$VIEWSIZE
 40
17.0
  9
$CLAYER
  8
0
  9
$LTSCALE
 40
1.21
  9
$CELTYPE
  6
BYLAYER
  9
$DIMSCALE
 40
1.0
  9
$DIMASZ
 40
0.1
  9
$DIMEXO
 40
0.0625
  9
$DIMDLI
 40
0.836
  9
$DIMEXE
 40
0.125
  9
$DIMCEN
 40
0.198
  9
$DIMLFAC
 40
1.0
  9
$DIMBLK
  1
_FILLED
  9
$DIMALT
 70
1
  9
$DIMALTD
 70
2
  9
$DIMALTTD
 70
2
  9
$DIMALTF
 40
25.4
  9
$DIMTXT
 40
0.08
  9
$DIMTOL
 70
1
  9
$DIMLIM
 70
0
  9
$DIMTFAC
 40
1.0
  9
$DIMTP
 40
0.001
  9
$DIMTM
 40
0.001
  9
$DIMGAP
 40
0.09
  9
$DIMDSEP
 70
46
  9
$AUNITS
 70
0
  9
$PDMODE
 70
3
  9
$PDSIZE
 40
0.06
  9
$HANDSEED
  5
5A2
  9
$TILEMODE
 70
1
  9
$MEASUREMENT
 70
0
  9
$INSUNITS
 70
1
  0
ENDSEC
  0
SECTION
  2
CLASSES
  0
CLASS
  1
ACDBDICTIONARYWDFLT
  2
AcDbDictionaryWithDefault
  3
AutoCAD 2000
 90
0
 91
1
280
0
281
0
  0
CLASS
  1
ACDBPLACEHOLDER
  2
AcDbPlaceHolder
  3
AutoCAD 2000
 90
0
 91
1
280
0
281
0
  0
CLASS
  1
LAYOUT
  2
AcDbLayout
  3
AutoCAD 2000
 90
0
 91
0
280
0
281
0
  0
ENDSEC
  0
SECTION
  2
TABLES
  0
TABLE
  2
VPORT
  5
8
100
AcDbSymbolTable
 70
2
  0
VPORT
  5
1F4
100
AcDbSymbolTableRecord
100
AcDbViewportTableRecord
  2
*ACTIVE
 70
0
 10
0.0
 20
0.0
 11
1.0
 21
1.0
 12
11.0
 22
8.5
 13
0.0
 23
0.0
 14
1.0
 24
1.0
 15
0.0
 25
0.0
 16
0.0
 26
0.0
 36
1.0
 17
0.0
 27
0.0
 37
0.0
 40
17.0
 41
1.2941176471
 42
50.0
 43
0.0
 44
0.0
 50
0.0
 51
0.0
 71
0
 72
100
 73
1
 74
1
 75
0
 76
0
 77
0
 78
0
  0
ENDTAB
  0
TABLE
  2
LTYPE
  5
5
100
AcDbSymbolTable
 70
6
  0
LTYPE
  5
14
100
AcDbSymbolTableRecord
100
AcDbLinetypeTableRecord
  2
BYBLOCK
 70
0
  3

 72
65
 73
0
 40
0.0
  0
LTYPE
  5
15
100
AcDbSymbolTableRecord
100
AcDbLinetypeTableRecord
  2
BYLAYER
 70
0
  3

 72
65
 73
0
 40
0.0
  0
LTYPE
  5
16
100
AcDbSymbolTableRecord
100
AcDbLinetypeTableRecord
  2
CONTINUOUS
 70
64
  3
Solid line
 72
65
 73
0
 40
0.0
  0
LTYPE
  5
1F5
100
AcDbSymbolTableRecord
100
AcDbLinetypeTableRecord
  2
CENTER
 70
64
  3
____ _ ____ _ ____ _ ____ _ ____ _ ____ _ ____
 72
65
 73
4
 40
0.6
 49
0.375
 74
0
 49
-0.075
 74
0
 49
0.075
 74
0
 49
-0.075
 74
0
  0
LTYPE
  5
1F6
100
AcDbSymbolTableRecord
100
AcDbLinetypeTableRecord
  2
HIDDEN
 70
64
  3
- - - - - - - - - - - - - - - - - - - -
 72
65
 73
2
 40
0.2
 49
0.1
 74
0
 49
-0.1
 74
0
  0
LTYPE
  5
1F7
100
AcDbSymbolTableRecord
100
AcDbLinetypeTableRecord
  2
PHANTOM
 70
64
  3
_____ _ _ _____ _ _ _____ _ _ _____
 72
65
 73
6
 40
0.8
 49
0.45
 74
0
 49
-0.05
 74
0
 49
0.1
 74
0
 49
-0.05
 74
0
 49
0.1
 74
0
 49
-0.05
 74
0
  0
LTYPE
  5
1F8
100
AcDbSymbolTableRecord
100
AcDbLinetypeTableRecord
  2
DOT
 70
64
  3
. . . . . . . . . . . . . . . . . . . .
 72
65
 73
2
 40
0.2
 49
0.1
 74
0
 49
-0.1
 74
0
  0
LTYPE
  5
1F9
100
AcDbSymbolTableRecord
100
AcDbLinetypeTableRecord
  2
DASHED
 70
64
  3
- - - - - - - - - - - - - - - - - - - -
 72
65
 73
2
 40
0.2
 49
0.1
 74
0
 49
-0.1
 74
0
  0
ENDTAB
  0
TABLE
  2
LAYER
  5
2
100
AcDbSymbolTable
 70
36
  0
LAYER
  5
10
100
AcDbSymbolTableRecord
100
AcDbLayerTableRecord
  2
0
 70
0
 62
7
  6
CONTINUOUS
370
-3
390
F
  0
LAYER
  5
1FA
100
AcDbSymbolTableRecord
100
AcDbLayerTableRecord
  2
DEFAULT_1
 70
0
 62
7
  6
CENTER
370
-3
390
F
  0
LAYER
  5
1FB
100
AcDbSymbolTableRecord
100
AcDbLayerTableRecord
  2
DEFAULT_2
 70
0
 62
8
  6
HIDDEN
370
-3
390
F
  0
LAYER
  5
1FC
100
AcDbSymbolTableRecord
100
AcDbLayerTableRecord
  2
DEFAULT_3
 70
0
 62
7
  6
PHANTOM
370
-3
390
F
  0
LAYER
  5
1FD
100
AcDbSymbolTableRecord
100
AcDbLayerTableRecord
  2
ALL_FEATURES
 70
0
 62
7
  6
CONTINUOUS
370
-3
390
F
  0
LAYER
  5
1FE
100
AcDbSymbolTableRecord
100
AcDbLayerTableRecord
  2
AXES_FEATURES
 70
0
 62
7
  6
CONTINUOUS
370
-3
390
F
  0
LAYER
  5
1FF
100
AcDbSymbolTableRecord
100
AcDbLayerTableRecord
  2
DIMENSIONS
 70
0
 62
7
  6
CONTINUOUS
370
-3
390
F
  0
ENDTAB
  0
TABLE
  2
STYLE
  5
3
100
AcDbSymbolTable
 70
1
  0
STYLE
  5
11
100
AcDbSymbolTableRecord
100
AcDbTextStyleTableRecord
  2
STANDARD
 70
0
 40
0.0
 41
0.8
 50
0.0
 71
0
 42
0.2
  3
txt
  4

  0
STYLE
  5
200
100
AcDbSymbolTableRecord
100
AcDbTextStyleTableRecord
  2
TEXTSTYLE_1
 70
0
 40
0.0
 41
0.8
 50
0.0
 71
0
 42
0.2
  3
gdt
  4

  0
ENDTAB
  0
TABLE
  2
VIEW
  5
6
100
AcDbSymbolTable
 70
0
  0
ENDTAB
  0
TABLE
  2
UCS
  5
7
100
AcDbSymbolTable
 70
0
  0
ENDTAB
  0
TABLE
  2
APPID
  5
9
100
AcDbSymbolTable
 70
1
  0
APPID
  5
201
100
AcDbSymbolTableRecord
100
AcDbRegAppTableRecord
  2
ACAD
 70
0
  0
ENDTAB
  0
TABLE
  2
BLOCK_RECORD
  5
1
100
AcDbSymbolTable
 70
0
  0
BLOCK_RECORD
  5
202
100
AcDbSymbolTableRecord
100
AcDbBlockTableRecord
  2
*Model_Space
  0
BLOCK_RECORD
  5
203
100
AcDbSymbolTableRecord
100
AcDbBlockTableRecord
  2
*Paper_Space
  0
BLOCK_RECORD
  5
204
100
AcDbSymbolTableRecord
100
AcDbBlockTableRecord
  2
_FILLED
  0
ENDTAB
  0
TABLE
  2
DIMSTYLE
  5
A
100
AcDbSymbolTable
 70
1
100
AcDbDimStyleTable
 71
0
  0
DIMSTYLE
105
205
100
AcDbSymbolTableRecord
100
AcDbDimStyleTableRecord
  2
STANDARD
 70
0
  3

  4

 40
1.0
 41
0.1
 42
0.0625
 43
0.38
 44
0.125
 45
0.0
 46
0.0
 47
0.001
 48
0.001
140
0.08
141
0.09
142
0.0
143
25.4
144
1.0
145
0.0
146
1.0
147
0.09
 71
1.0
 72
0.0
 73
1
 74
1
 75
0
 76
0
 77
0
 78
4
 79
1
170
1
171
2
172
0
173
0
174
0
175
0
176
0
177
0
178
0
270
2
179
3
271
3
272
3
273
2
274
2
275
0
280
0
281
0
282
0
283
1
284
4
285
0
286
0
287
3
288
0
340
11
278
46
341
204
342
204
343
204
344
204
  0
ENDTAB
  0
ENDSEC
  0
SECTION
  2
BLOCKS
  0
BLOCK
  5
20
100
AcDbEntity
  8
0
100
AcDbBlockBegin
  2
*Model_Space
 70
0
 10
0.0
 20
0.0
 30
0.0
  3
*Model_Space
  1

  0
ENDBLK
  5
21
100
AcDbEntity
  8
0
100
AcDbBlockEnd
  0
BLOCK
  5
1C
100
AcDbEntity
  8
0
100
AcDbBlockBegin
  2
*Paper_Space
 70
0
 10
0.0
 20
0.0
 30
0.0
  3
*Paper_Space
  1

  0
ENDBLK
  5
1D
100
AcDbEntity
  8
0
100
AcDbBlockEnd
  0
BLOCK
  5
206
100
AcDbEntity
  8
0
100
AcDbBlockBegin
  2
_FILLED
 70
64
 10
0.0
 20
0.0
  3
_FILLED
  1

  0
SOLID
  5
207
100
AcDbEntity
  8
0
  6
BYBLOCK
 62
0
100
AcDbTrace
 10
0.0
 20
0.0
 11
-1.0
 21
0.2
 12
-1.0
 22
-0.2
 13
-1.0
 23
-0.2
  0
ENDBLK
  5
208
100
AcDbEntity
  8
0
  6
BYBLOCK
 62
0
100
AcDbBlockEnd
  0
ENDSEC
  0
SECTION
  2
ENTITIES
  0
LWPOLYLINE
  5
209
100
AcDbEntity
  8
0
100
AcDbPolyline
 62
7
  6
CONTINUOUS
 90
36
 70
0
 10
16.8215520854
 20
-5.5338464427
 10
17.1247449151
 20
-5.5187305762
 10
17.4495933941
 20
-5.4601851662
 10
17.7442380581
 20
-5.3508164401
 10
18.0023080295
 20
-5.1831959795
 10
18.2121147181
 20
-4.9542876625
 10
18.3620030549
 20
-4.6685765661
 10
18.4467106441
 20
-4.339043508
 10
18.4710248195
 20
-3.9796966077
 10
18.4449161248
 20
-3.602778143
 10
18.3793096314
 20
-3.2160065804
 10
18.2821305509
 20
-2.8196144251
 10
18.1587821436
 20
-2.4136119444
 10
18.0126597052
 20
-1.996724967
 10
17.8464584688
 20
-1.5683691631
 10
17.6623895425
 20
-1.1286249953
 10
17.4617508224
 20
-0.6764582057
 10
17.2452741177
 20
-0.2103141871
 10
17.0139659339
 20
0.270244451
 10
16.7684991203
 20
0.7661291788
 10
16.5091300094
 20
1.2789342995
 10
16.236098482
 20
1.810178418
 10
15.9498121523
 20
2.3611036245
 10
15.6505444153
 20
2.9333752367
 10
15.3384918739
 20
3.5290774038
 10
15.0138392208
 20
4.1507402658
 10
14.6767842711
 20
4.8014898165
 10
14.3278373434
 20
5.4847946779
 10
13.9680849948
 20
6.2044082642
 10
13.5993701695
 20
6.9646791038
 10
13.2247200791
 20
7.7706800842
 10
12.8463533895
 20
8.6348306904
 10
12.469369209
 20
9.574862287
 10
12.1115968999
 20
10.5991307229
 10
11.8095621925
 20
11.6994253949
 10
11.6289206897
 20
12.785763248
  0
LINE
  5
20A
100
AcDbEntity
  8
0
100
AcDbLine
 62
7
  6
CONTINUOUS
 10
16.8220448131
 20
-5.5338464474
 11
16.8215520854
 21
-5.5338464427
  0
LINE
  5
20B
100
AcDbEntity
  8
0
100
AcDbLine
 62
9
  6
CONTINUOUS
 10
16.2437496616
 20
-5.4917192206
 11
16.244575943
 21
-5.4917745007
  0
LINE
  5
20C
100
AcDbEntity
  8
0
100
AcDbLine
 62
9
  6
CONTINUOUS
 10
4.7613819302
 20
21.5613790691
 11
4.7510795926
 21
21.553184228
  0
LINE
  5
20D
100
AcDbEntity
  8
0
100
AcDbLine
 62
9
  6
CONTINUOUS
 10
4.6401579178
 20
21.4649531577
 11
4.6321871561
 21
21.4586129192
  0
LINE
  5
20E
100
AcDbEntity
  8
0
100
AcDbLine
 62
7
  6
CONTINUOUS
 10
4.7016786847
 20
21.5377434527
 11
4.6663459982
 21
21.5099511454
  0
LINE
  5
20F
100
AcDbEntity
  8
0
100
AcDbLine
 62
7
  6
CONTINUOUS
 10
4.7245889613
 20
21.5056909782
 11
4.6920635886
 21
21.4801126672
  0
LINE
  5
210
100
AcDbEntity
  8
0
100
AcDbLine
 62
9
  6
CONTINUOUS
 10
3.861482343
 20
21.2725800371
 11
3.862019055
 21
21.2729652759
  0
LINE
  5
211
100
AcDbEntity
  8
0
100
AcDbLine
 62
9
  6
CONTINUOUS
 10
3.8341295181
 20
21.2807953827
 11
3.8346676721
 21
21.2811814546
  0
LINE
  5
212
100
AcDbEntity
  8
0
100
AcDbLine
 62
9
  6
CONTINUOUS
 10
3.9543521674
 20
21.1226031307
 11
3.933944226
 21
21.1092294909
  0
LINE
  5
213
100
AcDbEntity
  8
0
100
AcDbLine
 62
9
  6
CONTINUOUS
 10
3.6826662589
 20
20.9890885466
 11
3.682759563
 21
20.9891452694
  0
LINE
  5
214
100
AcDbEntity
  8
0
100
AcDbLine
 62
9
  6
CONTINUOUS
 10
6.1120922697
 20
22.4896965641
 11
6.1234349062
 21
22.4963778783
  0
LINE
  5
215
100
AcDbEntity
  8
0
100
AcDbLine
 62
9
  6
CONTINUOUS
 10
6.2455564327
 20
22.568312956
 11
6.2543320035
 21
22.5734821731
  0
LINE
  5
216
100
AcDbEntity
  8
0
100
AcDbLine
 62
9
  6
CONTINUOUS
 10
3.6049832003
 20
21.1236392763
 11
3.6050787329
 21
21.1236915865
  0
LINE
  5
217
100
AcDbEntity
  8
0
100
AcDbLine
 62
9
  6
CONTINUOUS
 10
3.8346673813
 20
21.2811820299
 11
3.8564533622
 21
21.2921690563
  0
LINE
  5
218
100
AcDbEntity
  8
0
100
AcDbLine
 62
9
  6
CONTINUOUS
 10
3.9333404888
 20
21.1089569497
 11
3.9339439137
 21
21.1092299687
  0
LINE
  5
219
100
AcDbEntity
  8
0
100
AcDbLine
 62
9
  6
CONTINUOUS
 10
3.9405040994
 20
21.1370250856
 11
3.9399014288
 21
21.136752501
  0
LINE
  5
21A
100
AcDbEntity
  8
0
100
AcDbLine
 62
9
  6
CONTINUOUS
 10
6.1919325012
 20
22.306076556
 11
6.2045542497
 21
22.3098152883
  0
LINE
  5
21B
100
AcDbEntity
  8
0
100
AcDbLine
 62
9
  6
CONTINUOUS
 10
6.3404508562
 20
22.3500697015
 11
6.3502167257
 21
22.3529624825
  0
LINE
  5
21C
100
AcDbEntity
  8
0
100
AcDbLine
 62
7
  6
CONTINUOUS
 10
16.8219405814
 20
-4.9738219442
 11
16.8214283021
 21
-4.9738219816
  0
LWPOLYLINE
  5
21D
100
AcDbEntity
  8
0
100
AcDbPolyline
 62
7
  6
CONTINUOUS
 90
3
 70
0
 10
16.8214283021
 20
-4.9738219816
 10
16.5605741144
 20
-4.9629351704
 10
16.318676838
 20
-4.9367544306
  0
LINE
  5
21E
100
AcDbEntity
  8
0
100
AcDbLine
 62
9
  6
CONTINUOUS
 10
7.6292232549
 20
-4.3286115285
 11
7.6283969735
 21
-4.3285562484
  0
LWPOLYLINE
  5
21F
100
AcDbEntity
  8
0
100
AcDbPolyline
 62
7
  6
CONTINUOUS
 90
3
 70
0
 10
16.2437487797
 20
-5.4917191015
 10
16.5647504504
 20
-5.5247658971
 10
16.8220448131
 20
-5.5338464474
  0
LINE
  5
220
100
AcDbEntity
  8
0
100
AcDbLine
 62
7
  6
CONTINUOUS
 10
7.6283969735
 20
-4.3285562484
 11
16.2437496616
 21
-5.4917192206
  0
LINE
  5
221
100
AcDbEntity
  8
0
100
AcDbLine
 62
7
  6
CONTINUOUS
 10
7.7033230606
 20
-3.7735913112
 11
16.3186757486
 21
-4.9367542834
  0
LINE
  5
222
100
AcDbEntity
  8
0
100
AcDbLine
 62
7
  6
CONTINUOUS
 10
5.5572966043
 20
22.3206827428
 11
5.5476593185
 21
22.3081193353
  0
LINE
  5
223
100
AcDbEntity
  8
0
100
AcDbLine
 62
7
  6
CONTINUOUS
 10
5.2141773917
 20
21.8735225997
 11
5.2044117378
 21
21.8607942312
  0
LINE
  5
224
100
AcDbEntity
  8
0
100
AcDbLine
 62
9
  6
CONTINUOUS
 10
4.8098991972
 20
21.2981511618
 11
4.8036979531
 21
21.2900695796
  0
LINE
  5
225
100
AcDbEntity
  8
0
100
AcDbLine
 62
9
  6
CONTINUOUS
 10
4.904193772
 20
21.4210382406
 11
4.8961801697
 21
21.4105947114
  0
LINE
  5
226
100
AcDbEntity
  8
0
100
AcDbLine
 62
7
  6
CONTINUOUS
 10
5.2512633131
 20
21.8248437531
 11
5.2609025729
 21
21.837405909
  0
LINE
  5
227
100
AcDbEntity
  8
0
100
AcDbLine
 62
7
  6
CONTINUOUS
 10
5.5945075544
 20
22.2721713612
 11
5.6041481795
 21
22.2847322647
  0
LINE
  5
228
100
AcDbEntity
  8
0
100
AcDbLine
 62
9
  6
CONTINUOUS
 10
5.076715022
 20
21.319415473
 11
5.0714658146
 21
21.3073431416
  0
LINE
  5
229
100
AcDbEntity
  8
0
100
AcDbLine
 62
9
  6
CONTINUOUS
 10
5.0149497909
 20
21.1773652139
 11
5.0108885925
 21
21.1680250798
  0
LINE
  5
22A
100
AcDbEntity
  8
0
100
AcDbLine
 62
7
  6
CONTINUOUS
 10
5.014236842
 20
19.2827633427
 11
4.8702901844
 21
19.1050040245
  0
LINE
  5
22B
100
AcDbEntity
  8
0
100
AcDbLine
 62
9
  6
CONTINUOUS
 10
5.6652057413
 20
23.0136312241
 11
5.6679276464
 21
23.0234460931
  0
LINE
  5
22C
100
AcDbEntity
  8
0
100
AcDbLine
 62
9
  6
CONTINUOUS
 10
5.6238113078
 20
22.8643677036
 11
5.6273291908
 21
22.8770527802
  0
LINE
  5
22D
100
AcDbEntity
  8
0
100
AcDbLine
 62
9
  6
CONTINUOUS
 10
4.3945774002
 20
-0.2843993083
 11
4.3977195544
 21
-0.2841541003
  0
LINE
  5
22E
100
AcDbEntity
  8
0
100
AcDbLine
 62
9
  6
CONTINUOUS
 10
4.9945318446
 20
13.9833267464
 11
4.9971382422
 21
13.9860731071
  0
LINE
  5
22F
100
AcDbEntity
  8
0
100
AcDbLine
 62
7
  6
CONTINUOUS
 10
4.9942799587
 20
13.785763248
 11
4.9873259602
 21
13.9912539032
  0
LINE
  5
230
100
AcDbEntity
  8
0
100
AcDbLine
 62
7
  6
CONTINUOUS
 10
4.956232485
 20
14.9100660957
 11
4.9542799587
 21
14.967763248
  0
LINE
  5
231
100
AcDbEntity
  8
0
100
AcDbLine
 62
7
  6
CONTINUOUS
 10
4.7692799587
 20
15.122763248
 11
4.7692799587
 21
15.192763248
  0
LINE
  5
232
100
AcDbEntity
  8
0
100
AcDbLine
 62
7
  6
CONTINUOUS
 10
4.7692799587
 20
18.972763248
 11
4.7692799587
 21
19.042763248
  0
LINE
  5
233
100
AcDbEntity
  8
0
100
AcDbLine
 62
7
  6
CONTINUOUS
 10
5.0292799587
 20
19.3224984486
 11
5.0292799587
 21
20.1102088656
  0
LINE
  5
234
100
AcDbEntity
  8
0
100
AcDbLine
 62
7
  6
CONTINUOUS
 10
5.0392799587
 20
14.967763248
 11
5.0392799587
 21
15.082763248
  0
LINE
  5
235
100
AcDbEntity
  8
0
100
AcDbLine
 62
7
  6
CONTINUOUS
 10
5.1242799587
 20
13.785763248
 11
5.1242799587
 21
9.1049221521
  0
LINE
  5
236
100
AcDbEntity
  8
0
100
AcDbLine
 62
9
  6
CONTINUOUS
 10
5.4257838327
 20
22.8939631269
 11
5.4261284385
 21
22.9071227853
  0
LINE
  5
237
100
AcDbEntity
  8
0
100
AcDbLine
 62
9
  6
CONTINUOUS
 10
5.4298385823
 20
23.0488074968
 11
5.4301051816
 21
23.0589888706
  0
LINE
  5
238
100
AcDbEntity
  8
0
100
AcDbLine
 62
7
  6
CONTINUOUS
 10
5.1205234029
 20
9.0085945786
 11
4.3945774002
 21
-0.2843993083
  0
LINE
  5
239
100
AcDbEntity
  8
0
100
AcDbLine
 62
7
  6
CONTINUOUS
 10
9.0417023682
 20
14.8659848824
 11
9.0802023682
 21
14.8882128677
  0
LINE
  5
23A
100
AcDbEntity
  8
0
100
AcDbLine
 62
9
  6
CONTINUOUS
 10
9.0802023682
 20
14.848763248
 11
9.0417023682
 21
14.829513248
  0
LINE
  5
23B
100
AcDbEntity
  8
0
100
AcDbLine
 62
7
  6
CONTINUOUS
 10
5.6842799587
 20
13.785763248
 11
5.6842799587
 21
9.1049221521
  0
LINE
  5
23C
100
AcDbEntity
  8
0
100
AcDbLine
 62
7
  6
CONTINUOUS
 10
5.7692799587
 20
15.082763248
 11
5.7692799587
 21
14.967763248
  0
LINE
  5
23D
100
AcDbEntity
  8
0
100
AcDbLine
 62
7
  6
CONTINUOUS
 10
5.7792799587
 20
19.3224984488
 11
5.7792799587
 21
20.1102088656
  0
LINE
  5
23E
100
AcDbEntity
  8
0
100
AcDbLine
 62
7
  6
CONTINUOUS
 10
6.0392799587
 20
15.122763248
 11
6.0392799587
 21
15.192763248
  0
LINE
  5
23F
100
AcDbEntity
  8
0
100
AcDbLine
 62
7
  6
CONTINUOUS
 10
6.0392799587
 20
18.972763248
 11
6.0392799587
 21
19.042763248
  0
LINE
  5
240
100
AcDbEntity
  8
0
100
AcDbLine
 62
7
  6
CONTINUOUS
 10
6.1647023682
 20
14.1977668622
 11
6.1647023682
 21
14.737762884
  0
LINE
  5
241
100
AcDbEntity
  8
0
100
AcDbLine
 62
7
  6
CONTINUOUS
 10
6.1827023682
 20
14.804645542
 11
6.1827023682
 21
14.1308809539
  0
LINE
  5
242
100
AcDbEntity
  8
0
100
AcDbLine
 62
9
  6
CONTINUOUS
 10
6.1986367726
 20
14.8311438447
 11
6.1986367726
 21
14.1043826512
  0
LINE
  5
243
100
AcDbEntity
  8
0
100
AcDbLine
 62
9
  6
CONTINUOUS
 10
6.2347023682
 20
14.0783199809
 11
6.2347023682
 21
14.857206515
  0
LINE
  5
244
100
AcDbEntity
  8
0
100
AcDbLine
 62
9
  6
CONTINUOUS
 10
6.2627023682
 20
14.046805427
 11
6.2627023682
 21
14.888721069
  0
LINE
  5
245
100
AcDbEntity
  8
0
100
AcDbLine
 62
9
  6
CONTINUOUS
 10
6.3107023682
 20
13.9668333317
 11
6.3107023682
 21
14.9686931642
  0
LINE
  5
246
100
AcDbEntity
  8
0
100
AcDbLine
 62
9
  6
CONTINUOUS
 10
6.3611878887
 20
15.097029234
 11
6.3611878887
 21
13.8384972619
  0
LINE
  5
247
100
AcDbEntity
  8
0
100
AcDbLine
 62
9
  6
CONTINUOUS
 10
6.3897210537
 20
15.117763248
 11
6.3897210537
 21
13.817763248
  0
LINE
  5
248
100
AcDbEntity
  8
0
100
AcDbLine
 62
9
  6
CONTINUOUS
 10
6.5777023682
 20
13.817763248
 11
6.5777023682
 21
15.117763248
  0
LINE
  5
249
100
AcDbEntity
  8
0
100
AcDbLine
 62
7
  6
CONTINUOUS
 10
6.5927023682
 20
13.8327632546
 11
6.5927023682
 21
15.1027632413
  0
LINE
  5
24A
100
AcDbEntity
  8
0
100
AcDbLine
 62
7
  6
CONTINUOUS
 10
5.8142799587
 20
13.785763248
 11
5.8204390111
 21
13.967763248
  0
LINE
  5
24B
100
AcDbEntity
  8
0
100
AcDbLine
 62
7
  6
CONTINUOUS
 10
5.6788225246
 20
8.9649816138
 11
4.9528765219
 21
-0.3280122732
  0
LINE
  5
24C
100
AcDbEntity
  8
0
100
AcDbLine
 62
7
  6
CONTINUOUS
 10
6.8902023682
 20
15.557763248
 11
6.8902023682
 21
15.247763248
  0
LINE
  5
24D
100
AcDbEntity
  8
0
100
AcDbLine
 62
7
  6
CONTINUOUS
 10
6.8902023682
 20
13.687763248
 11
6.8902023682
 21
13.377763248
  0
LINE
  5
24E
100
AcDbEntity
  8
0
100
AcDbLine
 62
7
  6
CONTINUOUS
 10
6.9452023682
 20
15.207763248
 11
6.9452023682
 21
15.112763248
  0
LINE
  5
24F
100
AcDbEntity
  8
0
100
AcDbLine
 62
7
  6
CONTINUOUS
 10
6.9452023682
 20
13.822763248
 11
6.9452023682
 21
13.727763248
  0
LINE
  5
250
100
AcDbEntity
  8
0
100
AcDbLine
 62
7
  6
CONTINUOUS
 10
9.0802023682
 20
13.180984455
 11
9.1187023682
 21
13.1920984477
  0
LINE
  5
251
100
AcDbEntity
  8
0
100
AcDbLine
 62
7
  6
CONTINUOUS
 10
5.4107699554
 20
21.7972491292
 11
5.4128365135
 21
21.7815503445
  0
LINE
  5
252
100
AcDbEntity
  8
0
100
AcDbLine
 62
7
  6
CONTINUOUS
 10
5.3371735104
 20
22.3562679117
 11
5.3392409295
 21
22.3405692788
  0
LINE
  5
253
100
AcDbEntity
  8
0
100
AcDbLine
 62
7
  6
CONTINUOUS
 10
5.4713864069
 20
21.7892585842
 11
5.4693192486
 21
21.8049572755
  0
LINE
  5
254
100
AcDbEntity
  8
0
100
AcDbLine
 62
7
  6
CONTINUOUS
 10
5.3978372562
 20
22.3479292902
 11
5.3957234038
 21
22.3639761514
  0
LINE
  5
255
100
AcDbEntity
  8
0
100
AcDbLine
 62
7
  6
CONTINUOUS
 10
8.5052023682
 20
15.207763248
 11
8.5052023682
 21
14.885263248
  0
LINE
  5
256
100
AcDbEntity
  8
0
100
AcDbLine
 62
7
  6
CONTINUOUS
 10
8.5052023682
 20
14.050263248
 11
8.5052023682
 21
13.727763248
  0
LINE
  5
257
100
AcDbEntity
  8
0
100
AcDbLine
 62
7
  6
CONTINUOUS
 10
8.5602023682
 20
15.557763248
 11
8.5602023682
 21
15.247763248
  0
LINE
  5
258
100
AcDbEntity
  8
0
100
AcDbLine
 62
7
  6
CONTINUOUS
 10
8.5602023682
 20
13.687763248
 11
8.5602023682
 21
13.377763248
  0
LINE
  5
259
100
AcDbEntity
  8
0
100
AcDbLine
 62
7
  6
CONTINUOUS
 10
10.8436852873
 20
14.2434384678
 11
10.8527033868
 21
14.2549250498
  0
LINE
  5
25A
100
AcDbEntity
  8
0
100
AcDbLine
 62
7
  6
CONTINUOUS
 10
11.8215423333
 20
13.8269980439
 11
11.8306194444
 21
13.8380880281
  0
LINE
  5
25B
100
AcDbEntity
  8
0
100
AcDbLine
 62
9
  6
CONTINUOUS
 10
5.2264788483
 20
22.8747722397
 11
5.2236296078
 21
22.8876243676
  0
LINE
  5
25C
100
AcDbEntity
  8
0
100
AcDbLine
 62
9
  6
CONTINUOUS
 10
5.1929529216
 20
23.0259980052
 11
5.190748507
 21
23.0359414449
  0
LINE
  5
25D
100
AcDbEntity
  8
0
100
AcDbLine
 62
9
  6
CONTINUOUS
 10
8.8952023682
 20
14.112763248
 11
8.8952023682
 21
14.822763248
  0
LINE
  5
25E
100
AcDbEntity
  8
0
100
AcDbLine
 62
7
  6
CONTINUOUS
 10
8.9152023682
 20
14.132763248
 11
8.9152023682
 21
14.802763248
  0
LINE
  5
25F
100
AcDbEntity
  8
0
100
AcDbLine
 62
7
  6
CONTINUOUS
 10
8.9552023682
 20
14.7777629098
 11
8.9552023682
 21
14.1577635861
  0
LINE
  5
260
100
AcDbEntity
  8
0
100
AcDbLine
 62
7
  6
CONTINUOUS
 10
9.0417023682
 20
14.8659846407
 11
9.0417023682
 21
14.777763248
  0
LINE
  5
261
100
AcDbEntity
  8
0
100
AcDbLine
 62
7
  6
CONTINUOUS
 10
9.0417023682
 20
13.1920984477
 11
9.0417023682
 21
14.157763248
  0
LINE
  5
262
100
AcDbEntity
  8
0
100
AcDbLine
 62
7
  6
CONTINUOUS
 10
9.0802023682
 20
14.8882128677
 11
9.0802023682
 21
14.777763248
  0
LINE
  5
263
100
AcDbEntity
  8
0
100
AcDbLine
 62
7
  6
CONTINUOUS
 10
9.0802023682
 20
13.180984455
 11
9.0802023682
 21
14.157763248
  0
LINE
  5
264
100
AcDbEntity
  8
0
100
AcDbLine
 62
7
  6
CONTINUOUS
 10
9.1187023682
 20
13.1920984477
 11
9.1187023682
 21
14.157763248
  0
LINE
  5
265
100
AcDbEntity
  8
0
100
AcDbLine
 62
7
  6
CONTINUOUS
 10
9.1187023682
 20
14.777763248
 11
9.1187023682
 21
14.8659846409
  0
LINE
  5
266
100
AcDbEntity
  8
0
100
AcDbLine
 62
7
  6
CONTINUOUS
 10
9.2052023682
 20
14.1577635861
 11
9.2052023682
 21
14.7777629098
  0
LINE
  5
267
100
AcDbEntity
  8
0
100
AcDbLine
 62
7
  6
CONTINUOUS
 10
9.7332023682
 20
14.777763248
 11
9.7332023682
 21
14.157763248
  0
LINE
  5
268
100
AcDbEntity
  8
0
100
AcDbLine
 62
7
  6
CONTINUOUS
 10
9.7867023682
 20
15.627763248
 11
9.7867023682
 21
14.771660649
  0
LINE
  5
269
100
AcDbEntity
  8
0
100
AcDbLine
 62
7
  6
CONTINUOUS
 10
9.7867023682
 20
13.307763248
 11
9.7867023682
 21
14.1638658989
  0
LINE
  5
26A
100
AcDbEntity
  8
0
100
AcDbLine
 62
7
  6
CONTINUOUS
 10
10.1717023682
 20
15.627763248
 11
10.1717023682
 21
14.7716605981
  0
LINE
  5
26B
100
AcDbEntity
  8
0
100
AcDbLine
 62
7
  6
CONTINUOUS
 10
10.1717023682
 20
13.307763248
 11
10.1717023682
 21
14.163865847
  0
LINE
  5
26C
100
AcDbEntity
  8
0
100
AcDbLine
 62
7
  6
CONTINUOUS
 10
10.2252023682
 20
14.157763248
 11
10.2252023682
 21
14.777763248
  0
LINE
  5
26D
100
AcDbEntity
  8
0
100
AcDbLine
 62
7
  6
CONTINUOUS
 10
10.7821523658
 20
14.395763248
 11
10.7821523658
 21
14.295763248
  0
LINE
  5
26E
100
AcDbEntity
  8
0
100
AcDbLine
 62
7
  6
CONTINUOUS
 10
10.8436852873
 20
13.8380880281
 11
10.8436852873
 21
14.2434384678
  0
LINE
  5
26F
100
AcDbEntity
  8
0
100
AcDbLine
 62
7
  6
CONTINUOUS
 10
10.8588780666
 20
14.2434384678
 11
10.8588780666
 21
13.8380880281
  0
LINE
  5
270
100
AcDbEntity
  8
0
100
AcDbLine
 62
7
  6
CONTINUOUS
 10
10.8821523658
 20
14.495763248
 11
10.8821523658
 21
15.1869883674
  0
LINE
  5
271
100
AcDbEntity
  8
0
100
AcDbLine
 62
7
  6
CONTINUOUS
 10
11.0311523658
 20
13.785763248
 11
11.0311523658
 21
12.785763248
  0
LINE
  5
272
100
AcDbEntity
  8
0
100
AcDbLine
 62
9
  6
CONTINUOUS
 10
5.1242799587
 20
9.1049221521
 11
5.6842799587
 21
9.1049221521
  0
LWPOLYLINE
  5
273
100
AcDbEntity
  8
0
100
AcDbPolyline
 62
7
  6
CONTINUOUS
 90
5
 70
0
 10
4.9945308531
 20
13.9833276873
 10
5.0005365067
 20
13.9784150237
 10
5.0120379089
 20
13.9721887384
 10
5.025265302
 20
13.9685486355
 10
5.0352753989
 20
13.9677632485
  0
LINE
  5
274
100
AcDbEntity
  8
0
100
AcDbLine
 62
9
  6
CONTINUOUS
 10
4.9971375498
 20
14.9494527316
 11
4.9945312093
 21
14.9521991467
  0
LINE
  5
275
100
AcDbEntity
  8
0
100
AcDbLine
 62
7
  6
CONTINUOUS
 10
3.5409202093
 20
20.9852363768
 11
3.5307741872
 21
21.0028098025
  0
LINE
  5
276
100
AcDbEntity
  8
0
100
AcDbLine
 62
9
  6
CONTINUOUS
 10
3.6101623433
 20
21.0258623481
 11
3.6005783755
 21
21.0424622673
  0
LINE
  5
277
100
AcDbEntity
  8
0
100
AcDbLine
 62
7
  6
CONTINUOUS
 10
3.753786542
 20
21.210393977
 11
3.7541472962
 21
21.2097054447
  0
LINE
  5
278
100
AcDbEntity
  8
0
100
AcDbLine
 62
7
  6
CONTINUOUS
 10
3.7537865388
 20
21.2103939752
 11
3.7541472946
 21
21.2097054478
  0
LINE
  5
279
100
AcDbEntity
  8
0
100
AcDbLine
 62
9
  6
CONTINUOUS
 10
5.6919688027
 20
21.3033044855
 11
5.6965789862
 21
21.2909739667
  0
LINE
  5
27A
100
AcDbEntity
  8
0
100
AcDbLine
 62
9
  6
CONTINUOUS
 10
5.7462150312
 20
21.1582163383
 11
5.7497818496
 21
21.1486764747
  0
LINE
  5
27B
100
AcDbEntity
  8
0
100
AcDbLine
 62
7
  6
CONTINUOUS
 10
11.1102854257
 20
13.8380880281
 11
11.1102854257
 21
14.2434384678
  0
LINE
  5
27C
100
AcDbEntity
  8
0
100
AcDbLine
 62
7
  6
CONTINUOUS
 10
11.2051005607
 20
14.2434384678
 11
11.2051005607
 21
13.8380880281
  0
LINE
  5
27D
100
AcDbEntity
  8
0
100
AcDbLine
 62
7
  6
CONTINUOUS
 10
11.6037525043
 20
13.8380880281
 11
11.6037525043
 21
14.2434384678
  0
LINE
  5
27E
100
AcDbEntity
  8
0
100
AcDbLine
 62
7
  6
CONTINUOUS
 10
11.6431523658
 20
13.785763248
 11
11.6431523658
 21
12.785763248
  0
LINE
  5
27F
100
AcDbEntity
  8
0
100
AcDbLine
 62
7
  6
CONTINUOUS
 10
11.68337486
 20
14.2434384678
 11
11.68337486
 21
13.8380880281
  0
LINE
  5
280
100
AcDbEntity
  8
0
100
AcDbLine
 62
7
  6
CONTINUOUS
 10
11.7921523658
 20
14.495763248
 11
11.7921523658
 21
15.186876485
  0
LINE
  5
281
100
AcDbEntity
  8
0
100
AcDbLine
 62
7
  6
CONTINUOUS
 10
11.8306194444
 20
13.8380880281
 11
11.8306194444
 21
14.2434384678
  0
LINE
  5
282
100
AcDbEntity
  8
0
100
AcDbLine
 62
7
  6
CONTINUOUS
 10
11.8921523658
 20
14.395763248
 11
11.8921523658
 21
14.295763248
  0
LINE
  5
283
100
AcDbEntity
  8
0
100
AcDbLine
 62
9
  6
CONTINUOUS
 10
5.1236655571
 20
9.0088397866
 11
5.1205234029
 21
9.0085945786
  0
LINE
  5
284
100
AcDbEntity
  8
0
100
AcDbLine
 62
7
  6
CONTINUOUS
 10
3.831779757
 20
21.0752415433
 11
3.8317834927
 21
21.0752356542
  0
LINE
  5
285
100
AcDbEntity
  8
0
100
AcDbLine
 62
7
  6
CONTINUOUS
 10
3.8317883574
 20
21.0752381132
 11
3.8321995648
 21
21.0745786622
  0
LINE
  5
286
100
AcDbEntity
  8
0
100
AcDbLine
 62
7
  6
CONTINUOUS
 10
3.8317883588
 20
21.0752381111
 11
3.8321995664
 21
21.0745786631
  0
LINE
  5
287
100
AcDbEntity
  8
0
100
AcDbLine
 62
9
  6
CONTINUOUS
 10
4.1734496597
 20
21.3751288248
 11
4.1846967435
 21
21.3556507508
  0
LINE
  5
288
100
AcDbEntity
  8
0
100
AcDbLine
 62
7
  6
CONTINUOUS
 10
4.1917597851
 20
21.3856643348
 11
4.197352507
 21
21.3759433569
  0
LWPOLYLINE
  5
289
100
AcDbEntity
  8
0
100
AcDbPolyline
 62
7
  6
CONTINUOUS
 90
48
 70
0
 10
11.0664760906
 20
12.785763248
 10
11.1860239198
 20
11.9455841937
 10
11.3705553892
 20
11.1402164848
 10
11.5897940095
 20
10.3921971647
 10
11.8282801228
 20
9.6935157231
 10
12.0772536752
 20
9.0362894044
 10
12.3318007796
 20
8.413524748
 10
12.5882223495
 20
7.8213157236
 10
12.8440509918
 20
7.2563490582
 10
13.0978089593
 20
6.7154034338
 10
13.3483639916
 20
6.1960852854
 10
13.594840201
 20
5.696566904
 10
13.836699815
 20
5.2151036311
 10
14.0736414504
 20
4.7500357415
 10
14.3054039432
 20
4.3000376441
 10
14.5317367314
 20
3.8640676789
 10
14.7524667148
 20
3.4411683867
 10
14.9674720721
 20
3.0304660981
 10
15.1766528177
 20
2.631191286
 10
15.3799144803
 20
2.2426742579
 10
15.5772261857
 20
1.8642046671
 10
15.7685305029
 20
1.4951815497
 10
15.9537308891
 20
1.1351209795
 10
16.1326865243
 20
0.7836513438
 10
16.3052270812
 20
0.4404731154
 10
16.4713549052
 20
0.104942912
 10
16.630995051
 20
-0.2234498811
 10
16.7839478994
 20
-0.5450089889
 10
16.9298987312
 20
-0.8598553969
 10
17.0683781028
 20
-1.1678336071
 10
17.1991846659
 20
-1.4694600249
 10
17.3222051614
 20
-1.7656795278
 10
17.4369609475
 20
-2.0569086126
 10
17.542632489
 20
-2.3430606301
 10
17.6380248151
 20
-2.6232014488
 10
17.7220184968
 20
-2.8969524235
 10
17.7939030503
 20
-3.1667592179
 10
17.8515903683
 20
-3.4329864877
 10
17.89177376
 20
-3.6933520339
 10
17.9103258968
 20
-3.9439672623
 10
17.9017937718
 20
-4.1869321246
 10
17.8563325721
 20
-4.417426508
 10
17.7623981297
 20
-4.6200312815
 10
17.6159999963
 20
-4.7753714353
 10
17.4204455483
 20
-4.8819242241
 10
17.2020328204
 20
-4.9422420125
 10
16.9633977405
 20
-4.9699931098
 10
16.8219405814
 20
-4.9738219442
  0
LINE
  5
28A
100
AcDbEntity
  8
0
100
AcDbLine
 62
7
  6
CONTINUOUS
 10
5.7943230735
 20
19.2827633449
 11
5.9382697329
 21
19.1050040245
  0
LINE
  5
28B
100
AcDbEntity
  8
0
100
AcDbLine
 62
7
  6
CONTINUOUS
 10
9.0417023682
 20
13.1920984477
 11
9.0802023682
 21
13.180984455
  0
LINE
  5
28C
100
AcDbEntity
  8
0
100
AcDbLine
 62
7
  6
CONTINUOUS
 10
10.8527623984
 20
13.8269980439
 11
10.8436852873
 21
13.8380880281
  0
LINE
  5
28D
100
AcDbEntity
  8
0
100
AcDbLine
 62
9
  6
CONTINUOUS
 10
5.8695721338
 20
21.3957589278
 11
5.8770283955
 21
21.3849099866
  0
LINE
  5
28E
100
AcDbEntity
  8
0
100
AcDbLine
 62
9
  6
CONTINUOUS
 10
5.9573070006
 20
21.2681038729
 11
5.9630757763
 21
21.2597102644
  0
LINE
  5
28F
100
AcDbEntity
  8
0
100
AcDbLine
 62
7
  6
CONTINUOUS
 10
11.0312440706
 20
12.785763248
 11
11.6430606611
 21
12.785763248
  0
LINE
  5
290
100
AcDbEntity
  8
0
100
AcDbLine
 62
7
  6
CONTINUOUS
 10
9.7867023682
 20
13.307763248
 11
10.1717023682
 21
13.307763248
  0
LINE
  5
291
100
AcDbEntity
  8
0
100
AcDbLine
 62
7
  6
CONTINUOUS
 10
6.9102028606
 20
13.357763248
 11
8.5402016028
 21
13.357763248
  0
LINE
  5
292
100
AcDbEntity
  8
0
100
AcDbLine
 62
9
  6
CONTINUOUS
 10
6.8902023682
 20
13.377763248
 11
8.5602023682
 21
13.377763248
  0
LINE
  5
293
100
AcDbEntity
  8
0
100
AcDbLine
 62
9
  6
CONTINUOUS
 10
8.5602023682
 20
13.687763248
 11
6.8902023682
 21
13.687763248
  0
LINE
  5
294
100
AcDbEntity
  8
0
100
AcDbLine
 62
7
  6
CONTINUOUS
 10
8.5402044448
 20
13.707763248
 11
6.9102006667
 21
13.707763248
  0
LINE
  5
295
100
AcDbEntity
  8
0
100
AcDbLine
 62
9
  6
CONTINUOUS
 10
6.9452023682
 20
13.727763248
 11
8.5052023682
 21
13.727763248
  0
LINE
  5
296
100
AcDbEntity
  8
0
100
AcDbLine
 62
7
  6
CONTINUOUS
 10
4.9943336396
 20
13.785763248
 11
5.8142262777
 21
13.785763248
  0
LINE
  5
297
100
AcDbEntity
  8
0
100
AcDbLine
 62
7
  6
CONTINUOUS
 10
10.9002339312
 20
13.785763248
 11
11.7740708005
 21
13.785763248
  0
LINE
  5
298
100
AcDbEntity
  8
0
100
AcDbLine
 62
7
  6
CONTINUOUS
 10
6.3897210537
 20
13.817763248
 11
6.5777023682
 21
13.817763248
  0
LINE
  5
299
100
AcDbEntity
  8
0
100
AcDbLine
 62
7
  6
CONTINUOUS
 10
10.8436852873
 20
13.8380880281
 11
10.8588780666
 21
13.8380880281
  0
LINE
  5
29A
100
AcDbEntity
  8
0
100
AcDbLine
 62
7
  6
CONTINUOUS
 10
11.1102854257
 20
13.8380880281
 11
11.2051005607
 21
13.8380880281
  0
LINE
  5
29B
100
AcDbEntity
  8
0
100
AcDbLine
 62
7
  6
CONTINUOUS
 10
11.6037525043
 20
13.8380880281
 11
11.68337486
 21
13.8380880281
  0
LINE
  5
29C
100
AcDbEntity
  8
0
100
AcDbLine
 62
9
  6
CONTINUOUS
 10
9.1187023682
 20
14.829513248
 11
9.0802023682
 21
14.848763248
  0
LINE
  5
29D
100
AcDbEntity
  8
0
100
AcDbLine
 62
7
  6
CONTINUOUS
 10
9.1187023682
 20
14.8659848824
 11
9.0802023682
 21
14.8882128677
  0
LINE
  5
29E
100
AcDbEntity
  8
0
100
AcDbLine
 62
7
  6
CONTINUOUS
 10
11.8306194444
 20
14.2434384678
 11
11.8216013449
 21
14.2549250498
  0
LINE
  5
29F
100
AcDbEntity
  8
0
100
AcDbLine
 62
7
  6
CONTINUOUS
 10
6.5927023682
 20
13.882763248
 11
6.8852023682
 21
13.882763248
  0
LINE
  5
2A0
100
AcDbEntity
  8
0
100
AcDbLine
 62
7
  6
CONTINUOUS
 10
5.0352632514
 20
13.967763248
 11
6.0034710789
 21
13.967763248
  0
LINE
  5
2A1
100
AcDbEntity
  8
0
100
AcDbLine
 62
9
  6
CONTINUOUS
 10
6.0421353132
 20
13.9860723905
 11
4.9971382421
 21
13.9860731073
  0
LINE
  5
2A2
100
AcDbEntity
  8
0
100
AcDbLine
 62
7
  6
CONTINUOUS
 10
8.5677023682
 20
14.112763248
 11
8.8952023682
 21
14.112763248
  0
LINE
  5
2A3
100
AcDbEntity
  8
0
100
AcDbLine
 62
7
  6
CONTINUOUS
 10
10.2252023682
 20
14.157763248
 11
10.1812023682
 21
14.157763248
  0
LINE
  5
2A4
100
AcDbEntity
  8
0
100
AcDbLine
 62
7
  6
CONTINUOUS
 10
9.7772023682
 20
14.157763248
 11
9.7332023682
 21
14.157763248
  0
LINE
  5
2A5
100
AcDbEntity
  8
0
100
AcDbLine
 62
7
  6
CONTINUOUS
 10
8.9552023682
 20
14.157763248
 11
9.2052023682
 21
14.157763248
  0
LINE
  5
2A6
100
AcDbEntity
  8
0
100
AcDbLine
 62
7
  6
CONTINUOUS
 10
6.1647023682
 20
14.220263248
 11
6.1827023682
 21
14.220263248
  0
LINE
  5
2A7
100
AcDbEntity
  8
0
100
AcDbLine
 62
7
  6
CONTINUOUS
 10
11.68337486
 20
14.2434384678
 11
11.6037525043
 21
14.2434384678
  0
LINE
  5
2A8
100
AcDbEntity
  8
0
100
AcDbLine
 62
7
  6
CONTINUOUS
 10
11.2051005607
 20
14.2434384678
 11
11.1102854257
 21
14.2434384678
  0
LINE
  5
2A9
100
AcDbEntity
  8
0
100
AcDbLine
 62
7
  6
CONTINUOUS
 10
10.8588780666
 20
14.2434384678
 11
10.8436852873
 21
14.2434384678
  0
LINE
  5
2AA
100
AcDbEntity
  8
0
100
AcDbLine
 62
7
  6
CONTINUOUS
 10
9.7332023682
 20
14.247763248
 11
9.2052023682
 21
14.247763248
  0
LINE
  5
2AB
100
AcDbEntity
  8
0
100
AcDbLine
 62
7
  6
CONTINUOUS
 10
8.9152023682
 20
14.278635119
 11
8.9552023682
 21
14.278635119
  0
LINE
  5
2AC
100
AcDbEntity
  8
0
100
AcDbLine
 62
7
  6
CONTINUOUS
 10
10.7821594728
 20
14.295763248
 11
11.8921452589
 21
14.295763248
  0
LINE
  5
2AD
100
AcDbEntity
  8
0
100
AcDbLine
 62
7
  6
CONTINUOUS
 10
11.8921523658
 20
14.395763248
 11
10.7821523658
 21
14.395763248
  0
LINE
  5
2AE
100
AcDbEntity
  8
0
100
AcDbLine
 62
9
  6
CONTINUOUS
 10
10.8821523658
 20
14.495763248
 11
11.7921523658
 21
14.495763248
  0
LINE
  5
2AF
100
AcDbEntity
  8
0
100
AcDbLine
 62
7
  6
CONTINUOUS
 10
8.9152023682
 20
14.6568913769
 11
8.9552023682
 21
14.6568913769
  0
LINE
  5
2B0
100
AcDbEntity
  8
0
100
AcDbLine
 62
7
  6
CONTINUOUS
 10
9.7332023682
 20
14.687763248
 11
9.2052023682
 21
14.687763248
  0
LINE
  5
2B1
100
AcDbEntity
  8
0
100
AcDbLine
 62
7
  6
CONTINUOUS
 10
6.1647023682
 20
14.715263248
 11
6.1827023682
 21
14.715263248
  0
LINE
  5
2B2
100
AcDbEntity
  8
0
100
AcDbLine
 62
7
  6
CONTINUOUS
 10
10.2252023682
 20
14.777763248
 11
10.1812023682
 21
14.777763248
  0
LINE
  5
2B3
100
AcDbEntity
  8
0
100
AcDbLine
 62
7
  6
CONTINUOUS
 10
9.7772023682
 20
14.777763248
 11
9.7332023682
 21
14.777763248
  0
LINE
  5
2B4
100
AcDbEntity
  8
0
100
AcDbLine
 62
7
  6
CONTINUOUS
 10
8.9552023682
 20
14.777763248
 11
9.2052023682
 21
14.777763248
  0
LINE
  5
2B5
100
AcDbEntity
  8
0
100
AcDbLine
 62
7
  6
CONTINUOUS
 10
8.5677023682
 20
14.822763248
 11
8.8952023682
 21
14.822763248
  0
LINE
  5
2B6
100
AcDbEntity
  8
0
100
AcDbLine
 62
9
  6
CONTINUOUS
 10
4.9971382422
 20
14.9494533888
 11
5.9629344111
 21
14.9494533888
  0
LINE
  5
2B7
100
AcDbEntity
  8
0
100
AcDbLine
 62
9
  6
CONTINUOUS
 10
5.9629344111
 20
14.9494533888
 11
6.0421347589
 21
14.9494547819
  0
LWPOLYLINE
  5
2B8
100
AcDbEntity
  8
0
100
AcDbPolyline
 62
7
  6
CONTINUOUS
 90
5
 70
0
 10
5.0352721313
 20
14.9677632476
 10
5.0248906127
 20
14.9669172258
 10
5.0116682582
 20
14.9631875557
 10
5.0001969906
 20
14.9568706626
 10
4.9945313146
 20
14.9521992466
  0
LINE
  5
2B9
100
AcDbEntity
  8
0
100
AcDbLine
 62
7
  6
CONTINUOUS
 10
6.0034710789
 20
14.967763248
 11
4.9543753478
 21
14.967763248
  0
LINE
  5
2BA
100
AcDbEntity
  8
0
100
AcDbLine
 62
7
  6
CONTINUOUS
 10
5.0392799587
 20
15.007763248
 11
5.7692799587
 21
15.007763248
  0
LINE
  5
2BB
100
AcDbEntity
  8
0
100
AcDbLine
 62
7
  6
CONTINUOUS
 10
6.5927023682
 20
15.052763248
 11
6.8852023682
 21
15.052763248
  0
LINE
  5
2BC
100
AcDbEntity
  8
0
100
AcDbLine
 62
7
  6
CONTINUOUS
 10
4.8092799587
 20
15.082763248
 11
5.9992799587
 21
15.082763248
  0
LINE
  5
2BD
100
AcDbEntity
  8
0
100
AcDbLine
 62
7
  6
CONTINUOUS
 10
6.3897210537
 20
15.117763248
 11
6.5777023682
 21
15.117763248
  0
LINE
  5
2BE
100
AcDbEntity
  8
0
100
AcDbLine
 62
9
  6
CONTINUOUS
 10
4.7692799587
 20
15.122763248
 11
6.0392799587
 21
15.122763248
  0
LINE
  5
2BF
100
AcDbEntity
  8
0
100
AcDbLine
 62
9
  6
CONTINUOUS
 10
6.0392799587
 20
15.192763248
 11
4.7692799587
 21
15.192763248
  0
LINE
  5
2C0
100
AcDbEntity
  8
0
100
AcDbLine
 62
9
  6
CONTINUOUS
 10
8.5052023682
 20
15.207763248
 11
6.9452023682
 21
15.207763248
  0
LINE
  5
2C1
100
AcDbEntity
  8
0
100
AcDbLine
 62
7
  6
CONTINUOUS
 10
6.9102028606
 20
15.227763248
 11
8.5402016028
 21
15.227763248
  0
LINE
  5
2C2
100
AcDbEntity
  8
0
100
AcDbLine
 62
9
  6
CONTINUOUS
 10
4.8070169859
 20
15.2326991836
 11
6.0015429315
 21
15.2326991836
  0
LINE
  5
2C3
100
AcDbEntity
  8
0
100
AcDbLine
 62
9
  6
CONTINUOUS
 10
6.8902023682
 20
15.247763248
 11
8.5602023682
 21
15.247763248
  0
LINE
  5
2C4
100
AcDbEntity
  8
0
100
AcDbLine
 62
9
  6
CONTINUOUS
 10
5.9451726522
 20
15.2979111972
 11
4.8633872651
 21
15.2979111972
  0
LINE
  5
2C5
100
AcDbEntity
  8
0
100
AcDbLine
 62
9
  6
CONTINUOUS
 10
8.5602023682
 20
15.557763248
 11
6.8902023682
 21
15.557763248
  0
LINE
  5
2C6
100
AcDbEntity
  8
0
100
AcDbLine
 62
7
  6
CONTINUOUS
 10
8.5402044448
 20
15.577763248
 11
6.9102006667
 21
15.577763248
  0
LINE
  5
2C7
100
AcDbEntity
  8
0
100
AcDbLine
 62
7
  6
CONTINUOUS
 10
10.1717023682
 20
15.627763248
 11
9.7867023682
 21
15.627763248
  0
LINE
  5
2C8
100
AcDbEntity
  8
0
100
AcDbLine
 62
7
  6
CONTINUOUS
 10
5.6036870822
 20
21.8825345769
 11
5.6162489754
 21
21.8728950271
  0
LINE
  5
2C9
100
AcDbEntity
  8
0
100
AcDbLine
 62
7
  6
CONTINUOUS
 10
5.1563604638
 20
22.2257798936
 11
5.1689226809
 21
22.2161407302
  0
LINE
  5
2CA
100
AcDbEntity
  8
0
100
AcDbLine
 62
7
  6
CONTINUOUS
 10
6.1110810499
 20
21.479686713
 11
6.0888944807
 21
21.498303455
  0
LINE
  5
2CB
100
AcDbEntity
  8
0
100
AcDbLine
 62
9
  6
CONTINUOUS
 10
6.0195331315
 20
21.5284332169
 11
6.0293924185
 21
21.5197104495
  0
LINE
  5
2CC
100
AcDbEntity
  8
0
100
AcDbLine
 62
9
  6
CONTINUOUS
 10
6.1355444489
 20
21.4257950511
 11
6.1431724718
 21
21.4190463554
  0
LINE
  5
2CD
100
AcDbEntity
  8
0
100
AcDbLine
 62
9
  6
CONTINUOUS
 10
4.719258285
 20
22.5261692059
 11
4.7082808946
 21
22.5334349906
  0
LINE
  5
2CE
100
AcDbEntity
  8
0
100
AcDbLine
 62
9
  6
CONTINUOUS
 10
4.5900915081
 20
22.6116628519
 11
4.5815984899
 21
22.6172842497
  0
LINE
  5
2CF
100
AcDbEntity
  8
0
100
AcDbLine
 62
7
  6
CONTINUOUS
 10
5.2048728489
 20
22.262991934
 11
5.1923109419
 21
22.2726314688
  0
LINE
  5
2D0
100
AcDbEntity
  8
0
100
AcDbLine
 62
7
  6
CONTINUOUS
 10
5.6521994535
 20
21.9197466024
 11
5.6396366988
 21
21.9293849177
  0
LINE
  5
2D1
100
AcDbEntity
  8
0
100
AcDbLine
 62
9
  6
CONTINUOUS
 10
4.8633872651
 20
18.8676152987
 11
5.9451726522
 21
18.8676152987
  0
LINE
  5
2D2
100
AcDbEntity
  8
0
100
AcDbLine
 62
9
  6
CONTINUOUS
 10
4.8070169859
 20
18.9328273123
 11
6.0015429315
 21
18.9328273123
  0
LINE
  5
2D3
100
AcDbEntity
  8
0
100
AcDbLine
 62
9
  6
CONTINUOUS
 10
4.7692799587
 20
18.972763248
 11
6.0392799587
 21
18.972763248
  0
LINE
  5
2D4
100
AcDbEntity
  8
0
100
AcDbLine
 62
9
  6
CONTINUOUS
 10
6.0392799587
 20
19.042763248
 11
4.7692799587
 21
19.042763248
  0
LINE
  5
2D5
100
AcDbEntity
  8
0
100
AcDbLine
 62
7
  6
CONTINUOUS
 10
5.9992788301
 20
19.082763248
 11
4.8092810872
 21
19.082763248
  0
LINE
  5
2D6
100
AcDbEntity
  8
0
100
AcDbLine
 62
9
  6
CONTINUOUS
 10
4.8702901844
 20
19.1050040245
 11
5.9382697329
 21
19.1050040245
  0
LINE
  5
2D7
100
AcDbEntity
  8
0
100
AcDbLine
 62
7
  6
CONTINUOUS
 10
5.7943230735
 20
19.2827633449
 11
5.014236842
 21
19.2827633427
  0
LINE
  5
2D8
100
AcDbEntity
  8
0
100
AcDbLine
 62
9
  6
CONTINUOUS
 10
5.0292799587
 20
19.3224984486
 11
5.7792799587
 21
19.3224984488
  0
LINE
  5
2D9
100
AcDbEntity
  8
0
100
AcDbLine
 62
9
  6
CONTINUOUS
 10
4.6299175265
 20
22.3469793696
 11
4.6175084364
 21
22.3513736668
  0
LINE
  5
2DA
100
AcDbEntity
  8
0
100
AcDbLine
 62
9
  6
CONTINUOUS
 10
4.4839047696
 20
22.3986852177
 11
4.4743040927
 21
22.4020849884
  0
LINE
  5
2DB
100
AcDbEntity
  8
0
100
AcDbLine
 62
9
  6
CONTINUOUS
 10
4.5865805424
 20
22.1514987437
 11
4.5734772027
 21
22.1527604537
  0
LINE
  5
2DC
100
AcDbEntity
  8
0
100
AcDbLine
 62
9
  6
CONTINUOUS
 10
4.432396589
 20
22.1663449728
 11
4.4222581814
 21
22.1673211913
  0
LINE
  5
2DD
100
AcDbEntity
  8
0
100
AcDbLine
 62
7
  6
CONTINUOUS
 10
5.67922113
 20
22.0791753324
 11
5.6954928621
 21
22.0813198028
  0
LINE
  5
2DE
100
AcDbEntity
  8
0
100
AcDbLine
 62
7
  6
CONTINUOUS
 10
5.1207752949
 20
22.0056567997
 11
5.1366810591
 21
22.0077507516
  0
LINE
  5
2DF
100
AcDbEntity
  8
0
100
AcDbLine
 62
9
  6
CONTINUOUS
 10
6.2249794705
 20
22.1085957601
 11
6.2381311112
 21
22.1091699656
  0
LINE
  5
2E0
100
AcDbEntity
  8
0
100
AcDbLine
 62
9
  6
CONTINUOUS
 10
6.3797294929
 20
22.115352274
 11
6.389904662
 21
22.1157965384
  0
LINE
  5
2E1
100
AcDbEntity
  8
0
100
AcDbLine
 62
7
  6
CONTINUOUS
 10
4.4779079908
 20
22.1440436861
 11
4.5252748585
 21
22.1403990043
  0
LINE
  5
2E2
100
AcDbEntity
  8
0
100
AcDbLine
 62
7
  6
CONTINUOUS
 10
5.1287658323
 20
22.0662734347
 11
5.1130670552
 21
22.0642066931
  0
LINE
  5
2E3
100
AcDbEntity
  8
0
100
AcDbLine
 62
7
  6
CONTINUOUS
 10
5.6877846224
 20
22.1398696962
 11
5.6720861868
 21
22.1378013963
  0
ARC
  5
2E4
100
AcDbEntity
  8
0
100
AcDbCircle
 62
7
  6
CONTINUOUS
 10
3.8867307444
 20
9.1049467154
 40
1.7975492144
100
AcDbArc
 50
355.5341777786
 51
359.9992170582
  0
ARC
  5
2E5
100
AcDbEntity
  8
0
100
AcDbCircle
 62
7
  6
CONTINUOUS
 10
3.8869433542
 20
9.1049384238
 40
1.2373366046
100
AcDbArc
 50
355.5342072471
 51
359.9992465267
  0
ARC
  5
2E6
100
AcDbEntity
  8
0
100
AcDbCircle
 62
7
  6
CONTINUOUS
 10
5.2816831388
 20
13.4879341508
 40
1.135
100
AcDbArc
 50
17.990914348
 51
24.9569771164
  0
ARC
  5
2E7
100
AcDbEntity
  8
0
100
AcDbCircle
 62
7
  6
CONTINUOUS
 10
5.4542799587
 20
14.467763248
 40
0.76
100
AcDbArc
 50
20.8095735777
 51
39.3312480846
  0
ARC
  5
2E8
100
AcDbEntity
  8
0
100
AcDbCircle
 62
7
  6
CONTINUOUS
 10
5.4542874883
 20
14.4677587935
 40
0.7599910142
100
AcDbArc
 50
320.6686515921
 51
339.1905387834
  0
ARC
  5
2E9
100
AcDbEntity
  8
0
100
AcDbCircle
 62
7
  6
CONTINUOUS
 10
5.4542799587
 20
14.467763248
 40
0.6678675411
100
AcDbArc
 50
133.5022476611
 51
226.4977022704
  0
ARC
  5
2EA
100
AcDbEntity
  8
0
100
AcDbCircle
 62
9
  6
CONTINUOUS
 10
5.4542799587
 20
14.467763248
 40
0.6640812757
100
AcDbArc
 50
133.5021804684
 51
226.4978195129
  0
ARC
  5
2EB
100
AcDbEntity
  8
0
100
AcDbCircle
 62
7
  6
CONTINUOUS
 10
5.9072543003
 20
15.1564553981
 40
0.445
100
AcDbArc
 50
323.0118254245
 51
335.0430228836
  0
ARC
  5
2EC
100
AcDbEntity
  8
0
100
AcDbCircle
 62
7
  6
CONTINUOUS
 10
5.9072543003
 20
13.7790710978
 40
0.445
100
AcDbArc
 50
24.9569771164
 51
36.9881745755
  0
ARC
  5
2ED
100
AcDbEntity
  8
0
100
AcDbCircle
 62
7
  6
CONTINUOUS
 10
6.0542260857
 20
13.8897747305
 40
0.261
100
AcDbArc
 50
36.9881745755
 51
46.2526210594
  0
ARC
  5
2EE
100
AcDbEntity
  8
0
100
AcDbCircle
 62
7
  6
CONTINUOUS
 10
6.0542260857
 20
15.0457517654
 40
0.261
100
AcDbArc
 50
313.7473789406
 51
323.0118254245
  0
ARC
  5
2EF
100
AcDbEntity
  8
0
100
AcDbCircle
 62
7
  6
CONTINUOUS
 10
6.1226826066
 20
14.9742346014
 40
0.162
100
AcDbArc
 50
297.9598599984
 51
313.7473789406
  0
ARC
  5
2F0
100
AcDbEntity
  8
0
100
AcDbCircle
 62
7
  6
CONTINUOUS
 10
6.1226826066
 20
13.9612918945
 40
0.162
100
AcDbArc
 50
46.2526210594
 51
62.0401400016
  0
ARC
  5
2F1
100
AcDbEntity
  8
0
100
AcDbCircle
 62
7
  6
CONTINUOUS
 10
6.0034611674
 20
14.017763248
 40
0.05
100
AcDbArc
 50
270.0
 51
320.6687519154
  0
ARC
  5
2F2
100
AcDbEntity
  8
0
100
AcDbCircle
 62
7
  6
CONTINUOUS
 10
6.0034611674
 20
14.917763248
 40
0.05
100
AcDbArc
 50
39.3312480846
 51
90.0
  0
ARC
  5
2F3
100
AcDbEntity
  8
0
100
AcDbCircle
 62
7
  6
CONTINUOUS
 10
4.8092799587
 20
15.192763248
 40
0.04
100
AcDbArc
 50
93.2432014018
 51
180.0
  0
ARC
  5
2F4
100
AcDbEntity
  8
0
100
AcDbCircle
 62
7
  6
CONTINUOUS
 10
5.9992799587
 20
15.192763248
 40
0.04
100
AcDbArc
 50
0.0
 51
86.7567985982
  0
ARC
  5
2F5
100
AcDbEntity
  8
0
100
AcDbCircle
 62
7
  6
CONTINUOUS
 10
4.8092799587
 20
15.122763248
 40
0.04
100
AcDbArc
 50
180.0
 51
270.0
  0
ARC
  5
2F6
100
AcDbEntity
  8
0
100
AcDbCircle
 62
7
  6
CONTINUOUS
 10
5.9992799587
 20
15.122763248
 40
0.04
100
AcDbArc
 50
270.0
 51
360.0
  0
ARC
  5
2F7
100
AcDbEntity
  8
0
100
AcDbCircle
 62
7
  6
CONTINUOUS
 10
6.3897210537
 20
15.087763248
 40
0.03
100
AcDbArc
 50
90.0
 51
162.0090840957
  0
ARC
  5
2F8
100
AcDbEntity
  8
0
100
AcDbCircle
 62
7
  6
CONTINUOUS
 10
6.3897210537
 20
13.847763248
 40
0.03
100
AcDbArc
 50
197.9909159043
 51
270.0
  0
ARC
  5
2F9
100
AcDbEntity
  8
0
100
AcDbCircle
 62
7
  6
CONTINUOUS
 10
6.2127023682
 20
14.1308809346
 40
0.03
100
AcDbArc
 50
179.9999631573
 51
242.0401199031
  0
ARC
  5
2FA
100
AcDbEntity
  8
0
100
AcDbCircle
 62
7
  6
CONTINUOUS
 10
6.2127023682
 20
14.8046455613
 40
0.03
100
AcDbArc
 50
117.9598800969
 51
180.0000368427
  0
ARC
  5
2FB
100
AcDbEntity
  8
0
100
AcDbCircle
 62
7
  6
CONTINUOUS
 10
6.9102023682
 20
13.687763248
 40
0.02
100
AcDbArc
 50
90.0
 51
180.0
  0
ARC
  5
2FC
100
AcDbEntity
  8
0
100
AcDbCircle
 62
7
  6
CONTINUOUS
 10
6.9102023682
 20
13.377763248
 40
0.02
100
AcDbArc
 50
180.0
 51
270.0
  0
ARC
  5
2FD
100
AcDbEntity
  8
0
100
AcDbCircle
 62
7
  6
CONTINUOUS
 10
6.9252023682
 20
13.727763248
 40
0.02
100
AcDbArc
 50
270.0
 51
360.0
  0
ARC
  5
2FE
100
AcDbEntity
  8
0
100
AcDbCircle
 62
7
  6
CONTINUOUS
 10
6.9252023682
 20
15.207763248
 40
0.02
100
AcDbArc
 50
0.0
 51
90.0
  0
ARC
  5
2FF
100
AcDbEntity
  8
0
100
AcDbCircle
 62
7
  6
CONTINUOUS
 10
6.9102023682
 20
15.247763248
 40
0.02
100
AcDbArc
 50
180.0
 51
270.0
  0
ARC
  5
300
100
AcDbEntity
  8
0
100
AcDbCircle
 62
7
  6
CONTINUOUS
 10
6.5777023682
 20
15.102763248
 40
0.015
100
AcDbArc
 50
359.9999746676
 51
90.0
  0
ARC
  5
301
100
AcDbEntity
  8
0
100
AcDbCircle
 62
7
  6
CONTINUOUS
 10
6.5777023682
 20
13.832763248
 40
0.015
100
AcDbArc
 50
270.0
 51
0.0000253324
  0
ARC
  5
302
100
AcDbEntity
  8
0
100
AcDbCircle
 62
7
  6
CONTINUOUS
 10
-14.1507206636
 20
17.082763248
 40
20.175
100
AcDbArc
 50
354.9244926841
 51
5.0755073159
  0
ARC
  5
303
100
AcDbEntity
  8
0
100
AcDbCircle
 62
9
  6
CONTINUOUS
 10
-20.5093674515
 20
63.2275807159
 40
48.5217850019
100
AcDbArc
 50
299.8006707521
 51
300.0045987721
  0
ARC
  5
304
100
AcDbEntity
  8
0
100
AcDbCircle
 62
9
  6
CONTINUOUS
 10
-20.5093384787
 20
63.2275304463
 40
48.5217269807
100
AcDbArc
 50
299.8006705644
 51
300.0045988291
  0
ARC
  5
305
100
AcDbEntity
  8
0
100
AcDbCircle
 62
9
  6
CONTINUOUS
 10
-19.2116485756
 20
60.7919768681
 40
45.9175274052
100
AcDbArc
 50
299.9073029667
 51
300.1220751206
  0
ARC
  5
306
100
AcDbEntity
  8
0
100
AcDbCircle
 62
9
  6
CONTINUOUS
 10
-19.207186848
 20
60.7842537704
 40
45.9086081603
100
AcDbArc
 50
299.9072839804
 51
300.1220958168
  0
ARC
  5
307
100
AcDbEntity
  8
0
100
AcDbCircle
 62
9
  6
CONTINUOUS
 10
-0.2364821064
 20
29.0604820257
 40
8.8607082821
100
AcDbArc
 50
299.8476389377
 51
299.9842293647
  0
ARC
  5
308
100
AcDbEntity
  8
0
100
AcDbCircle
 62
9
  6
CONTINUOUS
 10
-0.2361243226
 20
29.0598636351
 40
8.8599938569
100
AcDbArc
 50
299.8476224193
 51
299.9842240026
  0
ARC
  5
309
100
AcDbEntity
  8
0
100
AcDbCircle
 62
7
  6
CONTINUOUS
 10
0.9583034523
 20
25.7178146139
 40
5.4573752211
100
AcDbArc
 50
299.6684351533
 51
299.7939545147
  0
ARC
  5
30A
100
AcDbEntity
  8
0
100
AcDbCircle
 62
7
  6
CONTINUOUS
 10
0.9583292244
 20
25.7177576698
 40
5.4573130023
100
AcDbArc
 50
299.6684965671
 51
299.7940172055
  0
ARC
  5
30B
100
AcDbEntity
  8
0
100
AcDbCircle
 62
7
  6
CONTINUOUS
 10
5.2816831388
 20
15.4475923451
 40
1.135
100
AcDbArc
 50
335.0430228836
 51
342.009085652
  0
ARC
  5
30C
100
AcDbEntity
  8
0
100
AcDbCircle
 62
7
  6
CONTINUOUS
 10
4.8036225266
 20
15.292603087
 40
0.06
100
AcDbArc
 50
273.2432014018
 51
5.0755073159
  0
CIRCLE
  5
30D
100
AcDbEntity
  8
0
100
AcDbCircle
 62
7
  6
CONTINUOUS
 10
4.1112123452
 20
21.5371571054
 40
0.0708661417
  0
CIRCLE
  5
30E
100
AcDbEntity
  8
0
100
AcDbCircle
 62
9
  6
CONTINUOUS
 10
4.1112123452
 20
21.5371571054
 40
0.0651002345
  0
CIRCLE
  5
30F
100
AcDbEntity
  8
0
100
AcDbCircle
 62
9
  6
CONTINUOUS
 10
4.1112123452
 20
21.5371571054
 40
0.0569463945
  0
CIRCLE
  5
310
100
AcDbEntity
  8
0
100
AcDbCircle
 62
9
  6
CONTINUOUS
 10
4.1112123452
 20
21.5371571054
 40
0.0430269203
  0
CIRCLE
  5
311
100
AcDbEntity
  8
0
100
AcDbCircle
 62
7
  6
CONTINUOUS
 10
3.8451083493
 20
21.6549844744
 40
0.0826771654
  0
CIRCLE
  5
312
100
AcDbEntity
  8
0
100
AcDbCircle
 62
9
  6
CONTINUOUS
 10
3.8451083493
 20
21.6549844744
 40
0.0769109535
  0
CIRCLE
  5
313
100
AcDbEntity
  8
0
100
AcDbCircle
 62
9
  6
CONTINUOUS
 10
3.8451083493
 20
21.6549844744
 40
0.0687574628
  0
CIRCLE
  5
314
100
AcDbEntity
  8
0
100
AcDbCircle
 62
9
  6
CONTINUOUS
 10
3.8451083493
 20
21.6549844744
 40
0.0548379698
  0
CIRCLE
  5
315
100
AcDbEntity
  8
0
100
AcDbCircle
 62
7
  6
CONTINUOUS
 10
3.7901067303
 20
22.072763248
 40
0.0826771654
  0
CIRCLE
  5
316
100
AcDbEntity
  8
0
100
AcDbCircle
 62
9
  6
CONTINUOUS
 10
3.7901067303
 20
22.072763248
 40
0.0769109535
  0
CIRCLE
  5
317
100
AcDbEntity
  8
0
100
AcDbCircle
 62
9
  6
CONTINUOUS
 10
3.7901067303
 20
22.072763248
 40
0.0687574628
  0
CIRCLE
  5
318
100
AcDbEntity
  8
0
100
AcDbCircle
 62
9
  6
CONTINUOUS
 10
3.7901067303
 20
22.072763248
 40
0.0548379698
  0
CIRCLE
  5
319
100
AcDbEntity
  8
0
100
AcDbCircle
 62
7
  6
CONTINUOUS
 10
4.0166474854
 20
21.8900779671
 40
0.0708661417
  0
CIRCLE
  5
31A
100
AcDbEntity
  8
0
100
AcDbCircle
 62
9
  6
CONTINUOUS
 10
4.0166474854
 20
21.8900779671
 40
0.0651002345
  0
CIRCLE
  5
31B
100
AcDbEntity
  8
0
100
AcDbCircle
 62
9
  6
CONTINUOUS
 10
4.0166474854
 20
21.8900779671
 40
0.0569463945
  0
CIRCLE
  5
31C
100
AcDbEntity
  8
0
100
AcDbCircle
 62
9
  6
CONTINUOUS
 10
4.0166474854
 20
21.8900779671
 40
0.0430269203
  0
ARC
  5
31D
100
AcDbEntity
  8
0
100
AcDbCircle
 62
7
  6
CONTINUOUS
 10
4.0167455262
 20
21.8900797878
 40
0.0176203964
100
AcDbArc
 50
7.5357461483
 51
187.4642538128
  0
ARC
  5
31E
100
AcDbEntity
  8
0
100
AcDbCircle
 62
7
  6
CONTINUOUS
 10
4.0167426568
 20
21.8901015833
 40
0.0176203964
100
AcDbArc
 50
187.5357415515
 51
7.464258489
  0
CIRCLE
  5
31F
100
AcDbEntity
  8
0
100
AcDbCircle
 62
7
  6
CONTINUOUS
 10
4.2628871229
 20
20.9313704122
 40
0.0826771654
  0
CIRCLE
  5
320
100
AcDbEntity
  8
0
100
AcDbCircle
 62
9
  6
CONTINUOUS
 10
4.2628871229
 20
20.9313704122
 40
0.0769109535
  0
CIRCLE
  5
321
100
AcDbEntity
  8
0
100
AcDbCircle
 62
7
  6
CONTINUOUS
 10
4.2938976261
 20
21.2207369172
 40
0.0708661417
  0
CIRCLE
  5
322
100
AcDbEntity
  8
0
100
AcDbCircle
 62
9
  6
CONTINUOUS
 10
4.2628871229
 20
20.9313704122
 40
0.0687574628
  0
CIRCLE
  5
323
100
AcDbEntity
  8
0
100
AcDbCircle
 62
9
  6
CONTINUOUS
 10
4.2938976261
 20
21.2207369172
 40
0.0651002345
  0
CIRCLE
  5
324
100
AcDbEntity
  8
0
100
AcDbCircle
 62
9
  6
CONTINUOUS
 10
4.2938976261
 20
21.2207369172
 40
0.0569463945
  0
CIRCLE
  5
325
100
AcDbEntity
  8
0
100
AcDbCircle
 62
9
  6
CONTINUOUS
 10
4.2628871229
 20
20.9313704122
 40
0.0548379698
  0
CIRCLE
  5
326
100
AcDbEntity
  8
0
100
AcDbCircle
 62
9
  6
CONTINUOUS
 10
4.2938976261
 20
21.2207369172
 40
0.0430269203
  0
ARC
  5
327
100
AcDbEntity
  8
0
100
AcDbCircle
 62
7
  6
CONTINUOUS
 10
4.2939816216
 20
21.2207875143
 40
0.0176203964
100
AcDbArc
 50
37.5357461391
 51
217.4642538203
  0
ARC
  5
328
100
AcDbEntity
  8
0
100
AcDbCircle
 62
7
  6
CONTINUOUS
 10
4.2939682388
 20
21.2208049551
 40
0.0176203964
100
AcDbArc
 50
217.5357415616
 51
37.4642584772
  0
CIRCLE
  5
329
100
AcDbEntity
  8
0
100
AcDbCircle
 62
7
  6
CONTINUOUS
 10
4.5029369444
 20
22.1595527089
 40
0.0708661417
  0
ARC
  5
32A
100
AcDbEntity
  8
0
100
AcDbCircle
 62
7
  6
CONTINUOUS
 10
4.5029369444
 20
22.1595527089
 40
0.0708661417
100
AcDbArc
 50
174.5
 51
354.5000009079
  0
CIRCLE
  5
32B
100
AcDbEntity
  8
0
100
AcDbCircle
 62
9
  6
CONTINUOUS
 10
4.5029369444
 20
22.1595527089
 40
0.0674067293
  0
CIRCLE
  5
32C
100
AcDbEntity
  8
0
100
AcDbCircle
 62
9
  6
CONTINUOUS
 10
4.5029369444
 20
22.1595527089
 40
0.0546404342
  0
CIRCLE
  5
32D
100
AcDbEntity
  8
0
100
AcDbCircle
 62
9
  6
CONTINUOUS
 10
4.5029369444
 20
22.1595527089
 40
0.0462887627
  0
CIRCLE
  5
32E
100
AcDbEntity
  8
0
100
AcDbCircle
 62
7
  6
CONTINUOUS
 10
4.5029369444
 20
22.1595527089
 40
0.0295275591
  0
CIRCLE
  5
32F
100
AcDbEntity
  8
0
100
AcDbCircle
 62
7
  6
CONTINUOUS
 10
4.9865011851
 20
20.5135916386
 40
0.0826771654
  0
CIRCLE
  5
330
100
AcDbEntity
  8
0
100
AcDbCircle
 62
9
  6
CONTINUOUS
 10
4.9865011851
 20
20.5135916386
 40
0.0769109535
  0
CIRCLE
  5
331
100
AcDbEntity
  8
0
100
AcDbCircle
 62
9
  6
CONTINUOUS
 10
4.9865011851
 20
20.5135916386
 40
0.0687574628
  0
ARC
  5
332
100
AcDbEntity
  8
0
100
AcDbCircle
 62
7
  6
CONTINUOUS
 10
4.9692799587
 20
19.3224984486
 40
0.06
100
AcDbArc
 50
318.5281678499
 51
360.0
  0
ARC
  5
333
100
AcDbEntity
  8
0
100
AcDbCircle
 62
7
  6
CONTINUOUS
 10
4.8236614267
 20
19.142763248
 40
0.06
100
AcDbArc
 50
270.0
 51
321.0
  0
ARC
  5
334
100
AcDbEntity
  8
0
100
AcDbCircle
 62
7
  6
CONTINUOUS
 10
4.8036225266
 20
18.8729234089
 40
0.06
100
AcDbArc
 50
354.9244926841
 51
86.7567985982
  0
CIRCLE
  5
335
100
AcDbEntity
  8
0
100
AcDbCircle
 62
9
  6
CONTINUOUS
 10
4.9865011851
 20
20.5135916386
 40
0.0548379698
  0
ARC
  5
336
100
AcDbEntity
  8
0
100
AcDbCircle
 62
7
  6
CONTINUOUS
 10
4.8092799587
 20
19.042763248
 40
0.04
100
AcDbArc
 50
90.0
 51
180.0
  0
ARC
  5
337
100
AcDbEntity
  8
0
100
AcDbCircle
 62
7
  6
CONTINUOUS
 10
4.8092799587
 20
18.972763248
 40
0.04
100
AcDbArc
 50
180.0
 51
266.7567985982
  0
CIRCLE
  5
338
100
AcDbEntity
  8
0
100
AcDbCircle
 62
7
  6
CONTINUOUS
 10
4.5971933445
 20
20.6748482261
 40
0.0826771654
  0
CIRCLE
  5
339
100
AcDbEntity
  8
0
100
AcDbCircle
 62
9
  6
CONTINUOUS
 10
4.5971933445
 20
20.6748482261
 40
0.0769109535
  0
CIRCLE
  5
33A
100
AcDbEntity
  8
0
100
AcDbCircle
 62
9
  6
CONTINUOUS
 10
4.5971933445
 20
20.6748482261
 40
0.0687574628
  0
CIRCLE
  5
33B
100
AcDbEntity
  8
0
100
AcDbCircle
 62
9
  6
CONTINUOUS
 10
4.5971933445
 20
20.6748482261
 40
0.0548379698
  0
CIRCLE
  5
33C
100
AcDbEntity
  8
0
100
AcDbCircle
 62
7
  6
CONTINUOUS
 10
4.5522536279
 20
20.9623809154
 40
0.0708661417
  0
CIRCLE
  5
33D
100
AcDbEntity
  8
0
100
AcDbCircle
 62
9
  6
CONTINUOUS
 10
4.5522536279
 20
20.9623809154
 40
0.0651002345
  0
CIRCLE
  5
33E
100
AcDbEntity
  8
0
100
AcDbCircle
 62
9
  6
CONTINUOUS
 10
4.5522536279
 20
20.9623809154
 40
0.0569463945
  0
CIRCLE
  5
33F
100
AcDbEntity
  8
0
100
AcDbCircle
 62
9
  6
CONTINUOUS
 10
4.5522536279
 20
20.9623809154
 40
0.0430269203
  0
CIRCLE
  5
340
100
AcDbEntity
  8
0
100
AcDbCircle
 62
7
  6
CONTINUOUS
 10
4.8686738161
 20
20.7796956345
 40
0.0708661417
  0
CIRCLE
  5
341
100
AcDbEntity
  8
0
100
AcDbCircle
 62
9
  6
CONTINUOUS
 10
4.8686738161
 20
20.7796956345
 40
0.0651002345
  0
CIRCLE
  5
342
100
AcDbEntity
  8
0
100
AcDbCircle
 62
9
  6
CONTINUOUS
 10
4.8686738161
 20
20.7796956345
 40
0.0569463945
  0
CIRCLE
  5
343
100
AcDbEntity
  8
0
100
AcDbCircle
 62
9
  6
CONTINUOUS
 10
4.8686738161
 20
20.7796956345
 40
0.0430269203
  0
ARC
  5
344
100
AcDbEntity
  8
0
100
AcDbCircle
 62
7
  6
CONTINUOUS
 10
4.8687009495
 20
20.7797898635
 40
0.0176203964
100
AcDbArc
 50
247.5357416306
 51
67.4642584058
  0
ARC
  5
345
100
AcDbEntity
  8
0
100
AcDbCircle
 62
7
  6
CONTINUOUS
 10
4.8687212598
 20
20.7797814507
 40
0.0176203964
100
AcDbArc
 50
67.5357460631
 51
247.4642538938
  0
ARC
  5
346
100
AcDbEntity
  8
0
100
AcDbCircle
 62
9
  6
CONTINUOUS
 10
4.6816546446
 20
21.4960998742
 40
0.1030426648
100
AcDbArc
 50
39.3099687354
 51
40.1923584252
  0
ARC
  5
347
100
AcDbEntity
  8
0
100
AcDbCircle
 62
9
  6
CONTINUOUS
 10
4.7039322537
 20
21.5147971897
 40
0.0911266627
100
AcDbArc
 50
217.2473919177
 51
218.0648420491
  0
ARC
  5
348
100
AcDbEntity
  8
0
100
AcDbCircle
 62
9
  6
CONTINUOUS
 10
4.7006156265
 20
21.5134323691
 40
0.0876793227
100
AcDbArc
 50
218.6989391184
 51
219.4991405654
  0
ARC
  5
349
100
AcDbEntity
  8
0
100
AcDbCircle
 62
9
  6
CONTINUOUS
 10
4.6970054033
 20
21.5098932418
 40
0.0824324545
100
AcDbArc
 50
37.5789761615
 51
38.6514521006
  0
ARC
  5
34A
100
AcDbEntity
  8
0
100
AcDbCircle
 62
9
  6
CONTINUOUS
 10
4.6984580651
 20
21.5108751589
 40
0.0806824458
100
AcDbArc
 50
24.7306737913
 51
37.6554792412
  0
ARC
  5
34B
100
AcDbEntity
  8
0
100
AcDbCircle
 62
9
  6
CONTINUOUS
 10
4.6939454286
 20
21.5089150735
 40
0.0795111312
100
AcDbArc
 50
202.8800029393
 51
204.7489077796
  0
CIRCLE
  5
34C
100
AcDbEntity
  8
0
100
AcDbCircle
 62
7
  6
CONTINUOUS
 10
4.6956190292
 20
21.5090688919
 40
0.0708661417
  0
CIRCLE
  5
34D
100
AcDbEntity
  8
0
100
AcDbCircle
 62
7
  6
CONTINUOUS
 10
4.6956190292
 20
21.5090688919
 40
0.0708661417
  0
CIRCLE
  5
34E
100
AcDbEntity
  8
0
100
AcDbCircle
 62
9
  6
CONTINUOUS
 10
4.6956190292
 20
21.5090688919
 40
0.0674067293
  0
CIRCLE
  5
34F
100
AcDbEntity
  8
0
100
AcDbCircle
 62
9
  6
CONTINUOUS
 10
4.6956190292
 20
21.5090688919
 40
0.0546404342
  0
CIRCLE
  5
350
100
AcDbEntity
  8
0
100
AcDbCircle
 62
9
  6
CONTINUOUS
 10
4.6956190292
 20
21.5090688919
 40
0.0462887627
  0
CIRCLE
  5
351
100
AcDbEntity
  8
0
100
AcDbCircle
 62
7
  6
CONTINUOUS
 10
4.6956190292
 20
21.5090688919
 40
0.0295275591
  0
ARC
  5
352
100
AcDbEntity
  8
0
100
AcDbCircle
 62
9
  6
CONTINUOUS
 10
4.8440848098
 20
21.344172878
 40
0.0975773887
100
AcDbArc
 50
51.0684632131
 51
51.9744769329
  0
ARC
  5
353
100
AcDbEntity
  8
0
100
AcDbCircle
 62
9
  6
CONTINUOUS
 10
4.8551254422
 20
21.3572025101
 40
0.0845673549
100
AcDbArc
 50
232.5459276925
 51
233.3881410284
  0
ARC
  5
354
100
AcDbEntity
  8
0
100
AcDbCircle
 62
9
  6
CONTINUOUS
 10
4.8541251023
 20
21.3557083785
 40
0.0827735886
100
AcDbArc
 50
218.6477721504
 51
231.596321902
  0
ARC
  5
355
100
AcDbEntity
  8
0
100
AcDbCircle
 62
9
  6
CONTINUOUS
 10
4.853724399
 20
21.3553768139
 40
0.0822535674
100
AcDbArc
 50
216.8728602158
 51
218.6417116847
  0
ARC
  5
356
100
AcDbEntity
  8
0
100
AcDbCircle
 62
9
  6
CONTINUOUS
 10
4.8533382253
 20
21.3547622241
 40
0.08154333
100
AcDbArc
 50
231.6166210289
 51
232.5000919096
  0
ARC
  5
357
100
AcDbEntity
  8
0
100
AcDbCircle
 62
9
  6
CONTINUOUS
 10
4.8587983902
 20
21.359491512
 40
0.0763054995
100
AcDbArc
 50
36.0636271026
 51
38.888499423
  0
CIRCLE
  5
358
100
AcDbEntity
  8
0
100
AcDbCircle
 62
7
  6
CONTINUOUS
 10
4.8530392946
 20
21.354372428
 40
0.0708661417
  0
ARC
  5
359
100
AcDbEntity
  8
0
100
AcDbCircle
 62
7
  6
CONTINUOUS
 10
4.8530392946
 20
21.354372428
 40
0.0708661417
100
AcDbArc
 50
211.0760984466
 51
232.5
  0
ARC
  5
35A
100
AcDbEntity
  8
0
100
AcDbCircle
 62
7
  6
CONTINUOUS
 10
4.8530392946
 20
21.354372428
 40
0.0708661417
100
AcDbArc
 50
37.585184388
 51
52.5000000468
  0
CIRCLE
  5
35B
100
AcDbEntity
  8
0
100
AcDbCircle
 62
9
  6
CONTINUOUS
 10
4.8530392946
 20
21.354372428
 40
0.0674067293
  0
CIRCLE
  5
35C
100
AcDbEntity
  8
0
100
AcDbCircle
 62
9
  6
CONTINUOUS
 10
4.8530392946
 20
21.354372428
 40
0.0546404342
  0
CIRCLE
  5
35D
100
AcDbEntity
  8
0
100
AcDbCircle
 62
9
  6
CONTINUOUS
 10
4.8530392946
 20
21.354372428
 40
0.0462887628
  0
CIRCLE
  5
35E
100
AcDbEntity
  8
0
100
AcDbCircle
 62
7
  6
CONTINUOUS
 10
4.8530392946
 20
21.354372428
 40
0.0295275591
  0
CIRCLE
  5
35F
100
AcDbEntity
  8
0
100
AcDbCircle
 62
7
  6
CONTINUOUS
 10
4.9030762801
 20
21.7833931692
 40
0.0295275591
  0
ARC
  5
360
100
AcDbEntity
  8
0
100
AcDbCircle
 62
9
  6
CONTINUOUS
 10
5.0482697899
 20
21.2521159411
 40
0.0920253488
100
AcDbArc
 50
245.2316351992
 51
246.0332620348
  0
ARC
  5
361
100
AcDbEntity
  8
0
100
AcDbCircle
 62
9
  6
CONTINUOUS
 10
5.0457807866
 20
21.2492769337
 40
0.0884271761
100
AcDbArc
 50
246.7597439314
 51
247.5533664263
  0
ARC
  5
362
100
AcDbEntity
  8
0
100
AcDbCircle
 62
9
  6
CONTINUOUS
 10
5.0433305452
 20
21.2424508095
 40
0.0838931748
100
AcDbArc
 50
65.4854276174
 51
66.5505503116
  0
ARC
  5
363
100
AcDbEntity
  8
0
100
AcDbCircle
 62
9
  6
CONTINUOUS
 10
5.0416511365
 20
21.2412388159
 40
0.0792654041
100
AcDbArc
 50
230.9082375105
 51
232.7624767322
  0
CIRCLE
  5
364
100
AcDbEntity
  8
0
100
AcDbCircle
 62
7
  6
CONTINUOUS
 10
5.0432079671
 20
21.2423545192
 40
0.0708661417
  0
ARC
  5
365
100
AcDbEntity
  8
0
100
AcDbCircle
 62
7
  6
CONTINUOUS
 10
5.0432079671
 20
21.2423545192
 40
0.0708661417
100
AcDbArc
 50
246.5
 51
66.4999995299
  0
CIRCLE
  5
366
100
AcDbEntity
  8
0
100
AcDbCircle
 62
9
  6
CONTINUOUS
 10
5.0432079671
 20
21.2423545192
 40
0.0674067293
  0
CIRCLE
  5
367
100
AcDbEntity
  8
0
100
AcDbCircle
 62
9
  6
CONTINUOUS
 10
5.0432079671
 20
21.2423545192
 40
0.0546404342
  0
CIRCLE
  5
368
100
AcDbEntity
  8
0
100
AcDbCircle
 62
9
  6
CONTINUOUS
 10
5.0432079671
 20
21.2423545192
 40
0.0462887626
  0
CIRCLE
  5
369
100
AcDbEntity
  8
0
100
AcDbCircle
 62
7
  6
CONTINUOUS
 10
5.0432079671
 20
21.2423545192
 40
0.0295275591
  0
CIRCLE
  5
36A
100
AcDbEntity
  8
0
100
AcDbCircle
 62
7
  6
CONTINUOUS
 10
5.2215946778
 20
20.6851307747
 40
0.0708661417
  0
CIRCLE
  5
36B
100
AcDbEntity
  8
0
100
AcDbCircle
 62
9
  6
CONTINUOUS
 10
5.2215946778
 20
20.6851307747
 40
0.0651002345
  0
CIRCLE
  5
36C
100
AcDbEntity
  8
0
100
AcDbCircle
 62
9
  6
CONTINUOUS
 10
5.2215946778
 20
20.6851307747
 40
0.0569463945
  0
CIRCLE
  5
36D
100
AcDbEntity
  8
0
100
AcDbCircle
 62
9
  6
CONTINUOUS
 10
5.2215946778
 20
20.6851307747
 40
0.0430269203
  0
CIRCLE
  5
36E
100
AcDbEntity
  8
0
100
AcDbCircle
 62
9
  6
CONTINUOUS
 10
4.9417358009
 20
22.0118681543
 40
0.1439792358
  0
CIRCLE
  5
36F
100
AcDbEntity
  8
0
100
AcDbCircle
 62
9
  6
CONTINUOUS
 10
5.1202711817
 20
21.7026358038
 40
0.1439792321
  0
CIRCLE
  5
370
100
AcDbEntity
  8
0
100
AcDbCircle
 62
9
  6
CONTINUOUS
 10
4.9417358009
 20
22.0118681543
 40
0.130060568
  0
CIRCLE
  5
371
100
AcDbEntity
  8
0
100
AcDbCircle
 62
9
  6
CONTINUOUS
 10
5.1202711817
 20
21.7026358038
 40
0.1300605664
  0
CIRCLE
  5
372
100
AcDbEntity
  8
0
100
AcDbCircle
 62
9
  6
CONTINUOUS
 10
4.9417358009
 20
22.0118681543
 40
0.1219067236
  0
CIRCLE
  5
373
100
AcDbEntity
  8
0
100
AcDbCircle
 62
9
  6
CONTINUOUS
 10
5.1202711817
 20
21.7026358038
 40
0.1219067236
  0
CIRCLE
  5
374
100
AcDbEntity
  8
0
100
AcDbCircle
 62
9
  6
CONTINUOUS
 10
4.9417358009
 20
22.0118681543
 40
0.1079869821
  0
CIRCLE
  5
375
100
AcDbEntity
  8
0
100
AcDbCircle
 62
9
  6
CONTINUOUS
 10
5.1202711817
 20
21.7026358038
 40
0.1079869821
  0
CIRCLE
  5
376
100
AcDbEntity
  8
0
100
AcDbCircle
 62
7
  6
CONTINUOUS
 10
4.9417358009
 20
22.0118681543
 40
0.0885826772
  0
CIRCLE
  5
377
100
AcDbEntity
  8
0
100
AcDbCircle
 62
7
  6
CONTINUOUS
 10
5.1202711817
 20
21.7026358038
 40
0.0885826772
  0
CIRCLE
  5
378
100
AcDbEntity
  8
0
100
AcDbCircle
 62
7
  6
CONTINUOUS
 10
5.2544909837
 20
21.5137431831
 40
0.0295275591
  0
ARC
  5
379
100
AcDbEntity
  8
0
100
AcDbCircle
 62
7
  6
CONTINUOUS
 10
6.0049373907
 20
15.292603087
 40
0.06
100
AcDbArc
 50
174.9244926841
 51
266.7567985982
  0
ARC
  5
37A
100
AcDbEntity
  8
0
100
AcDbCircle
 62
7
  6
CONTINUOUS
 10
6.9102023682
 20
15.557763248
 40
0.02
100
AcDbArc
 50
90.0
 51
180.0
  0
CIRCLE
  5
37B
100
AcDbEntity
  8
0
100
AcDbCircle
 62
7
  6
CONTINUOUS
 10
5.4042799587
 20
20.4585900196
 40
0.0826771654
  0
CIRCLE
  5
37C
100
AcDbEntity
  8
0
100
AcDbCircle
 62
9
  6
CONTINUOUS
 10
5.4042799587
 20
20.4585900196
 40
0.0769109535
  0
CIRCLE
  5
37D
100
AcDbEntity
  8
0
100
AcDbCircle
 62
9
  6
CONTINUOUS
 10
5.4042799587
 20
20.4585900196
 40
0.0687574628
  0
ARC
  5
37E
100
AcDbEntity
  8
0
100
AcDbCircle
 62
7
  6
CONTINUOUS
 10
5.9848984906
 20
19.142763248
 40
0.06
100
AcDbArc
 50
219.0
 51
270.0
  0
ARC
  5
37F
100
AcDbEntity
  8
0
100
AcDbCircle
 62
7
  6
CONTINUOUS
 10
5.8392799587
 20
19.3224984488
 40
0.06
100
AcDbArc
 50
180.0
 51
221.4718295498
  0
ARC
  5
380
100
AcDbEntity
  8
0
100
AcDbCircle
 62
7
  6
CONTINUOUS
 10
6.0049373907
 20
18.8729234089
 40
0.06
100
AcDbArc
 50
93.2432014018
 51
185.0755073159
  0
CIRCLE
  5
381
100
AcDbEntity
  8
0
100
AcDbCircle
 62
9
  6
CONTINUOUS
 10
5.4042799587
 20
20.4585900196
 40
0.0548379698
  0
ARC
  5
382
100
AcDbEntity
  8
0
100
AcDbCircle
 62
7
  6
CONTINUOUS
 10
5.9992799587
 20
19.042763248
 40
0.04
100
AcDbArc
 50
0.0
 51
90.0
  0
ARC
  5
383
100
AcDbEntity
  8
0
100
AcDbCircle
 62
7
  6
CONTINUOUS
 10
5.9992799587
 20
18.972763248
 40
0.04
100
AcDbArc
 50
273.2432014018
 51
360.0
  0
CIRCLE
  5
384
100
AcDbEntity
  8
0
100
AcDbCircle
 62
7
  6
CONTINUOUS
 10
5.5869652395
 20
20.6851307747
 40
0.0708661417
  0
CIRCLE
  5
385
100
AcDbEntity
  8
0
100
AcDbCircle
 62
9
  6
CONTINUOUS
 10
5.5869652395
 20
20.6851307747
 40
0.0651002345
  0
CIRCLE
  5
386
100
AcDbEntity
  8
0
100
AcDbCircle
 62
9
  6
CONTINUOUS
 10
5.5869652395
 20
20.6851307747
 40
0.0569463945
  0
CIRCLE
  5
387
100
AcDbEntity
  8
0
100
AcDbCircle
 62
9
  6
CONTINUOUS
 10
5.5869652395
 20
20.6851307747
 40
0.0430269203
  0
ARC
  5
388
100
AcDbEntity
  8
0
100
AcDbCircle
 62
7
  6
CONTINUOUS
 10
5.5869416233
 20
20.6852259461
 40
0.0176203964
100
AcDbArc
 50
277.5357416358
 51
97.4642584047
  0
ARC
  5
389
100
AcDbEntity
  8
0
100
AcDbCircle
 62
7
  6
CONTINUOUS
 10
5.5869634188
 20
20.6852288155
 40
0.0176203964
100
AcDbArc
 50
97.535746062
 51
277.464253899
  0
ARC
  5
38A
100
AcDbEntity
  8
0
100
AcDbCircle
 62
9
  6
CONTINUOUS
 10
5.7270841967
 20
21.2124079148
 40
0.0974436075
100
AcDbArc
 50
111.122671288
 51
112.055661779
  0
ARC
  5
38B
100
AcDbEntity
  8
0
100
AcDbCircle
 62
9
  6
CONTINUOUS
 10
5.7239396465
 20
21.2202362994
 40
0.0760832396
100
AcDbArc
 50
289.8560325185
 51
290.7420277765
  0
CIRCLE
  5
38C
100
AcDbEntity
  8
0
100
AcDbCircle
 62
7
  6
CONTINUOUS
 10
5.7213968787
 20
21.2245955175
 40
0.0708661417
  0
CIRCLE
  5
38D
100
AcDbEntity
  8
0
100
AcDbCircle
 62
9
  6
CONTINUOUS
 10
5.7213968787
 20
21.2245955175
 40
0.0674067293
  0
CIRCLE
  5
38E
100
AcDbEntity
  8
0
100
AcDbCircle
 62
9
  6
CONTINUOUS
 10
5.7213968787
 20
21.2245955175
 40
0.0546404342
  0
CIRCLE
  5
38F
100
AcDbEntity
  8
0
100
AcDbCircle
 62
9
  6
CONTINUOUS
 10
5.7213968787
 20
21.2245955175
 40
0.0462887627
  0
CIRCLE
  5
390
100
AcDbEntity
  8
0
100
AcDbCircle
 62
7
  6
CONTINUOUS
 10
5.7213968787
 20
21.2245955175
 40
0.0295275591
  0
CIRCLE
  5
391
100
AcDbEntity
  8
0
100
AcDbCircle
 62
9
  6
CONTINUOUS
 10
5.4651750523
 20
21.6102190902
 40
0.1439792358
  0
CIRCLE
  5
392
100
AcDbEntity
  8
0
100
AcDbCircle
 62
9
  6
CONTINUOUS
 10
5.4651750523
 20
21.6102190902
 40
0.130060568
  0
CIRCLE
  5
393
100
AcDbEntity
  8
0
100
AcDbCircle
 62
9
  6
CONTINUOUS
 10
5.4651750523
 20
21.6102190902
 40
0.1219067236
  0
CIRCLE
  5
394
100
AcDbEntity
  8
0
100
AcDbCircle
 62
9
  6
CONTINUOUS
 10
5.4651750523
 20
21.6102190902
 40
0.1079869821
  0
CIRCLE
  5
395
100
AcDbEntity
  8
0
100
AcDbCircle
 62
7
  6
CONTINUOUS
 10
5.4651750523
 20
21.6102190902
 40
0.0885826772
  0
ARC
  5
396
100
AcDbEntity
  8
0
100
AcDbCircle
 62
7
  6
CONTINUOUS
 10
5.4042799587
 20
22.072763248
 40
2.0
100
AcDbArc
 50
212.2304345371
 51
207.7674200372
  0
ARC
  5
397
100
AcDbEntity
  8
0
100
AcDbCircle
 62
9
  6
CONTINUOUS
 10
5.4042799587
 20
22.072763248
 40
1.9241868794
100
AcDbArc
 50
212.3188542527
 51
207.679425868
  0
ARC
  5
398
100
AcDbEntity
  8
0
100
AcDbCircle
 62
7
  6
CONTINUOUS
 10
5.4042799587
 20
22.072763248
 40
1.8790963112
100
AcDbArc
 50
212.3733421297
 51
207.6087674111
  0
ARC
  5
399
100
AcDbEntity
  8
0
100
AcDbCircle
 62
7
  6
CONTINUOUS
 10
5.4042799587
 20
22.072763248
 40
1.877
100
AcDbArc
 50
212.37590035
 51
207.6090102828
  0
ARC
  5
39A
100
AcDbEntity
  8
0
100
AcDbCircle
 62
7
  6
CONTINUOUS
 10
5.4042799587
 20
22.072763248
 40
1.8622047244
100
AcDbArc
 50
212.4133019933
 51
207.5866972358
  0
ARC
  5
39B
100
AcDbEntity
  8
0
100
AcDbCircle
 62
9
  6
CONTINUOUS
 10
5.4042799587
 20
22.072763248
 40
1.7683598047
100
AcDbArc
 50
213.1646759673
 51
206.8353242141
  0
ARC
  5
39C
100
AcDbEntity
  8
0
100
AcDbCircle
 62
9
  6
CONTINUOUS
 10
5.4042799587
 20
22.072763248
 40
1.75857485
100
AcDbArc
 50
213.2340769713
 51
206.7659278357
  0
ARC
  5
39D
100
AcDbEntity
  8
0
100
AcDbCircle
 62
9
  6
CONTINUOUS
 10
5.4042799587
 20
22.072763248
 40
1.7579204953
100
AcDbArc
 50
213.2374412786
 51
206.7625587217
  0
ARC
  5
39E
100
AcDbEntity
  8
0
100
AcDbCircle
 62
9
  6
CONTINUOUS
 10
5.4042799587
 20
22.072763248
 40
1.7335217585
100
AcDbArc
 50
213.2374456713
 51
206.7625528486
  0
CIRCLE
  5
39F
100
AcDbEntity
  8
0
100
AcDbCircle
 62
9
  6
CONTINUOUS
 10
5.4042799587
 20
22.072763248
 40
1.2864016238
  0
ARC
  5
3A0
100
AcDbEntity
  8
0
100
AcDbCircle
 62
9
  6
CONTINUOUS
 10
5.4042799587
 20
22.072763248
 40
1.2864016238
100
AcDbArc
 50
210.0
 51
210.7172245659
  0
ARC
  5
3A1
100
AcDbEntity
  8
0
100
AcDbCircle
 62
9
  6
CONTINUOUS
 10
5.4042799587
 20
22.072763248
 40
1.2864016238
100
AcDbArc
 50
30.0
 51
30.7172245658
  0
CIRCLE
  5
3A2
100
AcDbEntity
  8
0
100
AcDbCircle
 62
9
  6
CONTINUOUS
 10
5.4042799587
 20
22.072763248
 40
1.270345173
  0
CIRCLE
  5
3A3
100
AcDbEntity
  8
0
100
AcDbCircle
 62
9
  6
CONTINUOUS
 10
5.4042799587
 20
22.072763248
 40
1.270345173
  0
CIRCLE
  5
3A4
100
AcDbEntity
  8
0
100
AcDbCircle
 62
9
  6
CONTINUOUS
 10
5.4042799587
 20
22.072763248
 40
1.2686221422
  0
ARC
  5
3A5
100
AcDbEntity
  8
0
100
AcDbCircle
 62
9
  6
CONTINUOUS
 10
5.4042799587
 20
22.072763248
 40
1.2686221422
100
AcDbArc
 50
30.0
 51
210.0
  0
CIRCLE
  5
3A6
100
AcDbEntity
  8
0
100
AcDbCircle
 62
9
  6
CONTINUOUS
 10
5.4042799587
 20
22.072763248
 40
1.2621655827
  0
ARC
  5
3A7
100
AcDbEntity
  8
0
100
AcDbCircle
 62
9
  6
CONTINUOUS
 10
5.4042799587
 20
22.072763248
 40
1.2621655774
100
AcDbArc
 50
209.0671034207
 51
210.0
  0
CIRCLE
  5
3A8
100
AcDbEntity
  8
0
100
AcDbCircle
 62
7
  6
CONTINUOUS
 10
5.4042799587
 20
22.072763248
 40
1.1732283464
  0
ARC
  5
3A9
100
AcDbEntity
  8
0
100
AcDbCircle
 62
7
  6
CONTINUOUS
 10
5.4042799585
 20
22.0727632482
 40
1.1732283462
100
AcDbArc
 50
29.9996511208
 51
210.0003488792
  0
CIRCLE
  5
3AA
100
AcDbEntity
  8
0
100
AcDbCircle
 62
7
  6
CONTINUOUS
 10
5.4042799587
 20
22.072763248
 40
1.1653404974
  0
CIRCLE
  5
3AB
100
AcDbEntity
  8
0
100
AcDbCircle
 62
7
  6
CONTINUOUS
 10
5.4042799587
 20
22.072763248
 40
1.1653404974
  0
CIRCLE
  5
3AC
100
AcDbEntity
  8
0
100
AcDbCircle
 62
7
  6
CONTINUOUS
 10
5.4042799587
 20
22.072763248
 40
1.1614173228
  0
ARC
  5
3AD
100
AcDbEntity
  8
0
100
AcDbCircle
 62
7
  6
CONTINUOUS
 10
5.4042799587
 20
22.072763248
 40
0.8937007874
100
AcDbArc
 50
316.802340994
 51
320.0
  0
ARC
  5
3AE
100
AcDbEntity
  8
0
100
AcDbCircle
 62
7
  6
CONTINUOUS
 10
5.4042799587
 20
22.072763248
 40
0.8937007874
100
AcDbArc
 50
14.8055325994
 51
18.1914279563
  0
ARC
  5
3AF
100
AcDbEntity
  8
0
100
AcDbCircle
 62
7
  6
CONTINUOUS
 10
5.4042799587
 20
22.072763248
 40
0.8937007874
100
AcDbArc
 50
72.8085922347
 51
76.1926660052
  0
CIRCLE
  5
3B0
100
AcDbEntity
  8
0
100
AcDbCircle
 62
9
  6
CONTINUOUS
 10
5.4042799587
 20
22.072763248
 40
0.7233776624
  0
CIRCLE
  5
3B1
100
AcDbEntity
  8
0
100
AcDbCircle
 62
9
  6
CONTINUOUS
 10
5.4042799587
 20
22.072763248
 40
0.6903545
  0
CIRCLE
  5
3B2
100
AcDbEntity
  8
0
100
AcDbCircle
 62
9
  6
CONTINUOUS
 10
5.4042799587
 20
22.072763248
 40
0.6619775031
  0
CIRCLE
  5
3B3
100
AcDbEntity
  8
0
100
AcDbCircle
 62
9
  6
CONTINUOUS
 10
5.4042799587
 20
22.072763248
 40
0.6434795449
  0
CIRCLE
  5
3B4
100
AcDbEntity
  8
0
100
AcDbCircle
 62
7
  6
CONTINUOUS
 10
5.4042799587
 20
22.072763248
 40
0.2913385827
  0
CIRCLE
  5
3B5
100
AcDbEntity
  8
0
100
AcDbCircle
 62
7
  6
CONTINUOUS
 10
5.4042799587
 20
22.072763248
 40
0.2755905512
  0
CIRCLE
  5
3B6
100
AcDbEntity
  8
0
100
AcDbCircle
 62
9
  6
CONTINUOUS
 10
5.4042799587
 20
22.072763248
 40
0.2650026166
  0
CIRCLE
  5
3B7
100
AcDbEntity
  8
0
100
AcDbCircle
 62
7
  6
CONTINUOUS
 10
5.6936500374
 20
21.5715595694
 40
0.0295275591
  0
ARC
  5
3B8
100
AcDbEntity
  8
0
100
AcDbCircle
 62
9
  6
CONTINUOUS
 10
5.9260308006
 20
21.3155609351
 40
0.0980779186
100
AcDbArc
 50
125.1452014576
 51
126.0719655968
  0
CIRCLE
  5
3B9
100
AcDbEntity
  8
0
100
AcDbCircle
 62
7
  6
CONTINUOUS
 10
5.8220587322
 20
20.5135916386
 40
0.0826771654
  0
CIRCLE
  5
3BA
100
AcDbEntity
  8
0
100
AcDbCircle
 62
9
  6
CONTINUOUS
 10
5.8220587322
 20
20.5135916386
 40
0.0769109535
  0
CIRCLE
  5
3BB
100
AcDbEntity
  8
0
100
AcDbCircle
 62
7
  6
CONTINUOUS
 10
5.9398861012
 20
20.7796956345
 40
0.0708661417
  0
CIRCLE
  5
3BC
100
AcDbEntity
  8
0
100
AcDbCircle
 62
9
  6
CONTINUOUS
 10
5.8220587322
 20
20.5135916386
 40
0.0687574628
  0
CIRCLE
  5
3BD
100
AcDbEntity
  8
0
100
AcDbCircle
 62
9
  6
CONTINUOUS
 10
5.9398861012
 20
20.7796956345
 40
0.0651002345
  0
CIRCLE
  5
3BE
100
AcDbEntity
  8
0
100
AcDbCircle
 62
9
  6
CONTINUOUS
 10
5.9398861012
 20
20.7796956345
 40
0.0569463945
  0
CIRCLE
  5
3BF
100
AcDbEntity
  8
0
100
AcDbCircle
 62
9
  6
CONTINUOUS
 10
5.8220587322
 20
20.5135916386
 40
0.0548379698
  0
CIRCLE
  5
3C0
100
AcDbEntity
  8
0
100
AcDbCircle
 62
9
  6
CONTINUOUS
 10
5.9398861012
 20
20.7796956345
 40
0.0430269203
  0
ARC
  5
3C1
100
AcDbEntity
  8
0
100
AcDbCircle
 62
9
  6
CONTINUOUS
 10
5.9117153617
 20
21.3357314085
 40
0.0917449965
100
AcDbArc
 50
303.2360377697
 51
304.0432417898
  0
ARC
  5
3C2
100
AcDbEntity
  8
0
100
AcDbCircle
 62
9
  6
CONTINUOUS
 10
5.9131772736
 20
21.3317780077
 40
0.0876564679
100
AcDbArc
 50
304.6980883816
 51
305.4979861829
  0
CIRCLE
  5
3C3
100
AcDbEntity
  8
0
100
AcDbCircle
 62
7
  6
CONTINUOUS
 10
5.917167496
 20
21.3265072504
 40
0.0708661417
  0
CIRCLE
  5
3C4
100
AcDbEntity
  8
0
100
AcDbCircle
 62
9
  6
CONTINUOUS
 10
5.917167496
 20
21.3265072504
 40
0.0674067293
  0
CIRCLE
  5
3C5
100
AcDbEntity
  8
0
100
AcDbCircle
 62
9
  6
CONTINUOUS
 10
5.917167496
 20
21.3265072504
 40
0.0546404342
  0
CIRCLE
  5
3C6
100
AcDbEntity
  8
0
100
AcDbCircle
 62
9
  6
CONTINUOUS
 10
5.917167496
 20
21.3265072504
 40
0.0462887627
  0
CIRCLE
  5
3C7
100
AcDbEntity
  8
0
100
AcDbCircle
 62
7
  6
CONTINUOUS
 10
5.917167496
 20
21.3265072504
 40
0.0295275591
  0
CIRCLE
  5
3C8
100
AcDbEntity
  8
0
100
AcDbCircle
 62
9
  6
CONTINUOUS
 10
5.8668241164
 20
22.1336583416
 40
0.1439792358
  0
CIRCLE
  5
3C9
100
AcDbEntity
  8
0
100
AcDbCircle
 62
9
  6
CONTINUOUS
 10
5.7744074028
 20
21.788754471
 40
0.1439792321
  0
CIRCLE
  5
3CA
100
AcDbEntity
  8
0
100
AcDbCircle
 62
9
  6
CONTINUOUS
 10
5.8668241164
 20
22.1336583416
 40
0.130060568
  0
CIRCLE
  5
3CB
100
AcDbEntity
  8
0
100
AcDbCircle
 62
9
  6
CONTINUOUS
 10
5.7744074028
 20
21.788754471
 40
0.1300605664
  0
CIRCLE
  5
3CC
100
AcDbEntity
  8
0
100
AcDbCircle
 62
9
  6
CONTINUOUS
 10
5.8668241164
 20
22.1336583416
 40
0.1219067236
  0
CIRCLE
  5
3CD
100
AcDbEntity
  8
0
100
AcDbCircle
 62
9
  6
CONTINUOUS
 10
5.7744074028
 20
21.788754471
 40
0.1219067236
  0
CIRCLE
  5
3CE
100
AcDbEntity
  8
0
100
AcDbCircle
 62
9
  6
CONTINUOUS
 10
5.8668241164
 20
22.1336583416
 40
0.1079869821
  0
CIRCLE
  5
3CF
100
AcDbEntity
  8
0
100
AcDbCircle
 62
9
  6
CONTINUOUS
 10
5.7744074028
 20
21.788754471
 40
0.1079869821
  0
CIRCLE
  5
3D0
100
AcDbEntity
  8
0
100
AcDbCircle
 62
7
  6
CONTINUOUS
 10
5.7744074028
 20
21.788754471
 40
0.0885826772
  0
CIRCLE
  5
3D1
100
AcDbEntity
  8
0
100
AcDbCircle
 62
7
  6
CONTINUOUS
 10
5.8668241164
 20
22.1336583416
 40
0.0885826772
  0
ARC
  5
3D2
100
AcDbEntity
  8
0
100
AcDbCircle
 62
9
  6
CONTINUOUS
 10
6.0922072725
 20
21.4653856986
 40
0.0962106998
100
AcDbArc
 50
139.0571460344
 51
139.9928033558
  0
ARC
  5
3D3
100
AcDbEntity
  8
0
100
AcDbCircle
 62
9
  6
CONTINUOUS
 10
6.0749939665
 20
21.4803373679
 40
0.0916784296
100
AcDbArc
 50
317.235509117
 51
318.0451461567
  0
ARC
  5
3D4
100
AcDbEntity
  8
0
100
AcDbCircle
 62
9
  6
CONTINUOUS
 10
6.0773948391
 20
21.4768451286
 40
0.0875638688
100
AcDbArc
 50
318.6942495322
 51
319.5001877396
  0
ARC
  5
3D5
100
AcDbEntity
  8
0
100
AcDbCircle
 62
9
  6
CONTINUOUS
 10
6.0789735474
 20
21.4765045657
 40
0.0789286398
100
AcDbArc
 50
137.7659184154
 51
138.8587142264
  0
CIRCLE
  5
3D6
100
AcDbEntity
  8
0
100
AcDbCircle
 62
7
  6
CONTINUOUS
 10
6.0824682098
 20
21.4727529681
 40
0.0708661417
  0
ARC
  5
3D7
100
AcDbEntity
  8
0
100
AcDbCircle
 62
7
  6
CONTINUOUS
 10
6.0824682098
 20
21.4727529681
 40
0.0708661417
100
AcDbArc
 50
138.499998711
 51
318.5
  0
CIRCLE
  5
3D8
100
AcDbEntity
  8
0
100
AcDbCircle
 62
9
  6
CONTINUOUS
 10
6.0824682098
 20
21.4727529681
 40
0.0674067292
  0
CIRCLE
  5
3D9
100
AcDbEntity
  8
0
100
AcDbCircle
 62
9
  6
CONTINUOUS
 10
6.0824682098
 20
21.4727529681
 40
0.0546404346
  0
CIRCLE
  5
3DA
100
AcDbEntity
  8
0
100
AcDbCircle
 62
9
  6
CONTINUOUS
 10
6.0824682098
 20
21.4727529681
 40
0.0462887633
  0
CIRCLE
  5
3DB
100
AcDbEntity
  8
0
100
AcDbCircle
 62
7
  6
CONTINUOUS
 10
6.0824682098
 20
21.4727529681
 40
0.0295275591
  0
CIRCLE
  5
3DC
100
AcDbEntity
  8
0
100
AcDbCircle
 62
7
  6
CONTINUOUS
 10
5.9633000235
 20
21.922974273
 40
0.0295275591
  0
CIRCLE
  5
3DD
100
AcDbEntity
  8
0
100
AcDbCircle
 62
7
  6
CONTINUOUS
 10
6.2113665728
 20
20.6748482261
 40
0.0826771654
  0
CIRCLE
  5
3DE
100
AcDbEntity
  8
0
100
AcDbCircle
 62
9
  6
CONTINUOUS
 10
6.2113665728
 20
20.6748482261
 40
0.0769109536
  0
CIRCLE
  5
3DF
100
AcDbEntity
  8
0
100
AcDbCircle
 62
9
  6
CONTINUOUS
 10
6.2113665728
 20
20.6748482261
 40
0.0687574628
  0
CIRCLE
  5
3E0
100
AcDbEntity
  8
0
100
AcDbCircle
 62
9
  6
CONTINUOUS
 10
6.2113665728
 20
20.6748482261
 40
0.0548379698
  0
CIRCLE
  5
3E1
100
AcDbEntity
  8
0
100
AcDbCircle
 62
7
  6
CONTINUOUS
 10
6.2563062894
 20
20.9623809154
 40
0.0708661417
  0
CIRCLE
  5
3E2
100
AcDbEntity
  8
0
100
AcDbCircle
 62
9
  6
CONTINUOUS
 10
6.2563062894
 20
20.9623809154
 40
0.0651002345
  0
CIRCLE
  5
3E3
100
AcDbEntity
  8
0
100
AcDbCircle
 62
9
  6
CONTINUOUS
 10
6.2563062894
 20
20.9623809154
 40
0.0569463945
  0
CIRCLE
  5
3E4
100
AcDbEntity
  8
0
100
AcDbCircle
 62
9
  6
CONTINUOUS
 10
6.2563062894
 20
20.9623809154
 40
0.0430269203
  0
ARC
  5
3E5
100
AcDbEntity
  8
0
100
AcDbCircle
 62
7
  6
CONTINUOUS
 10
6.2562382515
 20
20.9624515281
 40
0.0176203964
100
AcDbArc
 50
307.5357416369
 51
127.4642584019
  0
ARC
  5
3E6
100
AcDbEntity
  8
0
100
AcDbCircle
 62
7
  6
CONTINUOUS
 10
6.2562556923
 20
20.9624649109
 40
0.0176203964
100
AcDbArc
 50
127.5357460611
 51
307.4642538982
  0
CIRCLE
  5
3E7
100
AcDbEntity
  8
0
100
AcDbCircle
 62
7
  6
CONTINUOUS
 10
6.5456727944
 20
20.9313704122
 40
0.0826771654
  0
CIRCLE
  5
3E8
100
AcDbEntity
  8
0
100
AcDbCircle
 62
9
  6
CONTINUOUS
 10
6.5456727944
 20
20.9313704122
 40
0.0769109535
  0
CIRCLE
  5
3E9
100
AcDbEntity
  8
0
100
AcDbCircle
 62
9
  6
CONTINUOUS
 10
6.5456727944
 20
20.9313704122
 40
0.0687574628
  0
CIRCLE
  5
3EA
100
AcDbEntity
  8
0
100
AcDbCircle
 62
9
  6
CONTINUOUS
 10
6.5456727944
 20
20.9313704122
 40
0.0548379698
  0
CIRCLE
  5
3EB
100
AcDbEntity
  8
0
100
AcDbCircle
 62
7
  6
CONTINUOUS
 10
6.5146622912
 20
21.2207369172
 40
0.0708661417
  0
CIRCLE
  5
3EC
100
AcDbEntity
  8
0
100
AcDbCircle
 62
9
  6
CONTINUOUS
 10
6.5146622912
 20
21.2207369172
 40
0.0651002345
  0
CIRCLE
  5
3ED
100
AcDbEntity
  8
0
100
AcDbCircle
 62
9
  6
CONTINUOUS
 10
6.5146622912
 20
21.2207369172
 40
0.0569463945
  0
CIRCLE
  5
3EE
100
AcDbEntity
  8
0
100
AcDbCircle
 62
9
  6
CONTINUOUS
 10
6.5146622912
 20
21.2207369172
 40
0.0430269203
  0
CIRCLE
  5
3EF
100
AcDbEntity
  8
0
100
AcDbCircle
 62
7
  6
CONTINUOUS
 10
6.3089299231
 20
22.1122611184
 40
0.0708661417
  0
CIRCLE
  5
3F0
100
AcDbEntity
  8
0
100
AcDbCircle
 62
9
  6
CONTINUOUS
 10
6.3089299231
 20
22.1122611184
 40
0.0674067293
  0
CIRCLE
  5
3F1
100
AcDbEntity
  8
0
100
AcDbCircle
 62
9
  6
CONTINUOUS
 10
6.3089299231
 20
22.1122611184
 40
0.0546404342
  0
CIRCLE
  5
3F2
100
AcDbEntity
  8
0
100
AcDbCircle
 62
9
  6
CONTINUOUS
 10
6.3089299231
 20
22.1122611184
 40
0.0462887627
  0
CIRCLE
  5
3F3
100
AcDbEntity
  8
0
100
AcDbCircle
 62
7
  6
CONTINUOUS
 10
6.3089299231
 20
22.1122611184
 40
0.0295275591
  0
CIRCLE
  5
3F4
100
AcDbEntity
  8
0
100
AcDbCircle
 62
7
  6
CONTINUOUS
 10
6.8021949805
 20
21.2656766338
 40
0.0826771654
  0
CIRCLE
  5
3F5
100
AcDbEntity
  8
0
100
AcDbCircle
 62
9
  6
CONTINUOUS
 10
6.8021949805
 20
21.2656766338
 40
0.0769109535
  0
CIRCLE
  5
3F6
100
AcDbEntity
  8
0
100
AcDbCircle
 62
9
  6
CONTINUOUS
 10
6.8021949805
 20
21.2656766338
 40
0.0687574628
  0
CIRCLE
  5
3F7
100
AcDbEntity
  8
0
100
AcDbCircle
 62
9
  6
CONTINUOUS
 10
6.8021949805
 20
21.2656766338
 40
0.0548379698
  0
CIRCLE
  5
3F8
100
AcDbEntity
  8
0
100
AcDbCircle
 62
7
  6
CONTINUOUS
 10
6.6973475721
 20
21.5371571054
 40
0.0708661417
  0
CIRCLE
  5
3F9
100
AcDbEntity
  8
0
100
AcDbCircle
 62
9
  6
CONTINUOUS
 10
6.6973475721
 20
21.5371571054
 40
0.0651002345
  0
CIRCLE
  5
3FA
100
AcDbEntity
  8
0
100
AcDbCircle
 62
9
  6
CONTINUOUS
 10
6.6973475721
 20
21.5371571054
 40
0.0569463945
  0
CIRCLE
  5
3FB
100
AcDbEntity
  8
0
100
AcDbCircle
 62
9
  6
CONTINUOUS
 10
6.6973475721
 20
21.5371571054
 40
0.0430269203
  0
ARC
  5
3FC
100
AcDbEntity
  8
0
100
AcDbCircle
 62
7
  6
CONTINUOUS
 10
6.6972533431
 20
21.5371842388
 40
0.0176203964
100
AcDbArc
 50
337.5357416343
 51
157.4642584021
  0
ARC
  5
3FD
100
AcDbEntity
  8
0
100
AcDbCircle
 62
7
  6
CONTINUOUS
 10
6.6972617559
 20
21.5372045491
 40
0.0176203964
100
AcDbArc
 50
157.5357460624
 51
337.4642538945
  0
CIRCLE
  5
3FE
100
AcDbEntity
  8
0
100
AcDbCircle
 62
7
  6
CONTINUOUS
 10
6.791912432
 20
21.8900779671
 40
0.0708661417
  0
CIRCLE
  5
3FF
100
AcDbEntity
  8
0
100
AcDbCircle
 62
9
  6
CONTINUOUS
 10
6.791912432
 20
21.8900779671
 40
0.0651002345
  0
CIRCLE
  5
400
100
AcDbEntity
  8
0
100
AcDbCircle
 62
9
  6
CONTINUOUS
 10
6.791912432
 20
21.8900779671
 40
0.0569463945
  0
CIRCLE
  5
401
100
AcDbEntity
  8
0
100
AcDbCircle
 62
9
  6
CONTINUOUS
 10
6.791912432
 20
21.8900779671
 40
0.0430269203
  0
CIRCLE
  5
402
100
AcDbEntity
  8
0
100
AcDbCircle
 62
7
  6
CONTINUOUS
 10
6.963451568
 20
21.6549844744
 40
0.0826771654
  0
CIRCLE
  5
403
100
AcDbEntity
  8
0
100
AcDbCircle
 62
9
  6
CONTINUOUS
 10
6.963451568
 20
21.6549844744
 40
0.0769109535
  0
CIRCLE
  5
404
100
AcDbEntity
  8
0
100
AcDbCircle
 62
9
  6
CONTINUOUS
 10
6.963451568
 20
21.6549844744
 40
0.0687574628
  0
CIRCLE
  5
405
100
AcDbEntity
  8
0
100
AcDbCircle
 62
9
  6
CONTINUOUS
 10
6.963451568
 20
21.6549844744
 40
0.0548379698
  0
CIRCLE
  5
406
100
AcDbEntity
  8
0
100
AcDbCircle
 62
7
  6
CONTINUOUS
 10
7.018453187
 20
22.072763248
 40
0.0826771654
  0
CIRCLE
  5
407
100
AcDbEntity
  8
0
100
AcDbCircle
 62
9
  6
CONTINUOUS
 10
7.018453187
 20
22.072763248
 40
0.0769109535
  0
CIRCLE
  5
408
100
AcDbEntity
  8
0
100
AcDbCircle
 62
9
  6
CONTINUOUS
 10
7.018453187
 20
22.072763248
 40
0.0687574628
  0
CIRCLE
  5
409
100
AcDbEntity
  8
0
100
AcDbCircle
 62
9
  6
CONTINUOUS
 10
7.018453187
 20
22.072763248
 40
0.0548379698
  0
CIRCLE
  5
40A
100
AcDbEntity
  8
0
100
AcDbCircle
 62
7
  6
CONTINUOUS
 10
4.0166474854
 20
22.2554485288
 40
0.0708661417
  0
CIRCLE
  5
40B
100
AcDbEntity
  8
0
100
AcDbCircle
 62
9
  6
CONTINUOUS
 10
4.0166474854
 20
22.2554485288
 40
0.0651002345
  0
CIRCLE
  5
40C
100
AcDbEntity
  8
0
100
AcDbCircle
 62
9
  6
CONTINUOUS
 10
4.0166474854
 20
22.2554485288
 40
0.0569463945
  0
CIRCLE
  5
40D
100
AcDbEntity
  8
0
100
AcDbCircle
 62
9
  6
CONTINUOUS
 10
4.0166474854
 20
22.2554485288
 40
0.0430269203
  0
CIRCLE
  5
40E
100
AcDbEntity
  8
0
100
AcDbCircle
 62
7
  6
CONTINUOUS
 10
3.8451083493
 20
22.4905420215
 40
0.0826771654
  0
CIRCLE
  5
40F
100
AcDbEntity
  8
0
100
AcDbCircle
 62
9
  6
CONTINUOUS
 10
3.8451083493
 20
22.4905420215
 40
0.0769109535
  0
CIRCLE
  5
410
100
AcDbEntity
  8
0
100
AcDbCircle
 62
9
  6
CONTINUOUS
 10
3.8451083493
 20
22.4905420215
 40
0.0687574628
  0
CIRCLE
  5
411
100
AcDbEntity
  8
0
100
AcDbCircle
 62
9
  6
CONTINUOUS
 10
3.8451083493
 20
22.4905420215
 40
0.0548379698
  0
ARC
  5
412
100
AcDbEntity
  8
0
100
AcDbCircle
 62
9
  6
CONTINUOUS
 10
4.5603963144
 20
22.3708332856
 40
0.0915891769
100
AcDbArc
 50
159.2388524225
 51
160.0489770544
  0
ARC
  5
413
100
AcDbEntity
  8
0
100
AcDbCircle
 62
9
  6
CONTINUOUS
 10
4.5513020602
 20
22.3746688215
 40
0.0833491418
100
AcDbArc
 50
339.5320466508
 51
340.5970322008
  0
CIRCLE
  5
414
100
AcDbEntity
  8
0
100
AcDbCircle
 62
7
  6
CONTINUOUS
 10
4.5507069549
 20
22.3750293016
 40
0.0708661417
  0
ARC
  5
415
100
AcDbEntity
  8
0
100
AcDbCircle
 62
7
  6
CONTINUOUS
 10
4.5507069549
 20
22.3750293016
 40
0.0708661417
100
AcDbArc
 50
340.4999991536
 51
160.5000000001
  0
CIRCLE
  5
416
100
AcDbEntity
  8
0
100
AcDbCircle
 62
9
  6
CONTINUOUS
 10
4.5507069549
 20
22.3750293016
 40
0.0674067293
  0
CIRCLE
  5
417
100
AcDbEntity
  8
0
100
AcDbCircle
 62
9
  6
CONTINUOUS
 10
4.5507069549
 20
22.3750293016
 40
0.0546404342
  0
CIRCLE
  5
418
100
AcDbEntity
  8
0
100
AcDbCircle
 62
9
  6
CONTINUOUS
 10
4.5507069549
 20
22.3750293016
 40
0.0462887627
  0
CIRCLE
  5
419
100
AcDbEntity
  8
0
100
AcDbCircle
 62
7
  6
CONTINUOUS
 10
4.5507069549
 20
22.3750293016
 40
0.0295275591
  0
CIRCLE
  5
41A
100
AcDbEntity
  8
0
100
AcDbCircle
 62
7
  6
CONTINUOUS
 10
4.1112123452
 20
22.6083693905
 40
0.0708661417
  0
CIRCLE
  5
41B
100
AcDbEntity
  8
0
100
AcDbCircle
 62
9
  6
CONTINUOUS
 10
4.1112123452
 20
22.6083693905
 40
0.0651002345
  0
CIRCLE
  5
41C
100
AcDbEntity
  8
0
100
AcDbCircle
 62
9
  6
CONTINUOUS
 10
4.1112123452
 20
22.6083693905
 40
0.0569463945
  0
CIRCLE
  5
41D
100
AcDbEntity
  8
0
100
AcDbCircle
 62
9
  6
CONTINUOUS
 10
4.1112123452
 20
22.6083693905
 40
0.0430269203
  0
ARC
  5
41E
100
AcDbEntity
  8
0
100
AcDbCircle
 62
7
  6
CONTINUOUS
 10
4.1112981614
 20
22.6083219468
 40
0.0176203964
100
AcDbArc
 50
337.5357415749
 51
157.4642583837
  0
ARC
  5
41F
100
AcDbEntity
  8
0
100
AcDbCircle
 62
7
  6
CONTINUOUS
 10
4.1113065742
 20
22.608342257
 40
0.0176203964
100
AcDbArc
 50
157.5357461214
 51
337.4642539166
  0
CIRCLE
  5
420
100
AcDbEntity
  8
0
100
AcDbCircle
 62
7
  6
CONTINUOUS
 10
4.0063649368
 20
22.8798498621
 40
0.0826771654
  0
CIRCLE
  5
421
100
AcDbEntity
  8
0
100
AcDbCircle
 62
9
  6
CONTINUOUS
 10
4.0063649368
 20
22.8798498621
 40
0.0769109535
  0
CIRCLE
  5
422
100
AcDbEntity
  8
0
100
AcDbCircle
 62
9
  6
CONTINUOUS
 10
4.0063649368
 20
22.8798498621
 40
0.0687574628
  0
CIRCLE
  5
423
100
AcDbEntity
  8
0
100
AcDbCircle
 62
9
  6
CONTINUOUS
 10
4.0063649368
 20
22.8798498621
 40
0.0548379698
  0
CIRCLE
  5
424
100
AcDbEntity
  8
0
100
AcDbCircle
 62
7
  6
CONTINUOUS
 10
4.2938976261
 20
22.9247895787
 40
0.0708661417
  0
CIRCLE
  5
425
100
AcDbEntity
  8
0
100
AcDbCircle
 62
9
  6
CONTINUOUS
 10
4.2938976261
 20
22.9247895787
 40
0.0651002345
  0
CIRCLE
  5
426
100
AcDbEntity
  8
0
100
AcDbCircle
 62
9
  6
CONTINUOUS
 10
4.2938976261
 20
22.9247895787
 40
0.0569463945
  0
CIRCLE
  5
427
100
AcDbEntity
  8
0
100
AcDbCircle
 62
9
  6
CONTINUOUS
 10
4.2938976261
 20
22.9247895787
 40
0.0430269203
  0
CIRCLE
  5
428
100
AcDbEntity
  8
0
100
AcDbCircle
 62
7
  6
CONTINUOUS
 10
4.8452598938
 20
22.2225522229
 40
0.0295275591
  0
ARC
  5
429
100
AcDbEntity
  8
0
100
AcDbCircle
 62
9
  6
CONTINUOUS
 10
4.6576198542
 20
22.5660973263
 40
0.091648168
100
AcDbArc
 50
145.2375363393
 51
146.0467231491
  0
ARC
  5
42A
100
AcDbEntity
  8
0
100
AcDbCircle
 62
9
  6
CONTINUOUS
 10
4.6548616105
 20
22.5691560062
 40
0.0876575655
100
AcDbArc
 50
146.6981659871
 51
147.4980579696
  0
ARC
  5
42B
100
AcDbEntity
  8
0
100
AcDbCircle
 62
9
  6
CONTINUOUS
 10
4.6496770432
 20
22.5720547188
 40
0.0833487342
100
AcDbArc
 50
325.5320597726
 51
326.5970508612
  0
CIRCLE
  5
42C
100
AcDbEntity
  8
0
100
AcDbCircle
 62
7
  6
CONTINUOUS
 10
4.6491864977
 20
22.5725487071
 40
0.0708661417
  0
CIRCLE
  5
42D
100
AcDbEntity
  8
0
100
AcDbCircle
 62
9
  6
CONTINUOUS
 10
4.6491864977
 20
22.5725487071
 40
0.0674067293
  0
CIRCLE
  5
42E
100
AcDbEntity
  8
0
100
AcDbCircle
 62
9
  6
CONTINUOUS
 10
4.6491864977
 20
22.5725487071
 40
0.0546404338
  0
CIRCLE
  5
42F
100
AcDbEntity
  8
0
100
AcDbCircle
 62
9
  6
CONTINUOUS
 10
4.6491864977
 20
22.5725487071
 40
0.0462887621
  0
CIRCLE
  5
430
100
AcDbEntity
  8
0
100
AcDbCircle
 62
7
  6
CONTINUOUS
 10
4.6491864977
 20
22.5725487071
 40
0.0295275591
  0
CIRCLE
  5
431
100
AcDbEntity
  8
0
100
AcDbCircle
 62
9
  6
CONTINUOUS
 10
5.0341525145
 20
22.3567720249
 40
0.1439792321
  0
CIRCLE
  5
432
100
AcDbEntity
  8
0
100
AcDbCircle
 62
9
  6
CONTINUOUS
 10
5.0341525145
 20
22.3567720249
 40
0.1300605664
  0
CIRCLE
  5
433
100
AcDbEntity
  8
0
100
AcDbCircle
 62
9
  6
CONTINUOUS
 10
5.0341525145
 20
22.3567720249
 40
0.1219067236
  0
CIRCLE
  5
434
100
AcDbEntity
  8
0
100
AcDbCircle
 62
9
  6
CONTINUOUS
 10
5.0341525145
 20
22.3567720249
 40
0.1079869821
  0
CIRCLE
  5
435
100
AcDbEntity
  8
0
100
AcDbCircle
 62
7
  6
CONTINUOUS
 10
5.0341525145
 20
22.3567720249
 40
0.0885826772
  0
CIRCLE
  5
436
100
AcDbEntity
  8
0
100
AcDbCircle
 62
9
  6
CONTINUOUS
 10
5.343384865
 20
22.5353074057
 40
0.1439792358
  0
CIRCLE
  5
437
100
AcDbEntity
  8
0
100
AcDbCircle
 62
9
  6
CONTINUOUS
 10
5.343384865
 20
22.5353074057
 40
0.130060568
  0
CIRCLE
  5
438
100
AcDbEntity
  8
0
100
AcDbCircle
 62
9
  6
CONTINUOUS
 10
5.343384865
 20
22.5353074057
 40
0.1219067236
  0
CIRCLE
  5
439
100
AcDbEntity
  8
0
100
AcDbCircle
 62
9
  6
CONTINUOUS
 10
5.343384865
 20
22.5353074057
 40
0.1079869821
  0
CIRCLE
  5
43A
100
AcDbEntity
  8
0
100
AcDbCircle
 62
7
  6
CONTINUOUS
 10
5.343384865
 20
22.5353074057
 40
0.0885826772
  0
CIRCLE
  5
43B
100
AcDbEntity
  8
0
100
AcDbCircle
 62
7
  6
CONTINUOUS
 10
5.1149098799
 20
22.5739669265
 40
0.0295275591
  0
ARC
  5
43C
100
AcDbEntity
  8
0
100
AcDbCircle
 62
9
  6
CONTINUOUS
 10
5.2100165413
 20
22.9504290886
 40
0.0876564681
100
AcDbArc
 50
102.6980883849
 51
103.4979861842
  0
CIRCLE
  5
43D
100
AcDbEntity
  8
0
100
AcDbCircle
 62
7
  6
CONTINUOUS
 10
4.2628871229
 20
23.2141560837
 40
0.0826771654
  0
CIRCLE
  5
43E
100
AcDbEntity
  8
0
100
AcDbCircle
 62
9
  6
CONTINUOUS
 10
4.2628871229
 20
23.2141560837
 40
0.0769109535
  0
CIRCLE
  5
43F
100
AcDbEntity
  8
0
100
AcDbCircle
 62
7
  6
CONTINUOUS
 10
4.5522536279
 20
23.1831455805
 40
0.0708661417
  0
CIRCLE
  5
440
100
AcDbEntity
  8
0
100
AcDbCircle
 62
9
  6
CONTINUOUS
 10
4.2628871229
 20
23.2141560837
 40
0.0687574628
  0
CIRCLE
  5
441
100
AcDbEntity
  8
0
100
AcDbCircle
 62
9
  6
CONTINUOUS
 10
4.5522536279
 20
23.1831455805
 40
0.0651002345
  0
CIRCLE
  5
442
100
AcDbEntity
  8
0
100
AcDbCircle
 62
9
  6
CONTINUOUS
 10
4.5522536279
 20
23.1831455805
 40
0.0569463945
  0
CIRCLE
  5
443
100
AcDbEntity
  8
0
100
AcDbCircle
 62
9
  6
CONTINUOUS
 10
4.2628871229
 20
23.2141560837
 40
0.0548379698
  0
CIRCLE
  5
444
100
AcDbEntity
  8
0
100
AcDbCircle
 62
9
  6
CONTINUOUS
 10
4.5522536279
 20
23.1831455805
 40
0.0430269203
  0
ARC
  5
445
100
AcDbEntity
  8
0
100
AcDbCircle
 62
7
  6
CONTINUOUS
 10
4.552304225
 20
23.183061585
 40
0.0176203964
100
AcDbArc
 50
307.5357415656
 51
127.4642583955
  0
ARC
  5
446
100
AcDbEntity
  8
0
100
AcDbCircle
 62
7
  6
CONTINUOUS
 10
4.5523216658
 20
23.1830749678
 40
0.0176203964
100
AcDbArc
 50
127.5357461325
 51
307.464253908
  0
CIRCLE
  5
447
100
AcDbEntity
  8
0
100
AcDbCircle
 62
7
  6
CONTINUOUS
 10
4.5971933445
 20
23.4706782698
 40
0.0826771654
  0
CIRCLE
  5
448
100
AcDbEntity
  8
0
100
AcDbCircle
 62
9
  6
CONTINUOUS
 10
4.5971933445
 20
23.4706782698
 40
0.0769109536
  0
CIRCLE
  5
449
100
AcDbEntity
  8
0
100
AcDbCircle
 62
9
  6
CONTINUOUS
 10
4.5971933445
 20
23.4706782698
 40
0.0687574628
  0
CIRCLE
  5
44A
100
AcDbEntity
  8
0
100
AcDbCircle
 62
9
  6
CONTINUOUS
 10
4.5971933445
 20
23.4706782698
 40
0.0548379698
  0
CIRCLE
  5
44B
100
AcDbEntity
  8
0
100
AcDbCircle
 62
7
  6
CONTINUOUS
 10
5.2082913319
 20
22.9568108135
 40
0.0708661417
  0
CIRCLE
  5
44C
100
AcDbEntity
  8
0
100
AcDbCircle
 62
7
  6
CONTINUOUS
 10
5.2082913319
 20
22.9568108135
 40
0.0708661417
  0
CIRCLE
  5
44D
100
AcDbEntity
  8
0
100
AcDbCircle
 62
9
  6
CONTINUOUS
 10
5.2082913319
 20
22.9568108135
 40
0.0674067293
  0
CIRCLE
  5
44E
100
AcDbEntity
  8
0
100
AcDbCircle
 62
9
  6
CONTINUOUS
 10
5.2082913319
 20
22.9568108135
 40
0.0546404342
  0
CIRCLE
  5
44F
100
AcDbEntity
  8
0
100
AcDbCircle
 62
9
  6
CONTINUOUS
 10
5.2082913319
 20
22.9568108135
 40
0.0462887627
  0
CIRCLE
  5
450
100
AcDbEntity
  8
0
100
AcDbCircle
 62
7
  6
CONTINUOUS
 10
5.2082913319
 20
22.9568108135
 40
0.0295275591
  0
CIRCLE
  5
451
100
AcDbEntity
  8
0
100
AcDbCircle
 62
7
  6
CONTINUOUS
 10
4.8686738161
 20
23.3658308614
 40
0.0708661417
  0
CIRCLE
  5
452
100
AcDbEntity
  8
0
100
AcDbCircle
 62
9
  6
CONTINUOUS
 10
4.8686738161
 20
23.3658308614
 40
0.0651002345
  0
CIRCLE
  5
453
100
AcDbEntity
  8
0
100
AcDbCircle
 62
9
  6
CONTINUOUS
 10
4.8686738161
 20
23.3658308614
 40
0.0569463945
  0
CIRCLE
  5
454
100
AcDbEntity
  8
0
100
AcDbCircle
 62
9
  6
CONTINUOUS
 10
4.8686738161
 20
23.3658308614
 40
0.0430269203
  0
CIRCLE
  5
455
100
AcDbEntity
  8
0
100
AcDbCircle
 62
7
  6
CONTINUOUS
 10
4.9865011851
 20
23.6319348573
 40
0.0826771654
  0
CIRCLE
  5
456
100
AcDbEntity
  8
0
100
AcDbCircle
 62
9
  6
CONTINUOUS
 10
4.9865011851
 20
23.6319348573
 40
0.0769109535
  0
CIRCLE
  5
457
100
AcDbEntity
  8
0
100
AcDbCircle
 62
9
  6
CONTINUOUS
 10
4.9865011851
 20
23.6319348573
 40
0.0687574628
  0
CIRCLE
  5
458
100
AcDbEntity
  8
0
100
AcDbCircle
 62
9
  6
CONTINUOUS
 10
4.9865011851
 20
23.6319348573
 40
0.0548379698
  0
CIRCLE
  5
459
100
AcDbEntity
  8
0
100
AcDbCircle
 62
7
  6
CONTINUOUS
 10
5.2215946778
 20
23.4603957213
 40
0.0708661417
  0
CIRCLE
  5
45A
100
AcDbEntity
  8
0
100
AcDbCircle
 62
9
  6
CONTINUOUS
 10
5.2215946778
 20
23.4603957213
 40
0.0651002345
  0
CIRCLE
  5
45B
100
AcDbEntity
  8
0
100
AcDbCircle
 62
9
  6
CONTINUOUS
 10
5.2215946778
 20
23.4603957213
 40
0.0569463945
  0
CIRCLE
  5
45C
100
AcDbEntity
  8
0
100
AcDbCircle
 62
9
  6
CONTINUOUS
 10
5.2215946778
 20
23.4603957213
 40
0.0430269203
  0
ARC
  5
45D
100
AcDbEntity
  8
0
100
AcDbCircle
 62
7
  6
CONTINUOUS
 10
5.2215964985
 20
23.4602976804
 40
0.0176203964
100
AcDbArc
 50
277.5357415696
 51
97.4642583931
  0
ARC
  5
45E
100
AcDbEntity
  8
0
100
AcDbCircle
 62
7
  6
CONTINUOUS
 10
5.221618294
 20
23.4603005499
 40
0.0176203964
100
AcDbArc
 50
97.5357461317
 51
277.4642539105
  0
CIRCLE
  5
45F
100
AcDbEntity
  8
0
100
AcDbCircle
 62
9
  6
CONTINUOUS
 10
5.6882887356
 20
22.4428906921
 40
0.1439792321
  0
CIRCLE
  5
460
100
AcDbEntity
  8
0
100
AcDbCircle
 62
9
  6
CONTINUOUS
 10
5.6882887356
 20
22.4428906921
 40
0.1300605664
  0
CIRCLE
  5
461
100
AcDbEntity
  8
0
100
AcDbCircle
 62
9
  6
CONTINUOUS
 10
5.6882887356
 20
22.4428906921
 40
0.1219067236
  0
CIRCLE
  5
462
100
AcDbEntity
  8
0
100
AcDbCircle
 62
9
  6
CONTINUOUS
 10
5.6882887356
 20
22.4428906921
 40
0.1079869821
  0
CIRCLE
  5
463
100
AcDbEntity
  8
0
100
AcDbCircle
 62
7
  6
CONTINUOUS
 10
5.6882887356
 20
22.4428906921
 40
0.0885826772
  0
CIRCLE
  5
464
100
AcDbEntity
  8
0
100
AcDbCircle
 62
7
  6
CONTINUOUS
 10
5.9054836372
 20
22.3621333267
 40
0.0295275591
  0
ARC
  5
465
100
AcDbEntity
  8
0
100
AcDbCircle
 62
9
  6
CONTINUOUS
 10
6.2000897599
 20
22.5432295302
 40
0.1030015276
100
AcDbArc
 50
211.3140956448
 51
212.1978251142
  0
ARC
  5
466
100
AcDbEntity
  8
0
100
AcDbCircle
 62
9
  6
CONTINUOUS
 10
6.1752963704
 20
22.5277418963
 40
0.0913172596
100
AcDbArc
 50
29.2442384131
 51
30.0592452666
  0
ARC
  5
467
100
AcDbEntity
  8
0
100
AcDbCircle
 62
9
  6
CONTINUOUS
 10
6.1833273785
 20
22.5315845965
 40
0.082444513
100
AcDbArc
 50
30.5435046224
 51
31.4012801124
  0
CIRCLE
  5
468
100
AcDbEntity
  8
0
100
AcDbCircle
 62
7
  6
CONTINUOUS
 10
6.1844953402
 20
22.5323452302
 40
0.0708661417
  0
CIRCLE
  5
469
100
AcDbEntity
  8
0
100
AcDbCircle
 62
9
  6
CONTINUOUS
 10
6.1844953402
 20
22.5323452302
 40
0.0674067293
  0
CIRCLE
  5
46A
100
AcDbEntity
  8
0
100
AcDbCircle
 62
9
  6
CONTINUOUS
 10
6.1844953402
 20
22.5323452302
 40
0.0546404342
  0
CIRCLE
  5
46B
100
AcDbEntity
  8
0
100
AcDbCircle
 62
9
  6
CONTINUOUS
 10
6.1844953402
 20
22.5323452302
 40
0.0462887627
  0
CIRCLE
  5
46C
100
AcDbEntity
  8
0
100
AcDbCircle
 62
7
  6
CONTINUOUS
 10
6.1844953402
 20
22.5323452302
 40
0.0295275591
  0
ARC
  5
46D
100
AcDbEntity
  8
0
100
AcDbCircle
 62
9
  6
CONTINUOUS
 10
5.6457862143
 20
22.9437467723
 40
0.0827187367
100
AcDbArc
 50
60.6549297899
 51
73.6103303726
  0
ARC
  5
46E
100
AcDbEntity
  8
0
100
AcDbCircle
 62
9
  6
CONTINUOUS
 10
5.6459284219
 20
22.9440083486
 40
0.0824210335
100
AcDbArc
 50
58.8988371711
 51
60.6519891539
  0
ARC
  5
46F
100
AcDbEntity
  8
0
100
AcDbCircle
 62
9
  6
CONTINUOUS
 10
5.6462512072
 20
22.9451793646
 40
0.0812131624
100
AcDbArc
 50
73.639866393
 51
74.5196167371
  0
CIRCLE
  5
470
100
AcDbEntity
  8
0
100
AcDbCircle
 62
7
  6
CONTINUOUS
 10
5.6462674646
 20
22.9453420048
 40
0.0708661417
  0
ARC
  5
471
100
AcDbEntity
  8
0
100
AcDbCircle
 62
7
  6
CONTINUOUS
 10
5.6462674646
 20
22.9453420048
 40
0.0708661417
100
AcDbArc
 50
74.5000000002
 51
254.4999986186
  0
CIRCLE
  5
472
100
AcDbEntity
  8
0
100
AcDbCircle
 62
9
  6
CONTINUOUS
 10
5.6462674646
 20
22.9453420048
 40
0.0674067293
  0
CIRCLE
  5
473
100
AcDbEntity
  8
0
100
AcDbCircle
 62
9
  6
CONTINUOUS
 10
5.6462674646
 20
22.9453420048
 40
0.0546404342
  0
CIRCLE
  5
474
100
AcDbEntity
  8
0
100
AcDbCircle
 62
9
  6
CONTINUOUS
 10
5.6462674646
 20
22.9453420048
 40
0.0462887627
  0
CIRCLE
  5
475
100
AcDbEntity
  8
0
100
AcDbCircle
 62
7
  6
CONTINUOUS
 10
5.6462674646
 20
22.9453420048
 40
0.0295275591
  0
CIRCLE
  5
476
100
AcDbEntity
  8
0
100
AcDbCircle
 62
7
  6
CONTINUOUS
 10
5.5540689336
 20
22.6317833128
 40
0.0295275591
  0
ARC
  5
477
100
AcDbEntity
  8
0
100
AcDbCircle
 62
9
  6
CONTINUOUS
 10
6.2662569329
 20
22.3277764082
 40
0.0876562384
100
AcDbArc
 50
16.6980829957
 51
17.4979763308
  0
CIRCLE
  5
478
100
AcDbEntity
  8
0
100
AcDbCircle
 62
7
  6
CONTINUOUS
 10
6.2725025532
 20
22.3299424971
 40
0.0708661417
  0
CIRCLE
  5
479
100
AcDbEntity
  8
0
100
AcDbCircle
 62
9
  6
CONTINUOUS
 10
6.2725025532
 20
22.3299424971
 40
0.0674067293
  0
CIRCLE
  5
47A
100
AcDbEntity
  8
0
100
AcDbCircle
 62
9
  6
CONTINUOUS
 10
6.2725025532
 20
22.3299424971
 40
0.0546404342
  0
CIRCLE
  5
47B
100
AcDbEntity
  8
0
100
AcDbCircle
 62
9
  6
CONTINUOUS
 10
6.2725025532
 20
22.3299424971
 40
0.0462887627
  0
CIRCLE
  5
47C
100
AcDbEntity
  8
0
100
AcDbCircle
 62
7
  6
CONTINUOUS
 10
6.2725025532
 20
22.3299424971
 40
0.0295275591
  0
CIRCLE
  5
47D
100
AcDbEntity
  8
0
100
AcDbCircle
 62
7
  6
CONTINUOUS
 10
6.791912432
 20
22.2554485288
 40
0.0708661417
  0
CIRCLE
  5
47E
100
AcDbEntity
  8
0
100
AcDbCircle
 62
9
  6
CONTINUOUS
 10
6.791912432
 20
22.2554485288
 40
0.0651002345
  0
CIRCLE
  5
47F
100
AcDbEntity
  8
0
100
AcDbCircle
 62
9
  6
CONTINUOUS
 10
6.791912432
 20
22.2554485288
 40
0.0569463945
  0
CIRCLE
  5
480
100
AcDbEntity
  8
0
100
AcDbCircle
 62
9
  6
CONTINUOUS
 10
6.791912432
 20
22.2554485288
 40
0.0430269203
  0
ARC
  5
481
100
AcDbEntity
  8
0
100
AcDbCircle
 62
7
  6
CONTINUOUS
 10
6.7918172606
 20
22.2554249126
 40
0.0176203964
100
AcDbArc
 50
7.5357462165
 51
187.4642538257
  0
ARC
  5
482
100
AcDbEntity
  8
0
100
AcDbCircle
 62
7
  6
CONTINUOUS
 10
6.7918143911
 20
22.2554467081
 40
0.0176203964
100
AcDbArc
 50
187.5357414848
 51
7.464258478
  0
CIRCLE
  5
483
100
AcDbEntity
  8
0
100
AcDbCircle
 62
7
  6
CONTINUOUS
 10
6.963451568
 20
22.4905420215
 40
0.0826771654
  0
CIRCLE
  5
484
100
AcDbEntity
  8
0
100
AcDbCircle
 62
9
  6
CONTINUOUS
 10
6.963451568
 20
22.4905420215
 40
0.0769109535
  0
CIRCLE
  5
485
100
AcDbEntity
  8
0
100
AcDbCircle
 62
9
  6
CONTINUOUS
 10
6.963451568
 20
22.4905420215
 40
0.0687574628
  0
CIRCLE
  5
486
100
AcDbEntity
  8
0
100
AcDbCircle
 62
9
  6
CONTINUOUS
 10
6.963451568
 20
22.4905420215
 40
0.0548379698
  0
CIRCLE
  5
487
100
AcDbEntity
  8
0
100
AcDbCircle
 62
7
  6
CONTINUOUS
 10
6.5146622912
 20
22.9247895787
 40
0.0708661417
  0
CIRCLE
  5
488
100
AcDbEntity
  8
0
100
AcDbCircle
 62
9
  6
CONTINUOUS
 10
6.5146622912
 20
22.9247895787
 40
0.0651002345
  0
CIRCLE
  5
489
100
AcDbEntity
  8
0
100
AcDbCircle
 62
9
  6
CONTINUOUS
 10
6.5146622912
 20
22.9247895787
 40
0.0569463945
  0
CIRCLE
  5
48A
100
AcDbEntity
  8
0
100
AcDbCircle
 62
9
  6
CONTINUOUS
 10
6.5146622912
 20
22.9247895787
 40
0.0430269203
  0
ARC
  5
48B
100
AcDbEntity
  8
0
100
AcDbCircle
 62
7
  6
CONTINUOUS
 10
6.5145782957
 20
22.9247389816
 40
0.0176203964
100
AcDbArc
 50
217.5357414987
 51
37.4642584668
  0
ARC
  5
48C
100
AcDbEntity
  8
0
100
AcDbCircle
 62
7
  6
CONTINUOUS
 10
6.5145912212
 20
22.9247221206
 40
0.0176194003
100
AcDbArc
 50
37.5333449525
 51
217.4666550527
  0
CIRCLE
  5
48D
100
AcDbEntity
  8
0
100
AcDbCircle
 62
7
  6
CONTINUOUS
 10
6.6973475721
 20
22.6083693905
 40
0.0708661417
  0
CIRCLE
  5
48E
100
AcDbEntity
  8
0
100
AcDbCircle
 62
9
  6
CONTINUOUS
 10
6.6973475721
 20
22.6083693905
 40
0.0651002345
  0
CIRCLE
  5
48F
100
AcDbEntity
  8
0
100
AcDbCircle
 62
9
  6
CONTINUOUS
 10
6.6973475721
 20
22.6083693905
 40
0.0569463945
  0
CIRCLE
  5
490
100
AcDbEntity
  8
0
100
AcDbCircle
 62
9
  6
CONTINUOUS
 10
6.6973475721
 20
22.6083693905
 40
0.0430269203
  0
CIRCLE
  5
491
100
AcDbEntity
  8
0
100
AcDbCircle
 62
7
  6
CONTINUOUS
 10
6.8021949805
 20
22.8798498621
 40
0.0826771654
  0
CIRCLE
  5
492
100
AcDbEntity
  8
0
100
AcDbCircle
 62
9
  6
CONTINUOUS
 10
6.8021949805
 20
22.8798498621
 40
0.0769113022
  0
CIRCLE
  5
493
100
AcDbEntity
  8
0
100
AcDbCircle
 62
9
  6
CONTINUOUS
 10
6.8021949805
 20
22.8798498621
 40
0.0687574886
  0
CIRCLE
  5
494
100
AcDbEntity
  8
0
100
AcDbCircle
 62
9
  6
CONTINUOUS
 10
6.8021949805
 20
22.8798498621
 40
0.0548380036
  0
CIRCLE
  5
495
100
AcDbEntity
  8
0
100
AcDbCircle
 62
7
  6
CONTINUOUS
 10
5.4279834945
 20
22.9779647627
 40
0.0708661417
  0
ARC
  5
496
100
AcDbEntity
  8
0
100
AcDbCircle
 62
7
  6
CONTINUOUS
 10
5.4279834945
 20
22.9779647627
 40
0.0708661417
100
AcDbArc
 50
268.5000005504
 51
88.5
  0
CIRCLE
  5
497
100
AcDbEntity
  8
0
100
AcDbCircle
 62
9
  6
CONTINUOUS
 10
5.4279834945
 20
22.9779647627
 40
0.0674067293
  0
CIRCLE
  5
498
100
AcDbEntity
  8
0
100
AcDbCircle
 62
9
  6
CONTINUOUS
 10
5.4279834945
 20
22.9779647627
 40
0.0546404342
  0
CIRCLE
  5
499
100
AcDbEntity
  8
0
100
AcDbCircle
 62
9
  6
CONTINUOUS
 10
5.4279834945
 20
22.9779647627
 40
0.0462887627
  0
CIRCLE
  5
49A
100
AcDbEntity
  8
0
100
AcDbCircle
 62
7
  6
CONTINUOUS
 10
5.4279834945
 20
22.9779647627
 40
0.0295275591
  0
CIRCLE
  5
49B
100
AcDbEntity
  8
0
100
AcDbCircle
 62
7
  6
CONTINUOUS
 10
5.5869652395
 20
23.4603957213
 40
0.0708661417
  0
CIRCLE
  5
49C
100
AcDbEntity
  8
0
100
AcDbCircle
 62
9
  6
CONTINUOUS
 10
5.5869652395
 20
23.4603957213
 40
0.0651002345
  0
CIRCLE
  5
49D
100
AcDbEntity
  8
0
100
AcDbCircle
 62
9
  6
CONTINUOUS
 10
5.5869652395
 20
23.4603957213
 40
0.0569463945
  0
CIRCLE
  5
49E
100
AcDbEntity
  8
0
100
AcDbCircle
 62
9
  6
CONTINUOUS
 10
5.5869652395
 20
23.4603957213
 40
0.0430269203
  0
CIRCLE
  5
49F
100
AcDbEntity
  8
0
100
AcDbCircle
 62
7
  6
CONTINUOUS
 10
5.4042799587
 20
23.6869364763
 40
0.0826771654
  0
CIRCLE
  5
4A0
100
AcDbEntity
  8
0
100
AcDbCircle
 62
9
  6
CONTINUOUS
 10
5.4042799587
 20
23.6869364763
 40
0.0769109535
  0
CIRCLE
  5
4A1
100
AcDbEntity
  8
0
100
AcDbCircle
 62
9
  6
CONTINUOUS
 10
5.4042799587
 20
23.6869364763
 40
0.0687574628
  0
CIRCLE
  5
4A2
100
AcDbEntity
  8
0
100
AcDbCircle
 62
9
  6
CONTINUOUS
 10
5.4042799587
 20
23.6869364763
 40
0.0548379698
  0
CIRCLE
  5
4A3
100
AcDbEntity
  8
0
100
AcDbCircle
 62
7
  6
CONTINUOUS
 10
5.9398861012
 20
23.3658308614
 40
0.0708661417
  0
CIRCLE
  5
4A4
100
AcDbEntity
  8
0
100
AcDbCircle
 62
9
  6
CONTINUOUS
 10
5.9398861012
 20
23.3658308614
 40
0.0651002345
  0
CIRCLE
  5
4A5
100
AcDbEntity
  8
0
100
AcDbCircle
 62
9
  6
CONTINUOUS
 10
5.9398861012
 20
23.3658308614
 40
0.0569463945
  0
CIRCLE
  5
4A6
100
AcDbEntity
  8
0
100
AcDbCircle
 62
9
  6
CONTINUOUS
 10
5.9398861012
 20
23.3658308614
 40
0.0430269203
  0
ARC
  5
4A7
100
AcDbEntity
  8
0
100
AcDbCircle
 62
7
  6
CONTINUOUS
 10
5.9398386575
 20
23.3657450452
 40
0.0176203964
100
AcDbArc
 50
247.5357415817
 51
67.4642583845
  0
ARC
  5
4A8
100
AcDbEntity
  8
0
100
AcDbCircle
 62
7
  6
CONTINUOUS
 10
5.9398582818
 20
23.3657369059
 40
0.0176194003
100
AcDbArc
 50
67.5333449442
 51
247.4666550617
  0
CIRCLE
  5
4A9
100
AcDbEntity
  8
0
100
AcDbCircle
 62
7
  6
CONTINUOUS
 10
5.8220587322
 20
23.6319348573
 40
0.0826771654
  0
CIRCLE
  5
4AA
100
AcDbEntity
  8
0
100
AcDbCircle
 62
9
  6
CONTINUOUS
 10
5.8220587322
 20
23.6319348573
 40
0.0769109535
  0
CIRCLE
  5
4AB
100
AcDbEntity
  8
0
100
AcDbCircle
 62
9
  6
CONTINUOUS
 10
5.8220587322
 20
23.6319348573
 40
0.0687574628
  0
CIRCLE
  5
4AC
100
AcDbEntity
  8
0
100
AcDbCircle
 62
9
  6
CONTINUOUS
 10
5.8220587322
 20
23.6319348573
 40
0.0548379698
  0
CIRCLE
  5
4AD
100
AcDbEntity
  8
0
100
AcDbCircle
 62
7
  6
CONTINUOUS
 10
6.5456727944
 20
23.2141560837
 40
0.0826771654
  0
CIRCLE
  5
4AE
100
AcDbEntity
  8
0
100
AcDbCircle
 62
9
  6
CONTINUOUS
 10
6.5456727944
 20
23.2141560837
 40
0.0769109535
  0
CIRCLE
  5
4AF
100
AcDbEntity
  8
0
100
AcDbCircle
 62
7
  6
CONTINUOUS
 10
6.2563062894
 20
23.1831455805
 40
0.0708661417
  0
CIRCLE
  5
4B0
100
AcDbEntity
  8
0
100
AcDbCircle
 62
9
  6
CONTINUOUS
 10
6.5456727944
 20
23.2141560837
 40
0.0687574628
  0
CIRCLE
  5
4B1
100
AcDbEntity
  8
0
100
AcDbCircle
 62
9
  6
CONTINUOUS
 10
6.2563062894
 20
23.1831455805
 40
0.0651002345
  0
CIRCLE
  5
4B2
100
AcDbEntity
  8
0
100
AcDbCircle
 62
9
  6
CONTINUOUS
 10
6.2563062894
 20
23.1831455805
 40
0.0569463945
  0
CIRCLE
  5
4B3
100
AcDbEntity
  8
0
100
AcDbCircle
 62
9
  6
CONTINUOUS
 10
6.5456727944
 20
23.2141560837
 40
0.0548379698
  0
CIRCLE
  5
4B4
100
AcDbEntity
  8
0
100
AcDbCircle
 62
9
  6
CONTINUOUS
 10
6.2563062894
 20
23.1831455805
 40
0.0430269203
  0
CIRCLE
  5
4B5
100
AcDbEntity
  8
0
100
AcDbCircle
 62
7
  6
CONTINUOUS
 10
6.2113665728
 20
23.4706782698
 40
0.0826771654
  0
CIRCLE
  5
4B6
100
AcDbEntity
  8
0
100
AcDbCircle
 62
9
  6
CONTINUOUS
 10
6.2113665728
 20
23.4706782698
 40
0.0769109535
  0
CIRCLE
  5
4B7
100
AcDbEntity
  8
0
100
AcDbCircle
 62
9
  6
CONTINUOUS
 10
6.2113665728
 20
23.4706782698
 40
0.0687574628
  0
CIRCLE
  5
4B8
100
AcDbEntity
  8
0
100
AcDbCircle
 62
9
  6
CONTINUOUS
 10
6.2113665728
 20
23.4706782698
 40
0.0548379698
  0
ARC
  5
4B9
100
AcDbEntity
  8
0
100
AcDbCircle
 62
9
  6
CONTINUOUS
 10
34.8621969315
 20
-32.6844548002
 40
62.1408708829
100
AcDbArc
 50
119.9966189927
 51
120.193532084
  0
ARC
  5
4BA
100
AcDbEntity
  8
0
100
AcDbCircle
 62
9
  6
CONTINUOUS
 10
34.8620474007
 20
-32.6841971511
 40
62.1405729862
100
AcDbArc
 50
119.9966264532
 51
120.1935323914
  0
ARC
  5
4BB
100
AcDbEntity
  8
0
100
AcDbCircle
 62
9
  6
CONTINUOUS
 10
27.1611118992
 20
-19.3463986535
 40
46.6723066352
100
AcDbArc
 50
119.9913600724
 51
120.2033691435
  0
ARC
  5
4BC
100
AcDbEntity
  8
0
100
AcDbCircle
 62
9
  6
CONTINUOUS
 10
27.161094832
 20
-19.3463691053
 40
46.6722725121
100
AcDbArc
 50
119.9913600581
 51
120.2033692842
  0
ARC
  5
4BD
100
AcDbEntity
  8
0
100
AcDbCircle
 62
9
  6
CONTINUOUS
 10
26.6372916179
 20
-18.620717949
 40
45.9358348326
100
AcDbArc
 50
119.8779797699
 51
120.0926475921
  0
ARC
  5
4BE
100
AcDbEntity
  8
0
100
AcDbCircle
 62
9
  6
CONTINUOUS
 10
26.631915202
 20
-18.6113995933
 40
45.9250767132
100
AcDbArc
 50
119.87795501
 51
120.0926709128
  0
ARC
  5
4BF
100
AcDbEntity
  8
0
100
AcDbCircle
 62
9
  6
CONTINUOUS
 10
8.6351810482
 20
13.6943165666
 40
8.8601835199
100
AcDbArc
 50
120.0157904176
 51
120.1523908627
  0
ARC
  5
4C0
100
AcDbEntity
  8
0
100
AcDbCircle
 62
9
  6
CONTINUOUS
 10
8.6342451005
 20
13.6959273714
 40
8.858320538
100
AcDbArc
 50
120.0158226889
 51
120.1523895879
  0
ARC
  5
4C1
100
AcDbEntity
  8
0
100
AcDbCircle
 62
9
  6
CONTINUOUS
 10
16.8224862013
 20
-2.0088479757
 40
3.5249991548
100
AcDbArc
 50
268.1664646562
 51
269.9848167613
  0
ARC
  5
4C2
100
AcDbEntity
  8
0
100
AcDbCircle
 62
7
  6
CONTINUOUS
 10
9.6986453857
 20
13.417288708
 40
0.8838346793
100
AcDbArc
 50
56.951111044
 51
57.6366992334
  0
ARC
  5
4C3
100
AcDbEntity
  8
0
100
AcDbCircle
 62
7
  6
CONTINUOUS
 10
10.2535549844
 20
13.4269507046
 40
0.8723523642
100
AcDbArc
 50
122.3586995356
 51
123.0534386558
  0
ARC
  5
4C4
100
AcDbEntity
  8
0
100
AcDbCircle
 62
9
  6
CONTINUOUS
 10
15.5404067092
 20
-5.2000961255
 40
0.7735828636
100
AcDbArc
 50
344.0634152807
 51
344.9632586754
  0
ARC
  5
4C5
100
AcDbEntity
  8
0
100
AcDbCircle
 62
7
  6
CONTINUOUS
 10
11.0201459635
 20
14.1077835145
 40
0.223
100
AcDbArc
 50
122.5461444331
 51
138.6723015093
  0
ARC
  5
4C6
100
AcDbEntity
  8
0
100
AcDbCircle
 62
7
  6
CONTINUOUS
 10
11.0201459635
 20
13.9737429814
 40
0.223
100
AcDbArc
 50
221.3276984907
 51
237.4538555669
  0
CIRCLE
  5
4C7
100
AcDbEntity
  8
0
100
AcDbCircle
 62
7
  6
CONTINUOUS
 10
9.9792023682
 20
14.467763248
 40
0.202
  0
CIRCLE
  5
4C8
100
AcDbEntity
  8
0
100
AcDbCircle
 62
7
  6
CONTINUOUS
 10
9.9792023682
 20
14.467763248
 40
0.1925
  0
ARC
  5
4C9
100
AcDbEntity
  8
0
100
AcDbCircle
 62
7
  6
CONTINUOUS
 10
10.7821523658
 20
14.495763248
 40
0.1
100
AcDbArc
 50
270.0
 51
360.0
  0
ARC
  5
4CA
100
AcDbEntity
  8
0
100
AcDbCircle
 62
7
  6
CONTINUOUS
 10
11.8921523658
 20
14.495763248
 40
0.1
100
AcDbArc
 50
180.0
 51
270.0
  0
ARC
  5
4CB
100
AcDbEntity
  8
0
100
AcDbCircle
 62
7
  6
CONTINUOUS
 10
8.5402023682
 20
13.687763248
 40
0.02
100
AcDbArc
 50
0.0
 51
90.0
  0
ARC
  5
4CC
100
AcDbEntity
  8
0
100
AcDbCircle
 62
7
  6
CONTINUOUS
 10
8.5402023682
 20
13.377763248
 40
0.02
100
AcDbArc
 50
270.0
 51
360.0
  0
ARC
  5
4CD
100
AcDbEntity
  8
0
100
AcDbCircle
 62
7
  6
CONTINUOUS
 10
8.5252023682
 20
13.727763248
 40
0.02
100
AcDbArc
 50
180.0
 51
270.0
  0
ARC
  5
4CE
100
AcDbEntity
  8
0
100
AcDbCircle
 62
7
  6
CONTINUOUS
 10
8.5252023682
 20
15.207763248
 40
0.02
100
AcDbArc
 50
90.0
 51
180.0
  0
ARC
  5
4CF
100
AcDbEntity
  8
0
100
AcDbCircle
 62
7
  6
CONTINUOUS
 10
8.5402023682
 20
15.247763248
 40
0.02
100
AcDbArc
 50
270.0
 51
360.0
  0
ARC
  5
4D0
100
AcDbEntity
  8
0
100
AcDbCircle
 62
7
  6
CONTINUOUS
 10
8.8952023682
 20
14.132763248
 40
0.02
100
AcDbArc
 50
270.0
 51
360.0
  0
ARC
  5
4D1
100
AcDbEntity
  8
0
100
AcDbCircle
 62
7
  6
CONTINUOUS
 10
8.8952023682
 20
14.802763248
 40
0.02
100
AcDbArc
 50
0.0
 51
90.0
  0
ARC
  5
4D2
100
AcDbEntity
  8
0
100
AcDbCircle
 62
7
  6
CONTINUOUS
 10
24.9592805809
 20
17.082763248
 40
20.175
100
AcDbArc
 50
174.9244926841
 51
185.0755073159
  0
ARC
  5
4D3
100
AcDbEntity
  8
0
100
AcDbCircle
 62
7
  6
CONTINUOUS
 10
11.3371523658
 20
15.495763248
 40
1.0
100
AcDbArc
 50
297.076090966
 51
242.9243748432
  0
ARC
  5
4D4
100
AcDbEntity
  8
0
100
AcDbCircle
 62
7
  6
CONTINUOUS
 10
10.2597593456
 20
15.5182377797
 40
0.8838346697
100
AcDbArc
 50
236.9511110714
 51
237.6366989976
  0
ARC
  5
4D5
100
AcDbEntity
  8
0
100
AcDbCircle
 62
7
  6
CONTINUOUS
 10
9.7048497416
 20
15.5085758065
 40
0.8723523827
100
AcDbArc
 50
302.3587014357
 51
303.0534366961
  0
CIRCLE
  5
4D6
100
AcDbEntity
  8
0
100
AcDbCircle
 62
7
  6
CONTINUOUS
 10
11.3371523658
 20
15.495763248
 40
0.55
  0
ARC
  5
4D7
100
AcDbEntity
  8
0
100
AcDbCircle
 62
7
  6
CONTINUOUS
 10
8.5402023682
 20
15.557763248
 40
0.02
100
AcDbArc
 50
0.0
 51
90.0
  0
SPLINE
  5
4D8
100
AcDbEntity
  8
0
100
AcDbSpline
 62
7
  6
CONTINUOUS
 70
0
 71
3
 72
17
 73
13
 74
0
 42
0.0000001
 43
0.0000001
 44
0.0000000001
 40
0.0
 40
0.0
 40
0.0
 40
0.0
 40
0.0799726373
 40
0.1594148805
 40
0.2378408863
 40
0.314820744
 40
0.4629777332
 40
0.6014125012
 40
0.7276114098
 40
0.8386108823
 40
0.9307922796
 40
1.0
 40
1.0
 40
1.0
 40
1.0
 10
9.9792023682
 20
14.2326122326
 30
0.0
 10
9.9736783468
 20
14.2326122326
 30
0.0
 10
9.9626630315
 20
14.2322229121
 30
0.0
 10
9.9463125679
 20
14.2305043501
 30
0.0
 10
9.9303148312
 20
14.2277499248
 30
0.0
 10
9.9098934602
 20
14.222946434
 30
0.0
 10
9.8859470739
 20
14.2152363317
 30
0.0
 10
9.8596077589
 20
14.2042578575
 30
0.0
 10
9.8363098612
 20
14.1928095513
 30
0.0
 10
9.816358941
 20
14.1818624227
 30
0.0
 10
9.8001624648
 20
14.1722832716
 30
0.0
 10
9.7906944957
 20
14.1663972984
 30
0.0
 10
9.7866562621
 20
14.1638389122
 30
0.0
  0
LINE
  5
4D9
100
AcDbEntity
  8
0
100
AcDbLine
 62
7
  6
CONTINUOUS
 10
9.7777556771
 20
14.1581235067
 11
9.7772023682
 21
14.157763248
  0
LINE
  5
4DA
100
AcDbEntity
  8
0
100
AcDbLine
 62
7
  6
CONTINUOUS
 10
9.7772023682
 20
14.777763248
 11
9.7777561742
 21
14.7774026658
  0
SPLINE
  5
4DB
100
AcDbEntity
  8
0
100
AcDbSpline
 62
7
  6
CONTINUOUS
 70
0
 71
3
 72
17
 73
13
 74
0
 42
0.0000001
 43
0.0000001
 44
0.0000000001
 40
0.0
 40
0.0
 40
0.0
 40
0.0
 40
0.0692055482
 40
0.1613857147
 40
0.2723847151
 40
0.3985837154
 40
0.5370190036
 40
0.6851768246
 40
0.7621572105
 40
0.8405838191
 40
0.9200267124
 40
1.0
 40
1.0
 40
1.0
 40
1.0
 10
9.7866551288
 20
14.7716883016
 30
0.0
 10
9.7906932573
 20
14.769129972
 30
0.0
 10
9.8001610775
 20
14.763244068
 30
0.0
 10
9.8163574037
 20
14.7536649502
 30
0.0
 10
9.8363083225
 20
14.7427177446
 30
0.0
 10
9.8596063402
 20
14.73126928
 30
0.0
 10
9.885945877
 20
14.7202905992
 30
0.0
 10
9.9098925151
 20
14.7125803216
 30
0.0
 10
9.9303141364
 20
14.7077767088
 30
0.0
 10
9.9463120916
 20
14.7050222062
 30
0.0
 10
9.9626627896
 20
14.7033035954
 30
0.0
 10
9.9736782661
 20
14.7029142633
 30
0.0
 10
9.9792023682
 20
14.7029142633
 30
0.0
  0
SPLINE
  5
4DC
100
AcDbEntity
  8
0
100
AcDbSpline
 62
7
  6
CONTINUOUS
 70
0
 71
3
 72
17
 73
13
 74
0
 42
0.0000001
 43
0.0000001
 44
0.0000000001
 40
0.0
 40
0.0
 40
0.0
 40
0.0
 40
0.0799726521
 40
0.1594149088
 40
0.2378409264
 40
0.3148207951
 40
0.4629778027
 40
0.6014125815
 40
0.7276114915
 40
0.8386109539
 40
0.9307923253
 40
1.0
 40
1.0
 40
1.0
 40
1.0
 10
9.9792023682
 20
14.7029142633
 30
0.0
 10
9.9847263914
 20
14.7029142633
 30
0.0
 10
9.9957417102
 20
14.7033035841
 30
0.0
 10
10.0120921787
 20
14.7050221471
 30
0.0
 10
10.0280899199
 20
14.707776574
 30
0.0
 10
10.0485112962
 20
14.7125800674
 30
0.0
 10
10.0724576879
 20
14.7202901734
 30
0.0
 10
10.0987970075
 20
14.731268652
 30
0.0
 10
10.1220949077
 20
14.7427169615
 30
0.0
 10
10.1420458278
 20
14.7536640917
 30
0.0
 10
10.1582423008
 20
14.7632432421
 30
0.0
 10
10.1677102669
 20
14.7691292138
 30
0.0
 10
10.1717484982
 20
14.7716875989
 30
0.0
  0
LINE
  5
4DD
100
AcDbEntity
  8
0
100
AcDbLine
 62
7
  6
CONTINUOUS
 10
10.180649034
 20
14.7774029727
 11
10.1812023682
 21
14.777763248
  0
LINE
  5
4DE
100
AcDbEntity
  8
0
100
AcDbLine
 62
7
  6
CONTINUOUS
 10
10.1812023682
 20
14.157763248
 11
10.1806485627
 21
14.1581238298
  0
SPLINE
  5
4DF
100
AcDbEntity
  8
0
100
AcDbSpline
 62
7
  6
CONTINUOUS
 70
0
 71
3
 72
17
 73
13
 74
0
 42
0.0000001
 43
0.0000001
 44
0.0000000001
 40
0.0
 40
0.0
 40
0.0
 40
0.0
 40
0.0692055542
 40
0.1613857241
 40
0.2723847258
 40
0.3985837255
 40
0.5370190118
 40
0.685176831
 40
0.7621572157
 40
0.8405838222
 40
0.9200267136
 40
1.0
 40
1.0
 40
1.0
 40
1.0
 10
10.1717496045
 20
14.1638381963
 30
0.0
 10
10.1677114758
 20
14.166396526
 30
0.0
 10
10.1582436551
 20
14.1722824302
 30
0.0
 10
10.1420473285
 20
14.1818615481
 30
0.0
 10
10.1220964097
 20
14.1928087535
 30
0.0
 10
10.0987983925
 20
14.2042572176
 30
0.0
 10
10.0724588563
 20
14.2152358979
 30
0.0
 10
10.0485122188
 20
14.222946175
 30
0.0
 10
10.0280905982
 20
14.2277497875
 30
0.0
 10
10.0120926436
 20
14.2305042898
 30
0.0
 10
9.9957419462
 20
14.2322229005
 30
0.0
 10
9.9847264701
 20
14.2326122326
 30
0.0
 10
9.9792023682
 20
14.2326122326
 30
0.0
  0
SPLINE
  5
4E0
100
AcDbEntity
  8
0
100
AcDbSpline
 62
9
  6
CONTINUOUS
 70
0
 71
3
 72
11
 73
7
 74
0
 42
0.0000001
 43
0.0000001
 44
0.0000000001
 40
0.0
 40
0.0
 40
0.0
 40
0.0
 40
0.2550042121
 40
0.5060900681
 40
0.7540371292
 40
1.0
 40
1.0
 40
1.0
 40
1.0
 10
4.9971382424
 20
13.9860731071
 30
0.0
 10
4.9994740016
 20
13.9831924201
 30
0.0
 10
5.0047673852
 20
13.9779745587
 30
0.0
 10
5.0141593063
 20
13.9721458098
 30
0.0
 10
5.0244781137
 20
13.9685694641
 30
0.0
 10
5.0316860883
 20
13.9677633315
 30
0.0
 10
5.0352632514
 20
13.967763248
 30
0.0
  0
SPLINE
  5
4E1
100
AcDbEntity
  8
0
100
AcDbSpline
 62
9
  6
CONTINUOUS
 70
0
 71
3
 72
11
 73
7
 74
0
 42
0.0000001
 43
0.0000001
 44
0.0000000001
 40
0.0
 40
0.0
 40
0.0
 40
0.0
 40
0.2459190649
 40
0.4938752038
 40
0.7450296365
 40
1.0
 40
1.0
 40
1.0
 40
1.0
 10
5.0352632517
 20
14.967763248
 30
0.0
 10
5.0316867197
 20
14.9677631874
 30
0.0
 10
5.0244791692
 20
14.9669575748
 30
0.0
 10
5.014160012
 20
14.9633807452
 30
0.0
 10
5.0047670242
 20
14.957552403
 30
0.0
 10
4.9994735824
 20
14.9523337899
 30
0.0
 10
4.9971382423
 20
14.9494533888
 30
0.0
  0
SPLINE
  5
4E2
100
AcDbEntity
  8
0
100
AcDbSpline
 62
7
  6
CONTINUOUS
 70
0
 71
3
 72
11
 73
7
 74
0
 42
0.0000001
 43
0.0000001
 44
0.0000000001
 40
0.0
 40
0.0
 40
0.0
 40
0.0
 40
0.3170093114
 40
0.589697754
 40
0.8175217031
 40
1.0
 40
1.0
 40
1.0
 40
1.0
 10
5.0589942776
 20
15.007763248
 30
0.0
 10
5.0569117897
 20
15.0075877775
 30
0.0
 10
5.0530396012
 20
15.0072413576
 30
0.0
 10
5.0476787613
 20
15.0066836845
 30
0.0
 10
5.0432102478
 20
15.006128827
 30
0.0
 10
5.0405357668
 20
15.0057186998
 30
0.0
 10
5.0393520404
 20
15.0055043412
 30
0.0
  0
SPLINE
  5
4E3
100
AcDbEntity
  8
0
100
AcDbSpline
 62
7
  6
CONTINUOUS
 70
0
 71
3
 72
23
 73
19
 74
0
 42
0.0000001
 43
0.0000001
 44
0.0000000001
 40
0.0
 40
0.0
 40
0.0
 40
0.0
 40
0.0084450332
 40
0.0188206001
 40
0.0311286246
 40
0.0453387223
 40
0.0614074262
 40
0.0792904115
 40
0.1203194659
 40
0.1680643307
 40
0.2221606768
 40
0.2822429067
 40
0.3479095074
 40
0.4185830646
 40
0.4936312738
 40
0.6543212865
 40
0.8249063153
 40
1.0
 40
1.0
 40
1.0
 40
1.0
 10
5.7692501642
 20
14.9840220276
 30
0.0
 10
5.7681978582
 20
14.9838307415
 30
0.0
 10
5.7658422139
 20
14.9834624691
 30
0.0
 10
5.7619314581
 20
14.982962166
 30
0.0
 10
5.7572857016
 20
14.9824603803
 30
0.0
 10
5.7519155745
 20
14.9819569455
 30
0.0
 10
5.7458367744
 20
14.9814523251
 30
0.0
 10
5.7363668273
 20
14.9807456449
 30
0.0
 10
5.7228864609
 20
14.9798781743
 30
0.0
 10
5.704819922
 20
14.9788738863
 30
0.0
 10
5.6843371998
 20
14.9778667541
 30
0.0
 10
5.6615823886
 20
14.9768575773
 30
0.0
 10
5.6367262297
 20
14.9758483778
 30
0.0
 10
5.6099732646
 20
14.9748379912
 30
0.0
 10
5.5711912078
 20
14.9734579342
 30
0.0
 10
5.5197590273
 20
14.9717575086
 30
0.0
 10
5.455659416
 20
14.9697567229
 30
0.0
 10
5.4118999802
 20
14.9684255387
 30
0.0
 10
5.389734962
 20
14.9677488328
 30
0.0
  0
SPLINE
  5
4E4
100
AcDbEntity
  8
0
100
AcDbSpline
 62
7
  6
CONTINUOUS
 70
0
 71
3
 72
25
 73
21
 74
0
 42
0.0000001
 43
0.0000001
 44
0.0000000001
 40
0.0
 40
0.0
 40
0.0
 40
0.0
 40
0.0186087425
 40
0.0395086241
 40
0.0625902354
 40
0.0877408734
 40
0.1437787916
 40
0.2065677931
 40
0.274916821
 40
0.347532057
 40
0.4230370524
 40
0.5000007964
 40
0.6524690812
 40
0.7250839524
 40
0.7934326628
 40
0.8562214632
 40
0.912259207
 40
0.9604915067
 40
0.9813917566
 40
1.0
 40
1.0
 40
1.0
 40
1.0
 10
5.7692799587
 20
15.0029735516
 30
0.0
 10
5.76475781
 20
15.002692073
 30
0.0
 10
5.7551536318
 20
15.0021442911
 30
0.0
 10
5.7399332685
 20
15.0013773356
 30
0.0
 10
5.7231184573
 20
15.0006058514
 30
0.0
 10
5.6977531814
 20
14.9995321848
 30
0.0
 10
5.6627218216
 20
14.9982135674
 30
0.0
 10
5.6171735831
 20
14.996678439
 30
0.0
 10
5.5675871013
 20
14.9951391415
 30
0.0
 10
5.5149031694
 20
14.993598267
 30
0.0
 10
5.4601208908
 20
14.9920560476
 30
0.0
 10
5.3859024373
 20
14.9900052742
 30
0.0
 10
5.3123873286
 20
14.9879759679
 30
0.0
 10
5.2409723617
 20
14.9858871788
 30
0.0
 10
5.191386086
 20
14.9843484808
 30
0.0
 10
5.1458380164
 20
14.982812352
 30
0.0
 10
5.1051908304
 20
14.9812822144
 30
0.0
 10
5.0747423757
 20
14.9799604055
 30
0.0
 10
5.0534067087
 20
14.9788717024
 30
0.0
 10
5.043802465
 20
14.978326612
 30
0.0
 10
5.0392799587
 20
14.9780529443
 30
0.0
  0
SPLINE
  5
4E5
100
AcDbEntity
  8
0
100
AcDbSpline
 62
7
  6
CONTINUOUS
 70
0
 71
3
 72
24
 73
20
 74
0
 42
0.0000001
 43
0.0000001
 44
0.0000000001
 40
0.0
 40
0.0
 40
0.0
 40
0.0
 40
0.0175964357
 40
0.0370666885
 40
0.0583359259
 40
0.0813275036
 40
0.1059625099
 40
0.1321609659
 40
0.1888816702
 40
0.250709039
 40
0.3167937357
 40
0.3862285671
 40
0.4580601856
 40
0.6049475356
 40
0.7494121217
 40
0.8182472776
 40
0.8835401432
 40
0.9444122199
 40
1.0
 40
1.0
 40
1.0
 40
1.0
 10
5.0392799587
 20
14.9865522215
 30
0.0
 10
5.0430929092
 20
14.9867935687
 30
0.0
 10
5.0511274772
 20
14.9872604696
 30
0.0
 10
5.0637768176
 20
14.9879115297
 30
0.0
 10
5.0775989275
 20
14.9885634581
 30
0.0
 10
5.092543202
 20
14.9892235907
 30
0.0
 10
5.1085585844
 20
14.9898864278
 30
0.0
 10
5.1318934225
 20
14.9907930578
 30
0.0
 10
5.1633013298
 20
14.9919109558
 30
0.0
 10
5.2033677572
 20
14.9932243826
 30
0.0
 10
5.2461960521
 20
14.9945389458
 30
0.0
 10
5.2911974288
 20
14.9958543456
 30
0.0
 10
5.3537371077
 20
14.9976223321
 30
0.0
 10
5.4325626687
 20
14.9997877316
 30
0.0
 10
5.5107369705
 20
15.0019690054
 30
0.0
 10
5.5711994268
 20
15.0037514715
 30
0.0
 10
5.613517949
 20
15.0050657022
 30
0.0
 10
5.6529587446
 20
15.006378308
 30
0.0
 10
5.6782281664
 20
15.0072971192
 30
0.0
 10
5.6902885166
 20
15.007763248
 30
0.0
  0
SPLINE
  5
4E6
100
AcDbEntity
  8
0
100
AcDbSpline
 62
7
  6
CONTINUOUS
 70
0
 71
3
 72
17
 73
13
 74
0
 42
0.0000001
 43
0.0000001
 44
0.0000000001
 40
0.0
 40
0.0
 40
0.0
 40
0.0
 40
0.1166047162
 40
0.2399489154
 40
0.3038378419
 40
0.3687701582
 40
0.5000000877
 40
0.631230004
 40
0.6961623049
 40
0.7600512107
 40
0.883395354
 40
1.0
 40
1.0
 40
1.0
 40
1.0
 10
6.8852023682
 20
15.052763248
 30
0.0
 10
6.888860544
 20
15.052763248
 30
0.0
 10
6.8964029091
 20
15.0534636011
 30
0.0
 10
6.9056292224
 20
15.0561007658
 30
0.0
 10
6.912831568
 20
15.059403987
 30
0.0
 10
6.919882914
 20
15.0635285101
 30
0.0
 10
6.9279423789
 20
15.0700232485
 30
0.0
 10
6.9344371149
 20
15.0780827147
 30
0.0
 10
6.9385616354
 20
15.0851340604
 30
0.0
 10
6.9418648538
 20
15.0923364041
 30
0.0
 10
6.9445020159
 20
15.1015627133
 30
0.0
 10
6.9452023682
 20
15.1091050744
 30
0.0
 10
6.9452023682
 20
15.112763248
 30
0.0
  0
SPLINE
  5
4E7
100
AcDbEntity
  8
0
100
AcDbSpline
 62
7
  6
CONTINUOUS
 70
0
 71
3
 72
17
 73
13
 74
0
 42
0.0000001
 43
0.0000001
 44
0.0000000001
 40
0.0
 40
0.0
 40
0.0
 40
0.0
 40
0.1166047024
 40
0.2399488907
 40
0.3038378132
 40
0.3687701264
 40
0.5000000533
 40
0.6312299722
 40
0.6961622761
 40
0.760051186
 40
0.8833953402
 40
1.0
 40
1.0
 40
1.0
 40
1.0
 10
6.8852023682
 20
13.882763248
 30
0.0
 10
6.8888605435
 20
13.882763248
 30
0.0
 10
6.8964029079
 20
13.882062895
 30
0.0
 10
6.9056292204
 20
13.8794257308
 30
0.0
 10
6.9128315656
 20
13.8761225101
 30
0.0
 10
6.9198829115
 20
13.8719979875
 30
0.0
 10
6.9279423767
 20
13.8655032496
 30
0.0
 10
6.9344371131
 20
13.8574437836
 30
0.0
 10
6.9385616342
 20
13.8503924379
 30
0.0
 10
6.9418648532
 20
13.8431900939
 30
0.0
 10
6.9445020158
 20
13.8339637839
 30
0.0
 10
6.9452023682
 20
13.8264214219
 30
0.0
 10
6.9452023682
 20
13.822763248
 30
0.0
  0
SPLINE
  5
4E8
100
AcDbEntity
  8
0
100
AcDbSpline
 62
7
  6
CONTINUOUS
 70
0
 71
3
 72
17
 73
13
 74
0
 42
0.0000001
 43
0.0000001
 44
0.0000000001
 40
0.0
 40
0.0
 40
0.0
 40
0.0
 40
0.116604719
 40
0.239948918
 40
0.3038378431
 40
0.3687701575
 40
0.500000083
 40
0.631229996
 40
0.6961622958
 40
0.7600512014
 40
0.8833953473
 40
1.0
 40
1.0
 40
1.0
 40
1.0
 10
8.5677023402
 20
14.112763248
 30
0.0
 10
8.5638917414
 20
14.1127632462
 30
0.0
 10
8.5560351136
 20
14.1120337086
 30
0.0
 10
8.5464243743
 20
14.1092866592
 30
0.0
 10
8.5389219343
 20
14.1058458024
 30
0.0
 10
8.5315767859
 20
14.1015494233
 30
0.0
 10
8.5231815143
 20
14.0947840709
 30
0.0
 10
8.516416168
 20
14.086388795
 30
0.0
 10
8.5121197947
 20
14.0790436449
 30
0.0
 10
8.508678944
 20
14.0715412053
 30
0.0
 10
8.5059319015
 20
14.0619304688
 30
0.0
 10
8.5052023682
 20
14.0540738445
 30
0.0
 10
8.5052023682
 20
14.050263248
 30
0.0
  0
SPLINE
  5
4E9
100
AcDbEntity
  8
0
100
AcDbSpline
 62
7
  6
CONTINUOUS
 70
0
 71
3
 72
17
 73
13
 74
0
 42
0.0000001
 43
0.0000001
 44
0.0000000001
 40
0.0
 40
0.0
 40
0.0
 40
0.0
 40
0.1166046271
 40
0.2399487651
 40
0.3038376735
 40
0.3687699797
 40
0.4999999095
 40
0.631229853
 40
0.696162175
 40
0.7600511048
 40
0.8833953006
 40
1.0
 40
1.0
 40
1.0
 40
1.0
 10
8.5677024733
 20
14.822763248
 30
0.0
 10
8.5638918724
 20
14.8227632415
 30
0.0
 10
8.5560352374
 20
14.8234927633
 30
0.0
 10
8.546424485
 20
14.8262397963
 30
0.0
 10
8.5389220313
 20
14.8296806432
 30
0.0
 10
8.5315768662
 20
14.8339770153
 30
0.0
 10
8.5231815723
 20
14.840742365
 30
0.0
 10
8.5164162058
 20
14.8491376462
 30
0.0
 10
8.5121198186
 20
14.8564828044
 30
0.0
 10
8.5086789561
 20
14.8639852544
 30
0.0
 10
8.5059319041
 20
14.8735960066
 30
0.0
 10
8.5052023682
 20
14.8814526447
 30
0.0
 10
8.5052023682
 20
14.885263248
 30
0.0
  0
SPLINE
  5
4EA
100
AcDbEntity
  8
0
100
AcDbSpline
 62
9
  6
CONTINUOUS
 70
0
 71
3
 72
63
 73
59
 74
0
 42
0.0000001
 43
0.0000001
 44
0.0000000001
 40
0.0
 40
0.0
 40
0.0
 40
0.0
 40
0.0000497528
 40
0.0001985508
 40
0.0004458234
 40
0.0007909998
 40
0.0012335094
 40
0.0017727815
 40
0.0031393311
 40
0.0048860848
 40
0.0070084795
 40
0.0095019531
 40
0.0123619443
 40
0.0155829959
 40
0.0191560648
 40
0.0273185172
 40
0.0367698935
 40
0.0474308939
 40
0.0592223142
 40
0.072065017
 40
0.0858801169
 40
0.1005890623
 40
0.1323969011
 40
0.1669754211
 40
0.2038618109
 40
0.2426786437
 40
0.2830976366
 40
0.3248399323
 40
0.3676724167
 40
0.4112898302
 40
0.4554951692
 40
0.4999977303
 40
0.5445004323
 40
0.5887041045
 40
0.6323136145
 40
0.6751384361
 40
0.7168811243
 40
0.757305748
 40
0.7961286332
 40
0.8330199712
 40
0.8676019207
 40
0.8994122192
 40
0.92793809
 40
0.940781512
 40
0.9525733493
 40
0.963234405
 40
0.9726855087
 40
0.9808474173
 40
0.9876407787
 40
0.9905003309
 40
0.9929933487
 40
0.9951152932
 40
0.9968616248
 40
0.9982278031
 40
0.9992092866
 40
0.9995543485
 40
0.9998015333
 40
1.0
 40
1.0
 40
1.0
 40
1.0
 10
6.8852023881
 20
15.052763248
 30
0.0
 10
6.8852160492
 20
15.052745665
 30
0.0
 10
6.8852754415
 20
15.0526794577
 30
0.0
 10
6.8854028127
 20
15.0525259274
 30
0.0
 10
6.8856184662
 20
15.0522738114
 30
0.0
 10
6.8859175692
 20
15.0519201656
 30
0.0
 10
6.8863016207
 20
15.0514671928
 30
0.0
 10
6.8869805647
 20
15.050664969
 30
0.0
 10
6.8880359404
 20
15.0494166421
 30
0.0
 10
6.88954716
 20
15.0476259228
 30
0.0
 10
6.8913818474
 20
15.0454482486
 30
0.0
 10
6.8935353314
 20
15.0428876973
 30
0.0
 10
6.8960027487
 20
15.0399487081
 30
0.0
 10
6.8987778805
 20
15.0366372021
 30
0.0
 10
6.9030709817
 20
15.0315016365
 30
0.0
 10
6.9091357003
 20
15.0242128283
 30
0.0
 10
6.9171938139
 20
15.0144561474
 30
0.0
 10
6.9262401799
 20
15.0034094113
 30
0.0
 10
6.936191268
 20
14.9911420282
 30
0.0
 10
6.9469561738
 20
14.9777175025
 30
0.0
 10
6.958444133
 20
14.9631995509
 30
0.0
 10
6.9750448969
 20
14.9419047738
 30
0.0
 10
6.9970030339
 20
14.9130049308
 30
0.0
 10
7.0241799671
 20
14.8756159178
 30
0.0
 10
7.0521529678
 20
14.8349442145
 30
0.0
 10
7.0801252745
 20
14.791131076
 30
0.0
 10
7.1073206771
 20
14.7442895668
 30
0.0
 10
7.1326434475
 20
14.6943686757
 30
0.0
 10
7.1549524152
 20
14.6414475026
 30
0.0
 10
7.1727374343
 20
14.5856407183
 30
0.0
 10
7.1843648564
 20
14.5274248167
 30
0.0
 10
7.1884386106
 20
14.4677658471
 30
0.0
 10
7.1843712293
 20
14.408106797
 30
0.0
 10
7.1727413905
 20
14.3498956041
 30
0.0
 10
7.1549613919
 20
14.2940955347
 30
0.0
 10
7.1326569056
 20
14.2411797435
 30
0.0
 10
7.1073341537
 20
14.1912596477
 30
0.0
 10
7.0801360069
 20
14.1444134992
 30
0.0
 10
7.0521603902
 20
14.1005936435
 30
0.0
 10
7.024184437
 20
14.0599161467
 30
0.0
 10
6.9970046446
 20
14.0225231345
 30
0.0
 10
6.9713035097
 20
13.9886976673
 30
0.0
 10
6.9510719801
 20
13.9629417682
 30
0.0
 10
6.9361881158
 20
13.9443805911
 30
0.0
 10
6.9262366895
 20
13.9321127896
 30
0.0
 10
6.9171902646
 20
13.9210659877
 30
0.0
 10
6.909132324
 20
13.9113096051
 30
0.0
 10
6.9021460756
 20
13.9029131861
 30
0.0
 10
6.8970285099
 20
13.8967995681
 30
0.0
 10
6.8935333453
 20
13.8926364721
 30
0.0
 10
6.8913802587
 20
13.890076373
 30
0.0
 10
6.8895459336
 20
13.8878991709
 30
0.0
 10
6.8880351349
 20
13.8861088246
 30
0.0
 10
6.8868520651
 20
13.8847097629
 30
0.0
 10
6.8860737625
 20
13.883789713
 30
0.0
 10
6.8856176869
 20
13.8832530115
 30
0.0
 10
6.8853897653
 20
13.8829823228
 30
0.0
 10
6.8852586316
 20
13.8828319931
 30
0.0
 10
6.8852023881
 20
13.882763248
 30
0.0
  0
SPLINE
  5
4EB
100
AcDbEntity
  8
0
100
AcDbSpline
 62
9
  6
CONTINUOUS
 70
0
 71
3
 72
76
 73
72
 74
0
 42
0.0000001
 43
0.0000001
 44
0.0000000001
 40
0.0
 40
0.0
 40
0.0
 40
0.0
 40
0.0000111761
 40
0.0000446697
 40
0.0001004637
 40
0.0001785411
 40
0.000278885
 40
0.0004014781
 40
0.0007133445
 40
0.0011140041
 40
0.0016033208
 40
0.0021811283
 40
0.0028470835
 40
0.0044418074
 40
0.0063842351
 40
0.008670941
 40
0.011297334
 40
0.0142583354
 40
0.0175488069
 40
0.0250939505
 40
0.0338813146
 40
0.043854955
 40
0.0549561722
 40
0.0671244957
 40
0.0802993917
 40
0.0944208908
 40
0.1094306654
 40
0.1252722021
 40
0.1592364841
 40
0.19591143
 40
0.234931419
 40
0.2759596582
 40
0.3186773083
 40
0.3627695994
 40
0.4079149038
 40
0.4537760366
 40
0.5000003914
 40
0.5462247221
 40
0.5920857633
 40
0.6372309066
 40
0.6813232705
 40
0.7240410992
 40
0.7650694205
 40
0.8040894731
 40
0.840764211
 40
0.8747284683
 40
0.9055792618
 40
0.9197008042
 40
0.9328756436
 40
0.9450436259
 40
0.9561445594
 40
0.9661184339
 40
0.974906124
 40
0.9824513683
 40
0.9857419116
 40
0.9887029822
 40
0.9913293117
 40
0.9936156875
 40
0.9955574952
 40
0.9971516126
 40
0.9978173824
 40
0.9983951433
 40
0.9988845729
 40
0.9992854661
 40
0.9995976392
 40
0.9997203983
 40
0.9998209084
 40
0.9998991466
 40
0.9999550899
 40
0.9999887154
 40
1.0
 40
1.0
 40
1.0
 40
1.0
 10
8.5052023682
 20
14.885263248
 30
0.0
 10
8.5052016973
 20
14.88526009
 30
0.0
 10
8.50519467
 20
14.8852489074
 30
0.0
 10
8.5051841489
 20
14.8852220077
 30
0.0
 10
8.5051630779
 20
14.8851783677
 30
0.0
 10
8.5051352613
 20
14.8851167428
 30
0.0
 10
8.5050988515
 20
14.8850377595
 30
0.0
 10
8.5050345268
 20
14.8848973101
 30
0.0
 10
8.5049339558
 20
14.8846780286
 30
0.0
 10
8.5047893806
 20
14.8843623932
 30
0.0
 10
8.5046128663
 20
14.8839768866
 30
0.0
 10
8.5044045596
 20
14.8835216516
 30
0.0
 10
8.5040636289
 20
14.8827759444
 30
0.0
 10
8.5035595147
 20
14.8816714045
 30
0.0
 10
8.5028625453
 20
14.8801402455
 30
0.0
 10
8.5020440823
 20
14.8783369528
 30
0.0
 10
8.5011068397
 20
14.876264452
 30
0.0
 10
8.5000538066
 20
14.8739260913
 30
0.0
 10
8.498423544
 20
14.8702893848
 30
0.0
 10
8.4961205949
 20
14.8651098213
 30
0.0
 10
8.4930655153
 20
14.8581519713
 30
0.0
 10
8.4896405691
 20
14.8502347493
 30
0.0
 10
8.4858827502
 20
14.8413975883
 30
0.0
 10
8.481831586
 20
14.8316805496
 30
0.0
 10
8.4775275894
 20
14.8211240162
 30
0.0
 10
8.4730125542
 20
14.8097675873
 30
0.0
 10
8.4683287402
 20
14.7976498777
 30
0.0
 10
8.4617612955
 20
14.7801160607
 30
0.0
 10
8.4534068297
 20
14.7565701102
 30
0.0
 10
8.4436048816
 20
14.7264434042
 30
0.0
 10
8.4341477755
 20
14.6940731673
 30
0.0
 10
8.4253739859
 20
14.6597045122
 30
0.0
 10
8.4176159163
 20
14.6235901074
 30
0.0
 10
8.4111850005
 20
14.5860064261
 30
0.0
 10
8.406363412
 20
14.5472652251
 30
0.0
 10
8.4033704113
 20
14.5077206208
 30
0.0
 10
8.4023580121
 20
14.4677631094
 30
0.0
 10
8.4033704118
 20
14.4278056194
 30
0.0
 10
8.4063636728
 20
14.3882611165
 30
0.0
 10
8.4111852618
 20
14.3495199664
 30
0.0
 10
8.41761638
 20
14.311936301
 30
0.0
 10
8.4253738429
 20
14.2758216667
 30
0.0
 10
8.4341479453
 20
14.241452987
 30
0.0
 10
8.4436045863
 20
14.2090826565
 30
0.0
 10
8.4534069376
 20
14.1789560495
 30
0.0
 10
8.4632111288
 20
14.1513238151
 30
0.0
 10
8.4713220136
 20
14.1300110053
 30
0.0
 10
8.4775275534
 20
14.1144023233
 30
0.0
 10
8.4818315115
 20
14.1038458749
 30
0.0
 10
8.4858827628
 20
14.0941290876
 30
0.0
 10
8.4896407243
 20
14.0852921099
 30
0.0
 10
8.493065565
 20
14.077374756
 30
0.0
 10
8.4961205458
 20
14.0704166538
 30
0.0
 10
8.4984235439
 20
14.0652369544
 30
0.0
 10
8.5000538059
 20
14.0616001711
 30
0.0
 10
8.5011068114
 20
14.0592617736
 30
0.0
 10
8.5020440223
 20
14.0571893611
 30
0.0
 10
8.5028624739
 20
14.0553863847
 30
0.0
 10
8.5035595034
 20
14.0538557471
 30
0.0
 10
8.5040636652
 20
14.0527516773
 30
0.0
 10
8.5044045936
 20
14.0520062354
 30
0.0
 10
8.5046129034
 20
14.0515510396
 30
0.0
 10
8.5047894025
 20
14.0511654309
 30
0.0
 10
8.5049339623
 20
14.0508495804
 30
0.0
 10
8.505034507
 20
14.0506300635
 30
0.0
 10
8.5050988252
 20
14.0504894066
 30
0.0
 10
8.5051352186
 20
14.0504102623
 30
0.0
 10
8.5051630785
 20
14.050348498
 30
0.0
 10
8.5051840656
 20
14.0503046968
 30
0.0
 10
8.5051947568
 20
14.0502777206
 30
0.0
 10
8.5052016343
 20
14.050266424
 30
0.0
 10
8.5052023682
 20
14.050263248
 30
0.0
  0
SPLINE
  5
4EC
100
AcDbEntity
  8
0
100
AcDbSpline
 62
9
  6
CONTINUOUS
 70
0
 71
3
 72
93
 73
89
 74
0
 42
0.0000001
 43
0.0000001
 44
0.0000000001
 40
0.0
 40
0.0
 40
0.0
 40
0.0
 40
0.0000124271
 40
0.0000279424
 40
0.0000496547
 40
0.0001116568
 40
0.0001984076
 40
0.000309881
 40
0.0004460509
 40
0.0007923768
 40
0.0012371772
 40
0.0017801886
 40
0.0024209158
 40
0.003158804
 40
0.0039932983
 40
0.0049238439
 40
0.0070704806
 40
0.0095920511
 40
0.0124813415
 40
0.0157304551
 40
0.0193304565
 40
0.0232722656
 40
0.0275460958
 40
0.0370487963
 40
0.0477550287
 40
0.0595798246
 40
0.0724392714
 40
0.0862523627
 40
0.1009417902
 40
0.1164356205
 40
0.1326665597
 40
0.1670982064
 40
0.2038052927
 40
0.242430777
 40
0.2826803629
 40
0.3033382401
 40
0.3243121467
 40
0.3455748915
 40
0.3671009297
 40
0.3888615696
 40
0.410826394
 40
0.4329623536
 40
0.4552318906
 40
0.4775936765
 40
0.5000024487
 40
0.5224112059
 40
0.5447729873
 40
0.5670425037
 40
0.5891785635
 40
0.6111435239
 40
0.632903646
 40
0.6544295664
 40
0.6756929907
 40
0.717319539
 40
0.7575697127
 40
0.7961951904
 40
0.8329018069
 40
0.8673334965
 40
0.8835644396
 40
0.8990582617
 40
0.9137476789
 40
0.9275607576
 40
0.9404201932
 40
0.9522449855
 40
0.9629512171
 40
0.9724539073
 40
0.9767277345
 40
0.9806695531
 40
0.9842695714
 40
0.9875186907
 40
0.9904079574
 40
0.9929294958
 40
0.9950761484
 40
0.9960067319
 40
0.9968412743
 40
0.9975792097
 40
0.9982199723
 40
0.9987629959
 40
0.999207778
 40
0.9993932449
 40
0.9995540635
 40
0.9996902094
 40
0.9998016584
 40
0.9998883862
 40
0.9999503686
 40
0.9999720727
 40
0.9999875813
 40
1.0
 40
1.0
 40
1.0
 40
1.0
 10
6.9452023682
 20
15.112763248
 30
0.0
 10
6.9452045623
 20
15.1127577512
 30
0.0
 10
6.9452142372
 20
15.1127479778
 30
0.0
 10
6.9452269523
 20
15.1127281688
 30
0.0
 10
6.9452549546
 20
15.1126899963
 30
0.0
 10
6.9453016439
 20
15.1126236487
 30
0.0
 10
6.9453737754
 20
15.112522832
 30
0.0
 10
6.9454661178
 20
15.1123930911
 30
0.0
 10
6.9456303148
 20
15.1121627319
 30
0.0
 10
6.9458865557
 20
15.1118030402
 30
0.0
 10
6.9462552347
 20
15.1112855406
 30
0.0
 10
6.9467052079
 20
15.1106538046
 30
0.0
 10
6.9472360287
 20
15.1099082788
 30
0.0
 10
6.9478471477
 20
15.1090495115
 30
0.0
 10
6.9485380057
 20
15.1080780775
 30
0.0
 10
6.9496172025
 20
15.1065595233
 30
0.0
 10
6.9511606309
 20
15.104385163
 30
0.0
 10
6.9532414573
 20
15.1014482675
 30
0.0
 10
6.9556225622
 20
15.0980806276
 30
0.0
 10
6.9582960242
 20
15.0942906734
 30
0.0
 10
6.9612530018
 20
15.0900872788
 30
0.0
 10
6.9644842558
 20
15.0854801446
 30
0.0
 10
6.9693187825
 20
15.0785637709
 30
0.0
 10
6.9759732789
 20
15.0689889301
 30
0.0
 10
6.9846286986
 20
15.0564254034
 30
0.0
 10
6.9941247063
 20
15.042499839
 30
0.0
 10
7.0043708651
 20
15.0272951543
 30
0.0
 10
7.0152766745
 20
15.0108902375
 30
0.0
 10
7.0267528413
 20
14.9933584714
 30
0.0
 10
7.0387106874
 20
14.9747664493
 30
0.0
 10
7.055514679
 20
14.9481135124
 30
0.0
 10
7.0771603923
 20
14.9125717114
 30
0.0
 10
7.1032101669
 20
14.8672399729
 30
0.0
 10
7.1290996148
 20
14.8186485506
 30
0.0
 10
7.1496969207
 20
14.7759332328
 30
0.0
 10
7.1652895816
 20
14.7401847533
 30
0.0
 10
7.1764800255
 20
14.7123944902
 30
0.0
 10
7.1869239147
 20
14.6838731934
 30
0.0
 10
7.1964586057
 20
14.6546392412
 30
0.0
 10
7.2049253001
 20
14.624729017
 30
0.0
 10
7.2121615196
 20
14.5941970617
 30
0.0
 10
7.2180023132
 20
14.5631191132
 30
0.0
 10
7.2222951169
 20
14.5315972272
 30
0.0
 10
7.2249228543
 20
14.4997615443
 30
0.0
 10
7.2258125849
 20
14.4677627857
 30
0.0
 10
7.224923357
 20
14.4357640005
 30
0.0
 10
7.2222951799
 20
14.4039283658
 30
0.0
 10
7.2180020378
 20
14.3724064877
 30
0.0
 10
7.2121613254
 20
14.3413284624
 30
0.0
 10
7.2049273266
 20
14.3107960761
 30
0.0
 10
7.1964571887
 20
14.2808870364
 30
0.0
 10
7.1869197095
 20
14.251653936
 30
0.0
 10
7.1731014844
 20
14.2138920246
 30
0.0
 10
7.1540303056
 20
14.168590974
 30
0.0
 10
7.1291017461
 20
14.1168773576
 30
0.0
 10
7.1032105371
 20
14.0682854985
 30
0.0
 10
7.0771597536
 20
14.0229549263
 30
0.0
 10
7.0555146857
 20
13.9874129
 30
0.0
 10
7.0387106813
 20
13.9607599561
 30
0.0
 10
7.0267528284
 20
13.9421679454
 30
0.0
 10
7.0152766515
 20
13.9246362039
 30
0.0
 10
7.0043708345
 20
13.9082313116
 30
0.0
 10
6.9941246743
 20
13.8930266437
 30
0.0
 10
6.9846286742
 20
13.8791010831
 30
0.0
 10
6.9759732706
 20
13.8665375537
 30
0.0
 10
6.9693187712
 20
13.8569627232
 30
0.0
 10
6.9644842392
 20
13.8500463555
 30
0.0
 10
6.9612529855
 20
13.8454392073
 30
0.0
 10
6.9582960173
 20
13.8412357874
 30
0.0
 10
6.9556225666
 20
13.8374458258
 30
0.0
 10
6.9532414528
 20
13.8340782216
 30
0.0
 10
6.9511606041
 20
13.8311413651
 30
0.0
 10
6.9496171712
 20
13.8289669954
 30
0.0
 10
6.9485379926
 20
13.8274483687
 30
0.0
 10
6.9478471412
 20
13.8264768521
 30
0.0
 10
6.9472360286
 20
13.8256180039
 30
0.0
 10
6.9467052164
 20
13.8248724168
 30
0.0
 10
6.9462552437
 20
13.8242406624
 30
0.0
 10
6.945931017
 20
13.8237855641
 30
0.0
 10
6.9457123757
 20
13.823478742
 30
0.0
 10
6.9455790404
 20
13.8232916275
 30
0.0
 10
6.9454661125
 20
13.8231332495
 30
0.0
 10
6.9453737778
 20
13.8230035474
 30
0.0
 10
6.9453016265
 20
13.8229027777
 30
0.0
 10
6.945254978
 20
13.8228364439
 30
0.0
 10
6.9452269213
 20
13.8227983129
 30
0.0
 10
6.9452143036
 20
13.8227784789
 30
0.0
 10
6.9452044446
 20
13.822768786
 30
0.0
 10
6.9452023682
 20
13.822763248
 30
0.0
  0
SPLINE
  5
4ED
100
AcDbEntity
  8
0
100
AcDbSpline
 62
9
  6
CONTINUOUS
 70
0
 71
3
 72
51
 73
47
 74
0
 42
0.0000001
 43
0.0000001
 44
0.0000000001
 40
0.0
 40
0.0
 40
0.0
 40
0.0
 40
0.000706269
 40
0.0015845619
 40
0.002809525
 40
0.006289165
 40
0.0111246149
 40
0.0172902609
 40
0.0247402955
 40
0.0334240194
 40
0.0432909491
 40
0.0663615789
 40
0.0934950594
 40
0.1242347261
 40
0.1581507357
 40
0.2339164837
 40
0.3179317089
 40
0.3622367041
 40
0.4076191854
 40
0.4537467757
 40
0.5002440767
 40
0.5467384311
 40
0.5928561958
 40
0.6382203134
 40
0.6824970573
 40
0.7253436724
 40
0.7664512577
 40
0.8054921656
 40
0.8421280552
 40
0.8759928704
 40
0.9066831618
 40
0.9337704305
 40
0.9458212085
 40
0.956799053
 40
0.9666466939
 40
0.9753127615
 40
0.9827472077
 40
0.9888997701
 40
0.9937249873
 40
0.9956315215
 40
0.9971972266
 40
0.9984195161
 40
0.9992958017
 40
0.9996033838
 40
0.9998234936
 40
1.0
 40
1.0
 40
1.0
 40
1.0
 10
8.5677022729
 20
14.112763248
 30
0.0
 10
8.5676138949
 20
14.1129168048
 30
0.0
 10
8.5674112145
 20
14.1132587665
 30
0.0
 10
8.5670572478
 20
14.1138682241
 30
0.0
 10
8.5663527505
 20
14.1150786484
 30
0.0
 10
8.5651546623
 20
14.1171503645
 30
0.0
 10
8.5633431227
 20
14.1202990459
 30
0.0
 10
8.5610461494
 20
14.1243175145
 30
0.0
 10
8.5582915783
 20
14.1291863204
 30
0.0
 10
8.5551104508
 20
14.1348805044
 30
0.0
 10
8.5500737353
 20
14.1440264193
 30
0.0
 10
8.5429453178
 20
14.157303843
 30
0.0
 10
8.5336632818
 20
14.1753649712
 30
0.0
 10
8.5235806412
 20
14.1960688108
 30
0.0
 10
8.5089944116
 20
14.2281368105
 30
0.0
 10
8.4910006434
 20
14.2733167524
 30
0.0
 10
8.4760229377
 20
14.3223629703
 30
0.0
 10
8.4665812086
 20
14.3649228045
 30
0.0
 10
8.4611255925
 20
14.3985752916
 30
0.0
 10
8.4577518153
 20
14.4330543146
 30
0.0
 10
8.4565903647
 20
14.4679597669
 30
0.0
 10
8.4577788192
 20
14.5028617797
 30
0.0
 10
8.461177127
 20
14.5373306302
 30
0.0
 10
8.4666523622
 20
14.5709650144
 30
0.0
 10
8.4738727329
 20
14.6034240601
 30
0.0
 10
8.4825161724
 20
14.6344229001
 30
0.0
 10
8.4921945092
 20
14.6637304852
 30
0.0
 10
8.5025267519
 20
14.691152152
 30
0.0
 10
8.5131382856
 20
14.7165054754
 30
0.0
 10
8.5236544217
 20
14.7396130923
 30
0.0
 10
8.533724139
 20
14.7602820139
 30
0.0
 10
8.5417336954
 20
14.7758619473
 30
0.0
 10
8.5476373538
 20
14.7869616956
 30
0.0
 10
8.5515677862
 20
14.7942122512
 30
0.0
 10
8.5551369163
 20
14.80069263
 30
0.0
 10
8.5583118574
 20
14.8063751706
 30
0.0
 10
8.561060771
 20
14.8112338254
 30
0.0
 10
8.5633530157
 20
14.8152437542
 30
0.0
 10
8.564964572
 20
14.8180454681
 30
0.0
 10
8.5660061331
 20
14.8198476142
 30
0.0
 10
8.5665966338
 20
14.8208665313
 30
0.0
 10
8.567058799
 20
14.8216611152
 30
0.0
 10
8.5673623824
 20
14.8221828126
 30
0.0
 10
8.567540622
 20
14.822486591
 30
0.0
 10
8.5676288677
 20
14.8226396104
 30
0.0
 10
8.5676810544
 20
14.8227243851
 30
0.0
 10
8.5677022729
 20
14.822763248
 30
0.0
  0
SPLINE
  5
4EE
100
AcDbEntity
  8
0
100
AcDbSpline
 62
9
  6
CONTINUOUS
 70
0
 71
3
 72
33
 73
29
 74
0
 42
0.0000001
 43
0.0000001
 44
0.0000000001
 40
0.0
 40
0.0
 40
0.0
 40
0.0
 40
0.031384176
 40
0.0627778824
 40
0.0784679514
 40
0.094153204
 40
0.1255121761
 40
0.156862582
 40
0.188180941
 40
0.2194656248
 40
0.2507325923
 40
0.2819812758
 40
0.3132008532
 40
0.375511262
 40
0.4377619178
 40
0.499973912
 40
0.5621929579
 40
0.6244473384
 40
0.6867705557
 40
0.7491858509
 40
0.7804628433
 40
0.8117659335
 40
0.8430968317
 40
0.8744508281
 40
0.9058184508
 40
0.9372055253
 40
0.9686163279
 40
1.0
 40
1.0
 40
1.0
 40
1.0
 10
6.0185133689
 20
21.5272380012
 30
0.0
 10
6.0167903968
 20
21.5251850783
 30
0.0
 10
6.013514887
 20
21.5209312506
 30
0.0
 10
6.009924868
 20
21.5152598543
 30
0.0
 10
6.0074109009
 20
21.5105230853
 30
0.0
 10
6.0051474061
 20
21.5056651135
 30
0.0
 10
6.0027806368
 20
21.4993901746
 30
0.0
 10
6.0006745654
 20
21.4916296596
 30
0.0
 10
5.9993028886
 20
21.4837122452
 30
0.0
 10
5.9986980595
 20
21.4757058778
 30
0.0
 10
5.9988884865
 20
21.4676848758
 30
0.0
 10
5.9998637216
 20
21.4597262215
 30
0.0
 10
6.0021962942
 20
21.449314023
 30
0.0
 10
6.0069922178
 20
21.4368107135
 30
0.0
 10
6.015456704
 20
21.4231786778
 30
0.0
 10
6.0264109084
 20
21.4114544991
 30
0.0
 10
6.0394168709
 20
21.4020647495
 30
0.0
 10
6.0539883292
 20
21.3953329968
 30
0.0
 10
6.0695949055
 20
21.3915148163
 30
0.0
 10
6.0829971163
 20
21.3909121624
 30
0.0
 10
6.0936305928
 20
21.3919923007
 30
0.0
 10
6.1015058002
 20
21.3935760252
 30
0.0
 10
6.1091981374
 20
21.3959096503
 30
0.0
 10
6.1166360815
 20
21.3989737792
 30
0.0
 10
6.1237455249
 20
21.4027494634
 30
0.0
 10
6.1304429728
 20
21.4072253973
 30
0.0
 10
6.1366634006
 20
21.4123424624
 30
0.0
 10
6.1404799991
 20
21.4161213783
 30
0.0
 10
6.1422997596
 20
21.4180889571
 30
0.0
  0
SPLINE
  5
4EF
100
AcDbEntity
  8
0
100
AcDbSpline
 62
9
  6
CONTINUOUS
 70
0
 71
3
 72
33
 73
29
 74
0
 42
0.0000001
 43
0.0000001
 44
0.0000000001
 40
0.0
 40
0.0
 40
0.0
 40
0.0
 40
0.0627042609
 40
0.0940955095
 40
0.1254565994
 40
0.156795259
 40
0.1881171153
 40
0.2194188152
 40
0.2506949403
 40
0.2819464453
 40
0.313173334
 40
0.3754875274
 40
0.4377350068
 40
0.4688808465
 40
0.5000225936
 40
0.5311651559
 40
0.5623126969
 40
0.6245670565
 40
0.6868825478
 40
0.7181076934
 40
0.7493568176
 40
0.7806291592
 40
0.8119259338
 40
0.8432441537
 40
0.8745804591
 40
0.9059370816
 40
0.9373192445
 40
1.0
 40
1.0
 40
1.0
 40
1.0
 10
6.2536969985
 20
22.574540554
 30
0.0
 10
6.2508889227
 20
22.5791407252
 30
0.0
 10
6.2459831776
 20
22.585655817
 30
0.0
 10
6.2382970599
 20
22.5932356961
 30
0.0
 10
6.2319991507
 20
22.5983314993
 30
0.0
 10
6.225239656
 20
22.6027836439
 30
0.0
 10
6.2180803915
 20
22.6065491263
 30
0.0
 10
6.2105939834
 20
22.6095985754
 30
0.0
 10
6.2028507785
 20
22.6118985312
 30
0.0
 10
6.1949258408
 20
22.6134304815
 30
0.0
 10
6.1842325864
 20
22.6144344056
 30
0.0
 10
6.1707701072
 20
22.6137247279
 30
0.0
 10
6.1577090135
 20
22.6104165498
 30
0.0
 10
6.1478111975
 20
22.6063040654
 30
0.0
 10
6.1407195183
 20
22.6025084406
 30
0.0
 10
6.1340290086
 20
22.5980432766
 30
0.0
 10
6.1257351202
 20
22.5912529647
 30
0.0
 10
6.1166606964
 20
22.5812922256
 30
0.0
 10
6.1096874516
 20
22.5697543973
 30
0.0
 10
6.1055285731
 20
22.559852234
 30
0.0
 10
6.1031430991
 20
22.5521418531
 30
0.0
 10
6.1015183845
 20
22.5442303938
 30
0.0
 10
6.1006764184
 20
22.5361917332
 30
0.0
 10
6.1006200713
 20
22.528103791
 30
0.0
 10
6.1013559975
 20
22.5200442725
 30
0.0
 10
6.1028776122
 20
22.5120885317
 30
0.0
 10
6.10593862
 20
22.5017395361
 30
0.0
 10
6.1093708501
 20
22.4943461837
 30
0.0
 10
6.1120923623
 20
22.4896966177
 30
0.0
  0
SPLINE
  5
4F0
100
AcDbEntity
  8
0
100
AcDbSpline
 62
9
  6
CONTINUOUS
 70
0
 71
3
 72
32
 73
28
 74
0
 42
0.0000001
 43
0.0000001
 44
0.0000000001
 40
0.0
 40
0.0
 40
0.0
 40
0.0
 40
0.0313954855
 40
0.0627987833
 40
0.0784926832
 40
0.0941815191
 40
0.125550402
 40
0.1569188236
 40
0.1882613153
 40
0.2195681883
 40
0.2508507735
 40
0.313304674
 40
0.3756683574
 40
0.4379783408
 40
0.4691418715
 40
0.5002966407
 40
0.5314507203
 40
0.5626051484
 40
0.6248623748
 40
0.6871649243
 40
0.718371172
 40
0.7495975049
 40
0.8120548791
 40
0.8433451515
 40
0.8746597972
 40
0.9372997038
 40
1.0
 40
1.0
 40
1.0
 40
1.0
 10
6.1129284877
 20
22.4883457682
 30
0.0
 10
6.1142528563
 20
22.4862426726
 30
0.0
 10
6.117057029
 20
22.4821310037
 30
0.0
 10
6.1209731604
 20
22.4772958055
 30
0.0
 10
6.1243632138
 20
22.4736585994
 30
0.0
 10
6.1279252781
 20
22.4701936946
 30
0.0
 10
6.1326805667
 20
22.4661870207
 30
0.0
 10
6.1387946655
 20
22.4619179685
 30
0.0
 10
6.1452511098
 20
22.4581969621
 30
0.0
 10
6.1520044968
 20
22.4550601707
 30
0.0
 10
6.1613330339
 20
22.4517157066
 30
0.0
 10
6.1735001417
 20
22.4491572317
 30
0.0
 10
6.1883851509
 20
22.4487858107
 30
0.0
 10
6.2006486328
 20
22.4506667507
 30
0.0
 10
6.2101259286
 20
22.4534477173
 30
0.0
 10
6.2170181632
 20
22.4561691444
 30
0.0
 10
6.2236354944
 20
22.4595016406
 30
0.0
 10
6.2320194086
 20
22.464714011
 30
0.0
 10
6.2415725971
 20
22.4726151236
 30
0.0
 10
6.2495716796
 20
22.4820904602
 30
0.0
 10
6.2548820975
 20
22.4904294502
 30
0.0
 10
6.2594256045
 20
22.4992222174
 30
0.0
 10
6.262760034
 20
22.5086048125
 30
0.0
 10
6.2647835621
 20
22.5183070138
 30
0.0
 10
6.2659287753
 20
22.5281675443
 30
0.0
 10
6.2657081058
 20
22.5406343443
 30
0.0
 10
6.2637422878
 20
22.5504265375
 30
0.0
 10
6.2623119236
 20
22.5551794949
 30
0.0
  0
SPLINE
  5
4F1
100
AcDbEntity
  8
0
100
AcDbSpline
 62
9
  6
CONTINUOUS
 70
0
 71
3
 72
9
 73
5
 74
0
 42
0.0000001
 43
0.0000001
 44
0.0000000001
 40
0.0
 40
0.0
 40
0.0
 40
0.0
 40
0.2502221138
 40
1.0
 40
1.0
 40
1.0
 40
1.0
 10
6.2623119236
 20
22.5551794949
 30
0.0
 10
6.2618625276
 20
22.5566727929
 30
0.0
 10
6.2598923524
 20
22.5625874341
 30
0.0
 10
6.2572576044
 20
22.5682761715
 30
0.0
 10
6.2549748012
 20
22.5723534369
 30
0.0
  0
SPLINE
  5
4F2
100
AcDbEntity
  8
0
100
AcDbSpline
 62
9
  6
CONTINUOUS
 70
0
 71
3
 72
36
 73
32
 74
0
 42
0.0000001
 43
0.0000001
 44
0.0000000001
 40
0.0
 40
0.0
 40
0.0
 40
0.0
 40
0.031378278
 40
0.0627650663
 40
0.0784517214
 40
0.0941339185
 40
0.1254870438
 40
0.1568313701
 40
0.1881435892
 40
0.2194225434
 40
0.2506831309
 40
0.281925202
 40
0.3131385068
 40
0.3754349949
 40
0.4376719849
 40
0.4688076455
 40
0.4999436253
 40
0.5310810261
 40
0.5622212508
 40
0.5933702363
 40
0.6245335101
 40
0.6868424488
 40
0.7492434169
 40
0.7805132834
 40
0.8118091443
 40
0.8431327923
 40
0.8744796286
 40
0.9058401112
 40
0.9372198472
 40
0.9686233308
 40
1.0
 40
1.0
 40
1.0
 40
1.0
 10
5.8682824297
 20
21.3948351665
 30
0.0
 10
5.8661162122
 20
21.3932570779
 30
0.0
 10
5.8619113046
 20
21.3899196659
 30
0.0
 10
5.8570549097
 20
21.385286802
 30
0.0
 10
5.8534678183
 20
21.3813009104
 30
0.0
 10
5.8500947759
 20
21.3771362462
 30
0.0
 10
5.8462791855
 20
21.3716210912
 30
0.0
 10
5.842360124
 20
21.3645996163
 30
0.0
 10
5.839118388
 20
21.3572473409
 30
0.0
 10
5.836598712
 20
21.3496240571
 30
0.0
 10
5.834844453
 20
21.341795235
 30
0.0
 10
5.8338655507
 20
21.3338373951
 30
0.0
 10
5.8336091657
 20
21.3231704662
 30
0.0
 10
5.8352381574
 20
21.3098805646
 30
0.0
 10
5.8393439807
 20
21.2971428386
 30
0.0
 10
5.844055003
 20
21.2875923952
 30
0.0
 10
5.8482718808
 20
21.2808042834
 30
0.0
 10
5.8531244868
 20
21.2744553561
 30
0.0
 10
5.8585688922
 20
21.2686046247
 30
0.0
 10
5.8645516065
 20
21.2633013579
 30
0.0
 10
5.8731708657
 20
21.2570324849
 30
0.0
 10
5.8850320533
 20
21.2507924085
 30
0.0
 10
5.8978883067
 20
21.2469682629
 30
0.0
 10
5.9084668927
 20
21.2454443214
 30
0.0
 10
5.9164908148
 20
21.2450764726
 30
0.0
 10
5.9245187028
 20
21.2454804359
 30
0.0
 10
5.9324764237
 20
21.2466546553
 30
0.0
 10
5.9402875172
 20
21.248598585
 30
0.0
 10
5.9478682845
 20
21.2513214056
 30
0.0
 10
5.9551412113
 20
21.2547818746
 30
0.0
 10
5.959758251
 20
21.257525247
 30
0.0
 10
5.9619998237
 20
21.2589940822
 30
0.0
  0
SPLINE
  5
4F3
100
AcDbEntity
  8
0
100
AcDbSpline
 62
9
  6
CONTINUOUS
 70
0
 71
3
 72
34
 73
30
 74
0
 42
0.0000001
 43
0.0000001
 44
0.0000000001
 40
0.0
 40
0.0
 40
0.0
 40
0.0
 40
0.0313627234
 40
0.0627668771
 40
0.0941450375
 40
0.1255004392
 40
0.1568487273
 40
0.188174484
 40
0.2194668164
 40
0.2507366205
 40
0.3131319337
 40
0.3754322739
 40
0.4065999428
 40
0.437748289
 40
0.4688840874
 40
0.5000217725
 40
0.5311617595
 40
0.562302456
 40
0.6245494727
 40
0.6868605359
 40
0.7492621823
 40
0.7805393255
 40
0.8118362898
 40
0.8431559208
 40
0.8744982485
 40
0.9058565039
 40
0.9372372084
 40
0.968637975
 40
1.0
 40
1.0
 40
1.0
 40
1.0
 10
6.2249795774
 20
22.1085957661
 30
0.0
 10
6.224856849
 20
22.1113016086
 30
0.0
 10
6.2248752065
 20
22.1167325233
 30
0.0
 10
6.2257029874
 20
22.1248342808
 30
0.0
 10
6.227358257
 20
22.1328091723
 30
0.0
 10
6.2298150348
 20
22.1405681676
 30
0.0
 10
6.2330052476
 20
22.1480491983
 30
0.0
 10
6.236877228
 20
22.155194701
 30
0.0
 10
6.2414122125
 20
22.1619328946
 30
0.0
 10
6.2483049881
 20
22.1702560152
 30
0.0
 10
6.2584206153
 20
22.1792975022
 30
0.0
 10
6.2701234531
 20
22.1861321263
 30
0.0
 10
6.2801057461
 20
22.1901896353
 30
0.0
 10
6.2878518984
 20
22.1925030096
 30
0.0
 10
6.2957850225
 20
22.1940444175
 30
0.0
 10
6.3038311604
 20
22.1947902335
 30
0.0
 10
6.3119126088
 20
22.1947442709
 30
0.0
 10
6.3226233638
 20
22.1936252721
 30
0.0
 10
6.3357412186
 20
22.1902780047
 30
0.0
 10
6.3504184002
 20
22.1833102807
 30
0.0
 10
6.361272871
 20
22.1751668924
 30
0.0
 10
6.3688766403
 20
22.1674873032
 30
0.0
 10
6.3740033519
 20
22.1611871469
 30
0.0
 10
6.3785001543
 20
22.1544173505
 30
0.0
 10
6.3823223222
 20
22.1472385671
 30
0.0
 10
6.3854235655
 20
22.1397137578
 30
0.0
 10
6.3877458955
 20
22.1319071891
 30
0.0
 10
6.3892712411
 20
22.1239082171
 30
0.0
 10
6.3897773573
 20
22.1185021185
 30
0.0
 10
6.3899048676
 20
22.1157965575
 30
0.0
  0
SPLINE
  5
4F4
100
AcDbEntity
  8
0
100
AcDbSpline
 62
9
  6
CONTINUOUS
 70
0
 71
3
 72
40
 73
36
 74
0
 42
0.0000001
 43
0.0000001
 44
0.0000000001
 40
0.0
 40
0.0
 40
0.0
 40
0.0
 40
0.0313578249
 40
0.0627582106
 40
0.0784453565
 40
0.0941164465
 40
0.1254502136
 40
0.1411304394
 40
0.1568117004
 40
0.1881329417
 40
0.2193905762
 40
0.2506367917
 40
0.2818964148
 40
0.3131343833
 40
0.3443308653
 40
0.3755091013
 40
0.4066852512
 40
0.437842999
 40
0.4689696387
 40
0.5000887192
 40
0.5312338683
 40
0.5624034037
 40
0.6246252757
 40
0.6557754797
 40
0.6869836513
 40
0.7182435387
 40
0.7495032032
 40
0.7807361318
 40
0.8119911138
 40
0.8433126336
 40
0.8589911987
 40
0.8746658488
 40
0.905996304
 40
0.9373549427
 40
1.0
 40
1.0
 40
1.0
 40
1.0
 10
6.3502168926
 20
22.3529625413
 30
0.0
 10
6.3510301926
 20
22.3503784418
 30
0.0
 10
6.3523731576
 20
22.3451127688
 30
0.0
 10
6.3533298735
 20
22.3383895997
 30
0.0
 10
6.3536505466
 20
22.3329747942
 30
0.0
 10
6.3536776101
 20
22.3275566106
 30
0.0
 10
6.3532923429
 20
22.3221449815
 30
0.0
 10
6.3525444689
 20
22.3167793293
 30
0.0
 10
6.351574587
 20
22.3114502665
 30
0.0
 10
6.3499399977
 20
22.3048798289
 30
0.0
 10
6.3472303909
 20
22.2972250176
 30
0.0
 10
6.3437091137
 20
22.2899124922
 30
0.0
 10
6.3394531939
 20
22.2830062309
 30
0.0
 10
6.3345409803
 20
22.2765567074
 30
0.0
 10
6.329036327
 20
22.2706149021
 30
0.0
 10
6.322993647
 20
22.2652294302
 30
0.0
 10
6.3164688904
 20
22.2604448502
 30
0.0
 10
6.3095158327
 20
22.2563147578
 30
0.0
 10
6.3021880203
 20
22.25290211
 30
0.0
 10
6.2945502679
 20
22.2502604268
 30
0.0
 10
6.2866881385
 20
22.2483751188
 30
0.0
 10
6.2760283468
 20
22.2468458973
 30
0.0
 10
6.2651829979
 20
22.2468267246
 30
0.0
 10
6.254536334
 20
22.2485086024
 30
0.0
 10
6.2466994817
 20
22.2505593507
 30
0.0
 10
6.2390777266
 20
22.2533252655
 30
0.0
 10
6.2317358445
 20
22.2567737866
 30
0.0
 10
6.2247738882
 20
22.2609426815
 30
0.0
 10
6.2183095597
 20
22.2658564383
 30
0.0
 10
6.2133597615
 20
22.2704773848
 30
0.0
 10
6.2096615567
 20
22.2744343031
 30
0.0
 10
6.2061388449
 20
22.2785489431
 30
0.0
 10
6.2020871003
 20
22.2839878825
 30
0.0
 10
6.196478274
 20
22.2932592978
 30
0.0
 10
6.1933529706
 20
22.30085427
 30
0.0
 10
6.1919326208
 20
22.3060765939
 30
0.0
  0
SPLINE
  5
4F5
100
AcDbEntity
  8
0
100
AcDbSpline
 62
9
  6
CONTINUOUS
 70
0
 71
3
 72
36
 73
32
 74
0
 42
0.0000001
 43
0.0000001
 44
0.0000000001
 40
0.0
 40
0.0
 40
0.0
 40
0.0
 40
0.0313579316
 40
0.0627574775
 40
0.0941314579
 40
0.1254823743
 40
0.1568262831
 40
0.1881482277
 40
0.2194369075
 40
0.2507026229
 40
0.2819509805
 40
0.3131694118
 40
0.3754625086
 40
0.4066266061
 40
0.4377715535
 40
0.4689030662
 40
0.5000358743
 40
0.5311712439
 40
0.5623070048
 40
0.6245424322
 40
0.6868422184
 40
0.7180585351
 40
0.7493048498
 40
0.7805751477
 40
0.8118649172
 40
0.8431769966
 40
0.8745121098
 40
0.9058636949
 40
0.9372357064
 40
0.9686314888
 40
1.0
 40
1.0
 40
1.0
 40
1.0
 10
6.1919326208
 20
22.3060765939
 30
0.0
 10
6.1911625811
 20
22.3086601391
 30
0.0
 10
6.1898714576
 20
22.3139089508
 30
0.0
 10
6.1887145013
 20
22.3219314514
 30
0.0
 10
6.1883828467
 20
22.3300311054
 30
0.0
 10
6.1888739512
 20
22.3381165421
 30
0.0
 10
6.1901375201
 20
22.3461118483
 30
0.0
 10
6.1921372912
 20
22.3539498518
 30
0.0
 10
6.1948714491
 20
22.3615567872
 30
0.0
 10
6.198339859
 20
22.3688516553
 30
0.0
 10
6.2025138543
 20
22.3757610062
 30
0.0
 10
6.2089511983
 20
22.3843576799
 30
0.0
 10
6.2166426944
 20
22.3919387446
 30
0.0
 10
6.2252697793
 20
22.3983080037
 30
0.0
 10
6.2321683051
 20
22.4024499992
 30
0.0
 10
6.2394350069
 20
22.4058982399
 30
0.0
 10
6.2470064289
 20
22.4086104125
 30
0.0
 10
6.254806985
 20
22.4105714924
 30
0.0
 10
6.2654076191
 20
22.4121554807
 30
0.0
 10
6.278878352
 20
22.412198546
 30
0.0
 10
6.2921186807
 20
22.4096609144
 30
0.0
 10
6.3022500874
 20
22.4060937346
 30
0.0
 10
6.3095626814
 20
22.402676458
 30
0.0
 10
6.3165127539
 20
22.3985609253
 30
0.0
 10
6.3230355121
 20
22.3937874242
 30
0.0
 10
6.3290732219
 20
22.388405382
 30
0.0
 10
6.3345678664
 20
22.3824624804
 30
0.0
 10
6.3394604411
 20
22.3760076795
 30
0.0
 10
6.3436823719
 20
22.3690883432
 30
0.0
 10
6.3471847213
 20
22.3617785991
 30
0.0
 10
6.3490462508
 20
22.3567041762
 30
0.0
 10
6.3498571042
 20
22.3541321948
 30
0.0
  0
SPLINE
  5
4F6
100
AcDbEntity
  8
0
100
AcDbSpline
 62
9
  6
CONTINUOUS
 70
0
 71
3
 72
27
 73
23
 74
0
 42
0.0000001
 43
0.0000001
 44
0.0000000001
 40
0.0
 40
0.0
 40
0.0
 40
0.0
 40
0.0313780793
 40
0.0627931003
 40
0.0941973609
 40
0.1255812209
 40
0.1882329331
 40
0.2508012644
 40
0.3132848168
 40
0.375682104
 40
0.4380106126
 40
0.500293219
 40
0.5625540926
 40
0.6248275109
 40
0.6560086404
 40
0.6872027985
 40
0.7495808554
 40
0.8120423493
 40
0.8433379487
 40
0.8746582021
 40
0.9372911229
 40
1.0
 40
1.0
 40
1.0
 40
1.0
 10
4.9041936954
 20
21.4210381409
 30
0.0
 10
4.9022218523
 20
21.4225324275
 30
0.0
 10
4.8981489289
 20
21.4253596082
 30
0.0
 10
4.8916999814
 20
21.4290620316
 30
0.0
 10
4.8849424518
 20
21.4321715935
 30
0.0
 10
4.8756050754
 20
21.4354672925
 30
0.0
 10
4.863442928
 20
21.4379853273
 30
0.0
 10
4.8485699563
 20
21.4383586739
 30
0.0
 10
4.8338873698
 20
21.4360696701
 30
0.0
 10
4.8198660695
 20
21.4312096081
 30
0.0
 10
4.8069467914
 20
21.4239407014
 30
0.0
 10
4.795533523
 20
21.414497498
 30
0.0
 10
4.785985524
 20
21.4031798938
 30
0.0
 10
4.7798314366
 20
21.392473814
 30
0.0
 10
4.7761093025
 20
21.3833654755
 30
0.0
 10
4.7732155802
 20
21.3739521967
 30
0.0
 10
4.7711901072
 20
21.3617465392
 30
0.0
 10
4.7713755194
 20
21.3493667612
 30
0.0
 10
4.7728452669
 20
21.3396031291
 30
0.0
 10
4.775191193
 20
21.3299980734
 30
0.0
 10
4.7797265451
 20
21.3184344971
 30
0.0
 10
4.7849572186
 20
21.3099766449
 30
0.0
 10
4.787924097
 20
21.306021271
 30
0.0
  0
SPLINE
  5
4F7
100
AcDbEntity
  8
0
100
AcDbSpline
 62
9
  6
CONTINUOUS
 70
0
 71
3
 72
10
 73
6
 74
0
 42
0.0000001
 43
0.0000001
 44
0.0000000001
 40
0.0
 40
0.0
 40
0.0
 40
0.0
 40
0.49972449
 40
0.7499641269
 40
1.0
 40
1.0
 40
1.0
 40
1.0
 10
5.623811339
 20
22.8643678251
 30
0.0
 10
5.6200435039
 20
22.8654058739
 30
0.0
 10
5.6144872861
 20
22.867364825
 30
0.0
 10
5.6074304556
 20
22.8707465228
 30
0.0
 10
5.6040336969
 20
22.8726974972
 30
0.0
 10
5.6023753033
 20
22.87373363
 30
0.0
  0
SPLINE
  5
4F8
100
AcDbEntity
  8
0
100
AcDbSpline
 62
9
  6
CONTINUOUS
 70
0
 71
3
 72
33
 73
29
 74
0
 42
0.0000001
 43
0.0000001
 44
0.0000000001
 40
0.0
 40
0.0
 40
0.0
 40
0.0
 40
0.0626690645
 40
0.0940164264
 40
0.1253346909
 40
0.1566253878
 40
0.1879013763
 40
0.2191573953
 40
0.2503833072
 40
0.3127174914
 40
0.3438978268
 40
0.3750606269
 40
0.4062094532
 40
0.4373575099
 40
0.4995978136
 40
0.5618597733
 40
0.6241830176
 40
0.6553955385
 40
0.6866297242
 40
0.7178914628
 40
0.7491757714
 40
0.8117382809
 40
0.8430814188
 40
0.8744425509
 40
0.9058179304
 40
0.9372173767
 40
0.9686295212
 40
1.0
 40
1.0
 40
1.0
 40
1.0
 10
5.6023753033
 20
22.87373363
 30
0.0
 10
5.5982003888
 20
22.8763420373
 30
0.0
 10
5.5922846252
 20
22.8808479045
 30
0.0
 10
5.5852735235
 20
22.8877701091
 30
0.0
 10
5.5804799861
 20
22.893395478
 30
0.0
 10
5.5762073658
 20
22.8994186337
 30
0.0
 10
5.572503867
 20
22.9058021594
 30
0.0
 10
5.5693949822
 20
22.9124904839
 30
0.0
 10
5.5660864245
 20
22.9217313306
 30
0.0
 10
5.5640540499
 20
22.9313797153
 30
0.0
 10
5.5632932456
 20
22.9411526024
 30
0.0
 10
5.5633622867
 20
22.9485062558
 30
0.0
 10
5.5640835734
 20
22.9558224554
 30
0.0
 10
5.5659221918
 20
22.9654418874
 30
0.0
 10
5.5698284772
 20
22.9771034247
 30
0.0
 10
5.5769203795
 20
22.9900346951
 30
0.0
 10
5.5846324915
 20
22.9996268242
 30
0.0
 10
5.5917461444
 20
23.0063850241
 30
0.0
 10
5.59753098
 20
23.010953832
 30
0.0
 10
5.6037082483
 20
23.0149862616
 30
0.0
 10
5.6123913858
 20
23.0196098556
 30
0.0
 10
5.6216662098
 20
23.0230585519
 30
0.0
 10
5.6312694663
 20
23.0252470737
 30
0.0
 10
5.638602363
 20
23.0262456741
 30
0.0
 10
5.6459996755
 20
23.0265794661
 30
0.0
 10
5.6534003986
 20
23.0262223611
 30
0.0
 10
5.6607366194
 20
23.025198404
 30
0.0
 10
5.6655508323
 20
23.0240965769
 30
0.0
 10
5.6679276854
 20
23.0234462672
 30
0.0
  0
SPLINE
  5
4F9
100
AcDbEntity
  8
0
100
AcDbSpline
 62
9
  6
CONTINUOUS
 70
0
 71
3
 72
36
 73
32
 74
0
 42
0.0000001
 43
0.0000001
 44
0.0000000001
 40
0.0
 40
0.0
 40
0.0
 40
0.0
 40
0.0313579316
 40
0.0627574775
 40
0.094131458
 40
0.1254823744
 40
0.1568262831
 40
0.1881482278
 40
0.2194369076
 40
0.2507026231
 40
0.2819509806
 40
0.313169412
 40
0.3754625088
 40
0.4066266063
 40
0.4377715538
 40
0.4689030665
 40
0.5000358746
 40
0.5311712442
 40
0.5623070051
 40
0.6245424327
 40
0.6868422189
 40
0.7180585355
 40
0.7493048503
 40
0.7805751484
 40
0.8118649179
 40
0.8431769971
 40
0.8745121101
 40
0.9058636953
 40
0.9372357066
 40
0.9686314888
 40
1.0
 40
1.0
 40
1.0
 40
1.0
 10
5.2264788238
 20
22.8747723439
 30
0.0
 10
5.2238478567
 20
22.874184399
 30
0.0
 10
5.2185217666
 20
22.8732625592
 30
0.0
 10
5.2104381032
 20
22.8726680426
 30
0.0
 10
5.2023350444
 20
22.8729021994
 30
0.0
 10
5.1943035613
 20
22.8739561192
 30
0.0
 10
5.1864158733
 20
22.8757743346
 30
0.0
 10
5.1787364598
 20
22.8783159859
 30
0.0
 10
5.1713387797
 20
22.8815741166
 30
0.0
 10
5.1643036256
 20
22.8855429419
 30
0.0
 10
5.1577022688
 20
22.8901887417
 30
0.0
 10
5.1495755827
 20
22.8972100784
 30
0.0
 10
5.1425495168
 20
22.9054116668
 30
0.0
 10
5.136797568
 20
22.9144620337
 30
0.0
 10
5.133146879
 20
22.9216326861
 30
0.0
 10
5.1302139377
 20
22.9291222237
 30
0.0
 10
5.1280365276
 20
22.9368643938
 30
0.0
 10
5.1266243642
 20
22.9447827461
 30
0.0
 10
5.1257836974
 20
22.9554680511
 30
0.0
 10
5.126680408
 20
22.9689089741
 30
0.0
 10
5.1301354567
 20
22.9819400338
 30
0.0
 10
5.1344006785
 20
22.9917979269
 30
0.0
 10
5.138319732
 20
22.9988543304
 30
0.0
 10
5.142910052
 20
23.0055003878
 30
0.0
 10
5.1481269295
 20
23.0116742745
 30
0.0
 10
5.1539170304
 20
23.0173218447
 30
0.0
 10
5.1602287426
 20
23.0223885485
 30
0.0
 10
5.167009109
 20
23.0268189404
 30
0.0
 10
5.1742060975
 20
23.0305479177
 30
0.0
 10
5.1817423472
 20
23.033531833
 30
0.0
 10
5.1869342626
 20
23.0350348543
 30
0.0
 10
5.189556541
 20
23.0356643206
 30
0.0
  0
SPLINE
  5
4FA
100
AcDbEntity
  8
0
100
AcDbSpline
 62
9
  6
CONTINUOUS
 70
0
 71
3
 72
35
 73
31
 74
0
 42
0.0000001
 43
0.0000001
 44
0.0000000001
 40
0.0
 40
0.0
 40
0.0
 40
0.0
 40
0.0313751085
 40
0.0627764514
 40
0.0941466974
 40
0.1254989424
 40
0.1568433528
 40
0.1881628617
 40
0.2194494664
 40
0.2507157055
 40
0.2819632656
 40
0.3131796219
 40
0.3754757802
 40
0.4066404339
 40
0.4377859242
 40
0.4689196032
 40
0.5000554126
 40
0.5311934298
 40
0.5623321551
 40
0.624576311
 40
0.6868840585
 40
0.7492801131
 40
0.780553911
 40
0.81184713
 40
0.8431626018
 40
0.8745009035
 40
0.9058554382
 40
0.9372305165
 40
0.9686290214
 40
1.0
 40
1.0
 40
1.0
 40
1.0
 10
4.718393323
 20
22.5248839186
 30
0.0
 10
4.7168760412
 20
22.5226736181
 30
0.0
 10
4.7136245036
 20
22.5183948827
 30
0.0
 10
4.7081456434
 20
22.5124865525
 30
0.0
 10
4.7020919773
 20
22.5071698052
 30
0.0
 10
4.6955433636
 20
22.5024872196
 30
0.0
 10
4.6885856706
 20
22.4984480527
 30
0.0
 10
4.6812894073
 20
22.4950717372
 30
0.0
 10
4.6737106337
 20
22.4924058185
 30
0.0
 10
4.665911906
 20
22.4905006835
 30
0.0
 10
4.6579683901
 20
22.4893748592
 30
0.0
 10
4.647303308
 20
22.4889286729
 30
0.0
 10
4.6366315454
 20
22.4900710496
 30
0.0
 10
4.6262982923
 20
22.4926847976
 30
0.0
 10
4.6187653138
 20
22.4953717447
 30
0.0
 10
4.611531979
 20
22.4987771764
 30
0.0
 10
4.6046686709
 20
22.5028761849
 30
0.0
 10
4.5982341744
 20
22.5076216066
 30
0.0
 10
4.5903150714
 20
22.5147486961
 30
0.0
 10
4.5817515222
 20
22.5250448836
 30
0.0
 10
4.5740107966
 20
22.5391295782
 30
0.0
 10
4.5699892714
 20
22.5519356641
 30
0.0
 10
4.5682961682
 20
22.5624919223
 30
0.0
 10
4.5677931812
 20
22.570511324
 30
0.0
 10
4.5680592153
 20
22.5785466582
 30
0.0
 10
4.5690945983
 20
22.5865251161
 30
0.0
 10
4.5708998822
 20
22.5943710714
 30
0.0
 10
4.5734828304
 20
22.6020028776
 30
0.0
 10
4.576817425
 20
22.609337236
 30
0.0
 10
4.5794932062
 20
22.6139961259
 30
0.0
 10
4.5809335661
 20
22.6162568877
 30
0.0
  0
SPLINE
  5
4FB
100
AcDbEntity
  8
0
100
AcDbSpline
 62
9
  6
CONTINUOUS
 70
0
 71
3
 72
35
 73
31
 74
0
 42
0.0000001
 43
0.0000001
 44
0.0000000001
 40
0.0
 40
0.0
 40
0.0
 40
0.0
 40
0.0313750235
 40
0.0627760437
 40
0.0941456805
 40
0.1254976115
 40
0.1568414933
 40
0.1881599446
 40
0.2194454416
 40
0.2507109662
 40
0.2819572755
 40
0.3131718651
 40
0.3754657528
 40
0.4066291227
 40
0.437773255
 40
0.4689065489
 40
0.5000424249
 40
0.5311802234
 40
0.562319174
 40
0.6245653632
 40
0.6868748133
 40
0.7492762145
 40
0.7805520155
 40
0.811847619
 40
0.8431658221
 40
0.8745064709
 40
0.9058628546
 40
0.9372418106
 40
0.9686403853
 40
1.0
 40
1.0
 40
1.0
 40
1.0
 10
4.6293891974
 20
22.3455230079
 30
0.0
 10
4.6284472409
 20
22.3429993394
 30
0.0
 10
4.6263161521
 20
22.3380379866
 30
0.0
 10
4.6224058298
 20
22.3309487999
 30
0.0
 10
4.6177881875
 20
22.3242995533
 30
0.0
 10
4.6125320671
 20
22.3181511672
 30
0.0
 10
4.6067195791
 20
22.3125336442
 30
0.0
 10
4.6004146987
 20
22.3074839781
 30
0.0
 10
4.5936608431
 20
22.3030629648
 30
0.0
 10
4.5865076327
 20
22.2993354221
 30
0.0
 10
4.5790252042
 20
22.2963367435
 30
0.0
 10
4.5687227774
 20
22.2933560767
 30
0.0
 10
4.5580336019
 20
22.2919293589
 30
0.0
 10
4.5473248518
 20
22.2920258004
 30
0.0
 10
4.5393327752
 20
22.2928635463
 30
0.0
 10
4.5314639381
 20
22.2944790435
 30
0.0
 10
4.5237932818
 20
22.2968621229
 30
0.0
 10
4.5163901662
 20
22.2999811798
 30
0.0
 10
4.5069779701
 20
22.3050809639
 30
0.0
 10
4.4961942303
 20
22.3131309372
 30
0.0
 10
4.4853387703
 20
22.3250887411
 30
0.0
 10
4.4784290944
 20
22.336672699
 30
0.0
 10
4.474323846
 20
22.3466004127
 30
0.0
 10
4.4719737781
 20
22.3543250017
 30
0.0
 10
4.4703752605
 20
22.3622440899
 30
0.0
 10
4.469546793
 20
22.3702859565
 30
0.0
 10
4.4695074019
 20
22.3783761645
 30
0.0
 10
4.4702863606
 20
22.3864346456
 30
0.0
 10
4.4718659215
 20
22.3943734777
 30
0.0
 10
4.4734139398
 20
22.3995439772
 30
0.0
 10
4.4743038949
 20
22.4020850477
 30
0.0
  0
SPLINE
  5
4FC
100
AcDbEntity
  8
0
100
AcDbSpline
 62
9
  6
CONTINUOUS
 70
0
 71
3
 72
31
 73
27
 74
0
 42
0.0000001
 43
0.0000001
 44
0.0000000001
 40
0.0
 40
0.0
 40
0.0
 40
0.0
 40
0.0313984692
 40
0.0628051308
 40
0.078500602
 40
0.0941907259
 40
0.1255621617
 40
0.1569342841
 40
0.1882818551
 40
0.2195934688
 40
0.2508798936
 40
0.3133450276
 40
0.3757195392
 40
0.4380412316
 40
0.4692097792
 40
0.5003680196
 40
0.5315250434
 40
0.5626827053
 40
0.6249447538
 40
0.6872484688
 40
0.7496153128
 40
0.8120688826
 40
0.8433572031
 40
0.8746678885
 40
0.9373006375
 40
1.0
 40
1.0
 40
1.0
 40
1.0
 10
4.7603670925
 20
21.5625990569
 30
0.0
 10
4.7587805164
 20
21.5644769065
 30
0.0
 10
4.7554696667
 20
21.568119924
 30
0.0
 10
4.7509743005
 20
21.5723233323
 30
0.0
 10
4.7471601313
 20
21.5754281118
 30
0.0
 10
4.7432022186
 20
21.5783426792
 30
0.0
 10
4.7380039584
 20
21.5816301079
 30
0.0
 10
4.7314416314
 20
21.5849978259
 30
0.0
 10
4.7246198286
 20
21.5877900975
 30
0.0
 10
4.7175869985
 20
21.5899788693
 30
0.0
 10
4.7080043571
 20
21.5920442989
 30
0.0
 10
4.6957427612
 20
21.5929856337
 30
0.0
 10
4.6810945315
 20
21.5914562134
 30
0.0
 10
4.6692988842
 20
21.5880718415
 30
0.0
 10
4.6603421358
 20
21.5841694169
 30
0.0
 10
4.6539111177
 20
21.5806530477
 30
0.0
 10
4.6478219482
 20
21.5765751225
 30
0.0
 10
4.6402217919
 20
21.5704447354
 30
0.0
 10
4.6317860626
 20
21.5615455708
 30
0.0
 10
4.6236980642
 20
21.5492579059
 30
0.0
 10
4.6178927648
 20
21.5357227554
 30
0.0
 10
4.6151392682
 20
21.5237415249
 30
0.0
 10
4.6142366714
 20
21.5139809928
 30
0.0
 10
4.6142079516
 20
21.5041643069
 30
0.0
 10
4.6157971378
 20
21.4919372451
 30
0.0
 10
4.6187815522
 20
21.4825238276
 30
0.0
 10
4.620690141
 20
21.4780009534
 30
0.0
  0
SPLINE
  5
4FD
100
AcDbEntity
  8
0
100
AcDbSpline
 62
9
  6
CONTINUOUS
 70
0
 71
3
 72
9
 73
5
 74
0
 42
0.0000001
 43
0.0000001
 44
0.0000000001
 40
0.0
 40
0.0
 40
0.0
 40
0.0
 40
0.250226647
 40
1.0
 40
1.0
 40
1.0
 40
1.0
 10
4.621737303
 20
21.4756283407
 30
0.0
 10
4.622390158
 20
21.4742120643
 30
0.0
 10
4.6251640907
 20
21.4686289775
 30
0.0
 10
4.6285644724
 20
21.4633618295
 30
0.0
 10
4.631392737
 20
21.4596420705
 30
0.0
  0
SPLINE
  5
4FE
100
AcDbEntity
  8
0
100
AcDbSpline
 62
9
  6
CONTINUOUS
 70
0
 71
3
 72
36
 73
32
 74
0
 42
0.0000001
 43
0.0000001
 44
0.0000000001
 40
0.0
 40
0.0
 40
0.0
 40
0.0
 40
0.0313650979
 40
0.0627548192
 40
0.0784434873
 40
0.0941260442
 40
0.1254784532
 40
0.1568258854
 40
0.1881431982
 40
0.2194252937
 40
0.2506869568
 40
0.2819315389
 40
0.3131481413
 40
0.3754463809
 40
0.4376855242
 40
0.4688216641
 40
0.4999575135
 40
0.5310946046
 40
0.5622342113
 40
0.5933824316
 40
0.6245446571
 40
0.6868500906
 40
0.7492476968
 40
0.780516575
 40
0.8118113907
 40
0.8431341346
 40
0.8744803737
 40
0.905840506
 40
0.9372199284
 40
0.9686233707
 40
1.0
 40
1.0
 40
1.0
 40
1.0
 10
4.7192581942
 20
22.5261692643
 30
0.0
 10
4.7207195084
 20
22.5284342701
 30
0.0
 10
4.7234613803
 20
22.5330868163
 30
0.0
 10
4.7263557055
 20
22.5391871571
 30
0.0
 10
4.728297048
 20
22.5442217012
 30
0.0
 10
4.7299695895
 20
22.5493483414
 30
0.0
 10
4.731564057
 20
22.5559056873
 30
0.0
 10
4.7327015267
 20
22.5639169687
 30
0.0
 10
4.7330803909
 20
22.5719939129
 30
0.0
 10
4.7326819474
 20
22.5800633947
 30
0.0
 10
4.7314870793
 20
22.58804773
 30
0.0
 10
4.7295111515
 20
22.5958701047
 30
0.0
 10
4.7258672189
 20
22.6059695462
 30
0.0
 10
4.719484198
 20
22.6178357356
 30
0.0
 10
4.7109687806
 20
22.6282685983
 30
0.0
 10
4.7030501258
 20
22.6354874574
 30
0.0
 10
4.6966048299
 20
22.6402949969
 30
0.0
 10
4.6897231672
 20
22.64445326
 30
0.0
 10
4.6824684609
 20
22.6479221455
 30
0.0
 10
4.6749101319
 20
22.6506752681
 30
0.0
 10
4.6645263392
 20
22.6533524122
 30
0.0
 10
4.6511178166
 20
22.6547921947
 30
0.0
 10
4.6376755771
 20
22.6535867865
 30
0.0
 10
4.6272210678
 20
22.6510687817
 30
0.0
 10
4.6195865416
 20
22.6484173212
 30
0.0
 10
4.6122384457
 20
22.6450387824
 30
0.0
 10
4.6052461649
 20
22.6409628617
 30
0.0
 10
4.5986816049
 20
22.6362192991
 30
0.0
 10
4.5926270318
 20
22.6308314335
 30
0.0
 10
4.5871408155
 20
22.6248667774
 30
0.0
 10
4.5838662688
 20
22.6205680784
 30
0.0
 10
4.582328783
 20
22.6183528648
 30
0.0
  0
SPLINE
  5
4FF
100
AcDbEntity
  8
0
100
AcDbSpline
 62
9
  6
CONTINUOUS
 70
0
 71
3
 72
28
 73
24
 74
0
 42
0.0000001
 43
0.0000001
 44
0.0000000001
 40
0.0
 40
0.0
 40
0.0
 40
0.0
 40
0.0627260014
 40
0.1254628319
 40
0.1568250044
 40
0.1881704748
 40
0.2507470292
 40
0.313233298
 40
0.3756277513
 40
0.4379505734
 40
0.5002258588
 40
0.5624785574
 40
0.6247431283
 40
0.6559204943
 40
0.6871112684
 40
0.7183187725
 40
0.749544214
 40
0.8119982029
 40
0.8432914336
 40
0.8746090903
 40
0.9059461285
 40
0.9372976703
 40
1.0
 40
1.0
 40
1.0
 40
1.0
 10
5.623811339
 20
22.8643678251
 30
0.0
 10
5.6285781635
 20
22.8630456519
 30
0.0
 10
5.6383744108
 20
22.8612658522
 30
0.0
 10
5.6508107563
 20
22.8612626999
 30
0.0
 10
5.6606265504
 20
22.8625893506
 30
0.0
 10
5.670270076
 20
22.8647915778
 30
0.0
 10
5.6818858074
 20
22.8691517072
 30
0.0
 10
5.6946416235
 20
22.8767771227
 30
0.0
 10
5.7058218149
 20
22.8865401719
 30
0.0
 10
5.7150754788
 20
22.8981230257
 30
0.0
 10
5.7221179227
 20
22.9111569683
 30
0.0
 10
5.7267272866
 20
22.925229533
 30
0.0
 10
5.7284198329
 20
22.9374629058
 30
0.0
 10
5.7284565636
 20
22.9473026074
 30
0.0
 10
5.7278224582
 20
22.9546652497
 30
0.0
 10
5.7265326814
 20
22.9619456961
 30
0.0
 10
5.7239545335
 20
22.9714616515
 30
0.0
 10
5.7200970537
 20
22.9805999277
 30
0.0
 10
5.715074275
 20
22.9890999066
 30
0.0
 10
5.7107410504
 20
22.9951224768
 30
0.0
 10
5.7058838446
 20
23.0007374132
 30
0.0
 10
5.6987620948
 20
23.0076111749
 30
0.0
 10
5.6927372017
 20
23.0120276164
 30
0.0
 10
5.688503065
 20
23.0145819026
 30
0.0
  0
SPLINE
  5
500
100
AcDbEntity
  8
0
100
AcDbSpline
 62
9
  6
CONTINUOUS
 70
0
 71
3
 72
36
 73
32
 74
0
 42
0.0000001
 43
0.0000001
 44
0.0000000001
 40
0.0
 40
0.0
 40
0.0
 40
0.0
 40
0.031364195
 40
0.0627549931
 40
0.0784449791
 40
0.0941286157
 40
0.1254815037
 40
0.1568278807
 40
0.1881450146
 40
0.2194279968
 40
0.2506903275
 40
0.2819348452
 40
0.3131509154
 40
0.375447047
 40
0.4376835781
 40
0.4688184384
 40
0.4999534741
 40
0.531090285
 40
0.5622297622
 40
0.5933778269
 40
0.6245403416
 40
0.6868473915
 40
0.7492475432
 40
0.7805182513
 40
0.8118156567
 40
0.8431411139
 40
0.8744890538
 40
0.9058503327
 40
0.9372328641
 40
0.9686360065
 40
1.0
 40
1.0
 40
1.0
 40
1.0
 10
5.2264788238
 20
22.8747723439
 30
0.0
 10
5.2291172475
 20
22.8753863479
 30
0.0
 10
5.2343481139
 20
22.8768351282
 30
0.0
 10
5.2406968438
 20
22.8792324587
 30
0.0
 10
5.2456118329
 20
22.881524658
 30
0.0
 10
5.2503963739
 20
22.8840708061
 30
0.0
 10
5.2561213165
 20
22.8877074327
 30
0.0
 10
5.2625266316
 20
22.8927180181
 30
0.0
 10
5.2684241516
 20
22.8983090135
 30
0.0
 10
5.2737496735
 20
22.9044387758
 30
0.0
 10
5.278435541
 20
22.9110628841
 30
0.0
 10
5.2824389724
 20
22.9181143097
 30
0.0
 10
5.2868097294
 20
22.9279799318
 30
0.0
 10
5.2904086999
 20
22.9410349011
 30
0.0
 10
5.2914512347
 20
22.9545294407
 30
0.0
 10
5.2906896372
 20
22.9652712311
 30
0.0
 10
5.2893252159
 20
22.9732362304
 30
0.0
 10
5.2871898274
 20
22.9810296979
 30
0.0
 10
5.2843026167
 20
22.9885781155
 30
0.0
 10
5.280695497
 20
22.99581339
 30
0.0
 10
5.2749704532
 20
23.0049444798
 30
0.0
 10
5.2661741234
 20
23.0152570612
 30
0.0
 10
5.2555181888
 20
23.0236515998
 30
0.0
 10
5.2461360697
 20
23.0290173193
 30
0.0
 10
5.238723228
 20
23.0323390396
 30
0.0
 10
5.231017704
 20
23.0349281208
 30
0.0
 10
5.2230912596
 20
23.0367570859
 30
0.0
 10
5.2150174239
 20
23.0377966653
 30
0.0
 10
5.2068743029
 20
23.0380045514
 30
0.0
 10
5.1987528472
 20
23.0374041247
 30
0.0
 10
5.1933977777
 20
23.0365066772
 30
0.0
 10
5.1907484525
 20
23.0359416441
 30
0.0
  0
SPLINE
  5
501
100
AcDbEntity
  8
0
100
AcDbSpline
 62
9
  6
CONTINUOUS
 70
0
 71
3
 72
37
 73
33
 74
0
 42
0.0000001
 43
0.0000001
 44
0.0000000001
 40
0.0
 40
0.0
 40
0.0
 40
0.0
 40
0.0313621511
 40
0.0627609985
 40
0.0784585572
 40
0.0941485781
 40
0.1255057552
 40
0.1568498284
 40
0.1881714254
 40
0.2194663903
 40
0.2507376533
 40
0.3131410322
 40
0.3754525875
 40
0.4066199351
 40
0.4377729879
 40
0.4689147444
 40
0.5000513858
 40
0.5311877864
 40
0.5623259747
 40
0.6245596193
 40
0.686853228
 40
0.7180683131
 40
0.7493104195
 40
0.7805729509
 40
0.8118573602
 40
0.8431735395
 40
0.8745205552
 40
0.9058751651
 40
0.9215582984
 40
0.9372460253
 40
0.96863404
 40
1.0
 40
1.0
 40
1.0
 40
1.0
 10
4.4222580033
 20
22.1673212004
 30
0.0
 10
4.422017836
 20
22.1646231089
 30
0.0
 10
4.421776448
 20
22.1591993461
 30
0.0
 10
4.4221059853
 20
22.1524198934
 30
0.0
 10
4.4227711219
 20
22.147035799
 30
0.0
 10
4.423711621
 20
22.141696655
 30
0.0
 10
4.4253925555
 20
22.135125241
 30
0.0
 10
4.4281747797
 20
22.1274825024
 30
0.0
 10
4.4316818982
 20
22.1201500664
 30
0.0
 10
4.4358804159
 20
22.1131966956
 30
0.0
 10
4.4423487456
 20
22.1045377069
 30
0.0
 10
4.4519766292
 20
22.0949802571
 30
0.0
 10
4.4632861324
 20
22.0875065505
 30
0.0
 10
4.4730475108
 20
22.0829355696
 30
0.0
 10
4.4806689107
 20
22.0802351506
 30
0.0
 10
4.4885136529
 20
22.0782891382
 30
0.0
 10
4.4965103144
 20
22.0771236587
 30
0.0
 10
4.504582767
 20
22.0767444217
 30
0.0
 10
4.5153371205
 20
22.0772948787
 30
0.0
 10
4.52860821
 20
22.0799557262
 30
0.0
 10
4.5411238079
 20
22.0851299923
 30
0.0
 10
4.5503779299
 20
22.0906778961
 30
0.0
 10
4.5568868509
 20
22.095512947
 30
0.0
 10
4.5628930092
 20
22.1009678963
 30
0.0
 10
4.5683376375
 20
22.1069920138
 30
0.0
 10
4.5731771133
 20
22.113520913
 30
0.0
 10
4.5773676293
 20
22.1204910737
 30
0.0
 10
4.580269501
 20
22.1266217376
 30
0.0
 10
4.5822021401
 20
22.1316852363
 30
0.0
 10
4.5838659203
 20
22.1368464512
 30
0.0
 10
4.5854629098
 20
22.1434413531
 30
0.0
 10
4.5862769204
 20
22.1488067227
 30
0.0
 10
4.5865804094
 20
22.1514987581
 30
0.0
  0
SPLINE
  5
502
100
AcDbEntity
  8
0
100
AcDbSpline
 62
9
  6
CONTINUOUS
 70
0
 71
3
 72
39
 73
35
 74
0
 42
0.0000001
 43
0.0000001
 44
0.0000000001
 40
0.0
 40
0.0
 40
0.0
 40
0.0
 40
0.031373774
 40
0.0627616865
 40
0.0784402509
 40
0.0941111999
 40
0.1254525315
 40
0.1568117861
 40
0.1881415082
 40
0.219414196
 40
0.2506507624
 40
0.281886558
 40
0.3131195638
 40
0.3754283533
 40
0.4065814703
 40
0.4377295962
 40
0.4688742915
 40
0.5000137388
 40
0.5311515627
 40
0.5622947566
 40
0.5934505179
 40
0.6246156477
 40
0.6557867489
 40
0.6869760424
 40
0.7181996659
 40
0.7494497413
 40
0.7807050763
 40
0.8119814043
 40
0.8433042929
 40
0.8589792192
 40
0.8746514176
 40
0.905983474
 40
0.9373537679
 40
1.0
 40
1.0
 40
1.0
 40
1.0
 10
4.5865804094
 20
22.1514987581
 30
0.0
 10
4.5867746802
 20
22.1542019927
 30
0.0
 10
4.586985443
 20
22.1596248035
 30
0.0
 10
4.586695026
 20
22.1664046376
 30
0.0
 10
4.5860618722
 20
22.1717894591
 30
0.0
 10
4.5851358294
 20
22.1771276531
 30
0.0
 10
4.5834399091
 20
22.183695706
 30
0.0
 10
4.5806359504
 20
22.1913316238
 30
0.0
 10
4.5771439784
 20
22.1986718016
 30
0.0
 10
4.5729704418
 20
22.2056367787
 30
0.0
 10
4.5681118316
 20
22.2121331595
 30
0.0
 10
4.5626212091
 20
22.218100311
 30
0.0
 10
4.554583482
 20
22.2252994928
 30
0.0
 10
4.5455565524
 20
22.2313240584
 30
0.0
 10
4.5358011237
 20
22.2359074172
 30
0.0
 10
4.5281778103
 20
22.238603693
 30
0.0
 10
4.5203297567
 20
22.2405415113
 30
0.0
 10
4.51233077
 20
22.2417041587
 30
0.0
 10
4.5042567387
 20
22.2420836271
 30
0.0
 10
4.4961828542
 20
22.2416677989
 30
0.0
 10
4.4881865991
 20
22.2404621225
 30
0.0
 10
4.4803424952
 20
22.2384869586
 30
0.0
 10
4.4727247779
 20
22.2357576397
 30
0.0
 10
4.4654025797
 20
22.2323015923
 30
0.0
 10
4.4584437596
 20
22.228148582
 30
0.0
 10
4.4519214338
 20
22.2233286047
 30
0.0
 10
4.445916901
 20
22.2178680301
 30
0.0
 10
4.440516757
 20
22.2118018883
 30
0.0
 10
4.4365259279
 20
22.2063306059
 30
0.0
 10
4.4336374855
 20
22.201750018
 30
0.0
 10
4.4309518695
 20
22.1970470836
 30
0.0
 10
4.4279969357
 20
22.190941581
 30
0.0
 10
4.4242357515
 20
22.1807810586
 30
0.0
 10
4.4226016093
 20
22.1727219416
 30
0.0
 10
4.4222580033
 20
22.1673212004
 30
0.0
  0
SPLINE
  5
503
100
AcDbEntity
  8
0
100
AcDbSpline
 62
9
  6
CONTINUOUS
 70
0
 71
3
 72
36
 73
32
 74
0
 42
0.0000001
 43
0.0000001
 44
0.0000000001
 40
0.0
 40
0.0
 40
0.0
 40
0.0
 40
0.0313655695
 40
0.0627548206
 40
0.0784429127
 40
0.0941250723
 40
0.1254774107
 40
0.1568251651
 40
0.188142243
 40
0.2194238252
 40
0.250685093
 40
0.2819293155
 40
0.3131456264
 40
0.3754436119
 40
0.4376824363
 40
0.4688188061
 40
0.4999548118
 40
0.5310918672
 40
0.5622315634
 40
0.5933800611
 40
0.624542605
 40
0.686848398
 40
0.7492464558
 40
0.7805155501
 40
0.8118105777
 40
0.8431334798
 40
0.8744798139
 40
0.9058400675
 40
0.9372197099
 40
0.9686233311
 40
1.0
 40
1.0
 40
1.0
 40
1.0
 10
4.6299174252
 20
22.3469794041
 30
0.0
 10
4.6307854745
 20
22.3495313346
 30
0.0
 10
4.632318951
 20
22.3547092477
 30
0.0
 10
4.6336530871
 20
22.3613281406
 30
0.0
 10
4.6343202708
 20
22.3666824717
 30
0.0
 10
4.6347037997
 20
22.3720612893
 30
0.0
 10
4.6346647472
 20
22.3788095908
 30
0.0
 10
4.6338299699
 20
22.3868580224
 30
0.0
 10
4.6322433034
 20
22.394786577
 30
0.0
 10
4.6299042564
 20
22.4025197592
 30
0.0
 10
4.6268131905
 20
22.4099776597
 30
0.0
 10
4.6230036848
 20
22.4170895908
 30
0.0
 10
4.6170249262
 20
22.4260074735
 30
0.0
 10
4.6079615417
 20
22.4359775112
 30
0.0
 10
4.5971749429
 20
22.44404014
 30
0.0
 10
4.5877450421
 20
22.4491286429
 30
0.0
 10
4.5803282894
 20
22.4522344379
 30
0.0
 10
4.5726451398
 20
22.454604593
 30
0.0
 10
4.5647667304
 20
22.4562153934
 30
0.0
 10
4.5567668437
 20
22.4570582067
 30
0.0
 10
4.5460437942
 20
22.4571438139
 30
0.0
 10
4.5326851586
 20
22.4552973076
 30
0.0
 10
4.519933736
 20
22.4508758134
 30
0.0
 10
4.5103988812
 20
22.4459034451
 30
0.0
 10
4.5036325145
 20
22.4414838454
 30
0.0
 10
4.4973199653
 20
22.4364280587
 30
0.0
 10
4.4915214102
 20
22.4307816461
 30
0.0
 10
4.486299393
 20
22.4245908853
 30
0.0
 10
4.4817280273
 20
22.4178983692
 30
0.0
 10
4.4778475638
 20
22.4107837473
 30
0.0
 10
4.4757102124
 20
22.4058205537
 30
0.0
 10
4.4747543653
 20
22.4032991734
 30
0.0
  0
SPLINE
  5
504
100
AcDbEntity
  8
0
100
AcDbSpline
 62
9
  6
CONTINUOUS
 70
0
 71
3
 72
32
 73
28
 74
0
 42
0.0000001
 43
0.0000001
 44
0.0000000001
 40
0.0
 40
0.0
 40
0.0
 40
0.0
 40
0.0626941646
 40
0.1253795317
 40
0.1879724128
 40
0.2504857564
 40
0.31290169
 40
0.3752291227
 40
0.4064033108
 40
0.4375650028
 40
0.4687173776
 40
0.499864641
 40
0.5310122716
 40
0.5621640345
 40
0.5933256813
 40
0.6244991561
 40
0.6868168526
 40
0.7180419105
 40
0.7492903401
 40
0.7805608215
 40
0.8118543933
 40
0.8431716518
 40
0.8745105291
 40
0.9058677298
 40
0.9372445976
 40
0.9686385675
 40
1.0
 40
1.0
 40
1.0
 40
1.0
 10
5.4301051897
 20
23.0589890768
 30
0.0
 10
5.4246929884
 20
23.0591252213
 30
0.0
 10
5.4138124471
 20
23.0583373569
 30
0.0
 10
5.3980674532
 20
23.0539936118
 30
0.0
 10
5.3834880487
 20
23.0466537939
 30
0.0
 10
5.3706410326
 20
23.0366249758
 30
0.0
 10
5.3600139201
 20
23.0243018555
 30
0.0
 10
5.3533335126
 20
23.0125036445
 30
0.0
 10
5.3494510848
 20
23.0024477169
 30
0.0
 10
5.3472904817
 20
22.9946551307
 30
0.0
 10
5.3458992431
 20
22.9866922176
 30
0.0
 10
5.3452960115
 20
22.9786322143
 30
0.0
 10
5.3454811984
 20
22.9705519591
 30
0.0
 10
5.3464552055
 20
22.9625273073
 30
0.0
 10
5.3482122012
 20
22.9546338036
 30
0.0
 10
5.3515645359
 20
22.9443912327
 30
0.0
 10
5.3564162593
 20
22.9346837949
 30
0.0
 10
5.3625991732
 20
22.9258418654
 30
0.0
 10
5.3678749437
 20
22.9196837627
 30
0.0
 10
5.3737310209
 20
22.9140674596
 30
0.0
 10
5.3801170046
 20
22.909051793
 30
0.0
 10
5.3869672163
 20
22.904680882
 30
0.0
 10
5.3942175895
 20
22.9009993721
 30
0.0
 10
5.4017995662
 20
22.8980459291
 30
0.0
 10
5.4096440913
 20
22.8958641452
 30
0.0
 10
5.4176653636
 20
22.8944734837
 30
0.0
 10
5.4230770692
 20
22.8940511925
 30
0.0
 10
5.4257838363
 20
22.8939632339
 30
0.0
  0
SPLINE
  5
505
100
AcDbEntity
  8
0
100
AcDbSpline
 62
9
  6
CONTINUOUS
 70
0
 71
3
 72
43
 73
39
 74
0
 42
0.0000001
 43
0.0000001
 44
0.0000000001
 40
0.0
 40
0.0
 40
0.0
 40
0.0
 40
0.0626675826
 40
0.094057024
 40
0.1254250994
 40
0.1567524464
 40
0.1880433808
 40
0.2193372132
 40
0.2506406192
 40
0.2819102611
 40
0.313103692
 40
0.3286833532
 40
0.3442613094
 40
0.3754302069
 40
0.3910295513
 40
0.406626899
 40
0.4377804152
 40
0.4688834132
 40
0.4999822994
 40
0.531119716
 40
0.5622898378
 40
0.5934553933
 40
0.6245912686
 40
0.6557185355
 40
0.6869028678
 40
0.702527078
 40
0.7181640356
 40
0.7494154029
 40
0.7806095808
 40
0.8118385752
 40
0.8431754969
 40
0.8588651682
 40
0.8745476234
 40
0.9058763163
 40
0.9215430881
 40
0.9372265215
 40
0.9686278999
 40
1.0
 40
1.0
 40
1.0
 40
1.0
 10
5.6919688395
 20
21.3033043852
 30
0.0
 10
5.6970328412
 20
21.3051498012
 30
0.0
 10
5.7049093962
 20
21.3072458228
 30
0.0
 10
5.7156363159
 20
21.3084988139
 30
0.0
 10
5.7237412347
 20
21.3086377052
 30
0.0
 10
5.7318106208
 20
21.3079666509
 30
0.0
 10
5.7397614562
 20
21.3064665202
 30
0.0
 10
5.7475221763
 20
21.3041923274
 30
0.0
 10
5.7550375138
 20
21.3012139116
 30
0.0
 10
5.7622475267
 20
21.2975761838
 30
0.0
 10
5.7679245044
 20
21.2939702921
 30
0.0
 10
5.772205594
 20
21.2907368763
 30
0.0
 10
5.7763038908
 20
21.2872784059
 30
0.0
 10
5.7801330458
 20
21.2835104002
 30
0.0
 10
5.7836872759
 20
21.2794915056
 30
0.0
 10
5.7870622784
 20
21.2753224142
 30
0.0
 10
5.7909257907
 20
21.2698412811
 30
0.0
 10
5.7949078393
 20
21.2628535612
 30
0.0
 10
5.7981376398
 20
21.2554882863
 30
0.0
 10
5.800612537
 20
21.2478321901
 30
0.0
 10
5.8023493746
 20
21.2399707392
 30
0.0
 10
5.8033412596
 20
21.2319808792
 30
0.0
 10
5.8035434608
 20
21.2239337697
 30
0.0
 10
5.8029016073
 20
21.2159082742
 30
0.0
 10
5.8017120765
 20
21.2093011847
 30
0.0
 10
5.800411625
 20
21.2040889522
 30
0.0
 10
5.798893166
 20
21.1989301204
 30
0.0
 10
5.7965825866
 20
21.1926136252
 30
0.0
 10
5.7930358288
 20
21.185359654
 30
0.0
 10
5.7886378336
 20
21.1785797622
 30
0.0
 10
5.784420096
 20
21.1733227672
 30
0.0
 10
5.7807916189
 20
21.1693308959
 30
0.0
 10
5.7770049653
 20
21.1654898296
 30
0.0
 10
5.7729689973
 20
21.1619022422
 30
0.0
 10
5.7686841681
 20
21.1586277379
 30
0.0
 10
5.7642274505
 20
21.1555797383
 30
0.0
 10
5.7583597187
 20
21.15222151
 30
0.0
 10
5.7534086592
 20
21.1500400119
 30
0.0
 10
5.7508853565
 20
21.1490844332
 30
0.0
  0
SPLINE
  5
506
100
AcDbEntity
  8
0
100
AcDbSpline
 62
9
  6
CONTINUOUS
 70
0
 71
3
 72
35
 73
31
 74
0
 42
0.0000001
 43
0.0000001
 44
0.0000000001
 40
0.0
 40
0.0
 40
0.0
 40
0.0
 40
0.0313715215
 40
0.0627741951
 40
0.0941440407
 40
0.1254930531
 40
0.1568342876
 40
0.1881521836
 40
0.2194379883
 40
0.2507046016
 40
0.281952032
 40
0.3131682606
 40
0.3443599048
 40
0.3755398975
 40
0.437778757
 40
0.468912254
 40
0.5000469533
 40
0.5311828793
 40
0.5623207277
 40
0.6245670383
 40
0.6868758641
 40
0.7492743006
 40
0.7805481885
 40
0.8118418583
 40
0.8431583766
 40
0.8744977104
 40
0.9058528807
 40
0.937228938
 40
0.9686285693
 40
1.0
 40
1.0
 40
1.0
 40
1.0
 10
6.0205343957
 20
21.5295573292
 30
0.0
 10
6.0223364802
 20
21.5315424019
 30
0.0
 10
6.0261471292
 20
21.5353338077
 30
0.0
 10
6.0324016527
 20
21.5404157575
 30
0.0
 10
6.039141319
 20
21.5448320539
 30
0.0
 10
6.0462781372
 20
21.5485579243
 30
0.0
 10
6.0537281199
 20
21.551595624
 30
0.0
 10
6.061421318
 20
21.5539324487
 30
0.0
 10
6.0692969291
 20
21.5555251881
 30
0.0
 10
6.0772859051
 20
21.5563301209
 30
0.0
 10
6.0853093195
 20
21.556342847
 30
0.0
 10
6.0932880016
 20
21.5555609425
 30
0.0
 10
6.1011452697
 20
21.5539955468
 30
0.0
 10
6.1113534873
 20
21.5509217283
 30
0.0
 10
6.1210832788
 20
21.5464169823
 30
0.0
 10
6.1299979337
 20
21.5405831827
 30
0.0
 10
6.1362274394
 20
21.5355707246
 30
0.0
 10
6.1419415366
 20
21.5299777296
 30
0.0
 10
6.1487950849
 20
21.5218187448
 30
0.0
 10
6.1558477887
 20
21.5104317756
 30
0.0
 10
6.1615574501
 20
21.4954054231
 30
0.0
 10
6.1637613613
 20
21.4821626628
 30
0.0
 10
6.1639715363
 20
21.4714717228
 30
0.0
 10
6.1633546951
 20
21.4634589501
 30
0.0
 10
6.1619740266
 20
21.4555372559
 30
0.0
 10
6.1598396356
 20
21.4477787379
 30
0.0
 10
6.1569610778
 20
21.4402584455
 30
0.0
 10
6.153341347
 20
21.433058686
 30
0.0
 10
6.1490186149
 20
21.4262580469
 30
0.0
 10
6.1457202963
 20
21.4220158547
 30
0.0
 10
6.1439791137
 20
21.4199771631
 30
0.0
  0
SPLINE
  5
507
100
AcDbEntity
  8
0
100
AcDbSpline
 62
9
  6
CONTINUOUS
 70
0
 71
3
 72
31
 73
27
 74
0
 42
0.0000001
 43
0.0000001
 44
0.0000000001
 40
0.0
 40
0.0
 40
0.0
 40
0.0
 40
0.0313793002
 40
0.0627909244
 40
0.0941799255
 40
0.1255527836
 40
0.1569223972
 40
0.1882744875
 40
0.2195951669
 40
0.2508881519
 40
0.2821658598
 40
0.3134252593
 40
0.3446575593
 40
0.375867799
 40
0.4070654079
 40
0.4382505725
 40
0.5005128467
 40
0.5627570498
 40
0.6250107422
 40
0.6873006348
 40
0.7496566894
 40
0.8120982515
 40
0.8433806193
 40
0.8746854906
 40
0.9373096942
 40
1.0
 40
1.0
 40
1.0
 40
1.0
 10
5.4257838363
 20
22.8939632339
 30
0.0
 10
5.428257455
 20
22.8939229391
 30
0.0
 10
5.4332127556
 20
22.894032475
 30
0.0
 10
5.4406061578
 20
22.8948088387
 30
0.0
 10
5.4479004976
 20
22.8962525993
 30
0.0
 10
5.4550200525
 20
22.8983856679
 30
0.0
 10
5.4619136799
 20
22.9011522625
 30
0.0
 10
5.4685354291
 20
22.9045083483
 30
0.0
 10
5.4748343086
 20
22.9084260706
 30
0.0
 10
5.4807544243
 20
22.9128868257
 30
0.0
 10
5.4862394219
 20
22.9178658059
 30
0.0
 10
5.4912491666
 20
22.9233160349
 30
0.0
 10
5.4957404915
 20
22.9291942832
 30
0.0
 10
5.4996802432
 20
22.9354492725
 30
0.0
 10
5.5030492874
 20
22.9420254016
 30
0.0
 10
5.5067502557
 20
22.9511397853
 30
0.0
 10
5.5098447822
 20
22.9630923628
 30
0.0
 10
5.5109069644
 20
22.9778568507
 30
0.0
 10
5.509332977
 20
22.99257724
 30
0.0
 10
5.5051763763
 20
23.0067955464
 30
0.0
 10
5.4985590582
 20
23.0200644288
 30
0.0
 10
5.4911403566
 20
23.0299725409
 30
0.0
 10
5.4842179945
 20
23.0370061788
 30
0.0
 10
5.4766788388
 20
23.0433973764
 30
0.0
 10
5.4662275614
 20
23.0500973199
 30
0.0
 10
5.4570367704
 20
23.0538917051
 30
0.0
 10
5.4523126911
 20
23.0553447963
 30
0.0
  0
SPLINE
  5
508
100
AcDbEntity
  8
0
100
AcDbSpline
 62
9
  6
CONTINUOUS
 70
0
 71
3
 72
9
 73
5
 74
0
 42
0.0000001
 43
0.0000001
 44
0.0000000001
 40
0.0
 40
0.0
 40
0.0
 40
0.0
 40
0.5001328701
 40
1.0
 40
1.0
 40
1.0
 40
1.0
 10
5.4523126911
 20
23.0553447963
 30
0.0
 10
5.4487189454
 20
23.0564502054
 30
0.0
 10
5.4413664685
 20
23.0581444138
 30
0.0
 10
5.4338608985
 20
23.0588603515
 30
0.0
 10
5.4301051897
 20
23.0589890768
 30
0.0
  0
SPLINE
  5
509
100
AcDbEntity
  8
0
100
AcDbSpline
 62
9
  6
CONTINUOUS
 70
0
 71
3
 72
36
 73
32
 74
0
 42
0.0000001
 43
0.0000001
 44
0.0000000001
 40
0.0
 40
0.0
 40
0.0
 40
0.0
 40
0.0313579316
 40
0.0627574775
 40
0.094131458
 40
0.1254823744
 40
0.1568262831
 40
0.1881482278
 40
0.2194369076
 40
0.2507026231
 40
0.2819509806
 40
0.313169412
 40
0.3754625089
 40
0.4066266063
 40
0.4377715538
 40
0.4689030665
 40
0.5000358746
 40
0.5311712442
 40
0.5623070051
 40
0.6245424327
 40
0.6868422189
 40
0.7180585355
 40
0.7493048503
 40
0.7805751484
 40
0.8118649179
 40
0.8431769971
 40
0.8745121101
 40
0.9058636953
 40
0.9372357066
 40
0.9686314888
 40
1.0
 40
1.0
 40
1.0
 40
1.0
 10
5.8695721955
 20
21.3957588404
 30
0.0
 10
5.8717913377
 20
21.3972895511
 30
0.0
 10
5.8763842752
 20
21.4001394545
 30
0.0
 10
5.8836566075
 20
21.4037188743
 30
0.0
 10
5.8912573495
 20
21.4065372271
 30
0.0
 10
5.8990988163
 20
21.4085686963
 30
0.0
 10
5.9070932688
 20
21.4098376562
 30
0.0
 10
5.9151656163
 20
21.4103578371
 30
0.0
 10
5.923245143
 20
21.4101081707
 30
0.0
 10
5.9312547725
 20
21.409063755
 30
0.0
 10
5.9391157912
 20
21.4072291562
 30
0.0
 10
5.9492809623
 20
21.4037633965
 30
0.0
 10
5.9588677863
 20
21.3987910267
 30
0.0
 10
5.9675912275
 20
21.3925543906
 30
0.0
 10
5.973662261
 20
21.3872734496
 30
0.0
 10
5.979187267
 20
21.3814279704
 30
0.0
 10
5.9841063945
 20
21.3750652275
 30
0.0
 10
5.9883819966
 20
21.3682524648
 30
0.0
 10
5.993164235
 20
21.3586601419
 30
0.0
 10
5.9973678777
 20
21.3458620214
 30
0.0
 10
5.9990459333
 20
21.3324855492
 30
0.0
 10
5.9987841202
 20
21.3217476896
 30
0.0
 10
5.9977938124
 20
21.3137370029
 30
0.0
 10
5.9960273987
 20
21.3058553217
 30
0.0
 10
5.9935031728
 20
21.2981767169
 30
0.0
 10
5.9902503017
 20
21.2907713711
 30
0.0
 10
5.9862962047
 20
21.2837091961
 30
0.0
 10
5.9816692125
 20
21.2770614383
 30
0.0
 10
5.9763931804
 20
21.2709079514
 30
0.0
 10
5.9705234858
 20
21.2653181845
 30
0.0
 10
5.9662726673
 20
21.2619796816
 30
0.0
 10
5.9640771354
 20
21.2604137278
 30
0.0
  0
SPLINE
  5
50A
100
AcDbEntity
  8
0
100
AcDbSpline
 62
9
  6
CONTINUOUS
 70
0
 71
3
 72
36
 73
32
 74
0
 42
0.0000001
 43
0.0000001
 44
0.0000000001
 40
0.0
 40
0.0
 40
0.0
 40
0.0
 40
0.0313782819
 40
0.0627927265
 40
0.0941901834
 40
0.125560703
 40
0.1569177232
 40
0.1882599559
 40
0.2508140147
 40
0.313283597
 40
0.3445174804
 40
0.3757263275
 40
0.4380343523
 40
0.5002928677
 40
0.5314325008
 40
0.5625718837
 40
0.5937259228
 40
0.624899111
 40
0.6560745672
 40
0.687237066
 40
0.7184003443
 40
0.7496041882
 40
0.7808583667
 40
0.8121298498
 40
0.8433775211
 40
0.8589998599
 40
0.874628676
 40
0.9059250559
 40
0.9372835291
 40
0.9686525698
 40
1.0
 40
1.0
 40
1.0
 40
1.0
 10
4.8046902305
 20
21.2893207973
 30
0.0
 10
4.8066595994
 20
21.287857584
 30
0.0
 10
4.8107302991
 20
21.285099503
 30
0.0
 10
4.8171747597
 20
21.2815155
 30
0.0
 10
4.8239187567
 20
21.2785314935
 30
0.0
 10
4.830903848
 20
21.2761822622
 30
0.0
 10
4.8380661125
 20
21.27446517
 30
0.0
 10
4.8477627225
 20
21.2730211475
 30
0.0
 10
4.8600551418
 20
21.2728069484
 30
0.0
 10
4.872181253
 20
21.274791961
 30
0.0
 10
4.8815345766
 20
21.2776426304
 30
0.0
 10
4.8905840172
 20
21.281313445
 30
0.0
 10
4.9012234196
 20
21.2873796494
 30
0.0
 10
4.910627223
 20
21.2952187449
 30
0.0
 10
4.9172176123
 20
21.3024019524
 30
0.0
 10
4.9216635107
 20
21.3082113644
 30
0.0
 10
4.9255862901
 20
21.314388083
 30
0.0
 10
4.9289633396
 20
21.3208826465
 30
0.0
 10
4.9317605641
 20
21.3276482752
 30
0.0
 10
4.9339369858
 20
21.3346386729
 30
0.0
 10
4.9354446779
 20
21.3418054563
 30
0.0
 10
4.9363019626
 20
21.3490845887
 30
0.0
 10
4.9365437241
 20
21.356417348
 30
0.0
 10
4.9361946672
 20
21.3637493168
 30
0.0
 10
4.9353644728
 20
21.3698122711
 30
0.0
 10
4.9343515779
 20
21.3745947314
 30
0.0
 10
4.9330986826
 20
21.3793239306
 30
0.0
 10
4.9311088249
 20
21.3851222495
 30
0.0
 10
4.9281289277
 20
21.391851509
 30
0.0
 10
4.9246261292
 20
21.3983282892
 30
0.0
 10
4.9219242106
 20
21.4024302019
 30
0.0
 10
4.9204809906
 20
21.4044112856
 30
0.0
  0
SPLINE
  5
50B
100
AcDbEntity
  8
0
100
AcDbSpline
 62
9
  6
CONTINUOUS
 70
0
 71
3
 72
9
 73
5
 74
0
 42
0.0000001
 43
0.0000001
 44
0.0000000001
 40
0.0
 40
0.0
 40
0.0
 40
0.0
 40
0.2500172068
 40
1.0
 40
1.0
 40
1.0
 40
1.0
 10
4.9181922392
 20
21.407396626
 30
0.0
 10
4.9172486098
 20
21.4085661352
 30
0.0
 10
4.9133335529
 20
21.4131297178
 30
0.0
 10
4.9089081016
 20
21.4172453413
 30
0.0
 10
4.9054015942
 20
21.4200780736
 30
0.0
  0
SPLINE
  5
50C
100
AcDbEntity
  8
0
100
AcDbSpline
 62
9
  6
CONTINUOUS
 70
0
 71
3
 72
10
 73
6
 74
0
 42
0.0000001
 43
0.0000001
 44
0.0000000001
 40
0.0
 40
0.0
 40
0.0
 40
0.0
 40
0.4998248733
 40
0.7500095993
 40
1.0
 40
1.0
 40
1.0
 40
1.0
 10
5.0781398926
 20
21.3187814986
 30
0.0
 10
5.0814629335
 20
21.3172660732
 30
0.0
 10
5.0863092569
 20
21.3146620033
 30
0.0
 10
5.0923686056
 20
21.3105715082
 30
0.0
 10
5.0952515799
 20
21.3083189791
 30
0.0
 10
5.0966513055
 20
21.3071452551
 30
0.0
  0
SPLINE
  5
50D
100
AcDbEntity
  8
0
100
AcDbSpline
 62
9
  6
CONTINUOUS
 70
0
 71
3
 72
30
 73
26
 74
0
 42
0.0000001
 43
0.0000001
 44
0.0000000001
 40
0.0
 40
0.0
 40
0.0
 40
0.0
 40
0.0626832658
 40
0.0940379981
 40
0.1253646884
 40
0.1566631932
 40
0.1879457759
 40
0.2503810221
 40
0.3127281747
 40
0.3439149414
 40
0.3750851398
 40
0.4062400823
 40
0.4373922556
 40
0.4996456408
 40
0.5619182145
 40
0.6242485304
 40
0.6554670423
 40
0.6867051375
 40
0.749194626
 40
0.8117657361
 40
0.8744136835
 40
0.9057933477
 40
0.9371946187
 40
0.9686123898
 40
1.0
 40
1.0
 40
1.0
 40
1.0
 10
5.0966513055
 20
21.3071452551
 30
0.0
 10
5.1004037274
 20
21.3039987043
 30
0.0
 10
5.1056118297
 20
21.2987456542
 30
0.0
 10
5.1115671107
 20
21.2909610125
 30
0.0
 10
5.1155173459
 20
21.2847602362
 30
0.0
 10
5.1189026268
 20
21.2782400928
 30
0.0
 10
5.1226034014
 20
21.2691895114
 30
0.0
 10
5.1256733698
 20
21.2573160546
 30
0.0
 10
5.1265578842
 20
21.2450955176
 30
0.0
 10
5.1260013852
 20
21.2353592029
 30
0.0
 10
5.1249529763
 20
21.2281195387
 30
0.0
 10
5.1232705836
 20
21.2210027127
 30
0.0
 10
5.1201834299
 20
21.2117627379
 30
0.0
 10
5.1147943343
 20
21.2007812873
 30
0.0
 10
5.1061139292
 20
21.188954973
 30
0.0
 10
5.0972564941
 20
21.1805038942
 30
0.0
 10
5.0893644601
 20
21.1747613055
 30
0.0
 10
5.0809770481
 20
21.1697455154
 30
0.0
 10
5.0696894437
 20
21.16490695
 30
0.0
 10
5.0553358238
 20
21.1615689082
 30
0.0
 10
5.043048102
 20
21.160923812
 30
0.0
 10
5.0332707421
 20
21.1617264574
 30
0.0
 10
5.0260118341
 20
21.1630023213
 30
0.0
 10
5.0188990404
 20
21.1649277993
 30
0.0
 10
5.0142836337
 20
21.1666131207
 30
0.0
 10
5.0120172794
 20
21.1675493922
 30
0.0
  0
SPLINE
  5
50E
100
AcDbEntity
  8
0
100
AcDbSpline
 62
9
  6
CONTINUOUS
 70
0
 71
3
 72
31
 73
27
 74
0
 42
0.0000001
 43
0.0000001
 44
0.0000000001
 40
0.0
 40
0.0
 40
0.0
 40
0.0
 40
0.0313815306
 40
0.0627909276
 40
0.0941731282
 40
0.1255431158
 40
0.1569139303
 40
0.1882657998
 40
0.2195829758
 40
0.2508719538
 40
0.2821470002
 40
0.3134039767
 40
0.3446340738
 40
0.375843618
 40
0.4381641044
 40
0.4693326682
 40
0.5004892876
 40
0.5627363103
 40
0.6249915055
 40
0.6872862241
 40
0.749645119
 40
0.8120901973
 40
0.8433741677
 40
0.8746807498
 40
0.9373075006
 40
1.0
 40
1.0
 40
1.0
 40
1.0
 10
6.2249795774
 20
22.1085957661
 30
0.0
 10
6.2251200763
 20
22.1061258962
 30
0.0
 10
6.2255807342
 20
22.1011918844
 30
0.0
 10
6.2268626259
 20
22.0938707496
 30
0.0
 10
6.2288026999
 20
22.0866940316
 30
0.0
 10
6.2314268961
 20
22.0797418043
 30
0.0
 10
6.2346692897
 20
22.0730598431
 30
0.0
 10
6.2384784021
 20
22.0666891444
 30
0.0
 10
6.2428236275
 20
22.060678918
 30
0.0
 10
6.2476848518
 20
22.0550850277
 30
0.0
 10
6.2530331952
 20
22.0499616411
 30
0.0
 10
6.2588182412
 20
22.0453449712
 30
0.0
 10
6.2649950977
 20
22.0412752132
 30
0.0
 10
6.2736695983
 20
22.036619469
 30
0.0
 10
6.2829263608
 20
22.0331345321
 30
0.0
 10
6.2925088428
 20
22.0309139946
 30
0.0
 10
6.3022473822
 20
22.0295612483
 30
0.0
 10
6.3145900739
 20
22.0295287491
 30
0.0
 10
6.3291624787
 20
22.0321243883
 30
0.0
 10
6.3430567163
 20
22.0372596754
 30
0.0
 10
6.3558335615
 20
22.0447816798
 30
0.0
 10
6.365201625
 20
22.0528707784
 30
0.0
 10
6.3717364619
 20
22.0602651671
 30
0.0
 10
6.3775879494
 20
22.0682297506
 30
0.0
 10
6.3835455169
 20
22.0791204252
 30
0.0
 10
6.3866915875
 20
22.0885521212
 30
0.0
 10
6.3878129712
 20
22.0933653815
 30
0.0
  0
SPLINE
  5
50F
100
AcDbEntity
  8
0
100
AcDbSpline
 62
9
  6
CONTINUOUS
 70
0
 71
3
 72
9
 73
5
 74
0
 42
0.0000001
 43
0.0000001
 44
0.0000000001
 40
0.0
 40
0.0
 40
0.0
 40
0.0
 40
0.500143992
 40
1.0
 40
1.0
 40
1.0
 40
1.0
 10
6.3878129712
 20
22.0933653815
 30
0.0
 10
6.388667036
 20
22.0970312425
 30
0.0
 10
6.3898480412
 20
22.1044916016
 30
0.0
 10
6.3900396024
 20
22.1120371029
 30
0.0
 10
6.3899048676
 20
22.1157965575
 30
0.0
  0
SPLINE
  5
510
100
AcDbEntity
  8
0
100
AcDbSpline
 62
9
  6
CONTINUOUS
 70
0
 71
3
 72
36
 73
32
 74
0
 42
0.0000001
 43
0.0000001
 44
0.0000000001
 40
0.0
 40
0.0
 40
0.0
 40
0.0
 40
0.0313697296
 40
0.0627270504
 40
0.0940764722
 40
0.125402044
 40
0.1566965305
 40
0.1879707932
 40
0.2192295693
 40
0.2504619316
 40
0.2816650278
 40
0.3128540443
 40
0.3440327257
 40
0.3751952151
 40
0.4063409856
 40
0.4374811027
 40
0.4686242926
 40
0.4997686403
 40
0.5620077806
 40
0.624306511
 40
0.6555077264
 40
0.6867276429
 40
0.7179751524
 40
0.7492473215
 40
0.8117848241
 40
0.8431160035
 40
0.8744668594
 40
0.9058318077
 40
0.9372187296
 40
0.9686244942
 40
1.0
 40
1.0
 40
1.0
 40
1.0
 10
4.7717406671
 20
21.5446289338
 30
0.0
 10
4.7727811688
 20
21.5423658912
 30
0.0
 10
4.7746465852
 20
21.5377385031
 30
0.0
 10
4.7767972123
 20
21.5305752283
 30
0.0
 10
4.7783125489
 20
21.5232547886
 30
0.0
 10
4.7791931153
 20
21.5158362955
 30
0.0
 10
4.7794152226
 20
21.5083741842
 30
0.0
 10
4.7789547147
 20
21.5009278571
 30
0.0
 10
4.7778122241
 20
21.4935604196
 30
0.0
 10
4.7760011873
 20
21.4863339
 30
0.0
 10
4.7735312915
 20
21.4793112675
 30
0.0
 10
4.7704410419
 20
21.472544072
 30
0.0
 10
4.7667686392
 20
21.4660783125
 30
0.0
 10
4.7625460671
 20
21.4599617469
 30
0.0
 10
4.7577980704
 20
21.4542467177
 30
0.0
 10
4.7525499877
 20
21.4489891853
 30
0.0
 10
4.7468459055
 20
21.4442299917
 30
0.0
 10
4.738704874
 20
21.4385986033
 30
0.0
 10
4.7276190387
 20
21.4329724814
 30
0.0
 10
4.7157095855
 20
21.4293940841
 30
0.0
 10
4.7059176143
 20
21.4278403925
 30
0.0
 10
4.6984854072
 20
21.4273529159
 30
0.0
 10
4.6910342043
 20
21.427548079
 30
0.0
 10
4.681161387
 20
21.428700657
 30
0.0
 10
4.6714754814
 20
21.431186222
 30
0.0
 10
4.6622498245
 20
21.4349193054
 30
0.0
 10
4.65559582
 20
21.4383320252
 30
0.0
 10
4.6492751781
 20
21.4423362983
 30
0.0
 10
4.6433534511
 20
21.4469182452
 30
0.0
 10
4.6378806703
 20
21.4520270147
 30
0.0
 10
4.6345438728
 20
21.4557401545
 30
0.0
 10
4.6329592691
 20
21.4576624764
 30
0.0
  0
SPLINE
  5
511
100
AcDbEntity
  8
0
100
AcDbSpline
 62
9
  6
CONTINUOUS
 70
0
 71
3
 72
34
 73
30
 74
0
 42
0.0000001
 43
0.0000001
 44
0.0000000001
 40
0.0
 40
0.0
 40
0.0
 40
0.0
 40
0.0313825484
 40
0.0627741313
 40
0.0784633266
 40
0.0941480021
 40
0.1255055696
 40
0.1568536519
 40
0.1881696179
 40
0.2194526907
 40
0.250717546
 40
0.2819632851
 40
0.3131798128
 40
0.3754830597
 40
0.4377260296
 40
0.4999310175
 40
0.5621441967
 40
0.6243939519
 40
0.6867143366
 40
0.7179470997
 40
0.7492027328
 40
0.7804795201
 40
0.8117831319
 40
0.8431146123
 40
0.8744679172
 40
0.905834484
 40
0.9372229872
 40
0.9686314822
 40
1.0
 40
1.0
 40
1.0
 40
1.0
 10
5.6904934245
 20
21.3027205498
 30
0.0
 10
5.687997014
 20
21.3017090462
 30
0.0
 10
5.6830852815
 20
21.2994759304
 30
0.0
 10
5.6772258158
 20
21.2961335811
 30
0.0
 10
5.6727624565
 20
21.2931129958
 30
0.0
 10
5.6684651742
 20
21.2898656176
 30
0.0
 10
5.6634108917
 20
21.2854064605
 30
0.0
 10
5.6578943967
 20
21.2795004911
 30
0.0
 10
5.6529625409
 20
21.273105758
 30
0.0
 10
5.6486738214
 20
21.2662704986
 30
0.0
 10
5.6450863863
 20
21.259049193
 30
0.0
 10
5.6422282799
 20
21.251514948
 30
0.0
 10
5.6394333685
 20
21.2411623328
 30
0.0
 10
5.6378628534
 20
21.2277955008
 30
0.0
 10
5.6390477198
 20
21.21171258
 30
0.0
 10
5.6433530454
 20
21.1961725282
 30
0.0
 10
5.6505855603
 20
21.1817632964
 30
0.0
 10
5.6604564003
 20
21.1690069955
 30
0.0
 10
5.6705958188
 20
21.160146668
 30
0.0
 10
5.6796200811
 20
21.154348584
 30
0.0
 10
5.6867936979
 20
21.1506711783
 30
0.0
 10
5.6942991146
 20
21.1477146848
 30
0.0
 10
5.7020628834
 20
21.1455015188
 30
0.0
 10
5.7100100383
 20
21.1440452229
 30
0.0
 10
5.7180662198
 20
21.1433627345
 30
0.0
 10
5.7261562918
 20
21.1434727537
 30
0.0
 10
5.7341983943
 20
21.1444056983
 30
0.0
 10
5.7421073614
 20
21.1461259902
 30
0.0
 10
5.7472530193
 20
21.1477524934
 30
0.0
 10
5.7497819195
 20
21.1486762807
 30
0.0
  0
SPLINE
  5
512
100
AcDbEntity
  8
0
100
AcDbSpline
 62
9
  6
CONTINUOUS
 70
0
 71
3
 72
31
 73
27
 74
0
 42
0.0000001
 43
0.0000001
 44
0.0000000001
 40
0.0
 40
0.0
 40
0.0
 40
0.0
 40
0.0313784668
 40
0.062790836
 40
0.0941821693
 40
0.1255559881
 40
0.1569251255
 40
0.1882771629
 40
0.2195989435
 40
0.2508932835
 40
0.2821718804
 40
0.3134320629
 40
0.3446651055
 40
0.3758755512
 40
0.4070732718
 40
0.4382587242
 40
0.5005209758
 40
0.5627640396
 40
0.625017229
 40
0.6873055284
 40
0.749660582
 40
0.8121009789
 40
0.8433828181
 40
0.8746871272
 40
0.9373104426
 40
1.0
 40
1.0
 40
1.0
 40
1.0
 10
5.07671498
 20
21.3194153746
 30
0.0
 10
5.0744376636
 20
21.3203819864
 30
0.0
 10
5.0698025495
 20
21.3221387403
 30
0.0
 10
5.0626554047
 20
21.324185941
 30
0.0
 10
5.05535029
 20
21.3255768702
 30
0.0
 10
5.0479496958
 20
21.3262662108
 30
0.0
 10
5.0405213519
 20
21.3262842849
 30
0.0
 10
5.033124233
 20
21.3256531251
 30
0.0
 10
5.0258160694
 20
21.3243796135
 30
0.0
 10
5.0186555984
 20
21.3224609525
 30
0.0
 10
5.0117043956
 20
21.319899012
 30
0.0
 10
5.0050174052
 20
21.3167220332
 30
0.0
 10
4.9986506821
 20
21.3129542049
 30
0.0
 10
4.9926546924
 20
21.3086298658
 30
0.0
 10
4.9870678346
 20
21.3037938024
 30
0.0
 10
4.9802225943
 20
21.2967285021
 30
0.0
 10
4.9728754347
 20
21.286805376
 30
0.0
 10
4.9663611921
 20
21.2735126616
 30
0.0
 10
4.9623070037
 20
21.2592741245
 30
0.0
 10
4.9608353356
 20
21.2445336673
 30
0.0
 10
4.9620018995
 20
21.2297519873
 30
0.0
 10
4.965169735
 20
21.2177863265
 30
0.0
 10
4.9689538692
 20
21.208671792
 30
0.0
 10
4.9735506823
 20
21.1999219731
 30
0.0
 10
4.9807322395
 20
21.1897952849
 30
0.0
 10
4.9878330818
 20
21.1828346667
 30
0.0
 10
4.9916692082
 20
21.1797179972
 30
0.0
  0
SPLINE
  5
513
100
AcDbEntity
  8
0
100
AcDbSpline
 62
9
  6
CONTINUOUS
 70
0
 71
3
 72
9
 73
5
 74
0
 42
0.0000001
 43
0.0000001
 44
0.0000000001
 40
0.0
 40
0.0
 40
0.0
 40
0.0
 40
0.2502098675
 40
1.0
 40
1.0
 40
1.0
 40
1.0
 10
4.9936860047
 20
21.1781329491
 30
0.0
 10
4.9949272719
 20
21.1771894829
 30
0.0
 10
4.9999980575
 20
21.1735646075
 30
0.0
 10
5.0054733611
 20
21.1705135335
 30
0.0
 10
5.0097156964
 20
21.1685561021
 30
0.0
  0
LINE
  5
514
100
AcDbEntity
  8
0
100
AcDbLine
 62
7
  6
CONTINUOUS
 10
3.6699771345
 20
20.981806786
 11
3.6730270774
 21
20.9835538547
  0
LINE
  5
515
100
AcDbEntity
  8
0
100
AcDbLine
 62
7
  6
CONTINUOUS
 10
3.6730270774
 20
20.9835538547
 11
3.6826658975
 21
20.9890884092
  0
LINE
  5
516
100
AcDbEntity
  8
0
100
AcDbLine
 62
7
  6
CONTINUOUS
 10
3.6826660865
 20
20.9890884474
 11
3.7293807618
 21
21.0159938859
  0
LINE
  5
517
100
AcDbEntity
  8
0
100
AcDbLine
 62
7
  6
CONTINUOUS
 10
3.7293807618
 20
21.0159938859
 11
3.7951654311
 21
21.0540082005
  0
LINE
  5
518
100
AcDbEntity
  8
0
100
AcDbLine
 62
7
  6
CONTINUOUS
 10
3.7951654311
 20
21.0540082005
 11
3.831784725
 21
21.0752337116
  0
LINE
  5
519
100
AcDbEntity
  8
0
100
AcDbLine
 62
7
  6
CONTINUOUS
 10
3.6049829681
 20
21.1236391418
 11
3.5937637547
 21
21.1171242696
  0
LINE
  5
51A
100
AcDbEntity
  8
0
100
AcDbLine
 62
7
  6
CONTINUOUS
 10
3.5937637547
 20
21.1171242696
 11
3.5844275421
 21
21.1116803649
  0
LINE
  5
51B
100
AcDbEntity
  8
0
100
AcDbLine
 62
7
  6
CONTINUOUS
 10
3.7541465309
 20
21.209706989
 11
3.7167067818
 21
21.1881761773
  0
LINE
  5
51C
100
AcDbEntity
  8
0
100
AcDbLine
 62
7
  6
CONTINUOUS
 10
3.7167067818
 20
21.1881761773
 11
3.6438556709
 21
21.1461421671
  0
LINE
  5
51D
100
AcDbEntity
  8
0
100
AcDbLine
 62
7
  6
CONTINUOUS
 10
3.6438556709
 20
21.1461421671
 11
3.604983265
 21
21.1236390992
  0
LINE
  5
51E
100
AcDbEntity
  8
0
100
AcDbLine
 62
7
  6
CONTINUOUS
 10
4.2029747439
 20
21.3662394325
 11
4.1973525586
 21
21.375943391
  0
LINE
  5
51F
100
AcDbEntity
  8
0
100
AcDbLine
 62
9
  6
CONTINUOUS
 10
3.9543514825
 20
21.1226026819
 11
4.1693777212
 21
21.2473279219
  0
SPLINE
  5
520
100
AcDbEntity
  8
0
100
AcDbSpline
 62
9
  6
CONTINUOUS
 70
0
 71
3
 72
22
 73
18
 74
0
 42
0.0000001
 43
0.0000001
 44
0.0000000001
 40
0.0
 40
0.0
 40
0.0
 40
0.0
 40
0.0618487529
 40
0.1237882713
 40
0.1856632758
 40
0.2475722347
 40
0.309662027
 40
0.3719383507
 40
0.4343066567
 40
0.4967053066
 40
0.5279418329
 40
0.5592208741
 40
0.6219132703
 40
0.6847767086
 40
0.7477228656
 40
0.8737841393
 40
1.0
 40
1.0
 40
1.0
 40
1.0
 10
4.1693777212
 20
21.2473279219
 30
0.0
 10
4.1717847281
 20
21.2488142395
 30
0.0
 10
4.1765189894
 20
21.2519281435
 30
0.0
 10
4.1832659059
 20
21.2570991918
 30
0.0
 10
4.1895382941
 20
21.2628489952
 30
0.0
 10
4.1951677583
 20
21.2692415572
 30
0.0
 10
4.2001302748
 20
21.2761836093
 30
0.0
 10
4.2044356457
 20
21.2835734581
 30
0.0
 10
4.2080781354
 20
21.2913271838
 30
0.0
 10
4.2104840715
 20
21.2980586864
 30
0.0
 10
4.2119859623
 20
21.3035737243
 30
0.0
 10
4.2131916636
 20
21.3091748034
 30
0.0
 10
4.2141437722
 20
21.3162987471
 30
0.0
 10
4.2144252057
 20
21.3249299799
 30
0.0
 10
4.213688402
 20
21.3364424293
 30
0.0
 10
4.2106641974
 20
21.3506357221
 30
0.0
 10
4.2059557834
 20
21.3612953687
 30
0.0
 10
4.2029947005
 20
21.3662511713
 30
0.0
  0
SPLINE
  5
521
100
AcDbEntity
  8
0
100
AcDbSpline
 62
9
  6
CONTINUOUS
 70
0
 71
3
 72
14
 73
10
 74
0
 42
0.0000001
 43
0.0000001
 44
0.0000000001
 40
0.0
 40
0.0
 40
0.0
 40
0.0
 40
0.2388185921
 40
0.3680980477
 40
0.5000614001
 40
0.6319167167
 40
0.7609059581
 40
0.884070901
 40
1.0
 40
1.0
 40
1.0
 40
1.0
 10
3.8341294815
 20
21.2807953644
 30
0.0
 10
3.8352745758
 20
21.2785316599
 30
0.0
 10
3.8377542305
 20
21.2753414297
 30
0.0
 10
3.8421431109
 20
21.272301149
 30
0.0
 10
3.8460148318
 20
21.2706473743
 30
0.0
 10
3.8501512647
 20
21.2698939907
 30
0.0
 10
3.8542589261
 20
21.2699902582
 30
0.0
 10
3.8580874278
 20
21.2709051929
 30
0.0
 10
3.8604147062
 20
21.2719646799
 30
0.0
 10
3.8614816207
 20
21.2725796406
 30
0.0
  0
SPLINE
  5
522
100
AcDbEntity
  8
0
100
AcDbSpline
 62
9
  6
CONTINUOUS
 70
0
 71
3
 72
18
 73
14
 74
0
 42
0.0000001
 43
0.0000001
 44
0.0000000001
 40
0.0
 40
0.0
 40
0.0
 40
0.0
 40
0.1718617942
 40
0.3453268571
 40
0.5117225564
 40
0.6635150646
 40
0.7936970938
 40
0.8486768258
 40
0.8960858084
 40
0.9353490548
 40
0.9659685983
 40
0.9876184716
 40
1.0
 40
1.0
 40
1.0
 40
1.0
 10
3.9100680976
 20
21.1197731125
 30
0.0
 10
3.9117690176
 20
21.1207601701
 30
0.0
 10
3.9151887278
 20
21.1227400443
 30
0.0
 10
3.9202616018
 20
21.1256646111
 30
0.0
 10
3.9251409166
 20
21.1284651054
 30
0.0
 10
3.9295962374
 20
21.1310093408
 30
0.0
 10
3.9329494971
 20
21.1329125138
 30
0.0
 10
3.9352681172
 20
21.134218746
 30
0.0
 10
3.9366823709
 20
21.1350107184
 30
0.0
 10
3.9378559159
 20
21.1356619104
 30
0.0
 10
3.938774163
 20
21.1361659381
 30
0.0
 10
3.9394267434
 20
21.1365140441
 30
0.0
 10
3.9397723634
 20
21.1366940629
 30
0.0
 10
3.9399014288
 20
21.136752501
 30
0.0
  0
SPLINE
  5
523
100
AcDbEntity
  8
0
100
AcDbSpline
 62
9
  6
CONTINUOUS
 70
0
 71
3
 72
18
 73
14
 74
0
 42
0.0000001
 43
0.0000001
 44
0.0000000001
 40
0.0
 40
0.0
 40
0.0
 40
0.0
 40
0.1680541974
 40
0.3402395817
 40
0.5076173073
 40
0.6597729006
 40
0.787268274
 40
0.8401990665
 40
0.8853782684
 40
0.9227870032
 40
0.9533209739
 40
0.9784046784
 40
1.0
 40
1.0
 40
1.0
 40
1.0
 10
3.9239805473
 20
21.1053857741
 30
0.0
 10
3.923393488
 20
21.106389917
 30
0.0
 10
3.9221601176
 20
21.1083970304
 30
0.0
 10
3.9201857623
 20
21.1113048947
 30
0.0
 10
3.918120512
 20
21.1140126253
 30
0.0
 10
3.9160892643
 20
21.116349631
 30
0.0
 10
3.9144228337
 20
21.1179461724
 30
0.0
 10
3.9131860411
 20
21.1189017365
 30
0.0
 10
3.9123944889
 20
21.1194081377
 30
0.0
 10
3.9116851536
 20
21.1197459455
 30
0.0
 10
3.9110610198
 20
21.1199207518
 30
0.0
 10
3.910520378
 20
21.1199403948
 30
0.0
 10
3.9102032177
 20
21.1198451825
 30
0.0
 10
3.9100712773
 20
21.1197749501
 30
0.0
  0
LINE
  5
524
100
AcDbEntity
  8
0
100
AcDbLine
 62
7
  6
CONTINUOUS
 10
4.1790713778
 20
21.365388744
 11
4.1973525586
 21
21.375943391
  0
SPLINE
  5
525
100
AcDbEntity
  8
0
100
AcDbSpline
 62
9
  6
CONTINUOUS
 70
0
 71
3
 72
18
 73
14
 74
0
 42
0.0000001
 43
0.0000001
 44
0.0000000001
 40
0.0
 40
0.0
 40
0.0
 40
0.0
 40
0.0183998678
 40
0.0406174416
 40
0.0687599508
 40
0.1042547494
 40
0.1479683416
 40
0.1998638994
 40
0.3266582377
 40
0.4800381602
 40
0.6503509791
 40
0.8268586372
 40
1.0
 40
1.0
 40
1.0
 40
1.0
 10
4.1561235544
 20
21.2620944947
 30
0.0
 10
4.1562345817
 20
21.2621526754
 30
0.0
 10
4.1565114818
 20
21.2622230833
 30
0.0
 10
4.1569831568
 20
21.2621684122
 30
0.0
 10
4.1575352454
 20
21.2619647202
 30
0.0
 10
4.1581730305
 20
21.2616023764
 30
0.0
 10
4.1588954832
 20
21.2610750386
 30
0.0
 10
4.1600453677
 20
21.2600867607
 30
0.0
 10
4.1616180605
 20
21.2584544827
 30
0.0
 10
4.163567911
 20
21.2560824576
 30
0.0
 10
4.1655850124
 20
21.2533340892
 30
0.0
 10
4.167544129
 20
21.2503817466
 30
0.0
 10
4.1687834938
 20
21.2483468596
 30
0.0
 10
4.1693779551
 20
21.2473281028
 30
0.0
  0
SPLINE
  5
526
100
AcDbEntity
  8
0
100
AcDbSpline
 62
9
  6
CONTINUOUS
 70
0
 71
3
 72
18
 73
14
 74
0
 42
0.0000001
 43
0.0000001
 44
0.0000000001
 40
0.0
 40
0.0
 40
0.0
 40
0.0
 40
0.1821152424
 40
0.3581218117
 40
0.5208922839
 40
0.6651106194
 40
0.7863656934
 40
0.8374542214
 40
0.8818472736
 40
0.9195421194
 40
0.9509873454
 40
0.9771786578
 40
1.0
 40
1.0
 40
1.0
 40
1.0
 10
3.954352175
 20
21.1226031091
 30
0.0
 10
3.9537170796
 20
21.1236895489
 30
0.0
 10
3.9524176051
 20
21.1257968642
 30
0.0
 10
3.9503848515
 20
21.1287690906
 30
0.0
 10
3.9483524754
 20
21.131419175
 30
0.0
 10
3.9464027436
 20
21.1336480187
 30
0.0
 10
3.9448250494
 20
21.1351703559
 30
0.0
 10
3.9436468289
 20
21.1360970687
 30
0.0
 10
3.9428764023
 20
21.1366031188
 30
0.0
 10
3.9421729627
 20
21.1369558384
 30
0.0
 10
3.9415403688
 20
21.1371534269
 30
0.0
 10
3.9409788359
 20
21.137193285
 30
0.0
 10
3.9406432854
 20
21.1370991812
 30
0.0
 10
3.9405040535
 20
21.1370251292
 30
0.0
  0
LINE
  5
527
100
AcDbEntity
  8
0
100
AcDbLine
 62
9
  6
CONTINUOUS
 10
4.1561239383
 20
21.2620947997
 11
3.9405040994
 21
21.1370250856
  0
LINE
  5
528
100
AcDbEntity
  8
0
100
AcDbLine
 62
9
  6
CONTINUOUS
 10
3.9100680976
 20
21.1197731125
 11
3.8321995664
 21
21.0745786631
  0
SPLINE
  5
529
100
AcDbEntity
  8
0
100
AcDbSpline
 62
9
  6
CONTINUOUS
 70
0
 71
3
 72
52
 73
48
 74
0
 42
0.0000001
 43
0.0000001
 44
0.0000000001
 40
0.0
 40
0.0
 40
0.0
 40
0.0
 40
0.1086786533
 40
0.2116862356
 40
0.3060366789
 40
0.3492427185
 40
0.3894534105
 40
0.4264162055
 40
0.4599179844
 40
0.4897560422
 40
0.515727729
 40
0.527202489
 40
0.5376478381
 40
0.5470518759
 40
0.5554027263
 40
0.5626885519
 40
0.5688975825
 40
0.5740181731
 40
0.5780389456
 40
0.5809514184
 40
0.582758223
 40
0.5832521467
 40
0.5834005867
 40
0.5834906191
 40
0.5835522677
 40
0.5836477153
 40
0.5838027207
 40
0.5840230421
 40
0.5846658208
 40
0.58558192
 40
0.5867728401
 40
0.5882391481
 40
0.5899810662
 40
0.5919986601
 40
0.5968607463
 40
0.6028222793
 40
0.6098701911
 40
0.6179890393
 40
0.6271633027
 40
0.6373774152
 40
0.6486157839
 40
0.6741028258
 40
0.7034858141
 40
0.7365746903
 40
0.8130612199
 40
0.9017412019
 40
1.0
 40
1.0
 40
1.0
 40
1.0
 10
3.6827507845
 20
20.9891402715
 30
0.0
 10
3.679636807
 20
20.9873491737
 30
0.0
 10
3.6735688881
 20
20.9838647111
 30
0.0
 10
3.6647888271
 20
20.9788404804
 30
0.0
 10
3.6578801902
 20
20.9749032962
 30
0.0
 10
3.6527701442
 20
20.9720023928
 30
0.0
 10
3.6493073011
 20
20.970042288
 30
0.0
 10
3.6461209811
 20
20.9682448486
 30
0.0
 10
3.643230468
 20
20.966620874
 30
0.0
 10
3.6406536169
 20
20.9651803462
 30
0.0
 10
3.6387093553
 20
20.9641003733
 30
0.0
 10
3.6373232208
 20
20.9633357328
 30
0.0
 10
3.6364154711
 20
20.9628376722
 30
0.0
 10
3.6355970221
 20
20.9623915228
 30
0.0
 10
3.6348689319
 20
20.9619978362
 30
0.0
 10
3.6342322293
 20
20.9616571527
 30
0.0
 10
3.6336880506
 20
20.9613700019
 30
0.0
 10
3.633237246
 20
20.9611368701
 30
0.0
 10
3.6328814348
 20
20.9609581663
 30
0.0
 10
3.6326198859
 20
20.9608338404
 30
0.0
 10
3.6324627179
 20
20.9607659298
 30
0.0
 10
3.632384317
 20
20.9607405519
 30
0.0
 10
3.6323609797
 20
20.9607377496
 30
0.0
 10
3.6323499322
 20
20.9607382716
 30
0.0
 10
3.6323458261
 20
20.9607467746
 30
0.0
 10
3.6323514699
 20
20.9607564842
 30
0.0
 10
3.6323606143
 20
20.9607685799
 30
0.0
 10
3.632384577
 20
20.9607926814
 30
0.0
 10
3.6324294108
 20
20.9608305005
 30
0.0
 10
3.6325016987
 20
20.960885789
 30
0.0
 10
3.632597529
 20
20.9609547904
 30
0.0
 10
3.6327170814
 20
20.9610376003
 30
0.0
 10
3.6328603347
 20
20.9611341218
 30
0.0
 10
3.633098183
 20
20.9612911156
 30
0.0
 10
3.6334550494
 20
20.9615209482
 30
0.0
 10
3.6339545193
 20
20.9618363937
 30
0.0
 10
3.6345473442
 20
20.9622055964
 30
0.0
 10
3.6352322727
 20
20.9626277724
 30
0.0
 10
3.6360079984
 20
20.9631020866
 30
0.0
 10
3.6368732009
 20
20.963627723
 30
0.0
 10
3.6382011268
 20
20.9644302112
 30
0.0
 10
3.6400747559
 20
20.9655547542
 30
0.0
 10
3.6425718885
 20
20.9670439237
 30
0.0
 10
3.6465220631
 20
20.9693878214
 30
0.0
 10
3.6521669891
 20
20.9727165248
 30
0.0
 10
3.6596783663
 20
20.9771209287
 30
0.0
 10
3.6650147944
 20
20.9802362296
 30
0.0
 10
3.6678210361
 20
20.981871449
 30
0.0
  0
LINE
  5
52A
100
AcDbEntity
  8
0
100
AcDbLine
 62
9
  6
CONTINUOUS
 10
3.6678210361
 20
20.981871449
 11
3.6816387837
 21
20.9899193349
  0
SPLINE
  5
52B
100
AcDbEntity
  8
0
100
AcDbSpline
 62
9
  6
CONTINUOUS
 70
0
 71
3
 72
12
 73
8
 74
0
 42
0.0000001
 43
0.0000001
 44
0.0000000001
 40
0.0
 40
0.0
 40
0.0
 40
0.0
 40
0.295416982
 40
0.5717537221
 40
0.8116327431
 40
0.9131019827
 40
1.0
 40
1.0
 40
1.0
 40
1.0
 10
3.8310538983
 20
21.0765230657
 30
0.0
 10
3.8629760916
 20
21.0949508457
 30
0.0
 10
3.9247966978
 20
21.1305504517
 30
0.0
 10
4.012669432
 20
21.1808850086
 30
0.0
 10
4.0796475701
 20
21.2190106568
 30
0.0
 10
4.1261669242
 20
21.2452972557
 30
0.0
 10
4.1466594247
 20
21.2568053175
 30
0.0
 10
4.1561239383
 20
21.2620947997
 30
0.0
  0
LINE
  5
52C
100
AcDbEntity
  8
0
100
AcDbLine
 62
9
  6
CONTINUOUS
 10
3.7537865388
 20
21.2103939752
 11
3.8318653969
 21
21.255235778
  0
LINE
  5
52D
100
AcDbEntity
  8
0
100
AcDbLine
 62
9
  6
CONTINUOUS
 10
3.862019055
 20
21.2729652759
 11
4.0781422754
 21
21.397162534
  0
SPLINE
  5
52E
100
AcDbEntity
  8
0
100
AcDbSpline
 62
9
  6
CONTINUOUS
 70
0
 71
3
 72
12
 73
8
 74
0
 42
0.0000001
 43
0.0000001
 44
0.0000000001
 40
0.0
 40
0.0
 40
0.0
 40
0.0
 40
0.0868977891
 40
0.1883668997
 40
0.4282459044
 40
0.7045828031
 40
1.0
 40
1.0
 40
1.0
 40
1.0
 10
4.0781422754
 20
21.397162534
 30
0.0
 10
4.0688292269
 20
21.3916107851
 30
0.0
 10
4.0486167617
 20
21.3796178234
 30
0.0
 10
4.0025923087
 20
21.3524742296
 30
0.0
 10
3.9360855245
 20
21.3135323215
 30
0.0
 10
3.8485582005
 20
21.2625996075
 30
0.0
 10
3.7868177548
 20
21.2268612074
 30
0.0
 10
3.7548977407
 20
21.208429672
 30
0.0
  0
SPLINE
  5
52F
100
AcDbEntity
  8
0
100
AcDbSpline
 62
9
  6
CONTINUOUS
 70
0
 71
3
 72
52
 73
48
 74
0
 42
0.0000001
 43
0.0000001
 44
0.0000000001
 40
0.0
 40
0.0
 40
0.0
 40
0.0
 40
0.0982547878
 40
0.1869296776
 40
0.2634103437
 40
0.2964960605
 40
0.3258757223
 40
0.3513592953
 40
0.3625958851
 40
0.3728081852
 40
0.3819805996
 40
0.3900975592
 40
0.3971435401
 40
0.4031030971
 40
0.4079631779
 40
0.4099797652
 40
0.4117206739
 40
0.4131859699
 40
0.4143758759
 40
0.4152909604
 40
0.4159327293
 40
0.4161525549
 40
0.416307085
 40
0.4164021355
 40
0.4164637534
 40
0.4165541653
 40
0.4167030798
 40
0.4171980182
 40
0.4190069181
 40
0.4219215248
 40
0.4259444424
 40
0.4310671661
 40
0.4372783168
 40
0.4445662491
 40
0.4529191922
 40
0.4623253084
 40
0.4727727214
 40
0.4842495306
 40
0.5102251812
 40
0.5400669939
 40
0.5735723573
 40
0.6105386049
 40
0.6507525646
 40
0.6939615043
 40
0.7883160014
 40
0.8913241275
 40
1.0
 40
1.0
 40
1.0
 40
1.0
 10
3.5913096811
 20
21.1143911491
 30
0.0
 10
3.5884902846
 20
21.1127784052
 30
0.0
 10
3.5831239276
 20
21.109714452
 30
0.0
 10
3.5755536727
 20
21.1054114772
 30
0.0
 10
3.5698483678
 20
21.1021871277
 30
0.0
 10
3.5658434051
 20
21.0999381301
 30
0.0
 10
3.563305241
 20
21.0985201734
 30
0.0
 10
3.5613946205
 20
21.0974598822
 30
0.0
 10
3.5600357644
 20
21.096711159
 30
0.0
 10
3.5591480262
 20
21.0962247364
 30
0.0
 10
3.5583494838
 20
21.0957901482
 30
0.0
 10
3.5576415044
 20
21.0954081302
 30
0.0
 10
3.5570254649
 20
21.0950793963
 30
0.0
 10
3.5565026697
 20
21.0948046383
 30
0.0
 10
3.5561253055
 20
21.0946105642
 30
0.0
 10
3.5558705135
 20
21.0944831336
 30
0.0
 10
3.5557153703
 20
21.0944073763
 30
0.0
 10
3.555583954
 20
21.0943452904
 30
0.0
 10
3.5554763612
 20
21.0942968444
 30
0.0
 10
3.5553924144
 20
21.0942619333
 30
0.0
 10
3.5553373186
 20
21.0942420522
 30
0.0
 10
3.5553045141
 20
21.0942333878
 30
0.0
 10
3.5552895168
 20
21.0942315336
 30
0.0
 10
3.5552782968
 20
21.0942315353
 30
0.0
 10
3.5552730697
 20
21.094239397
 30
0.0
 10
3.5552781867
 20
21.0942492171
 30
0.0
 10
3.5552923367
 20
21.0942680752
 30
0.0
 10
3.5553536315
 20
21.0943233251
 30
0.0
 10
3.5554911848
 20
21.0944256012
 30
0.0
 10
3.5557298352
 20
21.0945900538
 30
0.0
 10
3.5560627152
 20
21.0948089744
 30
0.0
 10
3.5564902376
 20
21.0950829439
 30
0.0
 10
3.5570112355
 20
21.0954107752
 30
0.0
 10
3.5576248634
 20
21.0957919709
 30
0.0
 10
3.5583300938
 20
21.0962258132
 30
0.0
 10
3.5591259448
 20
21.0967116808
 30
0.0
 10
3.5600114091
 20
21.0972489334
 30
0.0
 10
3.561367027
 20
21.0980672443
 30
0.0
 10
3.5632748918
 20
21.0992112976
 30
0.0
 10
3.5658114008
 20
21.1007229694
 30
0.0
 10
3.568663624
 20
21.102414564
 30
0.0
 10
3.5718139882
 20
21.1042756089
 30
0.0
 10
3.5752434917
 20
21.1062947992
 30
0.0
 10
3.5803115156
 20
21.1092702019
 30
0.0
 10
3.5871763623
 20
21.1132851348
 30
0.0
 10
3.5959183339
 20
21.1183772473
 30
0.0
 10
3.6019703987
 20
21.1218902592
 30
0.0
 10
3.6050787189
 20
21.123691607
 30
0.0
  0
LINE
  5
530
100
AcDbEntity
  8
0
100
AcDbLine
 62
9
  6
CONTINUOUS
 10
3.8427090681
 20
21.0582158987
 11
3.923979848
 21
21.1053849136
  0
SPLINE
  5
531
100
AcDbEntity
  8
0
100
AcDbSpline
 62
9
  6
CONTINUOUS
 70
0
 71
3
 72
19
 73
15
 74
0
 42
0.0000001
 43
0.0000001
 44
0.0000000001
 40
0.0
 40
0.0
 40
0.0
 40
0.0
 40
0.167693736
 40
0.33050196
 40
0.4829727185
 40
0.6210289802
 40
0.6836737387
 40
0.7416349891
 40
0.7947912405
 40
0.843236445
 40
0.8872527899
 40
0.9274049804
 40
0.9645877355
 40
1.0
 40
1.0
 40
1.0
 40
1.0
 10
3.6101626386
 20
21.0258625029
 30
0.0
 10
3.6123407068
 20
21.0221186482
 30
0.0
 10
3.6169348545
 20
21.0149107829
 30
0.0
 10
3.6244912506
 20
21.0049661667
 30
0.0
 10
3.6324075918
 20
20.9963151584
 30
0.0
 10
3.6392653677
 20
20.9902618524
 30
0.0
 10
3.6447107378
 20
20.9863815161
 30
0.0
 10
3.6485648321
 20
20.9840709528
 30
0.0
 10
3.652288229
 20
20.9822878347
 30
0.0
 10
3.6558482743
 20
20.9810460612
 30
0.0
 10
3.6592173883
 20
20.9803614694
 30
0.0
 10
3.6623670427
 20
20.9802517975
 30
0.0
 10
3.6652618707
 20
20.9807188186
 30
0.0
 10
3.6670190455
 20
20.9814284835
 30
0.0
 10
3.6678196974
 20
20.9818706983
 30
0.0
  0
SPLINE
  5
532
100
AcDbEntity
  8
0
100
AcDbSpline
 62
9
  6
CONTINUOUS
 70
0
 71
3
 72
17
 73
13
 74
0
 42
0.0000001
 43
0.0000001
 44
0.0000000001
 40
0.0
 40
0.0
 40
0.0
 40
0.0
 40
0.1239513696
 40
0.2479728478
 40
0.372171679
 40
0.4344865148
 40
0.4968776066
 40
0.6217802428
 40
0.7472368878
 40
0.8102192217
 40
0.8733539184
 40
1.0
 40
1.0
 40
1.0
 40
1.0
 10
4.1846968403
 20
21.3556508202
 30
0.0
 10
4.1869481754
 20
21.3517671307
 30
0.0
 10
4.1906205508
 20
21.3434838731
 30
0.0
 10
4.1934138703
 20
21.3302015548
 30
0.0
 10
4.1933525334
 20
21.3188655243
 30
0.0
 10
4.1919364739
 20
21.3099505756
 30
0.0
 10
4.1896266776
 20
21.3011961536
 30
0.0
 10
4.1850893245
 20
21.2907334483
 30
0.0
 10
4.178649501
 20
21.2813054242
 30
0.0
 10
4.1725121137
 20
21.2745561765
 30
0.0
 10
4.1657626077
 20
21.2683589289
 30
0.0
 10
4.1600935886
 20
21.2643925188
 30
0.0
 10
4.156124008
 20
21.2620947591
 30
0.0
  0
LINE
  5
533
100
AcDbEntity
  8
0
100
AcDbLine
 62
9
  6
CONTINUOUS
 10
4.0719808817
 20
21.416024204
 11
3.8564528748
 21
21.2921688595
  0
SPLINE
  5
534
100
AcDbEntity
  8
0
100
AcDbSpline
 62
9
  6
CONTINUOUS
 70
0
 71
3
 72
18
 73
14
 74
0
 42
0.0000001
 43
0.0000001
 44
0.0000000001
 40
0.0
 40
0.0
 40
0.0
 40
0.0
 40
0.1731413637
 40
0.3496490174
 40
0.5199618328
 40
0.6733417379
 40
0.8001360748
 40
0.852031639
 40
0.8957452323
 40
0.9312400354
 40
0.9593825579
 40
0.9816001409
 40
1.0
 40
1.0
 40
1.0
 40
1.0
 10
4.0719814101
 20
21.4160244626
 30
0.0
 10
4.0725664458
 20
21.4150002634
 30
0.0
 10
4.0737090215
 20
21.4129094942
 30
0.0
 10
4.0752862578
 20
21.409736672
 30
0.0
 10
4.0766578551
 20
21.4066156213
 30
0.0
 10
4.0777371558
 20
21.4037409844
 30
0.0
 10
4.0783643975
 20
21.4015628507
 30
0.0
 10
4.0786453251
 20
21.4000728811
 30
0.0
 10
4.0787407844
 20
21.3991835491
 30
0.0
 10
4.078735689
 20
21.3984500387
 30
0.0
 10
4.0786360459
 20
21.3978700698
 30
0.0
 10
4.0784475545
 20
21.3974342515
 30
0.0
 10
4.0782481294
 20
21.3972296529
 30
0.0
 10
4.0781422298
 20
21.3971625909
 30
0.0
  0
SPLINE
  5
535
100
AcDbEntity
  8
0
100
AcDbSpline
 62
9
  6
CONTINUOUS
 70
0
 71
3
 72
18
 73
14
 74
0
 42
0.0000001
 43
0.0000001
 44
0.0000000001
 40
0.0
 40
0.0
 40
0.0
 40
0.0
 40
0.0230429502
 40
0.0493562737
 40
0.0808061373
 40
0.1183989449
 40
0.162612401
 40
0.2135190198
 40
0.3346360955
 40
0.4790240435
 40
0.6419353468
 40
0.8179348542
 40
1.0
 40
1.0
 40
1.0
 40
1.0
 10
3.8620191593
 20
21.2729652658
 30
0.0
 10
3.8621542628
 20
21.2730495873
 30
0.0
 10
3.8624060734
 20
21.2732938781
 30
0.0
 10
3.8626557035
 20
21.2738013849
 30
0.0
 10
3.8628016793
 20
21.2744483239
 30
0.0
 10
3.8628451725
 20
21.2752324129
 30
0.0
 10
3.8627855743
 20
21.2761492491
 30
0.0
 10
3.8625615846
 20
21.2776281339
 30
0.0
 10
3.8620255481
 20
21.2797525503
 30
0.0
 10
3.8610907915
 20
21.2825637634
 30
0.0
 10
3.8598308788
 20
21.2856600408
 30
0.0
 10
3.8582694563
 20
21.2889065304
 30
0.0
 10
3.8570831496
 20
21.2910797179
 30
0.0
 10
3.8564533489
 20
21.2921690806
 30
0.0
  0
SPLINE
  5
536
100
AcDbEntity
  8
0
100
AcDbSpline
 62
9
  6
CONTINUOUS
 70
0
 71
3
 72
23
 73
19
 74
0
 42
0.0000001
 43
0.0000001
 44
0.0000000001
 40
0.0
 40
0.0
 40
0.0
 40
0.0
 40
0.0617825985
 40
0.1236469468
 40
0.1855075292
 40
0.2474377028
 40
0.3094917334
 40
0.3716776862
 40
0.4339786405
 40
0.4963910527
 40
0.5589481302
 40
0.6216457584
 40
0.6844430481
 40
0.7473356271
 40
0.8103831965
 40
0.8736241158
 40
0.9369000747
 40
1.0
 40
1.0
 40
1.0
 40
1.0
 10
4.0719808817
 20
21.416024204
 30
0.0
 10
4.0744599062
 20
21.4173829208
 30
0.0
 10
4.0795143766
 20
21.4199373671
 30
0.0
 10
4.087372217
 20
21.423172185
 30
0.0
 10
4.0954990882
 20
21.4256913754
 30
0.0
 10
4.1038474973
 20
21.4273818314
 30
0.0
 10
4.1123340062
 20
21.4282563651
 30
0.0
 10
4.1208821652
 20
21.4283186028
 30
0.0
 10
4.1294138845
 20
21.4275640293
 30
0.0
 10
4.1378492765
 20
21.4259794589
 30
0.0
 10
4.146100742
 20
21.4235503579
 30
0.0
 10
4.1540831753
 20
21.4202995769
 30
0.0
 10
4.1617137518
 20
21.4162584372
 30
0.0
 10
4.1689099473
 20
21.4114576528
 30
0.0
 10
4.1756104157
 20
21.405955783
 30
0.0
 10
4.1817616669
 20
21.3998208087
 30
0.0
 10
4.1872661197
 20
21.3930941256
 30
0.0
 10
4.1903904219
 20
21.3882066319
 30
0.0
 10
4.1917799191
 20
21.3856757425
 30
0.0
  0
SPLINE
  5
537
100
AcDbEntity
  8
0
100
AcDbSpline
 62
9
  6
CONTINUOUS
 70
0
 71
3
 72
17
 73
13
 74
0
 42
0.0000001
 43
0.0000001
 44
0.0000000001
 40
0.0
 40
0.0
 40
0.0
 40
0.0
 40
0.1266459785
 40
0.1897810331
 40
0.2527636795
 40
0.3782203432
 40
0.5031228216
 40
0.5655140395
 40
0.6278290729
 40
0.7520278299
 40
0.876048082
 40
1.0
 40
1.0
 40
1.0
 40
1.0
 10
4.0781423014
 20
21.3971626302
 30
0.0
 10
4.0821170088
 20
21.3994515175
 30
0.0
 10
4.0883865485
 20
21.4023778358
 30
0.0
 10
4.0971283018
 20
21.4051244874
 30
0.0
 10
4.1060420469
 20
21.4070650373
 30
0.0
 10
4.1174268906
 20
21.4079281167
 30
0.0
 10
4.1287565555
 20
21.4066262116
 30
0.0
 10
4.1374930171
 20
21.4042493073
 30
0.0
 10
4.1459216318
 20
21.4010181453
 30
0.0
 10
4.1557695776
 20
21.3954032843
 30
0.0
 10
4.1658758072
 20
21.3863431152
 30
0.0
 10
4.1712131006
 20
21.3790210984
 30
0.0
 10
4.173450808
 20
21.3751295098
 30
0.0
  0
SPLINE
  5
538
100
AcDbEntity
  8
0
100
AcDbSpline
 62
7
  6
CONTINUOUS
 70
0
 71
3
 72
25
 73
21
 74
0
 42
0.0000001
 43
0.0000001
 44
0.0000000001
 40
0.0
 40
0.0
 40
0.0
 40
0.0
 40
0.0759612643
 40
0.1520128802
 40
0.2279195079
 40
0.3037688928
 40
0.3795643514
 40
0.4553984209
 40
0.5311680856
 40
0.5690669761
 40
0.6068742355
 40
0.644550308
 40
0.6819980314
 40
0.742862229
 40
0.7736473785
 40
0.8038135495
 40
0.8410540375
 40
0.8864564046
 40
0.9397156228
 40
1.0
 40
1.0
 40
1.0
 40
1.0
 10
3.5409202175
 20
20.9852363657
 30
0.0
 10
3.5426452995
 20
20.9822492672
 30
0.0
 10
3.5465707399
 20
20.9765317471
 30
0.0
 10
3.5536914642
 20
20.9689665376
 30
0.0
 10
3.5618973701
 20
20.9625981893
 30
0.0
 10
3.570973833
 20
20.9575745403
 30
0.0
 10
3.5807120299
 20
20.9540058369
 30
0.0
 10
3.5908789599
 20
20.9519821006
 30
0.0
 10
3.5995139294
 20
20.9516143141
 30
0.0
 10
3.6063793788
 20
20.9521222081
 30
0.0
 10
3.6114754682
 20
20.9528921588
 30
0.0
 10
3.6164774549
 20
20.9540466866
 30
0.0
 10
3.6223747054
 20
20.9558963425
 30
0.0
 10
3.6277835472
 20
20.9581978897
 30
0.0
 10
3.6326800144
 20
20.9607728664
 30
0.0
 10
3.6365940256
 20
20.9629090005
 30
0.0
 10
3.6410708539
 20
20.9653991188
 30
0.0
 10
3.6464516828
 20
20.9684211727
 30
0.0
 10
3.6527342996
 20
20.9719744655
 30
0.0
 10
3.6572166903
 20
20.9745226728
 30
0.0
 10
3.6595953973
 20
20.9758776347
 30
0.0
  0
LINE
  5
539
100
AcDbEntity
  8
0
100
AcDbLine
 62
7
  6
CONTINUOUS
 10
3.669977173
 20
20.9818068036
 11
3.6730270785
 21
20.9835538552
  0
LINE
  5
53A
100
AcDbEntity
  8
0
100
AcDbLine
 62
7
  6
CONTINUOUS
 10
3.6730270785
 20
20.9835538552
 11
3.6826659028
 21
20.9890884262
  0
LINE
  5
53B
100
AcDbEntity
  8
0
100
AcDbLine
 62
7
  6
CONTINUOUS
 10
3.6826659981
 20
20.9890887634
 11
3.729380765
 21
21.0159938778
  0
LINE
  5
53C
100
AcDbEntity
  8
0
100
AcDbLine
 62
7
  6
CONTINUOUS
 10
3.729380765
 20
21.0159938778
 11
3.79516545
 21
21.0540081792
  0
LINE
  5
53D
100
AcDbEntity
  8
0
100
AcDbLine
 62
7
  6
CONTINUOUS
 10
3.79516545
 20
21.0540081792
 11
3.8317846239
 21
21.0752338711
  0
LINE
  5
53E
100
AcDbEntity
  8
0
100
AcDbLine
 62
7
  6
CONTINUOUS
 10
3.6049831293
 20
21.1236392396
 11
3.5937638377
 21
21.1171243342
  0
LINE
  5
53F
100
AcDbEntity
  8
0
100
AcDbLine
 62
7
  6
CONTINUOUS
 10
3.5937638377
 20
21.1171243342
 11
3.5844275966
 21
21.1116804225
  0
SPLINE
  5
540
100
AcDbEntity
  8
0
100
AcDbSpline
 62
7
  6
CONTINUOUS
 70
0
 71
3
 72
26
 73
22
 74
0
 42
0.0000001
 43
0.0000001
 44
0.0000000001
 40
0.0
 40
0.0
 40
0.0
 40
0.0
 40
0.0622249944
 40
0.1176015646
 40
0.1651668589
 40
0.204413512
 40
0.2359321789
 40
0.2499339228
 40
0.2650716123
 40
0.2867799259
 40
0.3190054911
 40
0.355821122
 40
0.3934063302
 40
0.4690145309
 40
0.5447576128
 40
0.6205487721
 40
0.6963344724
 40
0.7721632006
 40
0.8480381093
 40
0.9240505014
 40
1.0
 40
1.0
 40
1.0
 40
1.0
 10
3.5844275966
 20
21.1116804225
 30
0.0
 10
3.581937884
 20
21.1102255001
 30
0.0
 10
3.577234724
 20
21.1074719273
 30
0.0
 10
3.5706375112
 20
21.1035906836
 30
0.0
 10
3.5649672174
 20
21.1002339532
 30
0.0
 10
3.5602596759
 20
21.0974214291
 30
0.0
 10
3.5568996188
 20
21.0953861669
 30
0.0
 10
3.5545117583
 20
21.0939028435
 30
0.0
 10
3.5525249204
 20
21.0926357073
 30
0.0
 10
3.549875092
 20
21.0908387192
 30
0.0
 10
3.5465181676
 20
21.0883006449
 30
0.0
 10
3.5427908155
 20
21.0850489609
 30
0.0
 10
3.5379173593
 20
21.0800833987
 30
0.0
 10
3.5325318275
 20
21.0731301744
 30
0.0
 10
3.527450659
 20
21.0638627552
 30
0.0
 10
3.5238814694
 20
21.0539046664
 30
0.0
 10
3.5219186694
 20
21.0435060175
 30
0.0
 10
3.5216126011
 20
21.0329245868
 30
0.0
 10
3.5229711085
 20
21.022414417
 30
0.0
 10
3.5259740894
 20
21.0122483208
 30
0.0
 10
3.529014672
 20
21.0058581426
 30
0.0
 10
3.5307741772
 20
21.002809815
 30
0.0
  0
LINE
  5
541
100
AcDbEntity
  8
0
100
AcDbLine
 62
7
  6
CONTINUOUS
 10
3.7541466556
 20
21.2097067505
 11
3.716706771
 21
21.1881762084
  0
LINE
  5
542
100
AcDbEntity
  8
0
100
AcDbLine
 62
7
  6
CONTINUOUS
 10
3.716706771
 20
21.1881762084
 11
3.6438556508
 21
21.1461421908
  0
LINE
  5
543
100
AcDbEntity
  8
0
100
AcDbLine
 62
7
  6
CONTINUOUS
 10
3.6438556508
 20
21.1461421908
 11
3.6049836366
 21
21.1236389854
  0
LINE
  5
544
100
AcDbEntity
  8
0
100
AcDbLine
 62
9
  6
CONTINUOUS
 10
4.2029901486
 20
21.3662485779
 11
4.1973436968
 21
21.3759382723
  0
SPLINE
  5
545
100
AcDbEntity
  8
0
100
AcDbSpline
 62
9
  6
CONTINUOUS
 70
0
 71
3
 72
22
 73
18
 74
0
 42
0.0000001
 43
0.0000001
 44
0.0000000001
 40
0.0
 40
0.0
 40
0.0
 40
0.0
 40
0.061848694
 40
0.1237881668
 40
0.1856631701
 40
0.247572116
 40
0.3096618618
 40
0.371938173
 40
0.4343065301
 40
0.4967051532
 40
0.5279415976
 40
0.5592205056
 40
0.6219126897
 40
0.6847762514
 40
0.747722762
 40
0.8737837908
 40
1.0
 40
1.0
 40
1.0
 40
1.0
 10
4.1693777174
 20
21.2473279208
 30
0.0
 10
4.1717847391
 20
21.2488141879
 30
0.0
 10
4.1765190066
 20
21.2519280368
 30
0.0
 10
4.1832658819
 20
21.2570990786
 30
0.0
 10
4.1895382029
 20
21.2628489011
 30
0.0
 10
4.1951676246
 20
21.2692414492
 30
0.0
 10
4.2001301408
 20
21.2761834544
 30
0.0
 10
4.204435537
 20
21.2835732485
 30
0.0
 10
4.2080780604
 20
21.2913269216
 30
0.0
 10
4.2104840107
 20
21.2980583875
 30
0.0
 10
4.2119858884
 20
21.3035733942
 30
0.0
 10
4.2131915526
 20
21.3091744385
 30
0.0
 10
4.2141436157
 20
21.3162983482
 30
0.0
 10
4.2144251275
 20
21.3249295478
 30
0.0
 10
4.2136889167
 20
21.3364419828
 30
0.0
 10
4.2106647546
 20
21.3506354244
 30
0.0
 10
4.2059532387
 20
21.3612939833
 30
0.0
 10
4.2029901486
 20
21.3662485779
 30
0.0
  0
SPLINE
  5
546
100
AcDbEntity
  8
0
100
AcDbSpline
 62
9
  6
CONTINUOUS
 70
0
 71
3
 72
18
 73
14
 74
0
 42
0.0000001
 43
0.0000001
 44
0.0000000001
 40
0.0
 40
0.0
 40
0.0
 40
0.0
 40
0.012385548
 40
0.0340448275
 40
0.064672637
 40
0.1039379809
 40
0.1513441419
 40
0.2063184385
 40
0.336492252
 40
0.4882804212
 40
0.6546700207
 40
0.8281335907
 40
1.0
 40
1.0
 40
1.0
 40
1.0
 10
3.8614823431
 20
21.2725800371
 30
0.0
 10
3.8613671532
 20
21.2724975055
 30
0.0
 10
3.8610383538
 20
21.272288162
 30
0.0
 10
3.8604104761
 20
21.271896983
 30
0.0
 10
3.8595148057
 20
21.271353703
 30
0.0
 10
3.8583641827
 20
21.2706630216
 30
0.0
 10
3.8569714486
 20
21.2698343831
 30
0.0
 10
3.8546813953
 20
21.2684798132
 30
0.0
 10
3.8513572261
 20
21.2665277738
 30
0.0
 10
3.8469270198
 20
21.26394194
 30
0.0
 10
3.8420628793
 20
21.2611170529
 30
0.0
 10
3.8369944653
 20
21.2581865122
 30
0.0
 10
3.8335704557
 20
21.2562151488
 30
0.0
 10
3.8318653715
 20
21.2552357633
 30
0.0
  0
SPLINE
  5
547
100
AcDbEntity
  8
0
100
AcDbSpline
 62
9
  6
CONTINUOUS
 70
0
 71
3
 72
14
 73
10
 74
0
 42
0.0000001
 43
0.0000001
 44
0.0000000001
 40
0.0
 40
0.0
 40
0.0
 40
0.0
 40
0.2388183077
 40
0.3680976551
 40
0.5000609583
 40
0.6319163028
 40
0.7609056435
 40
0.8840707346
 40
1.0
 40
1.0
 40
1.0
 40
1.0
 10
3.8341294816
 20
21.2807953644
 30
0.0
 10
3.8352745711
 20
21.2785316644
 30
0.0
 10
3.8377542199
 20
21.2753414403
 30
0.0
 10
3.8421430938
 20
21.2723011696
 30
0.0
 10
3.846014811
 20
21.2706474026
 30
0.0
 10
3.8501512409
 20
21.2698940265
 30
0.0
 10
3.8542589
 20
21.2699903005
 30
0.0
 10
3.8580874
 20
21.27090524
 30
0.0
 10
3.8604146776
 20
21.2719647291
 30
0.0
 10
3.8614815919
 20
21.2725796906
 30
0.0
  0
SPLINE
  5
548
100
AcDbEntity
  8
0
100
AcDbSpline
 62
9
  6
CONTINUOUS
 70
0
 71
3
 72
18
 73
14
 74
0
 42
0.0000001
 43
0.0000001
 44
0.0000000001
 40
0.0
 40
0.0
 40
0.0
 40
0.0
 40
0.1710190871
 40
0.3435976921
 40
0.5096545933
 40
0.6611092953
 40
0.7905161311
 40
0.8453757989
 40
0.892959437
 40
0.9327339789
 40
0.9641703039
 40
0.9867502478
 40
1.0
 40
1.0
 40
1.0
 40
1.0
 10
3.9239804286
 20
21.1053859768
 30
0.0
 10
3.9245076638
 20
21.1056062103
 30
0.0
 10
3.925568795
 20
21.1060442584
 30
0.0
 10
3.9271472865
 20
21.1066829116
 30
0.0
 10
3.9286694361
 20
21.1072864447
 30
0.0
 10
3.9300618059
 20
21.1078258249
 30
0.0
 10
3.9311119539
 20
21.1082200494
 30
0.0
 10
3.9318401958
 20
21.1084840498
 30
0.0
 10
3.932288369
 20
21.10864202
 30
0.0
 10
3.9326642698
 20
21.1087691627
 30
0.0
 10
3.932962853
 20
21.1088650899
 30
0.0
 10
3.9331787724
 20
21.1089258662
 30
0.0
 10
3.9332958475
 20
21.1089543157
 30
0.0
 10
3.9333399909
 20
21.1089576374
 30
0.0
  0
SPLINE
  5
549
100
AcDbEntity
  8
0
100
AcDbSpline
 62
9
  6
CONTINUOUS
 70
0
 71
3
 72
18
 73
14
 74
0
 42
0.0000001
 43
0.0000001
 44
0.0000000001
 40
0.0
 40
0.0
 40
0.0
 40
0.0
 40
0.013249784
 40
0.0358297591
 40
0.0672661141
 40
0.1070406842
 40
0.1546243483
 40
0.2094840395
 40
0.3388909117
 40
0.4903456335
 40
0.6564025224
 40
0.8289810594
 40
1.0
 40
1.0
 40
1.0
 40
1.0
 10
3.8341298343
 20
21.2807946675
 30
0.0
 10
3.8341048859
 20
21.280758099
 30
0.0
 10
3.8340217102
 20
21.2806709336
 30
0.0
 10
3.8338611164
 20
21.2805143299
 30
0.0
 10
3.8336287492
 20
21.2803037127
 30
0.0
 10
3.8333306898
 20
21.2800417443
 30
0.0
 10
3.8329697967
 20
21.2797325998
 30
0.0
 10
3.8323770445
 20
21.2792339239
 30
0.0
 10
3.8315105618
 20
21.2785215813
 30
0.0
 10
3.8303472599
 20
21.2775854437
 30
0.0
 10
3.8290635103
 20
21.2765689902
 30
0.0
 10
3.8277211753
 20
21.2755213036
 30
0.0
 10
3.8268112495
 20
21.2748213615
 30
0.0
 10
3.8263569045
 20
21.2744748795
 30
0.0
  0
SPLINE
  5
54A
100
AcDbEntity
  8
0
100
AcDbSpline
 62
9
  6
CONTINUOUS
 70
0
 71
3
 72
14
 73
10
 74
0
 42
0.0000001
 43
0.0000001
 44
0.0000000001
 40
0.0
 40
0.0
 40
0.0
 40
0.0
 40
0.1159300682
 40
0.2390957174
 40
0.36808525
 40
0.4999405828
 40
0.6319035807
 40
0.7611825166
 40
1.0
 40
1.0
 40
1.0
 40
1.0
 10
3.939901098
 20
21.1367522211
 30
0.0
 10
3.9388350876
 20
21.1361357058
 30
0.0
 10
3.9367539518
 20
21.1346499293
 30
0.0
 10
3.934047421
 20
21.1317917866
 30
0.0
 10
3.931910306
 20
21.1282825791
 30
0.0
 10
3.9304946197
 20
21.1243236619
 30
0.0
 10
3.9299910297
 20
21.1201438238
 30
0.0
 10
3.9304296007
 20
21.114822897
 30
0.0
 10
3.9319525908
 20
21.1110804163
 30
0.0
 10
3.9333404544
 20
21.108956927
 30
0.0
  0
SPLINE
  5
54B
100
AcDbEntity
  8
0
100
AcDbSpline
 62
9
  6
CONTINUOUS
 70
0
 71
3
 72
18
 73
14
 74
0
 42
0.0000001
 43
0.0000001
 44
0.0000000001
 40
0.0
 40
0.0
 40
0.0
 40
0.0
 40
0.1680542537
 40
0.3402396943
 40
0.5076174674
 40
0.6597730899
 40
0.7872684643
 40
0.8401992454
 40
0.8853784272
 40
0.9227871327
 40
0.9533210653
 40
0.978404725
 40
1.0
 40
1.0
 40
1.0
 40
1.0
 10
3.9239805488
 20
21.105385775
 30
0.0
 10
3.9233934883
 20
21.1063899195
 30
0.0
 10
3.9221601156
 20
21.1083970361
 30
0.0
 10
3.9201857571
 20
21.1113049053
 30
0.0
 10
3.9181205038
 20
21.1140126406
 30
0.0
 10
3.9160892537
 20
21.1163496504
 30
0.0
 10
3.9144228214
 20
21.1179461948
 30
0.0
 10
3.9131860278
 20
21.1189017607
 30
0.0
 10
3.9123944753
 20
21.1194081629
 30
0.0
 10
3.9116851398
 20
21.1197459714
 30
0.0
 10
3.9110610061
 20
21.1199207781
 30
0.0
 10
3.9105203644
 20
21.1199404215
 30
0.0
 10
3.9102032043
 20
21.1198452091
 30
0.0
 10
3.9100712641
 20
21.1197749766
 30
0.0
  0
LINE
  5
54C
100
AcDbEntity
  8
0
100
AcDbLine
 62
9
  6
CONTINUOUS
 10
4.1846955527
 20
21.3556500943
 11
4.1790726089
 21
21.3653894548
  0
SPLINE
  5
54D
100
AcDbEntity
  8
0
100
AcDbSpline
 62
9
  6
CONTINUOUS
 70
0
 71
3
 72
18
 73
14
 74
0
 42
0.0000001
 43
0.0000001
 44
0.0000000001
 40
0.0
 40
0.0
 40
0.0
 40
0.0
 40
0.0183989396
 40
0.0406158199
 40
0.0687578675
 40
0.1042523864
 40
0.1479658356
 40
0.1998613546
 40
0.3266558528
 40
0.4800361664
 40
0.650349545
 40
0.8268578877
 40
1.0
 40
1.0
 40
1.0
 40
1.0
 10
4.1561236846
 20
21.2620945702
 30
0.0
 10
4.1562347067
 20
21.2621527457
 30
0.0
 10
4.1565115972
 20
21.2622231416
 30
0.0
 10
4.1569832533
 20
21.2621684535
 30
0.0
 10
4.1575353224
 20
21.261964747
 30
0.0
 10
4.1581730886
 20
21.2616023902
 30
0.0
 10
4.1588955231
 20
21.2610750409
 30
0.0
 10
4.1600453835
 20
21.2600867476
 30
0.0
 10
4.1616180498
 20
21.2584544561
 30
0.0
 10
4.1635678766
 20
21.2560824228
 30
0.0
 10
4.1655849624
 20
21.2533340512
 30
0.0
 10
4.1675440724
 20
21.2503817103
 30
0.0
 10
4.1687834381
 20
21.248346827
 30
0.0
 10
4.1693779012
 20
21.2473280725
 30
0.0
  0
SPLINE
  5
54E
100
AcDbEntity
  8
0
100
AcDbSpline
 62
9
  6
CONTINUOUS
 70
0
 71
3
 72
18
 73
14
 74
0
 42
0.0000001
 43
0.0000001
 44
0.0000000001
 40
0.0
 40
0.0
 40
0.0
 40
0.0
 40
0.1821152431
 40
0.3581218124
 40
0.5208922842
 40
0.6651106192
 40
0.7863656927
 40
0.8374542206
 40
0.8818472728
 40
0.9195421188
 40
0.950987345
 40
0.9771786576
 40
1.0
 40
1.0
 40
1.0
 40
1.0
 10
3.954352175
 20
21.1226031087
 30
0.0
 10
3.9537170797
 20
21.1236895485
 30
0.0
 10
3.9524176052
 20
21.1257968637
 30
0.0
 10
3.9503848517
 20
21.12876909
 30
0.0
 10
3.9483524756
 20
21.1314191744
 30
0.0
 10
3.9464027439
 20
21.133648018
 30
0.0
 10
3.9448250497
 20
21.1351703552
 30
0.0
 10
3.9436468292
 20
21.1360970679
 30
0.0
 10
3.9428764026
 20
21.136603118
 30
0.0
 10
3.942172963
 20
21.1369558376
 30
0.0
 10
3.9415403692
 20
21.1371534261
 30
0.0
 10
3.9409788362
 20
21.1371932842
 30
0.0
 10
3.9406432858
 20
21.1370991803
 30
0.0
 10
3.9405040539
 20
21.1370251284
 30
0.0
  0
LINE
  5
54F
100
AcDbEntity
  8
0
100
AcDbLine
 62
9
  6
CONTINUOUS
 10
3.9100681064
 20
21.1197731175
 11
3.8321995648
 21
21.0745786622
  0
LINE
  5
550
100
AcDbEntity
  8
0
100
AcDbLine
 62
9
  6
CONTINUOUS
 10
3.6678210378
 20
20.98187145
 11
3.6816387837
 21
20.9899193348
  0
SPLINE
  5
551
100
AcDbEntity
  8
0
100
AcDbSpline
 62
9
  6
CONTINUOUS
 70
0
 71
3
 72
11
 73
7
 74
0
 42
0.0000001
 43
0.0000001
 44
0.0000000001
 40
0.0
 40
0.0
 40
0.0
 40
0.0
 40
0.2495284333
 40
0.4992516916
 40
0.7495684194
 40
1.0
 40
1.0
 40
1.0
 40
1.0
 10
3.9405043969
 20
21.1370252668
 30
0.0
 10
3.9382188778
 20
21.1357035341
 30
0.0
 10
3.934142187
 20
21.1320755113
 30
0.0
 10
3.9307234579
 20
21.1246828688
 30
0.0
 10
3.9304748963
 20
21.1165328931
 30
0.0
 10
3.9324930769
 20
21.1114472187
 30
0.0
 10
3.9339439181
 20
21.1092299716
 30
0.0
  0
SPLINE
  5
552
100
AcDbEntity
  8
0
100
AcDbSpline
 62
9
  6
CONTINUOUS
 70
0
 71
3
 72
11
 73
7
 74
0
 42
0.0000001
 43
0.0000001
 44
0.0000000001
 40
0.0
 40
0.0
 40
0.0
 40
0.0
 40
0.2504079772
 40
0.5006299758
 40
0.7504785761
 40
1.0
 40
1.0
 40
1.0
 40
1.0
 10
3.8346676721
 20
21.2811814546
 30
0.0
 10
3.8358635777
 20
21.2788172038
 30
0.0
 10
3.8392586794
 20
21.2745293842
 30
0.0
 10
3.8464380114
 20
21.2706632708
 30
0.0
 10
3.8545510247
 20
21.2699316602
 30
0.0
 10
3.8597324127
 20
21.2716472917
 30
0.0
 10
3.8620197825
 20
21.2729656971
 30
0.0
  0
LINE
  5
553
100
AcDbEntity
  8
0
100
AcDbLine
 62
9
  6
CONTINUOUS
 10
3.753786542
 20
21.210393977
 11
3.8318653715
 21
21.2552357633
  0
LINE
  5
554
100
AcDbEntity
  8
0
100
AcDbLine
 62
9
  6
CONTINUOUS
 10
3.605189157
 20
21.1223342575
 11
3.5913096582
 21
21.114391136
  0
SPLINE
  5
555
100
AcDbEntity
  8
0
100
AcDbSpline
 62
9
  6
CONTINUOUS
 70
0
 71
3
 72
52
 73
48
 74
0
 42
0.0000001
 43
0.0000001
 44
0.0000000001
 40
0.0
 40
0.0
 40
0.0
 40
0.0
 40
0.0982555675
 40
0.1869312575
 40
0.2634128016
 40
0.2964989921
 40
0.325879154
 40
0.3513632527
 40
0.3626001144
 40
0.3728126928
 40
0.3819853919
 40
0.3901026432
 40
0.3971489227
 40
0.4031087855
 40
0.4079691779
 40
0.4099859225
 40
0.4117269894
 40
0.4131924444
 40
0.4143825102
 40
0.415297755
 40
0.4159396838
 40
0.4161595881
 40
0.4163141936
 40
0.4164093072
 40
0.4164709298
 40
0.4165612813
 40
0.4167101203
 40
0.4172048972
 40
0.4190134629
 40
0.421927729
 40
0.425950303
 40
0.431072683
 40
0.4372834904
 40
0.4445710803
 40
0.4529236824
 40
0.4623294594
 40
0.4727765352
 40
0.4842530098
 40
0.5102280108
 40
0.5400692043
 40
0.5735739752
 40
0.6105396538
 40
0.6507530774
 40
0.6939615446
 40
0.7883154021
 40
0.8913235072
 40
1.0
 40
1.0
 40
1.0
 40
1.0
 10
3.5913096582
 20
21.114391136
 30
0.0
 10
3.5884902902
 20
21.1127784102
 30
0.0
 10
3.5831239856
 20
21.1097144876
 30
0.0
 10
3.5755537998
 20
21.1054115491
 30
0.0
 10
3.5698485376
 20
21.102187223
 30
0.0
 10
3.565843595
 20
21.0999382363
 30
0.0
 10
3.5633054341
 20
21.0985202812
 30
0.0
 10
3.5613948113
 20
21.0974599881
 30
0.0
 10
3.5600359492
 20
21.0967112609
 30
0.0
 10
3.5591482032
 20
21.0962248336
 30
0.0
 10
3.5583496509
 20
21.0957902393
 30
0.0
 10
3.5576416593
 20
21.0954082139
 30
0.0
 10
3.5570256054
 20
21.0950794713
 30
0.0
 10
3.5565027934
 20
21.0948047032
 30
0.0
 10
3.5561254138
 20
21.09461062
 30
0.0
 10
3.5558706085
 20
21.0944831814
 30
0.0
 10
3.5557154545
 20
21.0944074177
 30
0.0
 10
3.5555840269
 20
21.0943453251
 30
0.0
 10
3.555476422
 20
21.0942968723
 30
0.0
 10
3.5553924632
 20
21.0942619538
 30
0.0
 10
3.555337356
 20
21.0942420669
 30
0.0
 10
3.5553045438
 20
21.0942333967
 30
0.0
 10
3.5552895386
 20
21.0942315398
 30
0.0
 10
3.555278317
 20
21.0942315361
 30
0.0
 10
3.5552730766
 20
21.0942393892
 30
0.0
 10
3.5552781864
 20
21.0942492105
 30
0.0
 10
3.5552923277
 20
21.0942680608
 30
0.0
 10
3.5553536036
 20
21.0943233039
 30
0.0
 10
3.5554911313
 20
21.0944255605
 30
0.0
 10
3.5557297477
 20
21.0945899952
 30
0.0
 10
3.5560625922
 20
21.094808894
 30
0.0
 10
3.5564900771
 20
21.0950828419
 30
0.0
 10
3.5570110359
 20
21.0954106502
 30
0.0
 10
3.557624623
 20
21.0957918222
 30
0.0
 10
3.5583298111
 20
21.0962256399
 30
0.0
 10
3.5591256182
 20
21.0967114821
 30
0.0
 10
3.5600110373
 20
21.0972487083
 30
0.0
 10
3.5613665922
 20
21.0980669829
 30
0.0
 10
3.5632743759
 20
21.0992109894
 30
0.0
 10
3.5658107848
 20
21.1007226034
 30
0.0
 10
3.5686629045
 20
21.1024141383
 30
0.0
 10
3.5718131621
 20
21.1042751218
 30
0.0
 10
3.5752425573
 20
21.1062942498
 30
0.0
 10
3.5803104407
 20
21.109269572
 30
0.0
 10
3.5871751283
 20
21.1132844146
 30
0.0
 10
3.5959169367
 20
21.1183764369
 30
0.0
 10
3.6019689081
 20
21.1218893944
 30
0.0
 10
3.60507719
 20
21.1236907183
 30
0.0
  0
SPLINE
  5
556
100
AcDbEntity
  8
0
100
AcDbSpline
 62
9
  6
CONTINUOUS
 70
0
 71
3
 72
18
 73
14
 74
0
 42
0.0000001
 43
0.0000001
 44
0.0000000001
 40
0.0
 40
0.0
 40
0.0
 40
0.0
 40
0.1680541921
 40
0.3402395392
 40
0.5076172058
 40
0.6597728627
 40
0.7872681677
 40
0.8401989284
 40
0.8853782267
 40
0.9227870482
 40
0.9533209921
 40
0.9784046636
 40
1.0
 40
1.0
 40
1.0
 40
1.0
 10
3.826356785
 20
21.2744750891
 30
0.0
 10
3.8269328692
 20
21.273464608
 30
0.0
 10
3.828054396
 20
21.2713929185
 30
0.0
 10
3.8295855048
 20
21.2682291412
 30
0.0
 10
3.8308978441
 20
21.2650867125
 30
0.0
 10
3.8319061287
 20
21.2621590946
 30
0.0
 10
3.8324555608
 20
21.2599176502
 30
0.0
 10
3.8326647069
 20
21.2583687722
 30
0.0
 10
3.8327074885
 20
21.2574300653
 30
0.0
 10
3.8326453735
 20
21.2566468566
 30
0.0
 10
3.8324846936
 20
21.2560189366
 30
0.0
 10
3.8322313837
 20
21.2555409052
 30
0.0
 10
3.8319903478
 20
21.2553138419
 30
0.0
 10
3.831863555
 20
21.2552346932
 30
0.0
  0
LINE
  5
557
100
AcDbEntity
  8
0
100
AcDbLine
 62
9
  6
CONTINUOUS
 10
3.8263555991
 20
21.2744748614
 11
3.7448707585
 21
21.2276768227
  0
LINE
  5
558
100
AcDbEntity
  8
0
100
AcDbLine
 62
9
  6
CONTINUOUS
 10
3.8427090686
 20
21.0582158991
 11
3.923979848
 21
21.1053849136
  0
SPLINE
  5
559
100
AcDbEntity
  8
0
100
AcDbSpline
 62
9
  6
CONTINUOUS
 70
0
 71
3
 72
33
 73
29
 74
0
 42
0.0000001
 43
0.0000001
 44
0.0000000001
 40
0.0
 40
0.0
 40
0.0
 40
0.0
 40
0.2141699829
 40
0.3145749499
 40
0.4096984086
 40
0.4990605872
 40
0.5822430005
 40
0.6588301565
 40
0.7284469212
 40
0.7907492398
 40
0.8453953399
 40
0.8697539228
 40
0.8921001225
 40
0.9124081243
 40
0.930652124
 40
0.9468063343
 40
0.9608451756
 40
0.9727501235
 40
0.9825118456
 40
0.9865863253
 40
0.9901218254
 40
0.9931173562
 40
0.995572013
 40
0.9974850722
 40
0.9988562797
 40
0.999687079
 40
0.999903235
 40
1.0
 40
1.0
 40
1.0
 40
1.0
 10
3.6005783733
 20
21.0424622711
 30
0.0
 10
3.5956087064
 20
21.0396066822
 30
0.0
 10
3.5883076626
 20
21.0354150598
 30
0.0
 10
3.5787951569
 20
21.02996243
 30
0.0
 10
3.5721785823
 20
21.0261741617
 30
0.0
 10
3.5659600134
 20
21.0226183799
 30
0.0
 10
3.5601699865
 20
21.0193125161
 30
0.0
 10
3.5548366016
 20
21.016272622
 30
0.0
 10
3.5499862575
 20
21.0135137134
 30
0.0
 10
3.5456436598
 20
21.0110497954
 30
0.0
 10
3.5423519841
 20
21.0091880601
 30
0.0
 10
3.5399891698
 20
21.0078561114
 30
0.0
 10
3.5384259294
 20
21.0069771326
 30
0.0
 10
3.5370042921
 20
21.0061801989
 30
0.0
 10
3.5357260709
 20
21.0054663198
 30
0.0
 10
3.5345930759
 20
21.0048364981
 30
0.0
 10
3.5336069571
 20
21.004291631
 30
0.0
 10
3.532768974
 20
21.0038324073
 30
0.0
 10
3.5321632694
 20
21.0035042477
 30
0.0
 10
3.5317531644
 20
21.0032852416
 30
0.0
 10
3.5315021566
 20
21.0031528128
 30
0.0
 10
3.531288625
 20
21.0030420188
 30
0.0
 10
3.5311130854
 20
21.0029529886
 30
0.0
 10
3.5309744959
 20
21.0028853815
 30
0.0
 10
3.5308757349
 20
21.0028398214
 30
0.0
 10
3.5308133079
 20
21.0028150445
 30
0.0
 10
3.5307860364
 20
21.002807537
 30
0.0
 10
3.5307755276
 20
21.0028074805
 30
0.0
 10
3.5307742329
 20
21.0028097233
 30
0.0
  0
SPLINE
  5
55A
100
AcDbEntity
  8
0
100
AcDbSpline
 62
9
  6
CONTINUOUS
 70
0
 71
3
 72
33
 73
29
 74
0
 42
0.0000001
 43
0.0000001
 44
0.0000000001
 40
0.0
 40
0.0
 40
0.0
 40
0.0
 40
0.2141695371
 40
0.3145742699
 40
0.4096975344
 40
0.4990595697
 40
0.5822418824
 40
0.6588289727
 40
0.7284457076
 40
0.7907480339
 40
0.8453941817
 40
0.8697528053
 40
0.892099057
 40
0.9124071218
 40
0.930651195
 40
0.9468054891
 40
0.9608444238
 40
0.9727494752
 40
0.9825113106
 40
0.9865858507
 40
0.9901214135
 40
0.9931170095
 40
0.9955717339
 40
0.9974848631
 40
0.9988561427
 40
0.9996870158
 40
0.999903208
 40
1.0
 40
1.0
 40
1.0
 40
1.0
 10
3.6101623502
 20
21.0258623361
 30
0.0
 10
3.605204515
 20
21.0229862783
 30
0.0
 10
3.5979239559
 20
21.0187592121
 30
0.0
 10
3.5884456057
 20
21.0132474708
 30
0.0
 10
3.5818565953
 20
21.0094114909
 30
0.0
 10
3.5756679253
 20
21.0058039466
 30
0.0
 10
3.5699099595
 20
21.0024425683
 30
0.0
 10
3.5646106489
 20
20.9993436665
 30
0.0
 10
3.5597961971
 20
20.9965225957
 30
0.0
 10
3.5554910854
 20
20.9939937489
 30
0.0
 10
3.5522329385
 20
20.9920739354
 30
0.0
 10
3.5498980291
 20
20.9906936466
 30
0.0
 10
3.5483551889
 20
20.9897793255
 30
0.0
 10
3.5469542023
 20
20.9889466139
 30
0.0
 10
3.5456968498
 20
20.9881965775
 30
0.0
 10
3.5445849048
 20
20.9875302826
 30
0.0
 10
3.5436199693
 20
20.98694871
 30
0.0
 10
3.5428032695
 20
20.9864526059
 30
0.0
 10
3.5422162142
 20
20.9860921296
 30
0.0
 10
3.5418214897
 20
20.985846471
 30
0.0
 10
3.5415812935
 20
20.9856953056
 30
0.0
 10
3.5413785716
 20
20.9855657781
 30
0.0
 10
3.5412136936
 20
20.9854582702
 30
0.0
 10
3.5410858434
 20
20.9853720508
 30
0.0
 10
3.5409970015
 20
20.9853092982
 30
0.0
 10
3.5409443248
 20
20.9852676237
 30
0.0
 10
3.540924185
 20
20.9852477559
 30
0.0
 10
3.5409188787
 20
20.9852386841
 30
0.0
 10
3.5409201727
 20
20.9852364401
 30
0.0
  0
SPLINE
  5
55B
100
AcDbEntity
  8
0
100
AcDbSpline
 62
9
  6
CONTINUOUS
 70
0
 71
3
 72
19
 73
15
 74
0
 42
0.0000001
 43
0.0000001
 44
0.0000000001
 40
0.0
 40
0.0
 40
0.0
 40
0.0
 40
0.1676937914
 40
0.3305020506
 40
0.4829728226
 40
0.6210290756
 40
0.6836738223
 40
0.7416350568
 40
0.7947912894
 40
0.8432364741
 40
0.8872528009
 40
0.9274049783
 40
0.9645877287
 40
1.0
 40
1.0
 40
1.0
 40
1.0
 10
3.6101626072
 20
21.0258624848
 30
0.0
 10
3.6123406776
 20
21.0221186283
 30
0.0
 10
3.6169348295
 20
21.0149107602
 30
0.0
 10
3.624491232
 20
21.0049661412
 30
0.0
 10
3.6324075789
 20
20.9963151326
 30
0.0
 10
3.6392653593
 20
20.9902618281
 30
0.0
 10
3.6447107325
 20
20.9863814945
 30
0.0
 10
3.6485648284
 20
20.9840709339
 30
0.0
 10
3.6522882266
 20
20.9822878192
 30
0.0
 10
3.6558482729
 20
20.9810460497
 30
0.0
 10
3.6592173874
 20
20.9803614625
 30
0.0
 10
3.662367042
 20
20.9802517959
 30
0.0
 10
3.6652618696
 20
20.9807188228
 30
0.0
 10
3.6670190434
 20
20.9814284918
 30
0.0
 10
3.6678196947
 20
20.9818707087
 30
0.0
  0
SPLINE
  5
55C
100
AcDbEntity
  8
0
100
AcDbSpline
 62
9
  6
CONTINUOUS
 70
0
 71
3
 72
17
 73
13
 74
0
 42
0.0000001
 43
0.0000001
 44
0.0000000001
 40
0.0
 40
0.0
 40
0.0
 40
0.0
 40
0.1239513694
 40
0.2479728474
 40
0.3721716785
 40
0.4344865142
 40
0.496877606
 40
0.6217802423
 40
0.7472368874
 40
0.8102192213
 40
0.8733539181
 40
1.0
 40
1.0
 40
1.0
 40
1.0
 10
4.1846968403
 20
21.3556508203
 30
0.0
 10
4.1869481755
 20
21.3517671304
 30
0.0
 10
4.1906205513
 20
21.343483872
 30
0.0
 10
4.1934138707
 20
21.3302015523
 30
0.0
 10
4.1933525332
 20
21.3188655206
 30
0.0
 10
4.191936473
 20
21.3099505711
 30
0.0
 10
4.1896266758
 20
21.3011961484
 30
0.0
 10
4.1850893213
 20
21.2907334425
 30
0.0
 10
4.1786494963
 20
21.2813054181
 30
0.0
 10
4.1725121076
 20
21.2745561704
 30
0.0
 10
4.1657626002
 20
21.2683589229
 30
0.0
 10
4.1600935801
 20
21.2643925131
 30
0.0
 10
4.1561239987
 20
21.2620947537
 30
0.0
  0
SPLINE
  5
55D
100
AcDbEntity
  8
0
100
AcDbSpline
 62
9
  6
CONTINUOUS
 70
0
 71
3
 72
13
 73
9
 74
0
 42
0.0000001
 43
0.0000001
 44
0.0000000001
 40
0.0
 40
0.0
 40
0.0
 40
0.0
 40
0.0819626972
 40
0.1803327953
 40
0.2933021214
 40
0.4188909615
 40
0.6987351342
 40
1.0
 40
1.0
 40
1.0
 40
1.0
 10
4.1846955527
 20
21.3556500943
 30
0.0
 10
4.1739903315
 20
21.3496654074
 30
0.0
 10
4.1504674406
 20
21.3364433974
 30
0.0
 10
4.1122675268
 20
21.3148342333
 30
0.0
 10
4.0684364776
 20
21.2899213618
 30
0.0
 10
4.0010594548
 20
21.2514812247
 30
0.0
 10
3.9093175256
 20
21.1988898148
 30
0.0
 10
3.8339698556
 20
21.1554869362
 30
0.0
 10
3.7949295803
 20
21.1329469703
 30
0.0
  0
SPLINE
  5
55E
100
AcDbEntity
  8
0
100
AcDbSpline
 62
9
  6
CONTINUOUS
 70
0
 71
3
 72
14
 73
10
 74
0
 42
0.0000001
 43
0.0000001
 44
0.0000000001
 40
0.0
 40
0.0
 40
0.0
 40
0.0
 40
0.2795637387
 40
0.4241096672
 40
0.5650932029
 40
0.6975723339
 40
0.8169034187
 40
0.9189040872
 40
1.0
 40
1.0
 40
1.0
 40
1.0
 10
3.6005783755
 20
21.0424622672
 30
0.0
 10
3.6541483017
 20
21.0731425357
 30
0.0
 10
3.7353352848
 20
21.1198269347
 30
0.0
 10
3.8433842648
 20
21.1822490506
 30
0.0
 10
3.9232435705
 20
21.2285382818
 30
0.0
 10
3.9982182649
 20
21.2721513334
 30
0.0
 10
4.0656810614
 20
21.3115579168
 30
0.0
 10
4.1232679124
 20
21.3453755048
 30
0.0
 10
4.1580665749
 20
21.3659612464
 30
0.0
 10
4.1734496599
 20
21.3751288245
 30
0.0
  0
LINE
  5
55F
100
AcDbEntity
  8
0
100
AcDbLine
 62
7
  6
CONTINUOUS
 10
4.1917596987
 20
21.3856643861
 11
4.1973525269
 21
21.3759433704
  0
SPLINE
  5
560
100
AcDbEntity
  8
0
100
AcDbSpline
 62
9
  6
CONTINUOUS
 70
0
 71
3
 72
18
 73
14
 74
0
 42
0.0000001
 43
0.0000001
 44
0.0000000001
 40
0.0
 40
0.0
 40
0.0
 40
0.0
 40
0.1731421154
 40
0.3496504559
 40
0.5199638329
 40
0.6733441305
 40
0.8001386276
 40
0.8520341527
 40
0.8957476025
 40
0.9312421248
 40
0.9593841842
 40
0.9816010715
 40
1.0
 40
1.0
 40
1.0
 40
1.0
 10
4.0719813566
 20
21.416024431
 30
0.0
 10
4.0725663895
 20
21.4150002313
 30
0.0
 10
4.0737089615
 20
21.4129094632
 30
0.0
 10
4.0752861997
 20
21.4097366475
 30
0.0
 10
4.0766578076
 20
21.4066156088
 30
0.0
 10
4.0777371273
 20
21.4037409883
 30
0.0
 10
4.0783643939
 20
21.401562871
 30
0.0
 10
4.0786453471
 20
21.4000729145
 30
0.0
 10
4.0787408254
 20
21.3991835926
 30
0.0
 10
4.0787357508
 20
21.3984500921
 30
0.0
 10
4.0786361301
 20
21.3978701327
 30
0.0
 10
4.0784476629
 20
21.3974343225
 30
0.0
 10
4.078248253
 20
21.3972297261
 30
0.0
 10
4.0781423604
 20
21.397162666
 30
0.0
  0
SPLINE
  5
561
100
AcDbEntity
  8
0
100
AcDbSpline
 62
9
  6
CONTINUOUS
 70
0
 71
3
 72
18
 73
14
 74
0
 42
0.0000001
 43
0.0000001
 44
0.0000000001
 40
0.0
 40
0.0
 40
0.0
 40
0.0
 40
0.0230429505
 40
0.0493562744
 40
0.0808061382
 40
0.1183989459
 40
0.1626124019
 40
0.2135190205
 40
0.3346360963
 40
0.4790240444
 40
0.6419353472
 40
0.8179348539
 40
1.0
 40
1.0
 40
1.0
 40
1.0
 10
3.8620191588
 20
21.2729652665
 30
0.0
 10
3.8621542623
 20
21.273049588
 30
0.0
 10
3.8624060729
 20
21.2732938788
 30
0.0
 10
3.862655703
 20
21.2738013856
 30
0.0
 10
3.8628016788
 20
21.2744483246
 30
0.0
 10
3.862845172
 20
21.2752324136
 30
0.0
 10
3.8627855738
 20
21.2761492498
 30
0.0
 10
3.8625615841
 20
21.2776281345
 30
0.0
 10
3.8620255476
 20
21.2797525508
 30
0.0
 10
3.8610907912
 20
21.2825637639
 30
0.0
 10
3.8598308785
 20
21.2856600412
 30
0.0
 10
3.8582694557
 20
21.2889065305
 30
0.0
 10
3.8570831487
 20
21.2910797178
 30
0.0
 10
3.8564533478
 20
21.2921690803
 30
0.0
  0
SPLINE
  5
562
100
AcDbEntity
  8
0
100
AcDbSpline
 62
9
  6
CONTINUOUS
 70
0
 71
3
 72
21
 73
17
 74
0
 42
0.0000001
 43
0.0000001
 44
0.0000000001
 40
0.0
 40
0.0
 40
0.0
 40
0.0
 40
0.0618014329
 40
0.1236846576
 40
0.1855641455
 40
0.2475132131
 40
0.3095861662
 40
0.3717911583
 40
0.4963939371
 40
0.6215285467
 40
0.6843452597
 40
0.7472573979
 40
0.8103242048
 40
0.8735845966
 40
0.9368805299
 40
1.0
 40
1.0
 40
1.0
 40
1.0
 10
4.0719808788
 20
21.4160242013
 30
0.0
 10
4.0744598701
 20
21.417382944
 30
0.0
 10
4.0795143016
 20
21.4199374048
 30
0.0
 10
4.0873720959
 20
21.4231721815
 30
0.0
 10
4.0954989833
 20
21.4256913159
 30
0.0
 10
4.1038471568
 20
21.4273817843
 30
0.0
 10
4.1123343075
 20
21.4282563194
 30
0.0
 10
4.1237321603
 20
21.4283395781
 30
0.0
 10
4.137966546
 20
21.4263974892
 30
0.0
 10
4.1515581618
 20
21.4216375161
 30
0.0
 10
4.161712731
 20
21.4162587931
 30
0.0
 10
4.1689098752
 20
21.411458263
 30
0.0
 10
4.175610261
 20
21.4059565688
 30
0.0
 10
4.1817610544
 20
21.3998210357
 30
0.0
 10
4.1872640258
 20
21.3930931007
 30
0.0
 10
4.1903866417
 20
21.3882044675
 30
0.0
 10
4.1917750664
 20
21.3856729929
 30
0.0
  0
SPLINE
  5
563
100
AcDbEntity
  8
0
100
AcDbSpline
 62
9
  6
CONTINUOUS
 70
0
 71
3
 72
17
 73
13
 74
0
 42
0.0000001
 43
0.0000001
 44
0.0000000001
 40
0.0
 40
0.0
 40
0.0
 40
0.0
 40
0.1266459788
 40
0.1897810335
 40
0.25276368
 40
0.3782203438
 40
0.5031228222
 40
0.5655140402
 40
0.6278290735
 40
0.7520278303
 40
0.8760480822
 40
1.0
 40
1.0
 40
1.0
 40
1.0
 10
4.0781422912
 20
21.3971626243
 30
0.0
 10
4.0821169986
 20
21.3994515124
 30
0.0
 10
4.0883865386
 20
21.4023778319
 30
0.0
 10
4.0971282926
 20
21.405124485
 30
0.0
 10
4.1060420385
 20
21.4070650362
 30
0.0
 10
4.1174268834
 20
21.4079281169
 30
0.0
 10
4.1287565496
 20
21.4066262128
 30
0.0
 10
4.1374930124
 20
21.4042493089
 30
0.0
 10
4.1459216283
 20
21.4010181471
 30
0.0
 10
4.1557695755
 20
21.395403286
 30
0.0
 10
4.1658758065
 20
21.3863431161
 30
0.0
 10
4.1712131006
 20
21.3790210986
 30
0.0
 10
4.1734508082
 20
21.3751295095
 30
0.0
  0
SPLINE
  5
564
100
AcDbEntity
  8
0
100
AcDbSpline
 62
9
  6
CONTINUOUS
 70
0
 71
3
 72
19
 73
15
 74
0
 42
0.0000001
 43
0.0000001
 44
0.0000000001
 40
0.0
 40
0.0
 40
0.0
 40
0.0
 40
0.1676930349
 40
0.3305006624
 40
0.4829710362
 40
0.6210271997
 40
0.6836720259
 40
0.7416334199
 40
0.7947898884
 40
0.843235377
 40
0.8872520615
 40
0.9274046105
 40
0.9645876477
 40
1.0
 40
1.0
 40
1.0
 40
1.0
 10
3.6005788264
 20
21.0424625273
 30
0.0
 10
3.5984255999
 20
21.0462206928
 30
0.0
 10
3.5944805024
 20
21.0538032277
 30
0.0
 10
3.5896464352
 20
21.0653195011
 30
0.0
 10
3.5861126223
 20
21.0765007051
 30
0.0
 10
3.5842991897
 20
21.0854663343
 30
0.0
 10
3.5836613909
 20
21.0921223184
 30
0.0
 10
3.5835874162
 20
21.0966153447
 30
0.0
 10
3.5839048688
 20
21.1007314692
 30
0.0
 10
3.5846094602
 20
21.1044354639
 30
0.0
 10
3.5857011174
 20
21.1076955253
 30
0.0
 10
3.5871809363
 20
21.1104780778
 30
0.0
 10
3.5890327656
 20
21.1127516067
 30
0.0
 10
3.5905259154
 20
21.1139185729
 30
0.0
 10
3.5913091986
 20
21.1143908708
 30
0.0
  0
SPLINE
  5
565
100
AcDbEntity
  8
0
100
AcDbSpline
 62
7
  6
CONTINUOUS
 70
0
 71
3
 72
27
 73
23
 74
0
 42
0.0000001
 43
0.0000001
 44
0.0000000001
 40
0.0
 40
0.0
 40
0.0
 40
0.0
 40
0.0628330174
 40
0.1257048185
 40
0.1885375461
 40
0.2513336642
 40
0.2827272004
 40
0.3141089453
 40
0.345476533
 40
0.3768285254
 40
0.4394647604
 40
0.5020288999
 40
0.5645162801
 40
0.6269247804
 40
0.6581088444
 40
0.6892742059
 40
0.7204212505
 40
0.7515497805
 40
0.8137341314
 40
0.8758653668
 40
0.9379708596
 40
1.0
 40
1.0
 40
1.0
 40
1.0
 10
4.9528765219
 20
-0.3280122732
 30
0.0
 10
4.9449522126
 20
-0.4294530931
 30
0.0
 10
4.9386355169
 20
-0.6332688148
 30
0.0
 10
4.9577252408
 20
-0.9384121669
 30
0.0
 10
5.0053316125
 20
-1.2403784134
 30
0.0
 10
5.0683794903
 20
-1.4871342043
 30
0.0
 10
5.1324826019
 20
-1.6801772428
 30
0.0
 10
5.1872738831
 20
-1.822505053
 30
0.0
 10
5.2486718419
 20
-1.9620373342
 30
0.0
 10
5.3391218913
 20
-2.1438384068
 30
0.0
 10
5.4679621889
 20
-2.3626494377
 30
0.0
 10
5.6464708142
 20
-2.6091895849
 30
0.0
 10
5.8471839043
 20
-2.8375269071
 30
0.0
 10
6.0315993011
 20
-3.0109724599
 30
0.0
 10
6.1882797226
 20
-3.1386136479
 30
0.0
 10
6.3101310639
 20
-3.2285792756
 30
0.0
 10
6.4360525936
 20
-3.3125911187
 30
0.0
 10
6.6088893567
 20
-3.4163878066
 30
0.0
 10
6.8337691897
 20
-3.5304146724
 30
0.0
 10
7.1152418714
 20
-3.6407934336
 30
0.0
 10
7.40573157
 20
-3.7236479842
 30
0.0
 10
7.6037781185
 20
-3.7601517
 30
0.0
 10
7.7033230606
 20
-3.7735913112
 30
0.0
  0
SPLINE
  5
566
100
AcDbEntity
  8
0
100
AcDbSpline
 62
7
  6
CONTINUOUS
 70
0
 71
3
 72
28
 73
24
 74
0
 42
0.0000001
 43
0.0000001
 44
0.0000000001
 40
0.0
 40
0.0
 40
0.0
 40
0.0
 40
0.0627338332
 40
0.1255070841
 40
0.1882460243
 40
0.2509567531
 40
0.2823118883
 40
0.3136586494
 40
0.344995079
 40
0.3763200804
 40
0.4389159397
 40
0.5014595739
 40
0.5639475946
 40
0.6263785444
 40
0.6575819245
 40
0.6887719256
 40
0.719948795
 40
0.751112128
 40
0.7822615179
 40
0.8133978902
 40
0.875628964
 40
0.937847157
 40
1.0
 40
1.0
 40
1.0
 40
1.0
 10
4.3945774002
 20
-0.2843993083
 30
0.0
 10
4.3852845757
 20
-0.4033587915
 30
0.0
 10
4.3778851769
 20
-0.6423753642
 30
0.0
 10
4.4003110816
 20
-1.0002264049
 30
0.0
 10
4.4562083335
 20
-1.3543697962
 30
0.0
 10
4.530229779
 20
-1.6437782947
 30
0.0
 10
4.6054919492
 20
-1.8702092962
 30
0.0
 10
4.6698281645
 20
-2.0371750098
 30
0.0
 10
4.7419267258
 20
-2.2008767212
 30
0.0
 10
4.848157847
 20
-2.4142059044
 30
0.0
 10
4.9995031282
 20
-2.6710078203
 30
0.0
 10
5.2092230019
 20
-2.9604028852
 30
0.0
 10
5.4450870454
 20
-3.2285015799
 30
0.0
 10
5.6618354931
 20
-3.4321883127
 30
0.0
 10
5.8460206198
 20
-3.5821178945
 30
0.0
 10
5.9892940935
 20
-3.6878179828
 30
0.0
 10
6.1373684642
 20
-3.7865357627
 30
0.0
 10
6.2899000896
 20
-3.8780660271
 30
0.0
 10
6.4465531029
 20
-3.9621955727
 30
0.0
 10
6.6603825855
 20
-4.0641869055
 30
0.0
 10
6.9363699561
 20
-4.1723564358
 30
0.0
 10
7.2781793397
 20
-4.2697922129
 30
0.0
 10
7.5112430484
 20
-4.3127392397
 30
0.0
 10
7.6283969735
 20
-4.3285562484
 30
0.0
  0
SPLINE
  5
567
100
AcDbEntity
  8
0
100
AcDbSpline
 62
9
  6
CONTINUOUS
 70
0
 71
3
 72
10
 73
6
 74
0
 42
0.0000001
 43
0.0000001
 44
0.0000000001
 40
0.0
 40
0.0
 40
0.0
 40
0.0
 40
0.1559817117
 40
0.3757473727
 40
1.0
 40
1.0
 40
1.0
 40
1.0
 10
4.3977195544
 20
-0.2841541003
 30
0.0
 10
4.3990942351
 20
-0.2841541003
 30
0.0
 10
4.4024054604
 20
-0.2842260941
 30
0.0
 10
4.411212553
 20
-0.2845493026
 30
0.0
 10
4.4186414838
 20
-0.2849340538
 30
0.0
 10
4.4241349282
 20
-0.2852333869
 30
0.0
  0
SPLINE
  5
568
100
AcDbEntity
  8
0
100
AcDbSpline
 62
9
  6
CONTINUOUS
 70
0
 71
3
 72
35
 73
31
 74
0
 42
0.0000001
 43
0.0000001
 44
0.0000000001
 40
0.0
 40
0.0
 40
0.0
 40
0.0
 40
0.0459214319
 40
0.1037200394
 40
0.2483259419
 40
0.3310807592
 40
0.4177676687
 40
0.5059793395
 40
0.5932388768
 40
0.6771192006
 40
0.755263057
 40
0.7914985479
 40
0.8255049438
 40
0.8570307261
 40
0.8858563775
 40
0.9117964632
 40
0.9346672583
 40
0.9542903692
 40
0.9628422715
 40
0.9705376575
 40
0.977364085
 40
0.9833091678
 40
0.9883606171
 40
0.9925063301
 40
0.9957364172
 40
0.9980507886
 40
0.9988663448
 40
0.9994562691
 40
0.9998256882
 40
1.0
 40
1.0
 40
1.0
 40
1.0
 10
4.4241349282
 20
-0.2852333869
 30
0.0
 10
4.4322442573
 20
-0.2856752573
 30
0.0
 10
4.4505550752
 20
-0.2867687759
 30
0.0
 10
4.4943801283
 20
-0.2896144001
 30
0.0
 10
4.5446865527
 20
-0.2931679431
 30
0.0
 10
4.6000763508
 20
-0.2972547507
 30
0.0
 10
4.6455124913
 20
-0.3007044336
 30
0.0
 10
4.6917360546
 20
-0.3043047534
 30
0.0
 10
4.7374577257
 20
-0.3079558348
 30
0.0
 10
4.7813972397
 20
-0.3115551847
 30
0.0
 10
4.8163365245
 20
-0.3144971581
 30
0.0
 10
4.8424818455
 20
-0.316753749
 30
0.0
 10
4.860410748
 20
-0.3183288799
 30
0.0
 10
4.8770316144
 20
-0.3198187508
 30
0.0
 10
4.8922287506
 20
-0.3212129656
 30
0.0
 10
4.9058984559
 20
-0.3225014805
 30
0.0
 10
4.9179442324
 20
-0.3236749602
 30
0.0
 10
4.9269257027
 20
-0.3245870773
 30
0.0
 10
4.9332340721
 20
-0.3252566819
 30
0.0
 10
4.9372903885
 20
-0.3257019477
 30
0.0
 10
4.9408866155
 20
-0.3261128942
 30
0.0
 10
4.9440162753
 20
-0.3264887091
 30
0.0
 10
4.946672437
 20
-0.326828316
 30
0.0
 10
4.9488499528
 20
-0.3271309127
 30
0.0
 10
4.950541933
 20
-0.327394356
 30
0.0
 10
4.9516512808
 20
-0.3275994253
 30
0.0
 10
4.9522884346
 20
-0.327746979
 30
0.0
 10
4.9525954988
 20
-0.3278410824
 30
0.0
 10
4.9527706692
 20
-0.3279069905
 30
0.0
 10
4.9528627218
 20
-0.327980276
 30
0.0
 10
4.9528607022
 20
-0.3280110374
 30
0.0
  0
SPLINE
  5
569
100
AcDbEntity
  8
0
100
AcDbSpline
 62
9
  6
CONTINUOUS
 70
0
 71
3
 72
9
 73
5
 74
0
 42
0.0000001
 43
0.0000001
 44
0.0000000001
 40
0.0
 40
0.0
 40
0.0
 40
0.0
 40
0.4838690151
 40
1.0
 40
1.0
 40
1.0
 40
1.0
 10
16.7097011496
 20
-5.5320423463
 30
0.0
 10
16.6344136111
 20
-5.5296617228
 30
0.0
 10
16.4789469336
 20
-5.5200506296
 30
0.0
 10
16.3242009974
 20
-5.5025247182
 30
0.0
 10
16.244575943
 20
-5.4917745007
 30
0.0
  0
SPLINE
  5
56A
100
AcDbEntity
  8
0
100
AcDbSpline
 62
9
  6
CONTINUOUS
 70
0
 71
3
 72
69
 73
65
 74
0
 42
0.0000001
 43
0.0000001
 44
0.0000000001
 40
0.0
 40
0.0
 40
0.0
 40
0.0
 40
0.0158370922
 40
0.0320725462
 40
0.048709617
 40
0.0657469942
 40
0.0831793736
 40
0.1009978066
 40
0.1191905442
 40
0.137743559
 40
0.1566407401
 40
0.1758631973
 40
0.2151982
 40
0.2555696399
 40
0.2967827211
 40
0.3386312584
 40
0.3808957662
 40
0.4233480423
 40
0.4657555604
 40
0.5078826334
 40
0.5494891666
 40
0.590332265
 40
0.630168127
 40
0.6687532644
 40
0.7058434218
 40
0.7237517127
 40
0.7411953698
 40
0.7581442312
 40
0.7745684746
 40
0.7904391316
 40
0.8057280686
 40
0.8204057524
 40
0.8344424064
 40
0.8478101035
 40
0.8604832288
 40
0.872436828
 40
0.8836474405
 40
0.8940933133
 40
0.9037551159
 40
0.9082885375
 40
0.9126221092
 40
0.9206881727
 40
0.9244260433
 40
0.9279721524
 40
0.93133168
 40
0.9345108738
 40
0.9403854407
 40
0.943124305
 40
0.945757486
 40
0.9483120947
 40
0.9508246294
 40
0.9533332161
 40
0.9558759392
 40
0.9584882835
 40
0.9612032587
 40
0.9640549411
 40
0.9670779827
 40
0.9703029154
 40
0.9737493949
 40
0.9813761145
 40
0.9855941685
 40
0.9900979573
 40
0.9948969204
 40
1.0
 40
1.0
 40
1.0
 40
1.0
 10
11.0695964175
 20
12.785763248
 30
0.0
 10
11.0789552708
 20
12.6809827623
 30
0.0
 10
11.102485546
 20
12.4691742127
 30
0.0
 10
11.150617897
 20
12.1491528827
 30
0.0
 10
11.211379731
 20
11.8231793957
 30
0.0
 10
11.2841314154
 20
11.4915384541
 30
0.0
 10
11.3682296604
 20
11.1545060519
 30
0.0
 10
11.4630981115
 20
10.8123816075
 30
0.0
 10
11.5681679385
 20
10.4654717763
 30
0.0
 10
11.6828691747
 20
10.1140859937
 30
0.0
 10
11.8066247618
 20
9.75853918
 30
0.0
 10
11.9843332444
 20
9.2756897256
 30
0.0
 10
12.2262614035
 20
8.6645963387
 30
0.0
 10
12.5416734635
 20
7.9258327069
 30
0.0
 10
12.8800194781
 20
7.1789395259
 30
0.0
 10
13.236899
 20
6.4268018451
 30
0.0
 10
13.607969071
 20
5.6723926996
 30
0.0
 10
13.9888859436
 20
4.9187551791
 30
0.0
 10
14.3752894937
 20
4.1689501304
 30
0.0
 10
14.7628086307
 20
3.4260560425
 30
0.0
 10
15.1470723333
 20
2.6931882264
 30
0.0
 10
15.5237018437
 20
1.9735018179
 30
0.0
 10
15.8883105813
 20
1.2701788169
 30
0.0
 10
16.2364862861
 20
0.5864335889
 30
0.0
 10
16.5124205752
 20
0.0293812469
 30
0.0
 10
16.7208934131
 20
-0.4043161012
 30
0.0
 10
16.8685296345
 20
-0.7187986419
 30
0.0
 10
17.0087279355
 20
-1.0258637799
 30
0.0
 10
17.1409286808
 20
-1.3250695257
 30
0.0
 10
17.2645750542
 20
-1.6159690598
 30
0.0
 10
17.379093599
 20
-1.8981018686
 30
0.0
 10
17.4839544658
 20
-2.1709562923
 30
0.0
 10
17.5786421882
 20
-2.4339855448
 30
0.0
 10
17.6626361958
 20
-2.6866342402
 30
0.0
 10
17.7353991959
 20
-2.9283361942
 30
0.0
 10
17.7964506843
 20
-3.1584750366
 30
0.0
 10
17.8453158645
 20
-3.376383837
 30
0.0
 10
17.8816247139
 20
-3.5813014954
 30
0.0
 10
17.9016049922
 20
-3.7438584651
 30
0.0
 10
17.9107181298
 20
-3.8666212569
 30
0.0
 10
17.9152148454
 20
-3.9790213459
 30
0.0
 10
17.9136847469
 20
-4.0863464453
 30
0.0
 10
17.9053242297
 20
-4.1879975519
 30
0.0
 10
17.8961876546
 20
-4.2581323376
 30
0.0
 10
17.8841279605
 20
-4.3240630479
 30
0.0
 10
17.8647800056
 20
-4.4042433248
 30
0.0
 10
17.8396494904
 20
-4.4787129608
 30
0.0
 10
17.8084323943
 20
-4.5466410797
 30
0.0
 10
17.783080817
 20
-4.5928430953
 30
0.0
 10
17.7551583594
 20
-4.6357592922
 30
0.0
 10
17.7243923859
 20
-4.6756510485
 30
0.0
 10
17.690521875
 20
-4.7128353135
 30
0.0
 10
17.6533103445
 20
-4.7476482296
 30
0.0
 10
17.6124549388
 20
-4.7803463969
 30
0.0
 10
17.5674619978
 20
-4.8108954408
 30
0.0
 10
17.5179029924
 20
-4.8392758815
 30
0.0
 10
17.4633669739
 20
-4.8654531705
 30
0.0
 10
17.4035253227
 20
-4.8893649669
 30
0.0
 10
17.3132218298
 20
-4.9189546243
 30
0.0
 10
17.2139550749
 20
-4.9416392094
 30
0.0
 10
17.1065508242
 20
-4.95783369
 30
0.0
 10
17.0171719616
 20
-4.9670001855
 30
0.0
 10
16.9216204662
 20
-4.9726071171
 30
0.0
 10
16.8558376995
 20
-4.9738139492
 30
0.0
 10
16.8219405812
 20
-4.9738213979
 30
0.0
  0
SPLINE
  5
56B
100
AcDbEntity
  8
0
100
AcDbSpline
 62
9
  6
CONTINUOUS
 70
0
 71
3
 72
39
 73
35
 74
0
 42
0.0000001
 43
0.0000001
 44
0.0000000001
 40
0.0
 40
0.0
 40
0.0
 40
0.0
 40
0.0035430162
 40
0.0074437176
 40
0.0119633578
 40
0.0172677828
 40
0.0234560501
 40
0.0305870454
 40
0.0477791378
 40
0.0688938203
 40
0.0938405294
 40
0.1224743184
 40
0.1545579291
 40
0.1898061085
 40
0.2279233343
 40
0.2685672595
 40
0.3113543471
 40
0.4017876705
 40
0.4958896217
 40
0.5901722168
 40
0.6811343762
 40
0.7654235799
 40
0.8040811233
 40
0.8399416576
 40
0.872697482
 40
0.9020502017
 40
0.9277623492
 40
0.9496734448
 40
0.9676666602
 40
0.9817480368
 40
0.9874061576
 40
0.9922310375
 40
0.9963556199
 40
1.0
 40
1.0
 40
1.0
 40
1.0
 10
7.703322951
 20
-3.773592122
 30
0.0
 10
7.7039972833
 20
-3.773684438
 30
0.0
 10
7.705387718
 20
-3.7741292464
 30
0.0
 10
7.7072857567
 20
-3.77546986
 30
0.0
 10
7.709052242
 20
-3.7774490504
 30
0.0
 10
7.7107025981
 20
-3.7800562989
 30
0.0
 10
7.7122444953
 20
-3.7832916029
 30
0.0
 10
7.7142804832
 20
-3.788794236
 30
0.0
 10
7.7164210327
 20
-3.7972778233
 30
0.0
 10
7.7184125737
 20
-3.8092713893
 30
0.0
 10
7.7199263905
 20
-3.8235474445
 30
0.0
 10
7.7209403117
 20
-3.8399761846
 30
0.0
 10
7.7214444881
 20
-3.8584074829
 30
0.0
 10
7.7214329685
 20
-3.8786666745
 30
0.0
 10
7.720897986
 20
-3.9005634035
 30
0.0
 10
7.7198446213
 20
-3.9238908311
 30
0.0
 10
7.7177262413
 20
-3.9572248781
 30
0.0
 10
7.7138404884
 20
-4.0007289305
 30
0.0
 10
7.707508749
 20
-4.0539219306
 30
0.0
 10
7.6996482665
 20
-4.1070140368
 30
0.0
 10
7.6905662224
 20
-4.1579969571
 30
0.0
 10
7.6820468779
 20
-4.1982069847
 30
0.0
 10
7.6748086606
 20
-4.227845368
 30
0.0
 10
7.6694569827
 20
-4.2477481495
 30
0.0
 10
7.6640828362
 20
-4.2657873602
 30
0.0
 10
7.6587359207
 20
-4.2817924502
 30
0.0
 10
7.6534669996
 20
-4.2956142076
 30
0.0
 10
7.6483341986
 20
-4.3071385658
 30
0.0
 10
7.6433858094
 20
-4.3162629619
 30
0.0
 10
7.63918635
 20
-4.3222180403
 30
0.0
 10
7.6358662654
 20
-4.3255874718
 30
0.0
 10
7.6336182861
 20
-4.3272893604
 30
0.0
 10
7.6314209774
 20
-4.3283496352
 30
0.0
 10
7.6299233491
 20
-4.3286115285
 30
0.0
 10
7.6292232549
 20
-4.3286115285
 30
0.0
  0
SPLINE
  5
56C
100
AcDbEntity
  8
0
100
AcDbSpline
 62
9
  6
CONTINUOUS
 70
0
 71
3
 72
39
 73
35
 74
0
 42
0.0000001
 43
0.0000001
 44
0.0000000001
 40
0.0
 40
0.0
 40
0.0
 40
0.0
 40
0.0001953703
 40
0.0006290508
 40
0.0013270021
 40
0.0022942355
 40
0.0035325782
 40
0.0050429397
 40
0.0088813754
 40
0.0138038973
 40
0.019795051
 40
0.0268385812
 40
0.0349180568
 40
0.0440169543
 40
0.0541186973
 40
0.0772517135
 40
0.1040991628
 40
0.1344170015
 40
0.1679589257
 40
0.2044336259
 40
0.2435069764
 40
0.2848430913
 40
0.3280913216
 40
0.3728640697
 40
0.4654082753
 40
0.5592635573
 40
0.6511450235
 40
0.8163816733
 40
0.8839706686
 40
0.9382745234
 40
0.959841009
 40
0.9774089946
 40
0.9908396255
 40
1.0
 40
1.0
 40
1.0
 40
1.0
 10
5.6788067049
 20
8.9649828495
 30
0.0
 10
5.6788090813
 20
8.9650190452
 30
0.0
 10
5.6786883544
 20
8.9651012006
 30
0.0
 10
5.6784750618
 20
8.9651756514
 30
0.0
 10
5.6780890731
 20
8.9652840717
 30
0.0
 10
5.6775665398
 20
8.9653966466
 30
0.0
 10
5.6768869394
 20
8.9655258031
 30
0.0
 10
5.6756817172
 20
8.9657289416
 30
0.0
 10
5.6737943349
 20
8.9660069211
 30
0.0
 10
5.6710792453
 20
8.9663662627
 30
0.0
 10
5.667769774
 20
8.96677139
 30
0.0
 10
5.6638754578
 20
8.9672209131
 30
0.0
 10
5.6594053041
 20
8.967713513
 30
0.0
 10
5.6543685876
 20
8.9682480494
 30
0.0
 10
5.6465498819
 20
8.9690520954
 30
0.0
 10
5.6354485031
 20
8.9701473422
 30
0.0
 10
5.6206064948
 20
8.9715559254
 30
0.0
 10
5.6038360238
 20
8.9730986433
 30
0.0
 10
5.585281668
 20
8.9747615821
 30
0.0
 10
5.5651047024
 20
8.9765301452
 30
0.0
 10
5.5434830138
 20
8.9783889542
 30
0.0
 10
5.5206054367
 20
8.9803214992
 30
0.0
 10
5.4966707164
 20
8.9823107216
 30
0.0
 10
5.4632576442
 20
8.9850460809
 30
0.0
 10
5.4204737237
 20
8.9884723721
 30
0.0
 10
5.3689624038
 20
8.9924854528
 30
0.0
 10
5.3039842435
 20
8.997401722
 30
0.0
 10
5.2438542618
 20
9.0017578202
 30
0.0
 10
5.1906635906
 20
9.0053269813
 30
0.0
 10
5.1640793931
 20
9.0069844877
 30
0.0
 10
5.1467579278
 20
9.0079496153
 30
0.0
 10
5.137010189
 20
9.0084344829
 30
0.0
 10
5.1295601757
 20
9.0087328776
 30
0.0
 10
5.1253663286
 20
9.0088397866
 30
0.0
 10
5.1236655571
 20
9.0088397866
 30
0.0
  0
SPLINE
  5
56D
100
AcDbEntity
  8
0
100
AcDbSpline
 62
7
  6
CONTINUOUS
 70
0
 71
3
 72
19
 73
15
 74
0
 42
0.0000001
 43
0.0000001
 44
0.0000000001
 40
0.0
 40
0.0
 40
0.0
 40
0.0
 40
0.1250514922
 40
0.1877041481
 40
0.2502350698
 40
0.3126964287
 40
0.375146917
 40
0.4999999653
 40
0.6248531638
 40
0.6873036597
 40
0.7497649161
 40
0.8122957193
 40
0.8749483524
 40
1.0
 40
1.0
 40
1.0
 40
1.0
 10
11.6037525043
 20
14.2434384678
 30
0.0
 10
11.5886520627
 20
14.2515690375
 30
0.0
 10
11.5647441183
 20
14.2615549916
 30
0.0
 10
11.5318010163
 20
14.2712026185
 30
0.0
 10
11.50667897
 20
14.2768699413
 30
0.0
 10
11.4813058062
 20
14.2810754622
 30
0.0
 10
11.4472555958
 20
14.2849129283
 30
0.0
 10
11.4044265172
 20
14.286800785
 30
0.0
 10
11.3615975398
 20
14.2849117966
 30
0.0
 10
11.3275472766
 20
14.2810748385
 30
0.0
 10
11.3021740434
 20
14.2768699187
 30
0.0
 10
11.2770519163
 20
14.271203077
 30
0.0
 10
11.2441088115
 20
14.2615553833
 30
0.0
 10
11.2202010211
 20
14.2515690476
 30
0.0
 10
11.2051005607
 20
14.2434384678
 30
0.0
  0
SPLINE
  5
56E
100
AcDbEntity
  8
0
100
AcDbSpline
 62
7
  6
CONTINUOUS
 70
0
 71
3
 72
14
 73
10
 74
0
 42
0.0000001
 43
0.0000001
 44
0.0000000001
 40
0.0
 40
0.0
 40
0.0
 40
0.0
 40
0.1361338164
 40
0.2666360908
 40
0.5160953186
 40
0.6378498114
 40
0.7587077141
 40
0.8792396292
 40
1.0
 40
1.0
 40
1.0
 40
1.0
 10
11.1102854257
 20
14.2434384678
 30
0.0
 10
11.1046521699
 20
14.2482480429
 30
0.0
 10
11.092947525
 20
14.2569166448
 30
0.0
 10
11.0683073005
 20
14.2705065967
 30
0.0
 10
11.0422346084
 20
14.2794176113
 30
0.0
 10
11.0158676275
 20
14.2841975048
 30
0.0
 10
10.99616754
 20
14.2860342435
 30
0.0
 10
10.9764409482
 20
14.2861831534
 30
0.0
 10
10.9633332843
 20
14.2851546675
 30
0.0
 10
10.9568104799
 20
14.2843631624
 30
0.0
  0
SPLINE
  5
56F
100
AcDbEntity
  8
0
100
AcDbSpline
 62
7
  6
CONTINUOUS
 70
0
 71
3
 72
11
 73
7
 74
0
 42
0.0000001
 43
0.0000001
 44
0.0000000001
 40
0.0
 40
0.0
 40
0.0
 40
0.0
 40
0.2388832246
 40
0.4824469876
 40
0.7346938013
 40
1.0
 40
1.0
 40
1.0
 40
1.0
 10
10.9568104799
 20
14.2843631624
 30
0.0
 10
10.9483057453
 20
14.2833311615
 30
0.0
 10
10.93122375
 20
14.2802904929
 30
0.0
 10
10.9060238932
 20
14.2723276057
 30
0.0
 10
10.8813440547
 20
14.2604282388
 30
0.0
 10
10.8661141913
 20
14.2496165442
 30
0.0
 10
10.8588780666
 20
14.2434384678
 30
0.0
  0
SPLINE
  5
570
100
AcDbEntity
  8
0
100
AcDbSpline
 62
7
  6
CONTINUOUS
 70
0
 71
3
 72
11
 73
7
 74
0
 42
0.0000001
 43
0.0000001
 44
0.0000000001
 40
0.0
 40
0.0
 40
0.0
 40
0.0
 40
0.2653223191
 40
0.5175753771
 40
0.7611349172
 40
1.0
 40
1.0
 40
1.0
 40
1.0
 10
10.8588780666
 20
13.8380880281
 30
0.0
 10
10.866146127
 20
13.8318826856
 30
0.0
 10
10.8814479995
 20
13.8210285815
 30
0.0
 10
10.9062506454
 20
13.8091064836
 30
0.0
 10
10.9315704356
 20
13.8011430214
 30
0.0
 10
10.9487315423
 20
13.7981180102
 30
0.0
 10
10.9572747352
 20
13.7970989801
 30
0.0
  0
SPLINE
  5
571
100
AcDbEntity
  8
0
100
AcDbSpline
 62
7
  6
CONTINUOUS
 70
0
 71
3
 72
14
 73
10
 74
0
 42
0.0000001
 43
0.0000001
 44
0.0000000001
 40
0.0
 40
0.0
 40
0.0
 40
0.0
 40
0.1207297689
 40
0.2412463927
 40
0.3620937143
 40
0.4838396428
 40
0.7333489141
 40
0.8638690615
 40
1.0
 40
1.0
 40
1.0
 40
1.0
 10
10.9572747352
 20
13.7970989801
 30
0.0
 10
10.9637789164
 20
13.7963231629
 30
0.0
 10
10.9768487318
 20
13.7953235958
 30
0.0
 10
10.9965155762
 20
13.7955067932
 30
0.0
 10
11.0161552132
 20
13.7973637316
 30
0.0
 10
11.0424422318
 20
13.8021663208
 30
0.0
 10
11.0684342348
 20
13.8110770456
 30
0.0
 10
11.0929991491
 20
13.8246446697
 30
0.0
 10
11.1046683238
 20
13.833292245
 30
0.0
 10
11.1102854257
 20
13.8380880281
 30
0.0
  0
SPLINE
  5
572
100
AcDbEntity
  8
0
100
AcDbSpline
 62
7
  6
CONTINUOUS
 70
0
 71
3
 72
19
 73
15
 74
0
 42
0.0000001
 43
0.0000001
 44
0.0000000001
 40
0.0
 40
0.0
 40
0.0
 40
0.0
 40
0.1250509616
 40
0.1877362344
 40
0.2503029501
 40
0.312756236
 40
0.3751791029
 40
0.4999996597
 40
0.624820947
 40
0.6872444143
 40
0.7496979922
 40
0.8122643411
 40
0.8749492269
 40
1.0
 40
1.0
 40
1.0
 40
1.0
 10
11.2051005607
 20
13.8380880281
 30
0.0
 10
11.2202010617
 20
13.8299574264
 30
0.0
 10
11.2441095252
 20
13.8199606401
 30
0.0
 10
11.2770640366
 20
13.8103163117
 30
0.0
 10
11.3021957512
 20
13.804654148
 30
0.0
 10
11.3275680684
 20
13.8004429443
 30
0.0
 10
11.3616094399
 20
13.7966052836
 30
0.0
 10
11.4044265308
 20
13.7947339234
 30
0.0
 10
11.4472437116
 20
13.7966050574
 30
0.0
 10
11.4812853311
 20
13.8004425225
 30
0.0
 10
11.5066577148
 20
13.8046537997
 30
0.0
 10
11.5317893073
 20
13.8103162214
 30
0.0
 10
11.5647436292
 20
13.8199607167
 30
0.0
 10
11.5886520261
 20
13.8299574387
 30
0.0
 10
11.6037525043
 20
13.8380880281
 30
0.0
  0
SPLINE
  5
573
100
AcDbEntity
  8
0
100
AcDbSpline
 62
7
  6
CONTINUOUS
 70
0
 71
3
 72
11
 73
7
 74
0
 42
0.0000001
 43
0.0000001
 44
0.0000000001
 40
0.0
 40
0.0
 40
0.0
 40
0.0
 40
0.297566181
 40
0.5549373308
 40
0.7852978978
 40
1.0
 40
1.0
 40
1.0
 40
1.0
 10
11.68337486
 20
13.8380880281
 30
0.0
 10
11.6874935012
 20
13.8320840396
 30
0.0
 10
11.6961101948
 20
13.8214677834
 30
0.0
 10
11.7110114581
 20
13.8091421884
 30
0.0
 10
11.7262694947
 20
13.8009838436
 30
0.0
 10
11.7368003389
 20
13.7978975533
 30
0.0
 10
11.7419607066
 20
13.7969135526
 30
0.0
  0
SPLINE
  5
574
100
AcDbEntity
  8
0
100
AcDbSpline
 62
7
  6
CONTINUOUS
 70
0
 71
3
 72
15
 73
11
 74
0
 42
0.0000001
 43
0.0000001
 44
0.0000000001
 40
0.0
 40
0.0
 40
0.0
 40
0.0
 40
0.1145111087
 40
0.2282449065
 40
0.3428000317
 40
0.4598121212
 40
0.581344237
 40
0.7099551228
 40
0.8484823299
 40
1.0
 40
1.0
 40
1.0
 40
1.0
 10
11.7419607066
 20
13.7969135526
 30
0.0
 10
11.7452982668
 20
13.7962771324
 30
0.0
 10
11.7520375928
 20
13.7954195956
 30
0.0
 10
11.7622358761
 20
13.7954380566
 30
0.0
 10
11.7724220757
 20
13.7967685813
 30
0.0
 10
11.7825875565
 20
13.7994209516
 30
0.0
 10
11.7926978844
 20
13.8035676956
 30
0.0
 10
11.8027072934
 20
13.8093645512
 30
0.0
 10
11.8125727689
 20
13.8169697957
 30
0.0
 10
11.8186532933
 20
13.8231007304
 30
0.0
 10
11.8216213345
 20
13.8264774621
 30
0.0
  0
SPLINE
  5
575
100
AcDbEntity
  8
0
100
AcDbSpline
 62
9
  6
CONTINUOUS
 70
0
 71
3
 72
15
 73
11
 74
0
 42
0.0000001
 43
0.0000001
 44
0.0000000001
 40
0.0
 40
0.0
 40
0.0
 40
0.0
 40
0.0469774454
 40
0.1053502671
 40
0.1815073738
 40
0.2809078211
 40
0.4082646459
 40
0.5678517296
 40
0.7637616899
 40
1.0
 40
1.0
 40
1.0
 40
1.0
 10
16.244575943
 20
-5.4917745007
 30
0.0
 10
16.2454226161
 20
-5.4917745007
 30
0.0
 10
16.2473289266
 20
-5.4913850228
 30
0.0
 10
16.2501863503
 20
-5.4897140508
 30
0.0
 10
16.2532758323
 20
-5.4868108214
 30
0.0
 10
16.2566443972
 20
-5.482496629
 30
0.0
 10
16.2603308658
 20
-5.4765787203
 30
0.0
 10
16.2643415618
 20
-5.4688478434
 30
0.0
 10
16.2686670866
 20
-5.4590940892
 30
0.0
 10
16.2714762627
 20
-5.4518266585
 30
0.0
 10
16.2729396249
 20
-5.4478283196
 30
0.0
  0
SPLINE
  5
576
100
AcDbEntity
  8
0
100
AcDbSpline
 62
9
  6
CONTINUOUS
 70
0
 71
3
 72
9
 73
5
 74
0
 42
0.0000001
 43
0.0000001
 44
0.0000000001
 40
0.0
 40
0.0
 40
0.0
 40
0.0
 40
0.4579721619
 40
1.0
 40
1.0
 40
1.0
 40
1.0
 10
16.2729396249
 20
-5.4478283196
 30
0.0
 10
16.2748862735
 20
-5.4425094995
 30
0.0
 10
16.2788582882
 20
-5.4307933879
 30
0.0
 10
16.2824166162
 20
-5.4189468678
 30
0.0
 10
16.2842578313
 20
-5.4125012923
 30
0.0
  0
SPLINE
  5
577
100
AcDbEntity
  8
0
100
AcDbSpline
 62
9
  6
CONTINUOUS
 70
0
 71
3
 72
15
 73
11
 74
0
 42
0.0000001
 43
0.0000001
 44
0.0000000001
 40
0.0
 40
0.0
 40
0.0
 40
0.0
 40
0.0991410381
 40
0.2127938042
 40
0.3390272378
 40
0.473428271
 40
0.6113304954
 40
0.7481041779
 40
0.8791821411
 40
1.0
 40
1.0
 40
1.0
 40
1.0
 10
16.287501831
 20
-5.4007932248
 30
0.0
 10
16.2902628068
 20
-5.3905270934
 30
0.0
 10
16.2957801616
 20
-5.3683812241
 30
0.0
 10
16.3034848627
 20
-5.3328482897
 30
0.0
 10
16.3109298645
 20
-5.2934055938
 30
0.0
 10
16.3178793625
 20
-5.2512355529
 30
0.0
 10
16.324001077
 20
-5.207794994
 30
0.0
 10
16.3290072579
 20
-5.1645704991
 30
0.0
 10
16.3328380567
 20
-5.1230663569
 30
0.0
 10
16.334658915
 20
-5.09611294
 30
0.0
 10
16.3353302077
 20
-5.0831750133
 30
0.0
  0
SPLINE
  5
578
100
AcDbEntity
  8
0
100
AcDbSpline
 62
9
  6
CONTINUOUS
 70
0
 71
3
 72
9
 73
5
 74
0
 42
0.0000001
 43
0.0000001
 44
0.0000000001
 40
0.0
 40
0.0
 40
0.0
 40
0.0
 40
0.5499859492
 40
1.0
 40
1.0
 40
1.0
 40
1.0
 10
16.3353302077
 20
-5.0831750133
 30
0.0
 10
16.3360606315
 20
-5.0690974433
 30
0.0
 10
16.3369503774
 20
-5.0434755276
 30
0.0
 10
16.3367533136
 20
-5.0178336843
 30
0.0
 10
16.336316741
 20
-5.0063077893
 30
0.0
  0
SPLINE
  5
579
100
AcDbEntity
  8
0
100
AcDbSpline
 62
9
  6
CONTINUOUS
 70
0
 71
3
 72
15
 73
11
 74
0
 42
0.0000001
 43
0.0000001
 44
0.0000000001
 40
0.0
 40
0.0
 40
0.0
 40
0.0
 40
0.2496491887
 40
0.4537440329
 40
0.616719777
 40
0.7434968602
 40
0.8391805437
 40
0.9092448891
 40
0.9601598502
 40
1.0
 40
1.0
 40
1.0
 40
1.0
 10
16.336316741
 20
-5.0063077893
 30
0.0
 10
16.3360823962
 20
-5.0001208805
 30
0.0
 10
16.3354718817
 20
-4.9888808858
 30
0.0
 10
16.3339423659
 20
-4.9736562847
 30
0.0
 10
16.3319990191
 20
-4.9615543347
 30
0.0
 10
16.3297405798
 20
-4.9522530338
 30
0.0
 10
16.3272684959
 20
-4.9454105773
 30
0.0
 10
16.3246414076
 20
-4.9406867613
 30
0.0
 10
16.3218269959
 20
-4.937757114
 30
0.0
 10
16.3196566578
 20
-4.9368816934
 30
0.0
 10
16.3186770537
 20
-4.9367528337
 30
0.0
  0
SPLINE
  5
57A
100
AcDbEntity
  8
0
100
AcDbSpline
 62
7
  6
CONTINUOUS
 70
0
 71
3
 72
15
 73
11
 74
0
 42
0.0000001
 43
0.0000001
 44
0.0000000001
 40
0.0
 40
0.0
 40
0.0
 40
0.0
 40
0.1515347198
 40
0.2899072218
 40
0.4183102949
 40
0.53970531
 40
0.6566820392
 40
0.7712673327
 40
0.8851461771
 40
1.0
 40
1.0
 40
1.0
 40
1.0
 10
11.8216198518
 20
14.2550470688
 30
0.0
 10
11.818610542
 20
14.2584688839
 30
0.0
 10
11.8124425983
 20
14.2646720348
 30
0.0
 10
11.8024346469
 20
14.2723514766
 30
0.0
 10
11.7922752783
 20
14.278173521
 30
0.0
 10
11.7820072441
 20
14.2822950624
 30
0.0
 10
11.7716875456
 20
14.2848995803
 30
0.0
 10
11.7613465374
 20
14.2861514337
 30
0.0
 10
11.7509945521
 20
14.2860421799
 30
0.0
 10
11.7441625423
 20
14.2850720031
 30
0.0
 10
11.7407801368
 20
14.2843733995
 30
0.0
  0
SPLINE
  5
57B
100
AcDbEntity
  8
0
100
AcDbSpline
 62
7
  6
CONTINUOUS
 70
0
 71
3
 72
9
 73
5
 74
0
 42
0.0000001
 43
0.0000001
 44
0.0000000001
 40
0.0
 40
0.0
 40
0.0
 40
0.0
 40
0.4808163328
 40
1.0
 40
1.0
 40
1.0
 40
1.0
 10
11.7407801368
 20
14.2843733995
 30
0.0
 10
11.7354418955
 20
14.2832708366
 30
0.0
 10
11.7245379493
 20
14.2798561957
 30
0.0
 10
11.714601546
 20
14.2742025273
 30
0.0
 10
11.7097908841
 20
14.2708112038
 30
0.0
  0
SPLINE
  5
57C
100
AcDbEntity
  8
0
100
AcDbSpline
 62
7
  6
CONTINUOUS
 70
0
 71
3
 72
9
 73
5
 74
0
 42
0.0000001
 43
0.0000001
 44
0.0000000001
 40
0.0
 40
0.0
 40
0.0
 40
0.0
 40
0.4657788006
 40
1.0
 40
1.0
 40
1.0
 40
1.0
 10
11.7097908841
 20
14.2708112038
 30
0.0
 10
11.7049443026
 20
14.2673945585
 30
0.0
 10
11.6952400466
 20
14.2590280091
 30
0.0
 10
11.6872221406
 20
14.2490468777
 30
0.0
 10
11.68337486
 20
14.2434384678
 30
0.0
  0
ELLIPSE
  5
57D
100
AcDbEntity
  8
0
100
AcDbEllipse
 62
7
  6
CONTINUOUS
 10
6.8018608906
 20
22.8796569752
 30
0.0
 11
0.0150088799
 21
0.0086653808
 31
0.0
 40
0.9900227071
 41
0.0
 42
6.2831853072
  0
ELLIPSE
  5
57E
100
AcDbEntity
  8
0
100
AcDbEllipse
 62
7
  6
CONTINUOUS
 10
3.8454809781
 20
21.65508432
 30
0.0
 11
0.0167402303
 21
0.0044855312
 31
0.0
 40
0.9900227071
 41
0.0
 42
6.2831853072
  0
ELLIPSE
  5
57F
100
AcDbEntity
  8
0
100
AcDbEllipse
 62
7
  6
CONTINUOUS
 10
3.7904925041
 20
22.072763248
 30
0.0
 11
0.0173307617
 21
0.0
 31
0.0
 40
0.9900227071
 41
0.0
 42
6.2831853072
  0
ELLIPSE
  5
580
100
AcDbEntity
  8
0
100
AcDbEllipse
 62
7
  6
CONTINUOUS
 10
3.8454809781
 20
22.4904421759
 30
0.0
 11
0.0167402303
 21
-0.0044855312
 31
0.0
 40
0.9900227071
 41
0.0
 42
6.2831853072
  0
ELLIPSE
  5
581
100
AcDbEntity
  8
0
100
AcDbEllipse
 62
7
  6
CONTINUOUS
 10
6.6971238639
 20
22.6082767276
 30
0.0
 11
0.0161442363
 21
0.0066871616
 31
0.0
 40
0.9960990528
 41
0.0
 42
6.2831853072
  0
ELLIPSE
  5
582
100
AcDbEntity
  8
0
100
AcDbEllipse
 62
7
  6
CONTINUOUS
 10
4.0066990267
 20
22.8796569752
 30
0.0
 11
0.0150088799
 21
-0.0086653808
 31
0.0
 40
0.9900227071
 41
0.0
 42
6.2831853072
  0
ELLIPSE
  5
583
100
AcDbEntity
  8
0
100
AcDbEllipse
 62
7
  6
CONTINUOUS
 10
4.5524010334
 20
20.9625730179
 30
0.0
 11
0.010637738
 21
0.01386337
 31
0.0
 40
0.9960990528
 41
0.0
 42
6.2831853072
  0
ELLIPSE
  5
584
100
AcDbEntity
  8
0
100
AcDbEllipse
 62
7
  6
CONTINUOUS
 10
5.2216262834
 20
20.6853708431
 30
0.0
 11
0.0022808663
 21
0.0173248996
 31
0.0
 40
0.9960990528
 41
0.0
 42
6.2831853072
  0
ELLIPSE
  5
585
100
AcDbEntity
  8
0
100
AcDbEllipse
 62
7
  6
CONTINUOUS
 10
5.9397934383
 20
20.7799193427
 30
0.0
 11
-0.0066871616
 21
0.0161442363
 31
0.0
 40
0.9960990528
 41
0.0
 42
6.2831853072
  0
ELLIPSE
  5
586
100
AcDbEntity
  8
0
100
AcDbEllipse
 62
7
  6
CONTINUOUS
 10
6.5144701887
 20
21.2208843227
 30
0.0
 11
0.01386337
 21
-0.010637738
 31
0.0
 40
0.9960990528
 41
0.0
 42
6.2831853072
  0
ELLIPSE
  5
587
100
AcDbEntity
  8
0
100
AcDbEllipse
 62
7
  6
CONTINUOUS
 10
6.7916723635
 20
21.8901095727
 30
0.0
 11
0.0173248996
 21
-0.0022808663
 31
0.0
 40
0.9960990528
 41
0.0
 42
6.2831853072
  0
ELLIPSE
  5
588
100
AcDbEntity
  8
0
100
AcDbEllipse
 62
7
  6
CONTINUOUS
 10
4.2631599061
 20
23.2138833005
 30
0.0
 11
-0.0122546991
 21
0.0122546991
 31
0.0
 40
0.9900227071
 41
0.0
 42
6.2831853072
  0
ELLIPSE
  5
589
100
AcDbEntity
  8
0
100
AcDbEllipse
 62
7
  6
CONTINUOUS
 10
6.9630789392
 20
22.4904421759
 30
0.0
 11
0.0167402303
 21
0.0044855312
 31
0.0
 40
0.9900227071
 41
0.0
 42
6.2831853072
  0
ELLIPSE
  5
58A
100
AcDbEntity
  8
0
100
AcDbEllipse
 62
7
  6
CONTINUOUS
 10
7.0180674132
 20
22.072763248
 30
0.0
 11
0.0173307617
 21
0.0
 31
0.0
 40
0.9900227071
 41
0.0
 42
6.2831853072
  0
ELLIPSE
  5
58B
100
AcDbEntity
  8
0
100
AcDbEllipse
 62
7
  6
CONTINUOUS
 10
6.9630789392
 20
21.65508432
 30
0.0
 11
0.0167402303
 21
-0.0044855312
 31
0.0
 40
0.9900227071
 41
0.0
 42
6.2831853072
  0
ELLIPSE
  5
58C
100
AcDbEntity
  8
0
100
AcDbEllipse
 62
7
  6
CONTINUOUS
 10
6.8018608906
 20
21.2658695207
 30
0.0
 11
0.0150088799
 21
-0.0086653808
 31
0.0
 40
0.9900227071
 41
0.0
 42
6.2831853072
  0
ELLIPSE
  5
58D
100
AcDbEntity
  8
0
100
AcDbEllipse
 62
7
  6
CONTINUOUS
 10
6.5454000112
 20
20.9316431954
 30
0.0
 11
-0.0122546991
 21
0.0122546991
 31
0.0
 40
0.9900227071
 41
0.0
 42
6.2831853072
  0
ELLIPSE
  5
58E
100
AcDbEntity
  8
0
100
AcDbEllipse
 62
7
  6
CONTINUOUS
 10
4.5973862314
 20
23.4703441799
 30
0.0
 11
-0.0086653808
 21
0.0150088799
 31
0.0
 40
0.9900227071
 41
0.0
 42
6.2831853072
  0
ELLIPSE
  5
58F
100
AcDbEntity
  8
0
100
AcDbEllipse
 62
7
  6
CONTINUOUS
 10
6.2111736859
 20
20.675182316
 30
0.0
 11
-0.0086653808
 21
0.0150088799
 31
0.0
 40
0.9900227071
 41
0.0
 42
6.2831853072
  0
ELLIPSE
  5
590
100
AcDbEntity
  8
0
100
AcDbEllipse
 62
7
  6
CONTINUOUS
 10
5.8219588866
 20
20.5139642674
 30
0.0
 11
-0.0044855312
 21
0.0167402303
 31
0.0
 40
0.9900227071
 41
0.0
 42
6.2831853072
  0
ELLIPSE
  5
591
100
AcDbEntity
  8
0
100
AcDbEllipse
 62
7
  6
CONTINUOUS
 10
5.4042799587
 20
20.4589757934
 30
0.0
 11
-0.0
 21
0.0173307617
 31
0.0
 40
0.9900227071
 41
0.0
 42
6.2831853072
  0
ELLIPSE
  5
592
100
AcDbEntity
  8
0
100
AcDbEllipse
 62
7
  6
CONTINUOUS
 10
4.9866010307
 20
20.5139642674
 30
0.0
 11
0.0044855312
 21
0.0167402303
 31
0.0
 40
0.9900227071
 41
0.0
 42
6.2831853072
  0
ELLIPSE
  5
593
100
AcDbEntity
  8
0
100
AcDbEllipse
 62
7
  6
CONTINUOUS
 10
4.5973862314
 20
20.675182316
 30
0.0
 11
0.0086653808
 21
0.0150088799
 31
0.0
 40
0.9900227071
 41
0.0
 42
6.2831853072
  0
ELLIPSE
  5
594
100
AcDbEntity
  8
0
100
AcDbEllipse
 62
7
  6
CONTINUOUS
 10
4.9866010307
 20
23.6315622285
 30
0.0
 11
-0.0044855312
 21
0.0167402303
 31
0.0
 40
0.9900227071
 41
0.0
 42
6.2831853072
  0
ELLIPSE
  5
595
100
AcDbEntity
  8
0
100
AcDbEllipse
 62
7
  6
CONTINUOUS
 10
4.2631599061
 20
20.9316431954
 30
0.0
 11
0.0122546991
 21
0.0122546991
 31
0.0
 40
0.9900227071
 41
0.0
 42
6.2831853072
  0
ELLIPSE
  5
596
100
AcDbEntity
  8
0
100
AcDbEllipse
 62
7
  6
CONTINUOUS
 10
5.4042799587
 20
23.6865507025
 30
0.0
 11
-0.0
 21
0.0173307617
 31
0.0
 40
0.9900227071
 41
0.0
 42
6.2831853072
  0
ELLIPSE
  5
597
100
AcDbEntity
  8
0
100
AcDbEllipse
 62
7
  6
CONTINUOUS
 10
6.256158884
 20
23.182953478
 30
0.0
 11
0.010637738
 21
0.01386337
 31
0.0
 40
0.9960990528
 41
0.0
 42
6.2831853072
  0
ELLIPSE
  5
598
100
AcDbEntity
  8
0
100
AcDbEllipse
 62
7
  6
CONTINUOUS
 10
5.5869336339
 20
23.4601556528
 30
0.0
 11
0.0022808663
 21
0.0173248996
 31
0.0
 40
0.9960990528
 41
0.0
 42
6.2831853072
  0
ELLIPSE
  5
599
100
AcDbEntity
  8
0
100
AcDbEllipse
 62
7
  6
CONTINUOUS
 10
4.8687664791
 20
23.3656071532
 30
0.0
 11
-0.0066871616
 21
0.0161442363
 31
0.0
 40
0.9960990528
 41
0.0
 42
6.2831853072
  0
ELLIPSE
  5
59A
100
AcDbEntity
  8
0
100
AcDbEllipse
 62
7
  6
CONTINUOUS
 10
4.2940897286
 20
22.9246421733
 30
0.0
 11
0.01386337
 21
-0.010637738
 31
0.0
 40
0.9960990528
 41
0.0
 42
6.2831853072
  0
ELLIPSE
  5
59B
100
AcDbEntity
  8
0
100
AcDbEllipse
 62
7
  6
CONTINUOUS
 10
5.8219588867
 20
23.6315622285
 30
0.0
 11
0.0044855312
 21
0.0167402303
 31
0.0
 40
0.9900227071
 41
0.0
 42
6.2831853072
  0
ELLIPSE
  5
59C
100
AcDbEntity
  8
0
100
AcDbEllipse
 62
7
  6
CONTINUOUS
 10
4.0168875538
 20
22.2554169232
 30
0.0
 11
0.0173248996
 21
-0.0022808663
 31
0.0
 40
0.9960990528
 41
0.0
 42
6.2831853072
  0
ELLIPSE
  5
59D
100
AcDbEntity
  8
0
100
AcDbEllipse
 62
7
  6
CONTINUOUS
 10
4.1114360534
 20
21.5372497684
 30
0.0
 11
0.0161442363
 21
0.0066871616
 31
0.0
 40
0.9960990528
 41
0.0
 42
6.2831853072
  0
ELLIPSE
  5
59E
100
AcDbEntity
  8
0
100
AcDbEllipse
 62
7
  6
CONTINUOUS
 10
6.5454000112
 20
23.2138833005
 30
0.0
 11
0.0122546991
 21
0.0122546991
 31
0.0
 40
0.9900227071
 41
0.0
 42
6.2831853072
  0
ELLIPSE
  5
59F
100
AcDbEntity
  8
0
100
AcDbEllipse
 62
7
  6
CONTINUOUS
 10
6.2111736859
 20
23.4703441799
 30
0.0
 11
0.0086653808
 21
0.0150088799
 31
0.0
 40
0.9900227071
 41
0.0
 42
6.2831853072
  0
ENDSEC
  0
SECTION
  2
OBJECTS
  0
DICTIONARY
  5
C
100
AcDbDictionary
280
0
281
1
  3
ACAD_GROUP
350
D
  3
ACAD_MLINESTYLE
350
17
  3
ACAD_LAYOUT
350
1A
  3
ACAD_PLOTSETTINGS
350
19
  3
ACAD_PLOTSTYLENAME
350
E
  0
DICTIONARY
  5
D
102
{ACAD_REACTORS
330
C
102
}
100
AcDbDictionary
280
0
281
1
  0
ACDBDICTIONARYWDFLT
  5
E
102
{ACAD_REACTORS
330
C
102
}
100
AcDbDictionary
281
1
  3
Normal
350
F
100
AcDbDictionaryWithDefault
340
F
  0
DICTIONARY
  5
17
102
{ACAD_REACTORS
330
C
102
}
100
AcDbDictionary
280
0
281
1
  3
Standard
350
18
  0
DICTIONARY
  5
19
102
{ACAD_REACTORS
330
C
102
}
100
AcDbDictionary
281
1
  0
DICTIONARY
  5
1A
102
{ACAD_REACTORS
330
C
102
}
100
AcDbDictionary
281
1
  3
Model
350
5A0
  3
Layout1
350
5A1
  0
ACDBPLACEHOLDER
  5
F
102
{ACAD_REACTORS
330
E
102
}
  0
MLINESTYLE
  5
18
102
{ACAD_REACTORS
330
17
102
}
100
AcDbMlineStyle
  2
STANDARD
 70
0
  3

 62
256
 51
90.0
 52
90.0
 71
2
 49
0.5
 62
256
  6
BYLAYER
 49
-0.5
 62
256
  6
BYLAYER
  0
LAYOUT
  5
5A0
102
{ACAD_REACTORS
330
1A
102
}
100
AcDbPlotSettings
  1

  2
none_device
  4
ANSI_C_(22.00_x_17.00_Inches)
  6

 40
0.0
 41
0.0
 42
0.0
 43
0.0
 44
558.8
 45
431.8
 46
0.0
 47
0.0
 48
0.0
 49
0.0
140
0.0
141
0.0
142
1.0
143
1.0
 70
1024
 72
0
 73
0
 74
0
  7

 75
0
147
1.0
148
0.0
149
0.0
100
AcDbLayout
  1
Model
 70
0
 71
0
 10
0.0
 20
0.0
 11
22.0
 21
17.0
 12
0.0
 22
0.0
 32
0.0
 14
0.0
 24
0.0
 34
0.0
 15
0.0
 25
0.0
 35
0.0
146
0.0
 13
0.0
 23
0.0
 33
0.0
 16
1.0
 26
0.0
 36
0.0
 17
0.0
 27
1.0
 37
0.0
 76
0
330
202
345
0
346
0
  0
LAYOUT
  5
5A1
102
{ACAD_REACTORS
330
1A
102
}
100
AcDbPlotSettings
  1

  2
none_device
  4
ANSI_C_(22.00_x_17.00_Inches)
  6

 40
0.0
 41
0.0
 42
0.0
 43
0.0
 44
558.8
 45
431.8
 46
0.0
 47
0.0
 48
0.0
 49
0.0
140
0.0
141
0.0
142
1.0
143
1.0
 70
0
 72
0
 73
0
 74
0
  7

 75
0
147
1.0
148
0.0
149
0.0
100
AcDbLayout
  1
Layout1
 70
0
 71
1
 10
0.0
 20
0.0
 11
22.0
 21
17.0
 12
0.0
 22
0.0
 32
0.0
 14
0.0
 24
0.0
 34
0.0
 15
0.0
 25
0.0
 35
0.0
146
0.0
 13
0.0
 23
0.0
 33
0.0
 16
1.0
 26
0.0
 36
0.0
 17
0.0
 27
1.0
 37
0.0
 76
0
330
203
345
0
346
0
  0
ENDSEC
  0
EOF
