999
DXF file: E:\BT Custom\CADOUTPUT\_RIGHT.dxf
999
Pro/ENGINEER 2018400 by Parametric Technology Corporation
  0
SECTION
  2
HEADER
  9
$ACADVER
  1
AC1018
  9
$DWGCODEPAGE
  3
ANSI_1252
  9
$EXTMAX
 10
22.0
 20
17.0
 30
0.0
  9
$EXTMIN
 10
0.0
 20
0.0
 30
0.0
  9
$LIMMIN
 10
0.0
 20
0.0
  9
$LIMMAX
 10
22.0
 20
17.0
  9
$VIEWCTR
 10
11.0
 20
8.5
  9
$VIEWSIZE
 40
17.0
  9
$CLAYER
  8
0
  9
$LTSCALE
 40
1.21
  9
$CELTYPE
  6
BYLAYER
  9
$DIMSCALE
 40
1.0
  9
$DIMASZ
 40
0.1
  9
$DIMEXO
 40
0.0625
  9
$DIMDLI
 40
0.836
  9
$DIMEXE
 40
0.125
  9
$DIMCEN
 40
0.198
  9
$DIMLFAC
 40
1.0
  9
$DIMBLK
  1
_FILLED
  9
$DIMALT
 70
1
  9
$DIMALTD
 70
2
  9
$DIMALTTD
 70
2
  9
$DIMALTF
 40
25.4
  9
$DIMTXT
 40
0.08
  9
$DIMTOL
 70
1
  9
$DIMLIM
 70
0
  9
$DIMTFAC
 40
1.0
  9
$DIMTP
 40
0.001
  9
$DIMTM
 40
0.001
  9
$DIMGAP
 40
0.09
  9
$DIMDSEP
 70
46
  9
$AUNITS
 70
0
  9
$PDMODE
 70
3
  9
$PDSIZE
 40
0.06
  9
$HANDSEED
  5
59B
  9
$TILEMODE
 70
1
  9
$MEASUREMENT
 70
0
  9
$INSUNITS
 70
1
  0
ENDSEC
  0
SECTION
  2
CLASSES
  0
CLASS
  1
ACDBDICTIONARYWDFLT
  2
AcDbDictionaryWithDefault
  3
AutoCAD 2000
 90
0
 91
1
280
0
281
0
  0
CLASS
  1
ACDBPLACEHOLDER
  2
AcDbPlaceHolder
  3
AutoCAD 2000
 90
0
 91
1
280
0
281
0
  0
CLASS
  1
LAYOUT
  2
AcDbLayout
  3
AutoCAD 2000
 90
0
 91
0
280
0
281
0
  0
ENDSEC
  0
SECTION
  2
TABLES
  0
TABLE
  2
VPORT
  5
8
100
AcDbSymbolTable
 70
2
  0
VPORT
  5
1F4
100
AcDbSymbolTableRecord
100
AcDbViewportTableRecord
  2
*ACTIVE
 70
0
 10
0.0
 20
0.0
 11
1.0
 21
1.0
 12
11.0
 22
8.5
 13
0.0
 23
0.0
 14
1.0
 24
1.0
 15
0.0
 25
0.0
 16
0.0
 26
0.0
 36
1.0
 17
0.0
 27
0.0
 37
0.0
 40
17.0
 41
1.2941176471
 42
50.0
 43
0.0
 44
0.0
 50
0.0
 51
0.0
 71
0
 72
100
 73
1
 74
1
 75
0
 76
0
 77
0
 78
0
  0
ENDTAB
  0
TABLE
  2
LTYPE
  5
5
100
AcDbSymbolTable
 70
6
  0
LTYPE
  5
14
100
AcDbSymbolTableRecord
100
AcDbLinetypeTableRecord
  2
BYBLOCK
 70
0
  3

 72
65
 73
0
 40
0.0
  0
LTYPE
  5
15
100
AcDbSymbolTableRecord
100
AcDbLinetypeTableRecord
  2
BYLAYER
 70
0
  3

 72
65
 73
0
 40
0.0
  0
LTYPE
  5
16
100
AcDbSymbolTableRecord
100
AcDbLinetypeTableRecord
  2
CONTINUOUS
 70
64
  3
Solid line
 72
65
 73
0
 40
0.0
  0
LTYPE
  5
1F5
100
AcDbSymbolTableRecord
100
AcDbLinetypeTableRecord
  2
CENTER
 70
64
  3
____ _ ____ _ ____ _ ____ _ ____ _ ____ _ ____
 72
65
 73
4
 40
0.6
 49
0.375
 74
0
 49
-0.075
 74
0
 49
0.075
 74
0
 49
-0.075
 74
0
  0
LTYPE
  5
1F6
100
AcDbSymbolTableRecord
100
AcDbLinetypeTableRecord
  2
HIDDEN
 70
64
  3
- - - - - - - - - - - - - - - - - - - -
 72
65
 73
2
 40
0.2
 49
0.1
 74
0
 49
-0.1
 74
0
  0
LTYPE
  5
1F7
100
AcDbSymbolTableRecord
100
AcDbLinetypeTableRecord
  2
PHANTOM
 70
64
  3
_____ _ _ _____ _ _ _____ _ _ _____
 72
65
 73
6
 40
0.8
 49
0.45
 74
0
 49
-0.05
 74
0
 49
0.1
 74
0
 49
-0.05
 74
0
 49
0.1
 74
0
 49
-0.05
 74
0
  0
LTYPE
  5
1F8
100
AcDbSymbolTableRecord
100
AcDbLinetypeTableRecord
  2
DOT
 70
64
  3
. . . . . . . . . . . . . . . . . . . .
 72
65
 73
2
 40
0.2
 49
0.1
 74
0
 49
-0.1
 74
0
  0
LTYPE
  5
1F9
100
AcDbSymbolTableRecord
100
AcDbLinetypeTableRecord
  2
DASHED
 70
64
  3
- - - - - - - - - - - - - - - - - - - -
 72
65
 73
2
 40
0.2
 49
0.1
 74
0
 49
-0.1
 74
0
  0
ENDTAB
  0
TABLE
  2
LAYER
  5
2
100
AcDbSymbolTable
 70
36
  0
LAYER
  5
10
100
AcDbSymbolTableRecord
100
AcDbLayerTableRecord
  2
0
 70
0
 62
7
  6
CONTINUOUS
370
-3
390
F
  0
LAYER
  5
1FA
100
AcDbSymbolTableRecord
100
AcDbLayerTableRecord
  2
DEFAULT_1
 70
0
 62
7
  6
CENTER
370
-3
390
F
  0
LAYER
  5
1FB
100
AcDbSymbolTableRecord
100
AcDbLayerTableRecord
  2
DEFAULT_2
 70
0
 62
8
  6
HIDDEN
370
-3
390
F
  0
LAYER
  5
1FC
100
AcDbSymbolTableRecord
100
AcDbLayerTableRecord
  2
DEFAULT_3
 70
0
 62
7
  6
PHANTOM
370
-3
390
F
  0
LAYER
  5
1FD
100
AcDbSymbolTableRecord
100
AcDbLayerTableRecord
  2
ALL_FEATURES
 70
0
 62
7
  6
CONTINUOUS
370
-3
390
F
  0
LAYER
  5
1FE
100
AcDbSymbolTableRecord
100
AcDbLayerTableRecord
  2
AXES_FEATURES
 70
0
 62
7
  6
CONTINUOUS
370
-3
390
F
  0
LAYER
  5
1FF
100
AcDbSymbolTableRecord
100
AcDbLayerTableRecord
  2
DIMENSIONS
 70
0
 62
7
  6
CONTINUOUS
370
-3
390
F
  0
ENDTAB
  0
TABLE
  2
STYLE
  5
3
100
AcDbSymbolTable
 70
1
  0
STYLE
  5
11
100
AcDbSymbolTableRecord
100
AcDbTextStyleTableRecord
  2
STANDARD
 70
0
 40
0.0
 41
0.8
 50
0.0
 71
0
 42
0.2
  3
txt
  4

  0
STYLE
  5
200
100
AcDbSymbolTableRecord
100
AcDbTextStyleTableRecord
  2
TEXTSTYLE_1
 70
0
 40
0.0
 41
0.8
 50
0.0
 71
0
 42
0.2
  3
gdt
  4

  0
ENDTAB
  0
TABLE
  2
VIEW
  5
6
100
AcDbSymbolTable
 70
0
  0
ENDTAB
  0
TABLE
  2
UCS
  5
7
100
AcDbSymbolTable
 70
0
  0
ENDTAB
  0
TABLE
  2
APPID
  5
9
100
AcDbSymbolTable
 70
1
  0
APPID
  5
201
100
AcDbSymbolTableRecord
100
AcDbRegAppTableRecord
  2
ACAD
 70
0
  0
ENDTAB
  0
TABLE
  2
BLOCK_RECORD
  5
1
100
AcDbSymbolTable
 70
0
  0
BLOCK_RECORD
  5
202
100
AcDbSymbolTableRecord
100
AcDbBlockTableRecord
  2
*Model_Space
  0
BLOCK_RECORD
  5
203
100
AcDbSymbolTableRecord
100
AcDbBlockTableRecord
  2
*Paper_Space
  0
BLOCK_RECORD
  5
204
100
AcDbSymbolTableRecord
100
AcDbBlockTableRecord
  2
_FILLED
  0
ENDTAB
  0
TABLE
  2
DIMSTYLE
  5
A
100
AcDbSymbolTable
 70
1
100
AcDbDimStyleTable
 71
0
  0
DIMSTYLE
105
205
100
AcDbSymbolTableRecord
100
AcDbDimStyleTableRecord
  2
STANDARD
 70
0
  3

  4

 40
1.0
 41
0.1
 42
0.0625
 43
0.38
 44
0.125
 45
0.0
 46
0.0
 47
0.001
 48
0.001
140
0.08
141
0.09
142
0.0
143
25.4
144
1.0
145
0.0
146
1.0
147
0.09
 71
1.0
 72
0.0
 73
1
 74
1
 75
0
 76
0
 77
0
 78
4
 79
1
170
1
171
2
172
0
173
0
174
0
175
0
176
0
177
0
178
0
270
2
179
3
271
3
272
3
273
2
274
2
275
0
280
0
281
0
282
0
283
1
284
4
285
0
286
0
287
3
288
0
340
11
278
46
341
204
342
204
343
204
344
204
  0
ENDTAB
  0
ENDSEC
  0
SECTION
  2
BLOCKS
  0
BLOCK
  5
20
100
AcDbEntity
  8
0
100
AcDbBlockBegin
  2
*Model_Space
 70
0
 10
0.0
 20
0.0
 30
0.0
  3
*Model_Space
  1

  0
ENDBLK
  5
21
100
AcDbEntity
  8
0
100
AcDbBlockEnd
  0
BLOCK
  5
1C
100
AcDbEntity
  8
0
100
AcDbBlockBegin
  2
*Paper_Space
 70
0
 10
0.0
 20
0.0
 30
0.0
  3
*Paper_Space
  1

  0
ENDBLK
  5
1D
100
AcDbEntity
  8
0
100
AcDbBlockEnd
  0
BLOCK
  5
206
100
AcDbEntity
  8
0
100
AcDbBlockBegin
  2
_FILLED
 70
64
 10
0.0
 20
0.0
  3
_FILLED
  1

  0
SOLID
  5
207
100
AcDbEntity
  8
0
  6
BYBLOCK
 62
0
100
AcDbTrace
 10
0.0
 20
0.0
 11
-1.0
 21
0.2
 12
-1.0
 22
-0.2
 13
-1.0
 23
-0.2
  0
ENDBLK
  5
208
100
AcDbEntity
  8
0
  6
BYBLOCK
 62
0
100
AcDbBlockEnd
  0
ENDSEC
  0
SECTION
  2
ENTITIES
  0
LWPOLYLINE
  5
209
100
AcDbEntity
  8
0
100
AcDbPolyline
 62
7
  6
CONTINUOUS
 90
39
 70
0
 10
13.0317805221
 20
-5.7916236261
 10
13.1401631976
 20
-5.7744112485
 10
13.2659567369
 20
-5.7023333883
 10
13.3562308088
 20
-5.5911200114
 10
13.4164416801
 20
-5.4516778976
 10
13.4600592298
 20
-5.2677284761
 10
13.4909035373
 20
-5.027686377
 10
13.5095194521
 20
-4.7409099284
 10
13.5176520624
 20
-4.428916357
 10
13.5179021729
 20
-4.0991391085
 10
13.5121030264
 20
-3.7569661052
 10
13.501524379
 20
-3.4027137374
 10
13.4870646354
 20
-3.0391946724
 10
13.4693678492
 20
-2.6672547642
 10
13.4488276174
 20
-2.2857601177
 10
13.4258153862
 20
-1.8953552351
 10
13.4005919088
 20
-1.4959740634
 10
13.3732906316
 20
-1.086424884
 10
13.3439617281
 20
-0.6649786536
 10
13.3127355085
 20
-0.2314591481
 10
13.2797144554
 20
0.214540844
 10
13.244952233
 20
0.6739630227
 10
13.2084656361
 20
1.1481244805
 10
13.1703027462
 20
1.6379031137
 10
13.1305001175
 20
2.1443936945
 10
13.0890795823
 20
2.6690193501
 10
13.0460596666
 20
3.2134552602
 10
13.0014746947
 20
3.7794804896
 10
12.9553660259
 20
4.3692114942
 10
12.9078034385
 20
4.9850176366
 10
12.8588830861
 20
5.6298183943
 10
12.8087179187
 20
6.3076376919
 10
12.7575424717
 20
7.0228446633
 10
12.7057407771
 20
7.7807190455
 10
12.6538688354
 20
8.5890592817
 10
12.6030086025
 20
9.4563793786
 10
12.5548785266
 20
10.3979860845
 10
12.513091779
 20
11.4340009289
 10
12.4863089957
 20
12.5279855499
  0
LINE
  5
20A
100
AcDbEntity
  8
0
100
AcDbLine
 62
7
  6
CONTINUOUS
 10
13.0319744759
 20
-5.7916240997
 11
13.0317805221
 21
-5.7916236261
  0
LINE
  5
20B
100
AcDbEntity
  8
0
100
AcDbLine
 62
7
  6
CONTINUOUS
 10
7.937037138
 20
22.4769630641
 11
8.0150022655
 21
22.5053400498
  0
LINE
  5
20C
100
AcDbEntity
  8
0
100
AcDbLine
 62
7
  6
CONTINUOUS
 10
8.1733114729
 20
23.497916241
 11
8.1814649635
 21
23.5060697317
  0
LINE
  5
20D
100
AcDbEntity
  8
0
100
AcDbLine
 62
7
  6
CONTINUOUS
 10
8.1733117506
 20
23.4429148998
 11
8.1814649635
 21
23.4510681127
  0
LWPOLYLINE
  5
20E
100
AcDbEntity
  8
0
100
AcDbPolyline
 62
7
  6
CONTINUOUS
 90
4
 70
0
 10
8.0693411813
 20
22.7948972229
 10
8.0676647909
 20
22.7933827794
 10
8.0656076874
 20
22.7921568817
 10
8.0632459974
 20
22.7913489326
  0
LINE
  5
20F
100
AcDbEntity
  8
0
100
AcDbLine
 62
7
  6
CONTINUOUS
 10
10.1846761565
 20
21.4199855159
 11
10.0516315372
 21
21.3767566987
  0
LINE
  5
210
100
AcDbEntity
  8
0
100
AcDbLine
 62
7
  6
CONTINUOUS
 10
8.1317645823
 20
23.2595647401
 11
8.1399180999
 21
23.2677182577
  0
LINE
  5
211
100
AcDbEntity
  8
0
100
AcDbLine
 62
7
  6
CONTINUOUS
 10
8.1733117506
 20
23.2816583122
 11
8.1814649635
 21
23.2898115252
  0
LINE
  5
212
100
AcDbEntity
  8
0
100
AcDbLine
 62
7
  6
CONTINUOUS
 10
8.1317645823
 20
23.1649998802
 11
8.1399180999
 21
23.1731533978
  0
LINE
  5
213
100
AcDbEntity
  8
0
100
AcDbLine
 62
7
  6
CONTINUOUS
 10
8.1733117506
 20
23.0251361262
 11
8.1814649635
 21
23.0332893391
  0
LINE
  5
214
100
AcDbEntity
  8
0
100
AcDbLine
 62
7
  6
CONTINUOUS
 10
8.1317645823
 20
22.9823145993
 11
8.1399180999
 21
22.9904681169
  0
LINE
  5
215
100
AcDbEntity
  8
0
100
AcDbLine
 62
7
  6
CONTINUOUS
 10
8.01302163
 20
22.7748275357
 11
8.0257878882
 21
22.7875937939
  0
LINE
  5
216
100
AcDbEntity
  8
0
100
AcDbLine
 62
7
  6
CONTINUOUS
 10
8.01302163
 20
22.7422047778
 11
8.0257878882
 21
22.754971036
  0
LINE
  5
217
100
AcDbEntity
  8
0
100
AcDbLine
 62
7
  6
CONTINUOUS
 10
8.1317645823
 20
22.7239585975
 11
8.1399180999
 21
22.7321121151
  0
LINE
  5
218
100
AcDbEntity
  8
0
100
AcDbLine
 62
7
  6
CONTINUOUS
 10
8.1733117506
 20
22.6908299046
 11
8.1814653123
 21
22.6989834662
  0
LINE
  5
219
100
AcDbEntity
  8
0
100
AcDbLine
 62
7
  6
CONTINUOUS
 10
7.9101653538
 20
22.3994370545
 11
7.918318575
 21
22.4075902756
  0
LINE
  5
21A
100
AcDbEntity
  8
0
100
AcDbLine
 62
7
  6
CONTINUOUS
 10
7.9101653538
 20
22.3070203409
 11
7.9183185733
 21
22.3151735604
  0
LINE
  5
21B
100
AcDbEntity
  8
0
100
AcDbLine
 62
7
  6
CONTINUOUS
 10
8.01302163
 20
22.3292080032
 11
8.0257878882
 21
22.3419742613
  0
LINE
  5
21C
100
AcDbEntity
  8
0
100
AcDbLine
 62
7
  6
CONTINUOUS
 10
8.1317645823
 20
22.4075384093
 11
8.1399180999
 21
22.4156919269
  0
LINE
  5
21D
100
AcDbEntity
  8
0
100
AcDbLine
 62
7
  6
CONTINUOUS
 10
8.1733117506
 20
22.301522064
 11
8.1814649635
 21
22.3096752769
  0
LINE
  5
21E
100
AcDbEntity
  8
0
100
AcDbLine
 62
7
  6
CONTINUOUS
 10
8.01302163
 20
22.1268052701
 11
8.0257878882
 21
22.1395715283
  0
LINE
  5
21F
100
AcDbEntity
  8
0
100
AcDbLine
 62
7
  6
CONTINUOUS
 10
7.9101653538
 20
21.9977879903
 11
7.918318575
 21
22.0059412115
  0
LINE
  5
220
100
AcDbEntity
  8
0
100
AcDbLine
 62
7
  6
CONTINUOUS
 10
8.1317645823
 20
22.0546175476
 11
8.1399180999
 21
22.0627710652
  0
LINE
  5
221
100
AcDbEntity
  8
0
100
AcDbLine
 62
7
  6
CONTINUOUS
 10
8.01302163
 20
21.9091238914
 11
8.0257878882
 21
21.9218901496
  0
LINE
  5
222
100
AcDbEntity
  8
0
100
AcDbLine
 62
7
  6
CONTINUOUS
 10
7.9101653538
 20
21.6528841198
 11
7.9183185733
 21
21.6610373393
  0
LWPOLYLINE
  5
223
100
AcDbEntity
  8
0
100
AcDbPolyline
 62
7
  6
CONTINUOUS
 90
3
 70
0
 10
8.0489936279
 20
21.1424627971
 10
8.0446791262
 20
21.1400631356
 10
8.0414482609
 20
21.1395957839
  0
LINE
  5
224
100
AcDbEntity
  8
0
100
AcDbLine
 62
7
  6
CONTINUOUS
 10
8.1733117506
 20
21.8837432904
 11
8.1814649635
 21
21.8918965033
  0
LINE
  5
225
100
AcDbEntity
  8
0
100
AcDbLine
 62
7
  6
CONTINUOUS
 10
8.1317645823
 20
21.6892469859
 11
8.1399180999
 21
21.6974005035
  0
LINE
  5
226
100
AcDbEntity
  8
0
100
AcDbLine
 62
7
  6
CONTINUOUS
 10
8.1733117506
 20
21.4659645168
 11
8.1814649635
 21
21.4741177297
  0
LINE
  5
227
100
AcDbEntity
  8
0
100
AcDbLine
 62
7
  6
CONTINUOUS
 10
8.01302163
 20
21.2696157411
 11
8.0257878882
 21
21.2823819992
  0
LINE
  5
228
100
AcDbEntity
  8
0
100
AcDbLine
 62
7
  6
CONTINUOUS
 10
8.1317645823
 20
21.3363261242
 11
8.1399180999
 21
21.3444796418
  0
LINE
  5
229
100
AcDbEntity
  8
0
100
AcDbLine
 62
7
  6
CONTINUOUS
 10
8.01302163
 20
21.1233700234
 11
8.0257878882
 21
21.1361362816
  0
LINE
  5
22A
100
AcDbEntity
  8
0
100
AcDbLine
 62
7
  6
CONTINUOUS
 10
8.1733117506
 20
21.0766566762
 11
8.1814649635
 21
21.0848098892
  0
LINE
  5
22B
100
AcDbEntity
  8
0
100
AcDbLine
 62
7
  6
CONTINUOUS
 10
8.1317645823
 20
21.019905936
 11
8.1399180999
 21
21.0280594536
  0
LINE
  5
22C
100
AcDbEntity
  8
0
100
AcDbLine
 62
7
  6
CONTINUOUS
 10
8.1317645823
 20
20.7615499342
 11
8.1399180999
 21
20.7697034518
  0
LINE
  5
22D
100
AcDbEntity
  8
0
100
AcDbLine
 62
7
  6
CONTINUOUS
 10
8.1733117506
 20
20.7423504546
 11
8.1814649635
 21
20.7505036676
  0
LINE
  5
22E
100
AcDbEntity
  8
0
100
AcDbLine
 62
7
  6
CONTINUOUS
 10
8.1317645823
 20
20.5788646533
 11
8.1399180999
 21
20.5870181709
  0
LWPOLYLINE
  5
22F
100
AcDbEntity
  8
0
100
AcDbPolyline
 62
7
  6
CONTINUOUS
 90
4
 70
0
 10
12.7634029345
 20
-5.6803197247
 10
12.8344135364
 20
-5.7336802808
 10
12.935810322
 20
-5.7783385275
 10
13.0319744759
 20
-5.7916240997
  0
LINE
  5
230
100
AcDbEntity
  8
0
100
AcDbLine
 62
7
  6
CONTINUOUS
 10
8.0503144042
 20
21.1441091282
 11
8.0489936279
 21
21.1424627971
  0
LINE
  5
231
100
AcDbEntity
  8
0
100
AcDbLine
 62
7
  6
CONTINUOUS
 10
9.8520171256
 20
21.2815939711
 11
9.2764233398
 21
20.7013248164
  0
LINE
  5
232
100
AcDbEntity
  8
0
100
AcDbLine
 62
7
  6
CONTINUOUS
 10
8.1733117506
 20
20.4858282685
 11
8.1814649637
 21
20.4939814816
  0
LINE
  5
233
100
AcDbEntity
  8
0
100
AcDbLine
 62
7
  6
CONTINUOUS
 10
8.1733117506
 20
20.324571681
 11
8.1814649635
 21
20.332724894
  0
LINE
  5
234
100
AcDbEntity
  8
0
100
AcDbLine
 62
7
  6
CONTINUOUS
 10
11.4641157827
 20
-4.5174946558
 11
12.7637797779
 21
-5.6806576281
  0
LINE
  5
235
100
AcDbEntity
  8
0
100
AcDbLine
 62
7
  6
CONTINUOUS
 10
11.8375754152
 20
-4.1002082999
 11
12.9223436103
 21
-5.0710455337
  0
LWPOLYLINE
  5
236
100
AcDbEntity
  8
0
100
AcDbPolyline
 62
7
  6
CONTINUOUS
 90
5
 70
0
 10
8.0582504299
 20
21.9286862958
 10
8.0585055487
 20
21.9292793173
 10
8.0580087313
 20
21.928600541
 10
8.0553321765
 20
21.9265064324
 10
8.0505659073
 20
21.9253498966
  0
LWPOLYLINE
  5
237
100
AcDbEntity
  8
0
100
AcDbPolyline
 62
7
  6
CONTINUOUS
 90
6
 70
0
 10
8.0633263688
 20
22.3487540142
 10
8.0636413658
 20
22.3494737564
 10
8.0632863644
 20
22.3489795271
 10
8.0608941977
 20
22.3469263322
 10
8.0562249046
 20
22.3454616124
 10
8.0554483351
 20
22.3454338546
  0
LWPOLYLINE
  5
238
100
AcDbEntity
  8
0
100
AcDbPolyline
 62
7
  6
CONTINUOUS
 90
5
 70
0
 10
8.0606930106
 20
22.1461460558
 10
8.0610091172
 20
22.146867321
 10
8.0605700062
 20
22.1462815697
 10
8.0580069084
 20
22.1442514186
 10
8.0531005242
 20
22.1430293794
  0
LWPOLYLINE
  5
239
100
AcDbEntity
  8
0
100
AcDbPolyline
 62
7
  6
CONTINUOUS
 90
6
 70
0
 10
8.0707123592
 20
22.7648895813
 10
8.0708442355
 20
22.765365555
 10
8.0708276352
 20
22.76533131
 10
8.0703814019
 20
22.7643685203
 10
8.0688480704
 20
22.7622133155
 10
8.065567114
 20
22.7597098729
  0
LINE
  5
23A
100
AcDbEntity
  8
0
100
AcDbLine
 62
7
  6
CONTINUOUS
 10
10.9196331442
 20
19.0249856446
 11
10.7756864866
 21
18.8472263264
  0
LINE
  5
23B
100
AcDbEntity
  8
0
100
AcDbLine
 62
7
  6
CONTINUOUS
 10
8.1209315317
 20
23.0771512535
 11
8.1055917558
 21
22.9882138963
  0
LWPOLYLINE
  5
23C
100
AcDbEntity
  8
0
100
AcDbPolyline
 62
7
  6
CONTINUOUS
 90
6
 70
0
 10
8.0526291761
 20
21.2912403207
 10
8.0527371034
 20
21.2917019926
 10
8.0526533739
 20
21.2915373918
 10
8.0513358831
 20
21.2895176237
 10
8.0476810767
 20
21.2868126963
 10
8.0431466926
 20
21.2858415828
  0
LINE
  5
23D
100
AcDbEntity
  8
0
100
AcDbLine
 62
7
  6
CONTINUOUS
 10
8.2303048023
 20
23.5814044526
 11
8.2305484279
 21
23.5833479728
  0
LWPOLYLINE
  5
23E
100
AcDbEntity
  8
0
100
AcDbPolyline
 62
7
  6
CONTINUOUS
 90
7
 70
0
 10
8.0722064177
 20
22.8005974135
 10
8.0722108395
 20
22.8006244726
 10
8.0721784042
 20
22.8004529289
 10
8.0720329275
 20
22.7998269826
 10
8.0715639082
 20
22.7984203548
 10
8.0706617904
 20
22.7966442138
 10
8.0693411813
 20
22.7948972229
  0
LINE
  5
23F
100
AcDbEntity
  8
0
100
AcDbLine
 62
7
  6
CONTINUOUS
 10
11.7496762609
 20
14.5153530016
 11
11.5559161507
 21
14.4034855499
  0
LINE
  5
240
100
AcDbEntity
  8
0
100
AcDbLine
 62
7
  6
CONTINUOUS
 10
11.7496762609
 20
14.489686335
 11
11.5986400706
 21
14.4024855499
  0
LINE
  5
241
100
AcDbEntity
  8
0
100
AcDbLine
 62
7
  6
CONTINUOUS
 10
11.7496762609
 20
14.4383530016
 11
11.687552012
 21
14.4024855499
  0
LINE
  5
242
100
AcDbEntity
  8
0
100
AcDbLine
 62
7
  6
CONTINUOUS
 10
11.7496762609
 20
14.412686335
 11
11.7320079828
 21
14.4024855499
  0
LINE
  5
243
100
AcDbEntity
  8
0
100
AcDbLine
 62
7
  6
CONTINUOUS
 10
8.2468839389
 20
23.694081861
 11
8.2492470352
 21
23.7391724264
  0
LINE
  5
244
100
AcDbEntity
  8
0
100
AcDbLine
 62
7
  6
CONTINUOUS
 10
11.7677006133
 20
14.0379855499
 11
11.7485734132
 21
14.0243077925
  0
LINE
  5
245
100
AcDbEntity
  8
0
100
AcDbLine
 62
7
  6
CONTINUOUS
 10
8.2468839389
 20
19.9358892387
 11
8.2492470352
 21
19.8907986734
  0
LINE
  5
246
100
AcDbEntity
  8
0
100
AcDbLine
 62
7
  6
CONTINUOUS
 10
8.0514162847
 20
22.6078888139
 11
8.0514162247
 21
22.6079265312
  0
LINE
  5
247
100
AcDbEntity
  8
0
100
AcDbLine
 62
7
  6
CONTINUOUS
 10
7.9043997393
 20
22.3855064637
 11
7.9043997393
 21
21.9910077114
  0
LINE
  5
248
100
AcDbEntity
  8
0
100
AcDbLine
 62
7
  6
CONTINUOUS
 10
7.9043997393
 20
21.9838609102
 11
7.9043997393
 21
21.7679003767
  0
LINE
  5
249
100
AcDbEntity
  8
0
100
AcDbLine
 62
7
  6
CONTINUOUS
 10
7.9043997393
 20
21.6968120979
 11
7.9043997393
 21
21.6461101895
  0
LINE
  5
24A
100
AcDbEntity
  8
0
100
AcDbLine
 62
7
  6
CONTINUOUS
 10
7.9043997393
 20
21.6389633883
 11
7.9043997393
 21
21.244464636
  0
LINE
  5
24B
100
AcDbEntity
  8
0
100
AcDbLine
 62
9
  6
CONTINUOUS
 10
7.9101647306
 20
22.3994364313
 11
7.9101647306
 21
22.0247822155
  0
LINE
  5
24C
100
AcDbEntity
  8
0
100
AcDbLine
 62
9
  6
CONTINUOUS
 10
7.9101647306
 20
21.9977873671
 11
7.9101647306
 21
21.7539739198
  0
LINE
  5
24D
100
AcDbEntity
  8
0
100
AcDbLine
 62
9
  6
CONTINUOUS
 10
7.9101647306
 20
21.6528834966
 11
7.9101647306
 21
21.2305346684
  0
LINE
  5
24E
100
AcDbEntity
  8
0
100
AcDbLine
 62
7
  6
CONTINUOUS
 10
7.910213645
 20
20.8751692722
 11
7.910213639
 21
20.8911947469
  0
LINE
  5
24F
100
AcDbEntity
  8
0
100
AcDbLine
 62
9
  6
CONTINUOUS
 10
7.9150861338
 20
21.6578048998
 11
7.9150861338
 21
21.7490525166
  0
LINE
  5
250
100
AcDbEntity
  8
0
100
AcDbLine
 62
9
  6
CONTINUOUS
 10
7.9150861338
 20
22.0027087703
 11
7.9150861338
 21
22.0582848672
  0
LINE
  5
251
100
AcDbEntity
  8
0
100
AcDbLine
 62
9
  6
CONTINUOUS
 10
7.918318575
 20
21.2223808241
 11
7.9183185733
 21
21.6610373393
  0
LINE
  5
252
100
AcDbEntity
  8
0
100
AcDbLine
 62
9
  6
CONTINUOUS
 10
7.918318575
 20
21.7458200755
 11
7.918318575
 21
22.0059412115
  0
LINE
  5
253
100
AcDbEntity
  8
0
100
AcDbLine
 62
9
  6
CONTINUOUS
 10
7.9183185733
 20
22.0550524277
 11
7.918318575
 21
22.4075902756
  0
LINE
  5
254
100
AcDbEntity
  8
0
100
AcDbLine
 62
7
  6
CONTINUOUS
 10
7.9240847786
 20
22.4584622471
 11
7.9240847786
 21
21.1715088527
  0
LINE
  5
255
100
AcDbEntity
  8
0
100
AcDbLine
 62
9
  6
CONTINUOUS
 10
7.9370371074
 20
22.476963053
 11
7.9370371074
 21
21.1530080468
  0
LINE
  5
256
100
AcDbEntity
  8
0
100
AcDbLine
 62
7
  6
CONTINUOUS
 10
8.0095622613
 20
22.7664756949
 11
8.0095622613
 21
22.6412756745
  0
LINE
  5
257
100
AcDbEntity
  8
0
100
AcDbLine
 62
7
  6
CONTINUOUS
 10
8.0095622613
 20
22.3208497284
 11
8.0095622613
 21
22.2282853358
  0
LINE
  5
258
100
AcDbEntity
  8
0
100
AcDbLine
 62
7
  6
CONTINUOUS
 10
8.0095622613
 20
22.1184470158
 11
8.0095622613
 21
22.0258825822
  0
LINE
  5
259
100
AcDbEntity
  8
0
100
AcDbLine
 62
7
  6
CONTINUOUS
 10
8.0095622613
 20
21.9007670842
 11
8.0095622613
 21
21.8081997564
  0
LINE
  5
25A
100
AcDbEntity
  8
0
100
AcDbLine
 62
7
  6
CONTINUOUS
 10
8.0095622613
 20
21.2612634043
 11
8.0095622613
 21
21.1686871357
  0
LINE
  5
25B
100
AcDbEntity
  8
0
100
AcDbLine
 62
7
  6
CONTINUOUS
 10
8.0095622613
 20
21.1266110495
 11
8.0095622613
 21
21.0224412252
  0
LINE
  5
25C
100
AcDbEntity
  8
0
100
AcDbLine
 62
7
  6
CONTINUOUS
 10
8.0095622613
 20
21.02005168
 11
8.0095622613
 21
20.9205317411
  0
LINE
  5
25D
100
AcDbEntity
  8
0
100
AcDbLine
 62
9
  6
CONTINUOUS
 10
8.0130215931
 20
22.7748274988
 11
8.0130215931
 21
22.6329238725
  0
LINE
  5
25E
100
AcDbEntity
  8
0
100
AcDbLine
 62
9
  6
CONTINUOUS
 10
8.0130215931
 20
22.3292079663
 11
8.0130215931
 21
22.2199270979
  0
LINE
  5
25F
100
AcDbEntity
  8
0
100
AcDbLine
 62
9
  6
CONTINUOUS
 10
8.0130215931
 20
22.1268052332
 11
8.0130215931
 21
22.0175243648
  0
LINE
  5
260
100
AcDbEntity
  8
0
100
AcDbLine
 62
9
  6
CONTINUOUS
 10
8.0130215931
 20
21.9091238545
 11
8.0130215931
 21
21.7998429861
  0
LINE
  5
261
100
AcDbEntity
  8
0
100
AcDbLine
 62
9
  6
CONTINUOUS
 10
8.0130215936
 20
21.2696157046
 11
8.0130215936
 21
21.1603348353
  0
LINE
  5
262
100
AcDbEntity
  8
0
100
AcDbLine
 62
9
  6
CONTINUOUS
 10
8.0130215931
 20
21.1233699865
 11
8.0130215931
 21
20.9121773853
  0
LINE
  5
263
100
AcDbEntity
  8
0
100
AcDbLine
 62
9
  6
CONTINUOUS
 10
8.0150022655
 20
21.1253506589
 11
8.0150022655
 21
21.1603348353
  0
LINE
  5
264
100
AcDbEntity
  8
0
100
AcDbLine
 62
9
  6
CONTINUOUS
 10
8.0150022655
 20
21.2715963765
 11
8.0150022655
 21
21.7978623137
  0
LINE
  5
265
100
AcDbEntity
  8
0
100
AcDbLine
 62
9
  6
CONTINUOUS
 10
8.0150022655
 20
21.9111045269
 11
8.0150022655
 21
22.0155436924
  0
LINE
  5
266
100
AcDbEntity
  8
0
100
AcDbLine
 62
9
  6
CONTINUOUS
 10
8.0150022655
 20
22.1287859056
 11
8.0150022655
 21
22.2179464255
  0
LINE
  5
267
100
AcDbEntity
  8
0
100
AcDbLine
 62
9
  6
CONTINUOUS
 10
8.0150022655
 20
22.3292080032
 11
8.0150022655
 21
22.5053400498
  0
LINE
  5
268
100
AcDbEntity
  8
0
100
AcDbLine
 62
9
  6
CONTINUOUS
 10
8.0257878882
 20
20.8994110902
 11
8.0257878882
 21
21.1361362816
  0
LINE
  5
269
100
AcDbEntity
  8
0
100
AcDbLine
 62
9
  6
CONTINUOUS
 10
8.0257878882
 20
21.1475685408
 11
8.0257878882
 21
21.2823819992
  0
LINE
  5
26A
100
AcDbEntity
  8
0
100
AcDbLine
 62
9
  6
CONTINUOUS
 10
8.0257878882
 20
21.787076691
 11
8.0257878882
 21
21.9218901496
  0
LINE
  5
26B
100
AcDbEntity
  8
0
100
AcDbLine
 62
9
  6
CONTINUOUS
 10
8.0257878882
 20
22.0047580697
 11
8.0257878882
 21
22.1395715283
  0
LINE
  5
26C
100
AcDbEntity
  8
0
100
AcDbLine
 62
9
  6
CONTINUOUS
 10
8.0257878882
 20
22.2071608028
 11
8.0257878882
 21
22.3419742613
  0
LINE
  5
26D
100
AcDbEntity
  8
0
100
AcDbLine
 62
9
  6
CONTINUOUS
 10
8.0257878882
 20
22.6201575774
 11
8.0257878882
 21
22.7875937939
  0
LINE
  5
26E
100
AcDbEntity
  8
0
100
AcDbLine
 62
9
  6
CONTINUOUS
 10
8.0341395869
 20
22.7910532063
 11
8.0341395869
 21
22.616698165
  0
LINE
  5
26F
100
AcDbEntity
  8
0
100
AcDbLine
 62
9
  6
CONTINUOUS
 10
8.0341395869
 20
22.3454336738
 11
8.0341395869
 21
22.2037013903
  0
LINE
  5
270
100
AcDbEntity
  8
0
100
AcDbLine
 62
9
  6
CONTINUOUS
 10
8.0341395869
 20
22.1430309407
 11
8.0341395869
 21
22.0012986573
  0
LINE
  5
271
100
AcDbEntity
  8
0
100
AcDbLine
 62
9
  6
CONTINUOUS
 10
8.0341395869
 20
21.925349562
 11
8.0341395869
 21
21.7836172786
  0
LINE
  5
272
100
AcDbEntity
  8
0
100
AcDbLine
 62
9
  6
CONTINUOUS
 10
8.0341395869
 20
21.2858414117
 11
8.0341395869
 21
21.1441091282
  0
LINE
  5
273
100
AcDbEntity
  8
0
100
AcDbLine
 62
9
  6
CONTINUOUS
 10
8.0341395869
 20
21.139595694
 11
8.0341395869
 21
20.8959516777
  0
LINE
  5
274
100
AcDbEntity
  8
0
100
AcDbLine
 62
9
  6
CONTINUOUS
 10
8.0407047186
 20
21.139595694
 11
8.0407047186
 21
21.1441091282
  0
LINE
  5
275
100
AcDbEntity
  8
0
100
AcDbLine
 62
9
  6
CONTINUOUS
 10
8.0407047186
 20
21.2858414117
 11
8.0407047186
 21
21.7836172786
  0
LINE
  5
276
100
AcDbEntity
  8
0
100
AcDbLine
 62
9
  6
CONTINUOUS
 10
8.0407047186
 20
21.925349562
 11
8.0407047186
 21
22.0012986573
  0
LINE
  5
277
100
AcDbEntity
  8
0
100
AcDbLine
 62
9
  6
CONTINUOUS
 10
8.0407047186
 20
22.1430309407
 11
8.0407047186
 21
22.203701069
  0
LINE
  5
278
100
AcDbEntity
  8
0
100
AcDbLine
 62
9
  6
CONTINUOUS
 10
8.0407047172
 20
22.3454336738
 11
8.0407047186
 21
22.5383634588
  0
LINE
  5
279
100
AcDbEntity
  8
0
100
AcDbLine
 62
7
  6
CONTINUOUS
 10
8.0988205363
 20
22.7363998624
 11
8.0988182653
 21
20.653568227
  0
LINE
  5
27A
100
AcDbEntity
  8
0
100
AcDbLine
 62
7
  6
CONTINUOUS
 10
8.0988182653
 20
22.9764028727
 11
8.0988205363
 21
22.7363998624
  0
LINE
  5
27B
100
AcDbEntity
  8
0
100
AcDbLine
 62
7
  6
CONTINUOUS
 10
8.1055917558
 20
22.9882002785
 11
8.1055917558
 21
20.6417703053
  0
LINE
  5
27C
100
AcDbEntity
  8
0
100
AcDbLine
 62
9
  6
CONTINUOUS
 10
8.1209315317
 20
23.0771512535
 11
8.1209315316
 21
20.5528198463
  0
LINE
  5
27D
100
AcDbEntity
  8
0
100
AcDbLine
 62
7
  6
CONTINUOUS
 10
8.1259989678
 20
23.2456449371
 11
8.1259989678
 21
23.159593534
  0
LINE
  5
27E
100
AcDbEntity
  8
0
100
AcDbLine
 62
7
  6
CONTINUOUS
 10
8.1259989678
 20
23.1510735049
 11
8.1259989678
 21
23.0650328217
  0
LINE
  5
27F
100
AcDbEntity
  8
0
100
AcDbLine
 62
7
  6
CONTINUOUS
 10
8.1259989678
 20
22.9683826489
 11
8.1259989678
 21
22.882353116
  0
LINE
  5
280
100
AcDbEntity
  8
0
100
AcDbLine
 62
7
  6
CONTINUOUS
 10
8.1259989678
 20
22.710030062
 11
8.1259989678
 21
22.6239936993
  0
LINE
  5
281
100
AcDbEntity
  8
0
100
AcDbLine
 62
7
  6
CONTINUOUS
 10
8.1259989678
 20
22.393616777
 11
8.1259989678
 21
22.3075666078
  0
LINE
  5
282
100
AcDbEntity
  8
0
100
AcDbLine
 62
7
  6
CONTINUOUS
 10
8.1259989678
 20
22.0406952662
 11
8.1259989678
 21
21.9546463952
  0
LINE
  5
283
100
AcDbEntity
  8
0
100
AcDbLine
 62
7
  6
CONTINUOUS
 10
8.1259989678
 20
21.6753178258
 11
8.1259989678
 21
21.5892827122
  0
LINE
  5
284
100
AcDbEntity
  8
0
100
AcDbLine
 62
7
  6
CONTINUOUS
 10
8.1259989678
 20
21.3223942247
 11
8.1259989678
 21
21.2363645899
  0
LINE
  5
285
100
AcDbEntity
  8
0
100
AcDbLine
 62
7
  6
CONTINUOUS
 10
8.1259989678
 20
21.0059782373
 11
8.1259989678
 21
20.9199402009
  0
LINE
  5
286
100
AcDbEntity
  8
0
100
AcDbLine
 62
7
  6
CONTINUOUS
 10
8.1259989678
 20
20.7476291862
 11
8.1259989678
 21
20.6615772484
  0
LINE
  5
287
100
AcDbEntity
  8
0
100
AcDbLine
 62
7
  6
CONTINUOUS
 10
8.1259989678
 20
20.5649417324
 11
8.1259989678
 21
20.4788941405
  0
LINE
  5
288
100
AcDbEntity
  8
0
100
AcDbLine
 62
7
  6
CONTINUOUS
 10
8.1259989678
 20
20.4703604577
 11
8.1259989678
 21
20.3843456954
  0
LINE
  5
289
100
AcDbEntity
  8
0
100
AcDbLine
 62
9
  6
CONTINUOUS
 10
8.1279985123
 20
23.0511067688
 11
8.1279985123
 21
22.9766781678
  0
LINE
  5
28A
100
AcDbEntity
  8
0
100
AcDbLine
 62
9
  6
CONTINUOUS
 10
8.1279985123
 20
22.874057597
 11
8.1279985123
 21
22.718322166
  0
LINE
  5
28B
100
AcDbEntity
  8
0
100
AcDbLine
 62
9
  6
CONTINUOUS
 10
8.1279985123
 20
22.6157015952
 11
8.1279985201
 21
22.4019019894
  0
LINE
  5
28C
100
AcDbEntity
  8
0
100
AcDbLine
 62
9
  6
CONTINUOUS
 10
8.1279985201
 20
22.2992813954
 11
8.1279985201
 21
22.0489811277
  0
LINE
  5
28D
100
AcDbEntity
  8
0
100
AcDbLine
 62
9
  6
CONTINUOUS
 10
8.1279985201
 20
21.9463605337
 11
8.1279985201
 21
21.683610566
  0
LINE
  5
28E
100
AcDbEntity
  8
0
100
AcDbLine
 62
9
  6
CONTINUOUS
 10
8.1279985201
 20
21.580989972
 11
8.1279985201
 21
21.3306897043
  0
LINE
  5
28F
100
AcDbEntity
  8
0
100
AcDbLine
 62
9
  6
CONTINUOUS
 10
8.1279985201
 20
21.2280691103
 11
8.1279985201
 21
21.0142695161
  0
LINE
  5
290
100
AcDbEntity
  8
0
100
AcDbLine
 62
9
  6
CONTINUOUS
 10
8.1279985201
 20
20.9116489221
 11
8.1279985201
 21
20.7559135143
  0
LINE
  5
291
100
AcDbEntity
  8
0
100
AcDbLine
 62
9
  6
CONTINUOUS
 10
8.1279985201
 20
20.6532929203
 11
8.1279985201
 21
20.5788643309
  0
LINE
  5
292
100
AcDbEntity
  8
0
100
AcDbLine
 62
9
  6
CONTINUOUS
 10
8.1317642599
 20
23.2595644176
 11
8.1317642599
 21
23.0511067688
  0
LINE
  5
293
100
AcDbEntity
  8
0
100
AcDbLine
 62
9
  6
CONTINUOUS
 10
8.1317642599
 20
22.9823142769
 11
8.1317642599
 21
22.868421488
  0
LINE
  5
294
100
AcDbEntity
  8
0
100
AcDbLine
 62
9
  6
CONTINUOUS
 10
8.1317642599
 20
22.7239582751
 11
8.1317642599
 21
22.6100654861
  0
LINE
  5
295
100
AcDbEntity
  8
0
100
AcDbLine
 62
9
  6
CONTINUOUS
 10
8.1317642599
 20
22.4075380869
 11
8.1317642599
 21
22.2936452979
  0
LINE
  5
296
100
AcDbEntity
  8
0
100
AcDbLine
 62
9
  6
CONTINUOUS
 10
8.1317642599
 20
22.0546172252
 11
8.1317642599
 21
21.9407244362
  0
LINE
  5
297
100
AcDbEntity
  8
0
100
AcDbLine
 62
9
  6
CONTINUOUS
 10
8.1317642599
 20
21.6892466635
 11
8.1317642599
 21
21.5753538745
  0
LINE
  5
298
100
AcDbEntity
  8
0
100
AcDbLine
 62
9
  6
CONTINUOUS
 10
8.1317642599
 20
21.3363258018
 11
8.1317642599
 21
21.2224330128
  0
LINE
  5
299
100
AcDbEntity
  8
0
100
AcDbLine
 62
9
  6
CONTINUOUS
 10
8.1317642599
 20
21.0199056136
 11
8.1317642599
 21
20.9060128246
  0
LINE
  5
29A
100
AcDbEntity
  8
0
100
AcDbLine
 62
9
  6
CONTINUOUS
 10
8.1317642599
 20
20.7615496118
 11
8.1317642599
 21
20.6476568228
  0
LINE
  5
29B
100
AcDbEntity
  8
0
100
AcDbLine
 62
9
  6
CONTINUOUS
 10
8.1317642599
 20
20.5788643309
 11
8.1317642599
 21
20.3704066821
  0
LINE
  5
29C
100
AcDbEntity
  8
0
100
AcDbLine
 62
9
  6
CONTINUOUS
 10
8.1399180999
 20
20.3622534027
 11
8.1399180999
 21
20.4508341789
  0
LINE
  5
29D
100
AcDbEntity
  8
0
100
AcDbLine
 62
9
  6
CONTINUOUS
 10
8.1399180999
 20
20.456817702
 11
8.1399180999
 21
20.5870181709
  0
LINE
  5
29E
100
AcDbEntity
  8
0
100
AcDbLine
 62
9
  6
CONTINUOUS
 10
8.1399180999
 20
20.6395029828
 11
8.1399180999
 21
20.7697034518
  0
LINE
  5
29F
100
AcDbEntity
  8
0
100
AcDbLine
 62
9
  6
CONTINUOUS
 10
8.1399180999
 20
20.8978589846
 11
8.1399180999
 21
21.0280594536
  0
LINE
  5
2A0
100
AcDbEntity
  8
0
100
AcDbLine
 62
9
  6
CONTINUOUS
 10
8.1399180999
 20
21.2142791728
 11
8.1399180999
 21
21.3444796418
  0
LINE
  5
2A1
100
AcDbEntity
  8
0
100
AcDbLine
 62
9
  6
CONTINUOUS
 10
8.1399180999
 20
21.5672000345
 11
8.1399180999
 21
21.6974005035
  0
LINE
  5
2A2
100
AcDbEntity
  8
0
100
AcDbLine
 62
9
  6
CONTINUOUS
 10
8.1399180999
 20
21.9325705962
 11
8.1399180999
 21
22.0627710652
  0
LINE
  5
2A3
100
AcDbEntity
  8
0
100
AcDbLine
 62
9
  6
CONTINUOUS
 10
8.1399180999
 20
22.2854914579
 11
8.1399180999
 21
22.4156919269
  0
LINE
  5
2A4
100
AcDbEntity
  8
0
100
AcDbLine
 62
9
  6
CONTINUOUS
 10
8.1399180999
 20
22.6019116461
 11
8.1399180999
 21
22.7321121151
  0
LINE
  5
2A5
100
AcDbEntity
  8
0
100
AcDbLine
 62
9
  6
CONTINUOUS
 10
8.1399180999
 20
22.8602676479
 11
8.1399180999
 21
22.9904681169
  0
LINE
  5
2A6
100
AcDbEntity
  8
0
100
AcDbLine
 62
9
  6
CONTINUOUS
 10
8.1399180999
 20
23.0429529288
 11
8.1399180999
 21
23.2677182577
  0
LINE
  5
2A7
100
AcDbEntity
  8
0
100
AcDbLine
 62
9
  6
CONTINUOUS
 10
8.1476928439
 20
20.5915617333
 11
8.1476928439
 21
20.6349594204
  0
LINE
  5
2A8
100
AcDbEntity
  8
0
100
AcDbLine
 62
9
  6
CONTINUOUS
 10
8.1476928439
 20
20.7742470142
 11
8.1476928439
 21
20.8933154222
  0
LINE
  5
2A9
100
AcDbEntity
  8
0
100
AcDbLine
 62
9
  6
CONTINUOUS
 10
8.1476928439
 20
21.032603016
 11
8.1476928439
 21
21.2097356104
  0
LINE
  5
2AA
100
AcDbEntity
  8
0
100
AcDbLine
 62
9
  6
CONTINUOUS
 10
8.1476928439
 20
21.3490232042
 11
8.1476928439
 21
21.5626564721
  0
LINE
  5
2AB
100
AcDbEntity
  8
0
100
AcDbLine
 62
9
  6
CONTINUOUS
 10
8.1476928439
 20
21.7019440659
 11
8.1476928439
 21
21.9280270338
  0
LINE
  5
2AC
100
AcDbEntity
  8
0
100
AcDbLine
 62
9
  6
CONTINUOUS
 10
8.1476928439
 20
22.0673146276
 11
8.1476928439
 21
22.2809478955
  0
LINE
  5
2AD
100
AcDbEntity
  8
0
100
AcDbLine
 62
9
  6
CONTINUOUS
 10
8.1476928439
 20
22.4202354893
 11
8.1476928439
 21
22.5973680837
  0
LINE
  5
2AE
100
AcDbEntity
  8
0
100
AcDbLine
 62
9
  6
CONTINUOUS
 10
8.1476928439
 20
22.7363998624
 11
8.1476928439
 21
22.8557240855
  0
LINE
  5
2AF
100
AcDbEntity
  8
0
100
AcDbLine
 62
9
  6
CONTINUOUS
 10
8.1476928439
 20
22.9950116793
 11
8.1476928439
 21
23.0384093664
  0
LINE
  5
2B0
100
AcDbEntity
  8
0
100
AcDbLine
 62
9
  6
CONTINUOUS
 10
8.1538378174
 20
23.2734841649
 11
8.1538378174
 21
23.0371870215
  0
LINE
  5
2B1
100
AcDbEntity
  8
0
100
AcDbLine
 62
9
  6
CONTINUOUS
 10
8.1538378174
 20
22.9962340242
 11
8.1538378174
 21
22.8545017407
  0
LINE
  5
2B2
100
AcDbEntity
  8
0
100
AcDbLine
 62
9
  6
CONTINUOUS
 10
8.1538378174
 20
22.7378780224
 11
8.1538378174
 21
22.5961457389
  0
LINE
  5
2B3
100
AcDbEntity
  8
0
100
AcDbLine
 62
9
  6
CONTINUOUS
 10
8.1538378174
 20
22.4214578341
 11
8.1538378174
 21
22.2797255507
  0
LINE
  5
2B4
100
AcDbEntity
  8
0
100
AcDbLine
 62
9
  6
CONTINUOUS
 10
8.1538378174
 20
22.0685369724
 11
8.1538378174
 21
21.926804689
  0
LINE
  5
2B5
100
AcDbEntity
  8
0
100
AcDbLine
 62
9
  6
CONTINUOUS
 10
8.1538378174
 20
21.7031664107
 11
8.1538378174
 21
21.5614341273
  0
LINE
  5
2B6
100
AcDbEntity
  8
0
100
AcDbLine
 62
9
  6
CONTINUOUS
 10
8.1538378174
 20
21.3502455491
 11
8.1538378174
 21
21.2085132656
  0
LINE
  5
2B7
100
AcDbEntity
  8
0
100
AcDbLine
 62
9
  6
CONTINUOUS
 10
8.1538378174
 20
21.0338253608
 11
8.1538378174
 21
20.8920930774
  0
LINE
  5
2B8
100
AcDbEntity
  8
0
100
AcDbLine
 62
9
  6
CONTINUOUS
 10
8.1538378174
 20
20.775469359
 11
8.1538378174
 21
20.6337370756
  0
LINE
  5
2B9
100
AcDbEntity
  8
0
100
AcDbLine
 62
9
  6
CONTINUOUS
 10
8.1538378174
 20
20.5927840782
 11
8.1538378174
 21
20.3564869348
  0
LINE
  5
2BA
100
AcDbEntity
  8
0
100
AcDbLine
 62
9
  6
CONTINUOUS
 10
8.1653362657
 20
20.5927840782
 11
8.1653362657
 21
20.6337370756
  0
LINE
  5
2BB
100
AcDbEntity
  8
0
100
AcDbLine
 62
9
  6
CONTINUOUS
 10
8.1653362657
 20
20.775469359
 11
8.1653362657
 21
20.8920930774
  0
LINE
  5
2BC
100
AcDbEntity
  8
0
100
AcDbLine
 62
9
  6
CONTINUOUS
 10
8.1653362657
 20
21.0353179206
 11
8.1653362657
 21
21.2085132656
  0
LINE
  5
2BD
100
AcDbEntity
  8
0
100
AcDbLine
 62
9
  6
CONTINUOUS
 10
8.1653362657
 20
21.3502455491
 11
8.1653362657
 21
21.5614341273
  0
LINE
  5
2BE
100
AcDbEntity
  8
0
100
AcDbLine
 62
9
  6
CONTINUOUS
 10
8.1653362657
 20
21.7031664107
 11
8.1653362657
 21
21.926804689
  0
LINE
  5
2BF
100
AcDbEntity
  8
0
100
AcDbLine
 62
9
  6
CONTINUOUS
 10
8.1653362657
 20
22.0685369724
 11
8.1653362657
 21
22.2797255507
  0
LINE
  5
2C0
100
AcDbEntity
  8
0
100
AcDbLine
 62
9
  6
CONTINUOUS
 10
8.1653362657
 20
22.7378780224
 11
8.1653362657
 21
22.8545017407
  0
LINE
  5
2C1
100
AcDbEntity
  8
0
100
AcDbLine
 62
9
  6
CONTINUOUS
 10
8.1653362657
 20
22.9962340242
 11
8.1653362657
 21
23.0371870215
  0
LINE
  5
2C2
100
AcDbEntity
  8
0
100
AcDbLine
 62
9
  6
CONTINUOUS
 10
8.1653362603
 20
22.4214578341
 11
8.1653362657
 21
22.5946531623
  0
LINE
  5
2C3
100
AcDbEntity
  8
0
100
AcDbLine
 62
7
  6
CONTINUOUS
 10
8.1675461361
 20
23.483996748
 11
8.1675461361
 21
23.3193380479
  0
LINE
  5
2C4
100
AcDbEntity
  8
0
100
AcDbLine
 62
7
  6
CONTINUOUS
 10
8.1675461361
 20
23.2677318899
 11
8.1675461361
 21
23.1580692536
  0
LINE
  5
2C5
100
AcDbEntity
  8
0
100
AcDbLine
 62
7
  6
CONTINUOUS
 10
8.1675461361
 20
23.0112134957
 11
8.1675461361
 21
22.9015432756
  0
LINE
  5
2C6
100
AcDbEntity
  8
0
100
AcDbLine
 62
7
  6
CONTINUOUS
 10
8.1675461361
 20
22.6769095087
 11
8.1675461361
 21
22.5672348193
  0
LINE
  5
2C7
100
AcDbEntity
  8
0
100
AcDbLine
 62
7
  6
CONTINUOUS
 10
8.1675461361
 20
22.2876008467
 11
8.1675461361
 21
22.1779278002
  0
LINE
  5
2C8
100
AcDbEntity
  8
0
100
AcDbLine
 62
7
  6
CONTINUOUS
 10
8.1675461361
 20
21.8698190218
 11
8.1675461361
 21
21.7601520779
  0
LINE
  5
2C9
100
AcDbEntity
  8
0
100
AcDbLine
 62
7
  6
CONTINUOUS
 10
8.1675461361
 20
21.4520370882
 11
8.1675461361
 21
21.3423764643
  0
LINE
  5
2CA
100
AcDbEntity
  8
0
100
AcDbLine
 62
7
  6
CONTINUOUS
 10
8.1675461361
 20
21.0627271557
 11
8.1675461361
 21
20.9530707157
  0
LINE
  5
2CB
100
AcDbEntity
  8
0
100
AcDbLine
 62
7
  6
CONTINUOUS
 10
8.1675461361
 20
20.7284206566
 11
8.1675461361
 21
20.6187647716
  0
LINE
  5
2CC
100
AcDbEntity
  8
0
100
AcDbLine
 62
7
  6
CONTINUOUS
 10
8.1675461361
 20
20.4719003808
 11
8.1675461361
 21
20.3622406752
  0
LINE
  5
2CD
100
AcDbEntity
  8
0
100
AcDbLine
 62
7
  6
CONTINUOUS
 10
8.1675461361
 20
20.3106480478
 11
8.1675461361
 21
20.1459743517
  0
LINE
  5
2CE
100
AcDbEntity
  8
0
100
AcDbLine
 62
9
  6
CONTINUOUS
 10
8.1733114729
 20
23.497916241
 11
8.1733114729
 21
23.3053996964
  0
LINE
  5
2CF
100
AcDbEntity
  8
0
100
AcDbLine
 62
9
  6
CONTINUOUS
 10
8.1733114729
 20
23.2816580345
 11
8.1733114729
 21
23.1441431089
  0
LINE
  5
2D0
100
AcDbEntity
  8
0
100
AcDbLine
 62
9
  6
CONTINUOUS
 10
8.1733114729
 20
23.0251358484
 11
8.1733114729
 21
22.8876209229
  0
LINE
  5
2D1
100
AcDbEntity
  8
0
100
AcDbLine
 62
9
  6
CONTINUOUS
 10
8.1733114987
 20
22.6908296526
 11
8.1733114987
 21
22.5533146754
  0
LINE
  5
2D2
100
AcDbEntity
  8
0
100
AcDbLine
 62
9
  6
CONTINUOUS
 10
8.1733114729
 20
22.3015217862
 11
8.1733114729
 21
22.1640068607
  0
LINE
  5
2D3
100
AcDbEntity
  8
0
100
AcDbLine
 62
9
  6
CONTINUOUS
 10
8.1733114729
 20
21.8837430126
 11
8.1733114729
 21
21.7462280871
  0
LINE
  5
2D4
100
AcDbEntity
  8
0
100
AcDbLine
 62
9
  6
CONTINUOUS
 10
8.1733114729
 20
21.465964239
 11
8.1733114729
 21
21.3284493135
  0
LINE
  5
2D5
100
AcDbEntity
  8
0
100
AcDbLine
 62
9
  6
CONTINUOUS
 10
8.1733114729
 20
21.0766563985
 11
8.1733114729
 21
20.9391414729
  0
LINE
  5
2D6
100
AcDbEntity
  8
0
100
AcDbLine
 62
9
  6
CONTINUOUS
 10
8.1733114729
 20
20.7423501769
 11
8.1733114729
 21
20.6048352513
  0
LINE
  5
2D7
100
AcDbEntity
  8
0
100
AcDbLine
 62
9
  6
CONTINUOUS
 10
8.1733114729
 20
20.4858279908
 11
8.1733114729
 21
20.3483130652
  0
LINE
  5
2D8
100
AcDbEntity
  8
0
100
AcDbLine
 62
9
  6
CONTINUOUS
 10
8.1733114729
 20
20.3245714033
 11
8.1733114729
 21
20.1320548587
  0
LINE
  5
2D9
100
AcDbEntity
  8
0
100
AcDbLine
 62
9
  6
CONTINUOUS
 10
8.1814649635
 20
20.123901368
 11
8.1814649635
 21
20.332724894
  0
LINE
  5
2DA
100
AcDbEntity
  8
0
100
AcDbLine
 62
9
  6
CONTINUOUS
 10
8.1814649637
 20
20.3401595744
 11
8.1814649637
 21
20.4939814816
  0
LINE
  5
2DB
100
AcDbEntity
  8
0
100
AcDbLine
 62
9
  6
CONTINUOUS
 10
8.1814649635
 20
20.5966817606
 11
8.1814649635
 21
20.7505036676
  0
LINE
  5
2DC
100
AcDbEntity
  8
0
100
AcDbLine
 62
9
  6
CONTINUOUS
 10
8.1814649635
 20
20.9309879822
 11
8.1814649635
 21
21.0848098892
  0
LINE
  5
2DD
100
AcDbEntity
  8
0
100
AcDbLine
 62
9
  6
CONTINUOUS
 10
8.1814649635
 20
21.3202958228
 11
8.1814649635
 21
21.4741177297
  0
LINE
  5
2DE
100
AcDbEntity
  8
0
100
AcDbLine
 62
9
  6
CONTINUOUS
 10
8.1814649635
 20
21.7380745964
 11
8.1814649635
 21
21.8918965033
  0
LINE
  5
2DF
100
AcDbEntity
  8
0
100
AcDbLine
 62
9
  6
CONTINUOUS
 10
8.1814649635
 20
22.15585337
 11
8.1814649635
 21
22.3096752769
  0
LINE
  5
2E0
100
AcDbEntity
  8
0
100
AcDbLine
 62
9
  6
CONTINUOUS
 10
8.1814649635
 20
22.8794674322
 11
8.1814649635
 21
23.0332893391
  0
LINE
  5
2E1
100
AcDbEntity
  8
0
100
AcDbLine
 62
9
  6
CONTINUOUS
 10
8.1814649635
 20
23.1359896183
 11
8.1814649635
 21
23.2898115252
  0
LINE
  5
2E2
100
AcDbEntity
  8
0
100
AcDbLine
 62
9
  6
CONTINUOUS
 10
8.1814649635
 20
23.2972462058
 11
8.1814649635
 21
23.5060697317
  0
LINE
  5
2E3
100
AcDbEntity
  8
0
100
AcDbLine
 62
9
  6
CONTINUOUS
 10
8.1814653123
 20
22.5451608618
 11
8.1814653123
 21
22.6989834662
  0
LINE
  5
2E4
100
AcDbEntity
  8
0
100
AcDbLine
 62
9
  6
CONTINUOUS
 10
8.1953849857
 20
23.5118359436
 11
8.1953849857
 21
23.1302234064
  0
LINE
  5
2E5
100
AcDbEntity
  8
0
100
AcDbLine
 62
9
  6
CONTINUOUS
 10
8.1953849857
 20
23.039055551
 11
8.1953849857
 21
22.8737012203
  0
LINE
  5
2E6
100
AcDbEntity
  8
0
100
AcDbLine
 62
9
  6
CONTINUOUS
 10
8.1953849857
 20
22.7047493294
 11
8.1953849857
 21
22.5393949987
  0
LINE
  5
2E7
100
AcDbEntity
  8
0
100
AcDbLine
 62
9
  6
CONTINUOUS
 10
8.1953849857
 20
22.3154414888
 11
8.1953849857
 21
22.1500871581
  0
LINE
  5
2E8
100
AcDbEntity
  8
0
100
AcDbLine
 62
9
  6
CONTINUOUS
 10
8.1953849857
 20
21.8976627152
 11
8.1953849857
 21
21.7323083845
  0
LINE
  5
2E9
100
AcDbEntity
  8
0
100
AcDbLine
 62
9
  6
CONTINUOUS
 10
8.1953849857
 20
21.4798839416
 11
8.1953849857
 21
21.3145296109
  0
LINE
  5
2EA
100
AcDbEntity
  8
0
100
AcDbLine
 62
9
  6
CONTINUOUS
 10
8.1953849857
 20
21.090576101
 11
8.1953849857
 21
20.9252217703
  0
LINE
  5
2EB
100
AcDbEntity
  8
0
100
AcDbLine
 62
9
  6
CONTINUOUS
 10
8.1953849857
 20
20.7562698794
 11
8.1953849857
 21
20.5909155487
  0
LINE
  5
2EC
100
AcDbEntity
  8
0
100
AcDbLine
 62
9
  6
CONTINUOUS
 10
8.1953849857
 20
20.4997476934
 11
8.1953849857
 21
20.1181351562
  0
LINE
  5
2ED
100
AcDbEntity
  8
0
100
AcDbLine
 62
7
  6
CONTINUOUS
 10
8.2303048023
 20
23.5811050751
 11
8.2303048023
 21
20.0486539187
  0
LINE
  5
2EE
100
AcDbEntity
  8
0
100
AcDbLine
 62
9
  6
CONTINUOUS
 10
8.2305451189
 20
22.2898363832
 11
8.2305463398
 21
22.6131978383
  0
LINE
  5
2EF
100
AcDbEntity
  8
0
100
AcDbLine
 62
9
  6
CONTINUOUS
 10
8.2305451186
 20
20.046622284
 11
8.2305451189
 21
22.2898363832
  0
LINE
  5
2F0
100
AcDbEntity
  8
0
100
AcDbLine
 62
7
  6
CONTINUOUS
 10
8.2468839389
 20
19.9358892387
 11
8.2468839389
 21
23.694081861
  0
LINE
  5
2F1
100
AcDbEntity
  8
0
100
AcDbLine
 62
9
  6
CONTINUOUS
 10
8.2492470354
 20
19.8907986705
 11
8.2492470354
 21
23.7391724292
  0
LINE
  5
2F2
100
AcDbEntity
  8
0
100
AcDbLine
 62
9
  6
CONTINUOUS
 10
8.329137398
 20
23.8149855499
 11
8.329137398
 21
19.8149855499
  0
LINE
  5
2F3
100
AcDbEntity
  8
0
100
AcDbLine
 62
9
  6
CONTINUOUS
 10
8.2305463398
 20
22.6131978383
 11
8.2305435119
 21
23.5825089032
  0
LINE
  5
2F4
100
AcDbEntity
  8
0
100
AcDbLine
 62
9
  6
CONTINUOUS
 10
8.2305435119
 20
23.5825089032
 11
8.2305453386
 21
23.5833496757
  0
LINE
  5
2F5
100
AcDbEntity
  8
0
100
AcDbLine
 62
7
  6
CONTINUOUS
 10
12.6607791086
 20
13.5416633072
 11
12.6416519084
 21
13.5279855499
  0
LINE
  5
2F6
100
AcDbEntity
  8
0
100
AcDbLine
 62
7
  6
CONTINUOUS
 10
13.0809100134
 20
12.9232067569
 11
13.1579100134
 21
12.9676627277
  0
LINE
  5
2F7
100
AcDbEntity
  8
0
100
AcDbLine
 62
9
  6
CONTINUOUS
 10
9.1732202327
 20
19.8149855499
 11
9.1732202327
 21
23.8149855499
  0
LINE
  5
2F8
100
AcDbEntity
  8
0
100
AcDbLine
 62
7
  6
CONTINUOUS
 10
9.2532202327
 20
19.8949855499
 11
9.2532202327
 21
23.7349855499
  0
LINE
  5
2F9
100
AcDbEntity
  8
0
100
AcDbLine
 62
9
  6
CONTINUOUS
 10
9.2764233398
 20
22.9286462833
 11
9.2764233398
 21
20.7013248164
  0
LINE
  5
2FA
100
AcDbEntity
  8
0
100
AcDbLine
 62
7
  6
CONTINUOUS
 10
11.5508995772
 20
14.0139765894
 11
11.542923129
 21
14.000160976
  0
LINE
  5
2FB
100
AcDbEntity
  8
0
100
AcDbLine
 62
7
  6
CONTINUOUS
 10
11.547144136
 20
14.0012919748
 11
11.5564935009
 21
14.0174855499
  0
LINE
  5
2FC
100
AcDbEntity
  8
0
100
AcDbLine
 62
7
  6
CONTINUOUS
 10
8.2303048023
 20
20.0485666471
 11
8.2305484279
 21
20.0466231269
  0
LINE
  5
2FD
100
AcDbEntity
  8
0
100
AcDbLine
 62
9
  6
CONTINUOUS
 10
9.852017155
 20
21.2815940008
 11
9.852017155
 21
22.3483770989
  0
LINE
  5
2FE
100
AcDbEntity
  8
0
100
AcDbLine
 62
7
  6
CONTINUOUS
 10
9.8752202327
 20
21.3379332377
 11
9.8752202327
 21
22.2920370315
  0
LINE
  5
2FF
100
AcDbEntity
  8
0
100
AcDbLine
 62
9
  6
CONTINUOUS
 10
9.9352202327
 20
22.2989855499
 11
9.9352202327
 21
21.3309855499
  0
LINE
  5
300
100
AcDbEntity
  8
0
100
AcDbLine
 62
9
  6
CONTINUOUS
 10
9.9552202327
 20
21.3309855499
 11
9.9552202327
 21
22.2989855499
  0
LINE
  5
301
100
AcDbEntity
  8
0
100
AcDbLine
 62
9
  6
CONTINUOUS
 10
10.0270654353
 20
21.3614278985
 11
10.0270654353
 21
22.2685432012
  0
LINE
  5
302
100
AcDbEntity
  8
0
100
AcDbLine
 62
9
  6
CONTINUOUS
 10
10.0516315372
 20
22.2532144011
 11
10.0516315372
 21
21.3767566987
  0
LINE
  5
303
100
AcDbEntity
  8
0
100
AcDbLine
 62
7
  6
CONTINUOUS
 10
10.1496762609
 20
14.4024855499
 11
10.1496762609
 21
14.0174855499
  0
LINE
  5
304
100
AcDbEntity
  8
0
100
AcDbLine
 62
7
  6
CONTINUOUS
 10
10.1846761565
 20
21.4199855159
 11
10.1846762132
 21
22.2099855654
  0
LINE
  5
305
100
AcDbEntity
  8
0
100
AcDbLine
 62
9
  6
CONTINUOUS
 10
10.2293975464
 20
22.1899855499
 11
10.2293975464
 21
21.4399855499
  0
LINE
  5
306
100
AcDbEntity
  8
0
100
AcDbLine
 62
7
  6
CONTINUOUS
 10
10.4746762609
 20
15.2999855499
 11
10.4746762609
 21
14.9899855499
  0
LINE
  5
307
100
AcDbEntity
  8
0
100
AcDbLine
 62
7
  6
CONTINUOUS
 10
10.4746762609
 20
13.4299855499
 11
10.4746762609
 21
13.1199855499
  0
LINE
  5
308
100
AcDbEntity
  8
0
100
AcDbLine
 62
7
  6
CONTINUOUS
 10
10.5296762609
 20
14.9499855499
 11
10.5296762609
 21
14.4024855499
  0
LINE
  5
309
100
AcDbEntity
  8
0
100
AcDbLine
 62
7
  6
CONTINUOUS
 10
10.5296762609
 20
14.0174855499
 11
10.5296762609
 21
13.4699855499
  0
LINE
  5
30A
100
AcDbEntity
  8
0
100
AcDbLine
 62
7
  6
CONTINUOUS
 10
10.6746762609
 20
18.7849855499
 11
10.6746762609
 21
18.7149855499
  0
LINE
  5
30B
100
AcDbEntity
  8
0
100
AcDbLine
 62
9
  6
CONTINUOUS
 10
10.6846762609
 20
21.4399855499
 11
10.6846762609
 21
22.1899855499
  0
LINE
  5
30C
100
AcDbEntity
  8
0
100
AcDbLine
 62
9
  6
CONTINUOUS
 10
11.0296762609
 20
8.847144454
 11
11.5896762609
 21
8.847144454
  0
LINE
  5
30D
100
AcDbEntity
  8
0
100
AcDbLine
 62
9
  6
CONTINUOUS
 10
8.0606214304
 20
22.7910532063
 11
8.0606259877
 21
22.7910289223
  0
LINE
  5
30E
100
AcDbEntity
  8
0
100
AcDbLine
 62
7
  6
CONTINUOUS
 10
8.1209315316
 20
20.5528198463
 11
8.1055917558
 21
20.6417572031
  0
LINE
  5
30F
100
AcDbEntity
  8
0
100
AcDbLine
 62
9
  6
CONTINUOUS
 10
8.0602431403
 20
22.7584304474
 11
8.0606259845
 21
22.755853079
  0
LINE
  5
310
100
AcDbEntity
  8
0
100
AcDbLine
 62
7
  6
CONTINUOUS
 10
10.9346762609
 20
21.1899855499
 11
10.9346762609
 21
19.0647207505
  0
LINE
  5
311
100
AcDbEntity
  8
0
100
AcDbLine
 62
7
  6
CONTINUOUS
 10
11.0296762609
 20
13.0999855499
 11
11.0296762609
 21
8.847144454
  0
LINE
  5
312
100
AcDbEntity
  8
0
100
AcDbLine
 62
7
  6
CONTINUOUS
 10
11.1171762609
 20
15.3699855499
 11
11.1171762609
 21
14.4529584317
  0
LINE
  5
313
100
AcDbEntity
  8
0
100
AcDbLine
 62
7
  6
CONTINUOUS
 10
11.1171762609
 20
13.0499855499
 11
11.1171762609
 21
13.9670127391
  0
LINE
  5
314
100
AcDbEntity
  8
0
100
AcDbLine
 62
7
  6
CONTINUOUS
 10
11.4066762609
 20
15.7879783412
 11
11.4066762609
 21
14.6879927585
  0
LINE
  5
315
100
AcDbEntity
  8
0
100
AcDbLine
 62
7
  6
CONTINUOUS
 10
11.5021762609
 20
14.6879855499
 11
11.5021762609
 21
14.4529583615
  0
LINE
  5
316
100
AcDbEntity
  8
0
100
AcDbLine
 62
7
  6
CONTINUOUS
 10
11.5021762609
 20
13.0499855499
 11
11.5021762609
 21
13.9670126678
  0
LINE
  5
317
100
AcDbEntity
  8
0
100
AcDbLine
 62
7
  6
CONTINUOUS
 10
11.5896762609
 20
13.0999855499
 11
11.5896762609
 21
8.847144454
  0
LINE
  5
318
100
AcDbEntity
  8
0
100
AcDbLine
 62
7
  6
CONTINUOUS
 10
11.6496762609
 20
14.1379855499
 11
11.6496762609
 21
14.0379855499
  0
LINE
  5
319
100
AcDbEntity
  8
0
100
AcDbLine
 62
9
  6
CONTINUOUS
 10
11.6778648153
 20
14.6879855499
 11
11.6778648153
 21
14.5224855499
  0
LINE
  5
31A
100
AcDbEntity
  8
0
100
AcDbLine
 62
9
  6
CONTINUOUS
 10
11.6778648153
 20
13.8974855499
 11
11.6778648153
 21
13.4699855499
  0
LINE
  5
31B
100
AcDbEntity
  8
0
100
AcDbLine
 62
7
  6
CONTINUOUS
 10
11.6846762609
 20
21.1899855499
 11
11.6846762609
 21
19.0647207507
  0
LINE
  5
31C
100
AcDbEntity
  8
0
100
AcDbLine
 62
7
  6
CONTINUOUS
 10
11.6884240832
 20
13.4699855499
 11
11.6884240832
 21
13.8974838568
  0
LINE
  5
31D
100
AcDbEntity
  8
0
100
AcDbLine
 62
7
  6
CONTINUOUS
 10
11.6884240832
 20
14.5224855499
 11
11.6884240832
 21
14.6879855499
  0
LINE
  5
31E
100
AcDbEntity
  8
0
100
AcDbLine
 62
9
  6
CONTINUOUS
 10
11.6921680908
 20
14.6879855499
 11
11.6921680908
 21
14.5108913702
  0
LINE
  5
31F
100
AcDbEntity
  8
0
100
AcDbLine
 62
9
  6
CONTINUOUS
 10
11.6921680908
 20
13.9088858578
 11
11.6921680908
 21
13.4622795787
  0
LINE
  5
320
100
AcDbEntity
  8
0
100
AcDbLine
 62
7
  6
CONTINUOUS
 10
11.7286528153
 20
13.9856607697
 11
11.7286528153
 21
13.58031033
  0
LINE
  5
321
100
AcDbEntity
  8
0
100
AcDbLine
 62
7
  6
CONTINUOUS
 10
11.7496762609
 20
14.7051574726
 11
11.7496762609
 21
14.2379855499
  0
LINE
  5
322
100
AcDbEntity
  8
0
100
AcDbLine
 62
9
  6
CONTINUOUS
 10
11.7629973391
 20
13.4499855499
 11
11.7629973391
 21
13.5313488358
  0
LINE
  5
323
100
AcDbEntity
  8
0
100
AcDbLine
 62
9
  6
CONTINUOUS
 10
11.7749268412
 20
13.4499855499
 11
11.7749268412
 21
13.5279855499
  0
LINE
  5
324
100
AcDbEntity
  8
0
100
AcDbLine
 62
9
  6
CONTINUOUS
 10
11.7850947797
 20
13.4299855499
 11
11.7850947797
 21
13.1199855499
  0
LINE
  5
325
100
AcDbEntity
  8
0
100
AcDbLine
 62
7
  6
CONTINUOUS
 10
11.7887912213
 20
13.58031033
 11
11.7887912213
 21
13.9856607697
  0
LINE
  5
326
100
AcDbEntity
  8
0
100
AcDbLine
 62
7
  6
CONTINUOUS
 10
11.7937075098
 20
13.1199855499
 11
11.7937075098
 21
13.4299855499
  0
LINE
  5
327
100
AcDbEntity
  8
0
100
AcDbLine
 62
7
  6
CONTINUOUS
 10
11.0290007153
 20
8.7323097951
 11
10.9194885553
 21
-0.5606840919
  0
LINE
  5
328
100
AcDbEntity
  8
0
100
AcDbLine
 62
7
  6
CONTINUOUS
 10
11.5889618353
 20
8.7257110011
 11
11.4794496753
 21
-0.5672828858
  0
LWPOLYLINE
  5
329
100
AcDbEntity
  8
0
100
AcDbPolyline
 62
7
  6
CONTINUOUS
 90
7
 70
0
 10
11.6884237386
 20
13.8974841769
 10
11.6894922612
 20
13.903906267
 10
11.6945177746
 20
13.9132585068
 10
11.7018690134
 20
13.9213828225
 10
11.7110371492
 20
13.9288003993
 10
11.722096095
 20
13.9357787755
 10
11.7286528153
 20
13.9390545013
  0
LWPOLYLINE
  5
32A
100
AcDbEntity
  8
0
100
AcDbPolyline
 62
7
  6
CONTINUOUS
 90
46
 70
0
 10
11.9262117676
 20
12.5279855499
 10
11.9433426308
 20
11.7357469781
 10
11.9702692605
 20
10.9555519826
 10
12.0022083943
 20
10.2300547761
 10
12.0369389056
 20
9.5518007554
 10
12.0732149463
 20
8.913357855
 10
12.1103392851
 20
8.3077769414
 10
12.1477754131
 20
7.7313360611
 10
12.1851589033
 20
7.1809891991
 10
12.2222733725
 20
6.6536980614
 10
12.2589612175
 20
6.1470950201
 10
12.2950906381
 20
5.6594880904
 10
12.3305787094
 20
5.1892536073
 10
12.365378505
 20
4.7348276583
 10
12.3994571202
 20
4.2948659273
 10
12.4327768096
 20
3.8683824724
 10
12.4653107014
 20
3.4544783534
 10
12.4970402867
 20
3.0523259883
 10
12.5279527631
 20
2.6611664982
 10
12.5580342556
 20
2.2803657834
 10
12.5872773996
 20
1.9092904222
 10
12.615676283
 20
1.5473507176
 10
12.6432205771
 20
1.1940551909
 10
12.6698952107
 20
0.8490002915
 10
12.695678475
 20
0.5118892324
 10
12.7205565927
 20
0.1823317696
 10
12.7445297023
 20
-0.1402491144
 10
12.7675843354
 20
-0.4562715232
 10
12.7896927704
 20
-0.7659993187
 10
12.8108140642
 20
-1.0695589958
 10
12.8308897427
 20
-1.3668765788
 10
12.8498952088
 20
-1.6584756049
 10
12.8677997904
 20
-1.944973073
 10
12.8845348349
 20
-2.2266165384
 10
12.8999970775
 20
-2.5033174786
 10
12.9140502036
 20
-2.7745960934
 10
12.9265617025
 20
-3.0403377174
 10
12.9374328948
 20
-3.3020227809
 10
12.9464539614
 20
-3.5602948952
 10
12.9532881315
 20
-3.8147212061
 10
12.9574904789
 20
-4.0641692975
 10
12.9585207239
 20
-4.3078383587
 10
12.9556541821
 20
-4.5413926299
 10
12.9481339789
 20
-4.7585925511
 10
12.9354545181
 20
-4.9517858648
 10
12.9181448043
 20
-5.1092387858
  0
LINE
  5
32B
100
AcDbEntity
  8
0
100
AcDbLine
 62
9
  6
CONTINUOUS
 10
11.8501621534
 20
13.0999855499
 11
11.8501621534
 21
13.4499855499
  0
LINE
  5
32C
100
AcDbEntity
  8
0
100
AcDbLine
 62
7
  6
CONTINUOUS
 10
11.8523043202
 20
13.9856607697
 11
11.8523043202
 21
13.58031033
  0
LINE
  5
32D
100
AcDbEntity
  8
0
100
AcDbLine
 62
9
  6
CONTINUOUS
 10
11.8634256108
 20
13.1199855499
 11
11.8634256108
 21
13.4299855499
  0
LINE
  5
32E
100
AcDbEntity
  8
0
100
AcDbLine
 62
7
  6
CONTINUOUS
 10
11.8986762609
 20
13.5279855499
 11
11.8986762609
 21
12.5279855499
  0
LINE
  5
32F
100
AcDbEntity
  8
0
100
AcDbLine
 62
7
  6
CONTINUOUS
 10
11.9446762609
 20
18.7849855499
 11
11.9446762609
 21
18.7149855499
  0
LINE
  5
330
100
AcDbEntity
  8
0
100
AcDbLine
 62
7
  6
CONTINUOUS
 10
12.2276162336
 20
13.58031033
 11
12.2276162336
 21
13.9856607697
  0
LINE
  5
331
100
AcDbEntity
  8
0
100
AcDbLine
 62
7
  6
CONTINUOUS
 10
12.3283277658
 20
13.9856607697
 11
12.3283277658
 21
13.58031033
  0
LINE
  5
332
100
AcDbEntity
  8
0
100
AcDbLine
 62
7
  6
CONTINUOUS
 10
12.5106762609
 20
13.5279855499
 11
12.5106762609
 21
12.5279855499
  0
LINE
  5
333
100
AcDbEntity
  8
0
100
AcDbLine
 62
7
  6
CONTINUOUS
 10
12.6435012732
 20
13.58031033
 11
12.6435012732
 21
13.9856607697
  0
LINE
  5
334
100
AcDbEntity
  8
0
100
AcDbLine
 62
7
  6
CONTINUOUS
 10
12.6596762609
 20
14.7051574715
 11
12.6596762609
 21
14.2379855499
  0
LINE
  5
335
100
AcDbEntity
  8
0
100
AcDbLine
 62
7
  6
CONTINUOUS
 10
12.6806997065
 20
13.9856607697
 11
12.6806997065
 21
13.58031033
  0
LINE
  5
336
100
AcDbEntity
  8
0
100
AcDbLine
 62
7
  6
CONTINUOUS
 10
12.7596762609
 20
14.1379855499
 11
12.7596762609
 21
14.0379855499
  0
LINE
  5
337
100
AcDbEntity
  8
0
100
AcDbLine
 62
7
  6
CONTINUOUS
 10
13.1146762609
 20
16.2379772644
 11
13.1146762609
 21
14.2379938353
  0
LINE
  5
338
100
AcDbEntity
  8
0
100
AcDbLine
 62
7
  6
CONTINUOUS
 10
13.4346762609
 20
14.2379938353
 11
13.4346762609
 21
16.2379772644
  0
LINE
  5
339
100
AcDbEntity
  8
0
100
AcDbLine
 62
7
  6
CONTINUOUS
 10
13.4446762609
 20
14.6129855499
 11
13.4446762609
 21
15.8629855499
  0
LINE
  5
33A
100
AcDbEntity
  8
0
100
AcDbLine
 62
7
  6
CONTINUOUS
 10
11.8987691399
 20
12.5279855499
 11
12.5105833818
 21
12.5279855499
  0
LINE
  5
33B
100
AcDbEntity
  8
0
100
AcDbLine
 62
7
  6
CONTINUOUS
 10
11.1171764628
 20
13.0499855499
 11
11.5021760589
 21
13.0499855499
  0
LINE
  5
33C
100
AcDbEntity
  8
0
100
AcDbLine
 62
7
  6
CONTINUOUS
 10
11.1171762609
 20
13.0999855499
 11
10.4946850961
 21
13.0999855499
  0
LINE
  5
33D
100
AcDbEntity
  8
0
100
AcDbLine
 62
7
  6
CONTINUOUS
 10
11.5021762609
 20
13.0999855499
 11
11.8986762609
 21
13.0999855499
  0
LINE
  5
33E
100
AcDbEntity
  8
0
100
AcDbLine
 62
9
  6
CONTINUOUS
 10
10.4746767548
 20
13.1199855499
 11
11.1171762609
 21
13.1199855499
  0
LINE
  5
33F
100
AcDbEntity
  8
0
100
AcDbLine
 62
9
  6
CONTINUOUS
 10
11.5021762609
 20
13.1199855499
 11
11.8986762609
 21
13.1199855499
  0
LINE
  5
340
100
AcDbEntity
  8
0
100
AcDbLine
 62
7
  6
CONTINUOUS
 10
11.5564935009
 20
14.4024855499
 11
11.547144136
 21
14.4186791249
  0
LINE
  5
341
100
AcDbEntity
  8
0
100
AcDbLine
 62
7
  6
CONTINUOUS
 10
13.0809100134
 20
12.9232067569
 11
12.6806997065
 21
13.6163913423
  0
LINE
  5
342
100
AcDbEntity
  8
0
100
AcDbLine
 62
7
  6
CONTINUOUS
 10
13.1001600134
 20
12.9343207496
 11
12.6806997065
 21
13.660847313
  0
LINE
  5
343
100
AcDbEntity
  8
0
100
AcDbLine
 62
7
  6
CONTINUOUS
 10
13.1386600134
 20
12.956548735
 11
12.6806997065
 21
13.7497592544
  0
LINE
  5
344
100
AcDbEntity
  8
0
100
AcDbLine
 62
7
  6
CONTINUOUS
 10
13.1579100134
 20
12.9676627277
 11
12.6806997065
 21
13.7942152252
  0
LINE
  5
345
100
AcDbEntity
  8
0
100
AcDbLine
 62
7
  6
CONTINUOUS
 10
8.0679770443
 20
20.9929529112
 11
8.0681223432
 21
20.9926978968
  0
LINE
  5
346
100
AcDbEntity
  8
0
100
AcDbLine
 62
7
  6
CONTINUOUS
 10
12.9181448043
 20
-5.1092387858
 11
12.8984854697
 21
-5.222084091
  0
LINE
  5
347
100
AcDbEntity
  8
0
100
AcDbLine
 62
7
  6
CONTINUOUS
 10
11.5429231176
 20
14.0001609564
 11
11.547144136
 21
14.0012919748
  0
LINE
  5
348
100
AcDbEntity
  8
0
100
AcDbLine
 62
9
  6
CONTINUOUS
 10
11.8986762609
 20
13.4299855499
 11
11.5021762609
 21
13.4299855499
  0
LINE
  5
349
100
AcDbEntity
  8
0
100
AcDbLine
 62
9
  6
CONTINUOUS
 10
11.1171762609
 20
13.4299855499
 11
10.4746762609
 21
13.4299855499
  0
LINE
  5
34A
100
AcDbEntity
  8
0
100
AcDbLine
 62
7
  6
CONTINUOUS
 10
11.7737075098
 20
13.4499855499
 11
11.5021762609
 21
13.4499855499
  0
LINE
  5
34B
100
AcDbEntity
  8
0
100
AcDbLine
 62
7
  6
CONTINUOUS
 10
11.1171762609
 20
13.4499855499
 11
10.4946766158
 21
13.4499855499
  0
LINE
  5
34C
100
AcDbEntity
  8
0
100
AcDbLine
 62
7
  6
CONTINUOUS
 10
11.795783245
 20
13.4499855499
 11
11.8986762609
 21
13.4499855499
  0
LINE
  5
34D
100
AcDbEntity
  8
0
100
AcDbLine
 62
9
  6
CONTINUOUS
 10
10.5296762609
 20
13.4699855499
 11
11.1171762609
 21
13.4699855499
  0
LINE
  5
34E
100
AcDbEntity
  8
0
100
AcDbLine
 62
9
  6
CONTINUOUS
 10
11.5021762609
 20
13.4699855499
 11
11.688424083
 21
13.4699855499
  0
LINE
  5
34F
100
AcDbEntity
  8
0
100
AcDbLine
 62
7
  6
CONTINUOUS
 10
11.7677046552
 20
13.5279855499
 11
12.6416478665
 21
13.5279855499
  0
LINE
  5
350
100
AcDbEntity
  8
0
100
AcDbLine
 62
7
  6
CONTINUOUS
 10
11.7887912213
 20
13.58031033
 11
11.8523043202
 21
13.58031033
  0
LINE
  5
351
100
AcDbEntity
  8
0
100
AcDbLine
 62
7
  6
CONTINUOUS
 10
12.2276162336
 20
13.58031033
 11
12.3283277658
 21
13.58031033
  0
LINE
  5
352
100
AcDbEntity
  8
0
100
AcDbLine
 62
7
  6
CONTINUOUS
 10
12.6435012732
 20
13.58031033
 11
12.6806997065
 21
13.58031033
  0
LINE
  5
353
100
AcDbEntity
  8
0
100
AcDbLine
 62
9
  6
CONTINUOUS
 10
11.6884237476
 20
13.8974838568
 11
11.6778648153
 21
13.8974834119
  0
LINE
  5
354
100
AcDbEntity
  8
0
100
AcDbLine
 62
9
  6
CONTINUOUS
 10
11.6778648153
 20
13.8974855499
 11
11.565997171
 21
13.8974855499
  0
LINE
  5
355
100
AcDbEntity
  8
0
100
AcDbLine
 62
7
  6
CONTINUOUS
 10
11.7286528153
 20
13.9599855499
 11
11.5865336249
 21
13.9599855499
  0
LINE
  5
356
100
AcDbEntity
  8
0
100
AcDbLine
 62
7
  6
CONTINUOUS
 10
12.6806997065
 20
13.9856607697
 11
12.6435012732
 21
13.9856607697
  0
LINE
  5
357
100
AcDbEntity
  8
0
100
AcDbLine
 62
7
  6
CONTINUOUS
 10
12.3283277658
 20
13.9856607697
 11
12.2276162336
 21
13.9856607697
  0
LINE
  5
358
100
AcDbEntity
  8
0
100
AcDbLine
 62
7
  6
CONTINUOUS
 10
11.8523043202
 20
13.9856607697
 11
11.7887912213
 21
13.9856607697
  0
LINE
  5
359
100
AcDbEntity
  8
0
100
AcDbLine
 62
7
  6
CONTINUOUS
 10
11.7430618291
 20
14.0174855499
 11
11.5526518214
 21
14.0174855499
  0
LINE
  5
35A
100
AcDbEntity
  8
0
100
AcDbLine
 62
7
  6
CONTINUOUS
 10
10.1496762609
 20
14.0174855499
 11
11.0667005887
 21
14.0174855499
  0
LINE
  5
35B
100
AcDbEntity
  8
0
100
AcDbLine
 62
7
  6
CONTINUOUS
 10
11.6496762609
 20
14.0379855499
 11
12.7596762609
 21
14.0379855499
  0
LINE
  5
35C
100
AcDbEntity
  8
0
100
AcDbLine
 62
7
  6
CONTINUOUS
 10
12.7596762609
 20
14.1379855499
 11
11.6496762609
 21
14.1379855499
  0
LWPOLYLINE
  5
35D
100
AcDbEntity
  8
0
100
AcDbPolyline
 62
7
  6
CONTINUOUS
 90
12
 70
0
 10
11.746826078
 20
13.449985548
 10
11.7425260782
 20
13.4500639103
 10
11.7339204369
 20
13.4506560006
 10
11.7257256681
 20
13.4516684854
 10
11.7181764129
 20
13.4529298405
 10
11.7109804818
 20
13.4544367297
 10
11.704127438
 20
13.4562544547
 10
11.6978629087
 20
13.4584911859
 10
11.6931167062
 20
13.4612329772
 10
11.6898767598
 20
13.4648075901
 10
11.6884543803
 20
13.4691950915
 10
11.6884237009
 20
13.4699855499
  0
LINE
  5
35E
100
AcDbEntity
  8
0
100
AcDbLine
 62
7
  6
CONTINUOUS
 10
11.5395657448
 20
14.0021023381
 11
11.542926649
 21
14.0001619191
  0
LWPOLYLINE
  5
35F
100
AcDbEntity
  8
0
100
AcDbPolyline
 62
7
  6
CONTINUOUS
 90
6
 70
0
 10
11.7096799926
 20
14.4922611454
 10
11.7080457436
 20
14.4933816911
 10
11.7000703684
 20
14.5003225414
 10
11.6936296522
 20
14.5079596481
 10
11.6893262347
 20
14.516591803
 10
11.6884238711
 20
14.5224855499
  0
LINE
  5
360
100
AcDbEntity
  8
0
100
AcDbLine
 62
7
  6
CONTINUOUS
 10
11.7485734132
 20
13.5416633072
 11
11.7677006133
 21
13.5279855499
  0
LINE
  5
361
100
AcDbEntity
  8
0
100
AcDbLine
 62
7
  6
CONTINUOUS
 10
12.8984854697
 20
-5.222084091
 11
12.8795312548
 21
-5.2915978734
  0
LINE
  5
362
100
AcDbEntity
  8
0
100
AcDbLine
 62
9
  6
CONTINUOUS
 10
11.7496762609
 20
14.2379855499
 11
12.6596762609
 21
14.2379855499
  0
LINE
  5
363
100
AcDbEntity
  8
0
100
AcDbLine
 62
7
  6
CONTINUOUS
 10
13.1146762609
 20
14.2379855499
 11
13.4346762609
 21
14.2379855499
  0
LINE
  5
364
100
AcDbEntity
  8
0
100
AcDbLine
 62
7
  6
CONTINUOUS
 10
11.7496762609
 20
14.4024855499
 11
11.5526519304
 21
14.4024855499
  0
LINE
  5
365
100
AcDbEntity
  8
0
100
AcDbLine
 62
7
  6
CONTINUOUS
 10
10.1496762609
 20
14.4024855499
 11
11.0667006997
 21
14.4024855499
  0
LINE
  5
366
100
AcDbEntity
  8
0
100
AcDbLine
 62
7
  6
CONTINUOUS
 10
11.5865336249
 20
14.4599855499
 11
11.6537770213
 21
14.4599855499
  0
LINE
  5
367
100
AcDbEntity
  8
0
100
AcDbLine
 62
9
  6
CONTINUOUS
 10
11.5659966001
 20
14.5224855499
 11
11.688423855
 21
14.5224855499
  0
LINE
  5
368
100
AcDbEntity
  8
0
100
AcDbLine
 62
7
  6
CONTINUOUS
 10
13.4446762609
 20
14.6129855499
 11
13.4346762609
 21
14.6129855499
  0
LINE
  5
369
100
AcDbEntity
  8
0
100
AcDbLine
 62
7
  6
CONTINUOUS
 10
11.4066762609
 20
14.6879855499
 11
11.7296762609
 21
14.6879855499
  0
LINE
  5
36A
100
AcDbEntity
  8
0
100
AcDbLine
 62
7
  6
CONTINUOUS
 10
12.6796762609
 20
14.6879855499
 11
13.1146762609
 21
14.6879855499
  0
LINE
  5
36B
100
AcDbEntity
  8
0
100
AcDbLine
 62
9
  6
CONTINUOUS
 10
11.1171762609
 20
14.9499855499
 11
10.5296767223
 21
14.9499855499
  0
LINE
  5
36C
100
AcDbEntity
  8
0
100
AcDbLine
 62
7
  6
CONTINUOUS
 10
11.1171762609
 20
14.9699855499
 11
10.4946850961
 21
14.9699855499
  0
LINE
  5
36D
100
AcDbEntity
  8
0
100
AcDbLine
 62
9
  6
CONTINUOUS
 10
10.4746767548
 20
14.9899855499
 11
11.1171762609
 21
14.9899855499
  0
LINE
  5
36E
100
AcDbEntity
  8
0
100
AcDbLine
 62
7
  6
CONTINUOUS
 10
11.5361996206
 20
14.421611699
 11
11.547144136
 21
14.4186791249
  0
LINE
  5
36F
100
AcDbEntity
  8
0
100
AcDbLine
 62
7
  6
CONTINUOUS
 10
12.6416519084
 20
14.0379855499
 11
12.6607791086
 21
14.0243077925
  0
LINE
  5
370
100
AcDbEntity
  8
0
100
AcDbLine
 62
7
  6
CONTINUOUS
 10
8.1733114729
 20
20.1320548587
 11
8.1814649635
 21
20.123901368
  0
LINE
  5
371
100
AcDbEntity
  8
0
100
AcDbLine
 62
7
  6
CONTINUOUS
 10
8.1733117506
 20
20.1870562
 11
8.1814649635
 21
20.178902987
  0
LINE
  5
372
100
AcDbEntity
  8
0
100
AcDbLine
 62
9
  6
CONTINUOUS
 10
11.1171762609
 20
15.2999855499
 11
10.4746762609
 21
15.2999855499
  0
LINE
  5
373
100
AcDbEntity
  8
0
100
AcDbLine
 62
7
  6
CONTINUOUS
 10
11.1171762609
 20
15.3199855499
 11
10.4946766158
 21
15.3199855499
  0
LINE
  5
374
100
AcDbEntity
  8
0
100
AcDbLine
 62
7
  6
CONTINUOUS
 10
11.4066762609
 20
15.3699855499
 11
11.1171764628
 21
15.3699855499
  0
LINE
  5
375
100
AcDbEntity
  8
0
100
AcDbLine
 62
7
  6
CONTINUOUS
 10
11.4066762609
 20
15.7879855499
 11
13.1146762609
 21
15.7879855499
  0
LINE
  5
376
100
AcDbEntity
  8
0
100
AcDbLine
 62
7
  6
CONTINUOUS
 10
13.4446762609
 20
15.8629855499
 11
13.4346762609
 21
15.8629855499
  0
LINE
  5
377
100
AcDbEntity
  8
0
100
AcDbLine
 62
7
  6
CONTINUOUS
 10
8.1317645823
 20
20.3704063597
 11
8.1399180999
 21
20.3622528421
  0
LINE
  5
378
100
AcDbEntity
  8
0
100
AcDbLine
 62
7
  6
CONTINUOUS
 10
8.1733117506
 20
20.3483127875
 11
8.1814649637
 21
20.3401595744
  0
LINE
  5
379
100
AcDbEntity
  8
0
100
AcDbLine
 62
7
  6
CONTINUOUS
 10
8.1317645823
 20
20.4649712195
 11
8.1399180999
 21
20.456817702
  0
LINE
  5
37A
100
AcDbEntity
  8
0
100
AcDbLine
 62
7
  6
CONTINUOUS
 10
8.1733117506
 20
20.6048349736
 11
8.1814649635
 21
20.5966817606
  0
LINE
  5
37B
100
AcDbEntity
  8
0
100
AcDbLine
 62
7
  6
CONTINUOUS
 10
8.1317645823
 20
20.6476565004
 11
8.1399180999
 21
20.6395029828
  0
LINE
  5
37C
100
AcDbEntity
  8
0
100
AcDbLine
 62
7
  6
CONTINUOUS
 10
8.01302163
 20
20.9121773484
 11
8.0257878882
 21
20.8994110902
  0
LINE
  5
37D
100
AcDbEntity
  8
0
100
AcDbLine
 62
7
  6
CONTINUOUS
 10
8.01302163
 20
21.0140890812
 11
8.0257878882
 21
21.001322823
  0
LINE
  5
37E
100
AcDbEntity
  8
0
100
AcDbLine
 62
7
  6
CONTINUOUS
 10
8.1317645823
 20
20.9060125022
 11
8.1399180999
 21
20.8978589846
  0
LINE
  5
37F
100
AcDbEntity
  8
0
100
AcDbLine
 62
7
  6
CONTINUOUS
 10
8.1733117506
 20
20.9391411952
 11
8.1814649635
 21
20.9309879822
  0
LINE
  5
380
100
AcDbEntity
  8
0
100
AcDbLine
 62
7
  6
CONTINUOUS
 10
7.9101653538
 20
21.2305340453
 11
7.918318575
 21
21.2223808241
  0
LINE
  5
381
100
AcDbEntity
  8
0
100
AcDbLine
 62
7
  6
CONTINUOUS
 10
8.01302163
 20
21.1603347989
 11
8.0257878882
 21
21.1475685408
  0
LINE
  5
382
100
AcDbEntity
  8
0
100
AcDbLine
 62
7
  6
CONTINUOUS
 10
7.9101653538
 20
21.4090694261
 11
7.9183185733
 21
21.4009162066
  0
LINE
  5
383
100
AcDbEntity
  8
0
100
AcDbLine
 62
7
  6
CONTINUOUS
 10
8.1317645823
 20
21.2224326904
 11
8.1399180999
 21
21.2142791728
  0
LINE
  5
384
100
AcDbEntity
  8
0
100
AcDbLine
 62
7
  6
CONTINUOUS
 10
8.1733117506
 20
21.3284490357
 11
8.1814649635
 21
21.3202958228
  0
LINE
  5
385
100
AcDbEntity
  8
0
100
AcDbLine
 62
7
  6
CONTINUOUS
 10
7.9101653538
 20
21.7539732966
 11
7.918318575
 21
21.7458200755
  0
LINE
  5
386
100
AcDbEntity
  8
0
100
AcDbLine
 62
7
  6
CONTINUOUS
 10
8.1317645823
 20
21.5753535521
 11
8.1399180999
 21
21.5672000345
  0
LINE
  5
387
100
AcDbEntity
  8
0
100
AcDbLine
 62
7
  6
CONTINUOUS
 10
8.01302163
 20
21.7998429492
 11
8.0257878882
 21
21.787076691
  0
LINE
  5
388
100
AcDbEntity
  8
0
100
AcDbLine
 62
7
  6
CONTINUOUS
 10
11.6997193757
 20
19.0249856468
 11
11.8436660351
 21
18.8472263264
  0
LINE
  5
389
100
AcDbEntity
  8
0
100
AcDbLine
 62
7
  6
CONTINUOUS
 10
13.1146762609
 20
16.2379855499
 11
13.4346762609
 21
16.2379855499
  0
LWPOLYLINE
  5
38A
100
AcDbEntity
  8
0
100
AcDbPolyline
 62
7
  6
CONTINUOUS
 90
4
 70
0
 10
8.0653001487
 20
20.8946532676
 10
8.0686701732
 20
20.8919990703
 10
8.069974082
 20
20.8900926178
 10
8.0702283761
 20
20.8895467769
  0
LINE
  5
38B
100
AcDbEntity
  8
0
100
AcDbLine
 62
7
  6
CONTINUOUS
 10
8.1733117506
 20
21.7462278093
 11
8.1814649635
 21
21.7380745964
  0
LINE
  5
38C
100
AcDbEntity
  8
0
100
AcDbLine
 62
7
  6
CONTINUOUS
 10
7.9101653538
 20
22.0632056472
 11
7.9183185733
 21
22.0550524277
  0
LINE
  5
38D
100
AcDbEntity
  8
0
100
AcDbLine
 62
7
  6
CONTINUOUS
 10
8.01302163
 20
22.0175243279
 11
8.0257878882
 21
22.0047580697
  0
LINE
  5
38E
100
AcDbEntity
  8
0
100
AcDbLine
 62
7
  6
CONTINUOUS
 10
8.1317645823
 20
21.9407241138
 11
8.1399180999
 21
21.9325705962
  0
LINE
  5
38F
100
AcDbEntity
  8
0
100
AcDbLine
 62
7
  6
CONTINUOUS
 10
8.01302163
 20
22.219927061
 11
8.0257878882
 21
22.2071608028
  0
LINE
  5
390
100
AcDbEntity
  8
0
100
AcDbLine
 62
7
  6
CONTINUOUS
 10
8.1733117506
 20
22.1640065829
 11
8.1814649635
 21
22.15585337
  0
LINE
  5
391
100
AcDbEntity
  8
0
100
AcDbLine
 62
7
  6
CONTINUOUS
 10
8.1317645823
 20
22.2936449755
 11
8.1399180999
 21
22.2854914579
  0
LINE
  5
392
100
AcDbEntity
  8
0
100
AcDbLine
 62
7
  6
CONTINUOUS
 10
8.01302163
 20
22.6329238356
 11
8.0257878882
 21
22.6201575774
  0
LINE
  5
393
100
AcDbEntity
  8
0
100
AcDbLine
 62
7
  6
CONTINUOUS
 10
8.1733117506
 20
22.5533144235
 11
8.1814653123
 21
22.5451608618
  0
LINE
  5
394
100
AcDbEntity
  8
0
100
AcDbLine
 62
7
  6
CONTINUOUS
 10
8.1317645823
 20
22.6100651637
 11
8.1399180999
 21
22.6019116461
  0
LINE
  5
395
100
AcDbEntity
  8
0
100
AcDbLine
 62
7
  6
CONTINUOUS
 10
8.1317645823
 20
22.8684211655
 11
8.1399180999
 21
22.8602676479
  0
LINE
  5
396
100
AcDbEntity
  8
0
100
AcDbLine
 62
7
  6
CONTINUOUS
 10
8.1733117506
 20
22.8876206451
 11
8.1814649635
 21
22.8794674322
  0
LINE
  5
397
100
AcDbEntity
  8
0
100
AcDbLine
 62
7
  6
CONTINUOUS
 10
8.1317645823
 20
23.0511064464
 11
8.1399180999
 21
23.0429529288
  0
LINE
  5
398
100
AcDbEntity
  8
0
100
AcDbLine
 62
7
  6
CONTINUOUS
 10
8.1733117506
 20
23.1441428312
 11
8.1814649635
 21
23.1359896183
  0
LINE
  5
399
100
AcDbEntity
  8
0
100
AcDbLine
 62
7
  6
CONTINUOUS
 10
8.1733117506
 20
23.3053994187
 11
8.1814649635
 21
23.2972462058
  0
LINE
  5
39A
100
AcDbEntity
  8
0
100
AcDbLine
 62
7
  6
CONTINUOUS
 10
9.8520171256
 20
22.3483771286
 11
9.2764233398
 21
22.9286462833
  0
LINE
  5
39B
100
AcDbEntity
  8
0
100
AcDbLine
 62
9
  6
CONTINUOUS
 10
10.7687835673
 20
18.6098376006
 11
11.8505689544
 21
18.6098376006
  0
LINE
  5
39C
100
AcDbEntity
  8
0
100
AcDbLine
 62
9
  6
CONTINUOUS
 10
10.7124132881
 20
18.6750496142
 11
11.9069392337
 21
18.6750496142
  0
LINE
  5
39D
100
AcDbEntity
  8
0
100
AcDbLine
 62
9
  6
CONTINUOUS
 10
10.6746762609
 20
18.7149855499
 11
11.9446762609
 21
18.7149855499
  0
LINE
  5
39E
100
AcDbEntity
  8
0
100
AcDbLine
 62
9
  6
CONTINUOUS
 10
11.9446762609
 20
18.7849855499
 11
10.6746762609
 21
18.7849855499
  0
LINE
  5
39F
100
AcDbEntity
  8
0
100
AcDbLine
 62
7
  6
CONTINUOUS
 10
11.9046762609
 20
18.8249855499
 11
10.7146762609
 21
18.8249855499
  0
LINE
  5
3A0
100
AcDbEntity
  8
0
100
AcDbLine
 62
9
  6
CONTINUOUS
 10
10.7756864866
 20
18.8472263264
 11
11.8436660351
 21
18.8472263264
  0
LINE
  5
3A1
100
AcDbEntity
  8
0
100
AcDbLine
 62
7
  6
CONTINUOUS
 10
11.6997193757
 20
19.0249856468
 11
10.919633146
 21
19.0249856468
  0
LINE
  5
3A2
100
AcDbEntity
  8
0
100
AcDbLine
 62
9
  6
CONTINUOUS
 10
10.9346762609
 20
19.0647207507
 11
11.6846762609
 21
19.0647207507
  0
LINE
  5
3A3
100
AcDbEntity
  8
0
100
AcDbLine
 62
7
  6
CONTINUOUS
 10
9.1732202327
 20
19.8149855499
 11
8.329137398
 21
19.8149855499
  0
LINE
  5
3A4
100
AcDbEntity
  8
0
100
AcDbLine
 62
7
  6
CONTINUOUS
 10
8.1953849857
 20
20.1181351562
 11
8.2303048023
 21
20.1181351562
  0
LINE
  5
3A5
100
AcDbEntity
  8
0
100
AcDbLine
 62
7
  6
CONTINUOUS
 10
8.2303048023
 20
20.1731367751
 11
8.1953849857
 21
20.1731367751
  0
LINE
  5
3A6
100
AcDbEntity
  8
0
100
AcDbLine
 62
7
  6
CONTINUOUS
 10
8.0599611283
 20
20.8959515114
 11
8.0653001487
 21
20.8946532676
  0
LINE
  5
3A7
100
AcDbEntity
  8
0
100
AcDbLine
 62
7
  6
CONTINUOUS
 10
7.937037138
 20
21.1530080356
 11
8.0144746815
 21
21.1248230748
  0
LINE
  5
3A8
100
AcDbEntity
  8
0
100
AcDbLine
 62
7
  6
CONTINUOUS
 10
8.2303048023
 20
20.3343933626
 11
8.1953849857
 21
20.3343933626
  0
LINE
  5
3A9
100
AcDbEntity
  8
0
100
AcDbLine
 62
7
  6
CONTINUOUS
 10
8.1686888868
 20
20.3564869348
 11
8.1538378174
 21
20.3564869348
  0
LINE
  5
3AA
100
AcDbEntity
  8
0
100
AcDbLine
 62
7
  6
CONTINUOUS
 10
8.1675461361
 20
20.4510517947
 11
8.1538378174
 21
20.4510517947
  0
LINE
  5
3AB
100
AcDbEntity
  8
0
100
AcDbLine
 62
7
  6
CONTINUOUS
 10
8.2173571376
 20
20.4997476934
 11
8.1953849857
 21
20.4997476934
  0
LINE
  5
3AC
100
AcDbEntity
  8
0
100
AcDbLine
 62
7
  6
CONTINUOUS
 10
8.2303048023
 20
20.5909155487
 11
8.1953849857
 21
20.5909155487
  0
LINE
  5
3AD
100
AcDbEntity
  8
0
100
AcDbLine
 62
7
  6
CONTINUOUS
 10
8.174319094
 20
20.5927840782
 11
8.1538378174
 21
20.5927840782
  0
LINE
  5
3AE
100
AcDbEntity
  8
0
100
AcDbLine
 62
7
  6
CONTINUOUS
 10
8.1675461361
 20
20.6337370756
 11
8.1538378174
 21
20.6337370756
  0
LINE
  5
3AF
100
AcDbEntity
  8
0
100
AcDbLine
 62
7
  6
CONTINUOUS
 10
8.1055917558
 20
20.653568227
 11
8.0988182653
 21
20.653568227
  0
LINE
  5
3B0
100
AcDbEntity
  8
0
100
AcDbLine
 62
7
  6
CONTINUOUS
 10
8.220406807
 20
20.7562698794
 11
8.1953849857
 21
20.7562698794
  0
LINE
  5
3B1
100
AcDbEntity
  8
0
100
AcDbLine
 62
7
  6
CONTINUOUS
 10
8.1761690544
 20
20.775469359
 11
8.1538378174
 21
20.775469359
  0
LINE
  5
3B2
100
AcDbEntity
  8
0
100
AcDbLine
 62
7
  6
CONTINUOUS
 10
8.1960725493
 20
20.8920930774
 11
8.1538378174
 21
20.8920930774
  0
LINE
  5
3B3
100
AcDbEntity
  8
0
100
AcDbLine
 62
7
  6
CONTINUOUS
 10
8.0599590091
 20
20.8959516777
 11
8.0341395869
 21
20.8959516777
  0
LINE
  5
3B4
100
AcDbEntity
  8
0
100
AcDbLine
 62
7
  6
CONTINUOUS
 10
8.2303048023
 20
20.9252217703
 11
8.1953849857
 21
20.9252217703
  0
LINE
  5
3B5
100
AcDbEntity
  8
0
100
AcDbLine
 62
7
  6
CONTINUOUS
 10
8.0587754531
 20
20.9978634106
 11
8.0341395869
 21
20.9978634106
  0
LINE
  5
3B6
100
AcDbEntity
  8
0
100
AcDbLine
 62
7
  6
CONTINUOUS
 10
8.1675461361
 20
21.0338253608
 11
8.1538378174
 21
21.0338253608
  0
LINE
  5
3B7
100
AcDbEntity
  8
0
100
AcDbLine
 62
7
  6
CONTINUOUS
 10
8.2243832131
 20
21.090576101
 11
8.1953849857
 21
21.090576101
  0
LINE
  5
3B8
100
AcDbEntity
  8
0
100
AcDbLine
 62
7
  6
CONTINUOUS
 10
8.0414505182
 20
21.139595694
 11
8.0341395869
 21
21.139595694
  0
LINE
  5
3B9
100
AcDbEntity
  8
0
100
AcDbLine
 62
7
  6
CONTINUOUS
 10
8.0570817867
 20
21.1441091381
 11
8.0341395869
 21
21.1441091282
  0
LINE
  5
3BA
100
AcDbEntity
  8
0
100
AcDbLine
 62
9
  6
CONTINUOUS
 10
11.6846762609
 20
21.1899855499
 11
10.9346762609
 21
21.1899855499
  0
LWPOLYLINE
  5
3BB
100
AcDbEntity
  8
0
100
AcDbPolyline
 62
7
  6
CONTINUOUS
 90
5
 70
0
 10
8.0587733412
 20
20.9978655666
 10
8.0592759209
 20
20.9978547283
 10
8.0640010602
 20
20.9965872282
 10
8.0670433261
 20
20.9942208175
 10
8.0679770443
 20
20.9929529112
  0
LWPOLYLINE
  5
3BC
100
AcDbEntity
  8
0
100
AcDbPolyline
 62
7
  6
CONTINUOUS
 90
5
 70
0
 10
8.057079635
 20
21.1441111987
 10
8.0577604777
 20
21.1440904509
 10
8.0624436668
 20
21.1427081928
 10
8.0651091746
 20
21.1405102338
 10
8.0656793003
 20
21.1397120316
  0
LWPOLYLINE
  5
3BD
100
AcDbEntity
  8
0
100
AcDbPolyline
 62
7
  6
CONTINUOUS
 90
4
 70
0
 10
8.049665425
 20
21.7836197056
 10
8.0530339156
 20
21.7830557781
 10
8.0565873456
 20
21.7809104753
 10
8.0575714363
 20
21.7797410105
  0
LWPOLYLINE
  5
3BE
100
AcDbEntity
  8
0
100
AcDbPolyline
 62
7
  6
CONTINUOUS
 90
4
 70
0
 10
8.0471227341
 20
22.0012983622
 10
8.052078629
 20
22.0000596713
 10
8.054841362
 20
21.9978335928
 10
8.0554455397
 20
21.996980568
  0
LINE
  5
3BF
100
AcDbEntity
  8
0
100
AcDbLine
 62
7
  6
CONTINUOUS
 10
8.0496683482
 20
21.7836173595
 11
8.0496525136
 21
21.7836172786
  0
LINE
  5
3C0
100
AcDbEntity
  8
0
100
AcDbLine
 62
7
  6
CONTINUOUS
 10
8.1928594678
 20
21.2085132656
 11
8.1538378174
 21
21.2085132656
  0
LINE
  5
3C1
100
AcDbEntity
  8
0
100
AcDbLine
 62
7
  6
CONTINUOUS
 10
8.043145137
 20
21.2858414117
 11
8.0341395869
 21
21.2858414117
  0
LINE
  5
3C2
100
AcDbEntity
  8
0
100
AcDbLine
 62
7
  6
CONTINUOUS
 10
8.2303048023
 20
21.3145296109
 11
8.1953849857
 21
21.3145296109
  0
LINE
  5
3C3
100
AcDbEntity
  8
0
100
AcDbLine
 62
7
  6
CONTINUOUS
 10
9.9552202327
 20
21.3309855499
 11
9.9352202327
 21
21.3309855499
  0
LINE
  5
3C4
100
AcDbEntity
  8
0
100
AcDbLine
 62
7
  6
CONTINUOUS
 10
8.1675461361
 20
21.3502455491
 11
8.1538378174
 21
21.3502455491
  0
LINE
  5
3C5
100
AcDbEntity
  8
0
100
AcDbLine
 62
7
  6
CONTINUOUS
 10
10.2293976269
 20
21.4399855499
 11
10.6846762609
 21
21.4399855499
  0
LINE
  5
3C6
100
AcDbEntity
  8
0
100
AcDbLine
 62
7
  6
CONTINUOUS
 10
8.2290167323
 20
21.4798839416
 11
8.1953849857
 21
21.4798839416
  0
LINE
  5
3C7
100
AcDbEntity
  8
0
100
AcDbLine
 62
7
  6
CONTINUOUS
 10
8.1892774627
 20
21.5614341273
 11
8.1538378174
 21
21.5614341273
  0
LINE
  5
3C8
100
AcDbEntity
  8
0
100
AcDbLine
 62
7
  6
CONTINUOUS
 10
8.1855710472
 20
21.7031664107
 11
8.1538378174
 21
21.7031664107
  0
LINE
  5
3C9
100
AcDbEntity
  8
0
100
AcDbLine
 62
7
  6
CONTINUOUS
 10
8.2303048023
 20
21.7323083845
 11
8.1953849857
 21
21.7323083845
  0
LINE
  5
3CA
100
AcDbEntity
  8
0
100
AcDbLine
 62
7
  6
CONTINUOUS
 10
8.0496525136
 20
21.7836172786
 11
8.0341395869
 21
21.7836172786
  0
LINE
  5
3CB
100
AcDbEntity
  8
0
100
AcDbLine
 62
7
  6
CONTINUOUS
 10
8.2303048023
 20
21.8976627152
 11
8.1953849857
 21
21.8976627152
  0
LINE
  5
3CC
100
AcDbEntity
  8
0
100
AcDbLine
 62
7
  6
CONTINUOUS
 10
8.0505633437
 20
21.925349562
 11
8.0341395869
 21
21.925349562
  0
LINE
  5
3CD
100
AcDbEntity
  8
0
100
AcDbLine
 62
7
  6
CONTINUOUS
 10
8.1855710468
 20
21.926804689
 11
8.1538378174
 21
21.926804689
  0
LINE
  5
3CE
100
AcDbEntity
  8
0
100
AcDbLine
 62
7
  6
CONTINUOUS
 10
8.0471255911
 20
22.0012986573
 11
8.0341395869
 21
22.0012986573
  0
LINE
  5
3CF
100
AcDbEntity
  8
0
100
AcDbLine
 62
7
  6
CONTINUOUS
 10
8.1892774624
 20
22.0685369724
 11
8.1538378174
 21
22.0685369724
  0
LINE
  5
3D0
100
AcDbEntity
  8
0
100
AcDbLine
 62
7
  6
CONTINUOUS
 10
8.2290167205
 20
22.1500871581
 11
8.1953849857
 21
22.1500871581
  0
LINE
  5
3D1
100
AcDbEntity
  8
0
100
AcDbLine
 62
7
  6
CONTINUOUS
 10
10.2293975464
 20
22.1899855499
 11
10.6846762609
 21
22.1899855499
  0
LINE
  5
3D2
100
AcDbEntity
  8
0
100
AcDbLine
 62
7
  6
CONTINUOUS
 10
8.0447759653
 20
22.2037013903
 11
8.0447717197
 21
22.2037013983
  0
LINE
  5
3D3
100
AcDbEntity
  8
0
100
AcDbLine
 62
7
  6
CONTINUOUS
 10
8.0341395869
 20
22.1430309407
 11
8.0530985438
 21
22.1430309231
  0
LWPOLYLINE
  5
3D4
100
AcDbEntity
  8
0
100
AcDbPolyline
 62
7
  6
CONTINUOUS
 90
7
 70
0
 10
8.0399867016
 20
22.6166976902
 10
8.042886578
 20
22.6163331301
 10
8.0468736825
 20
22.6144598504
 10
8.0495918684
 20
22.6116789482
 10
8.0509451228
 20
22.609043882
 10
8.0513783546
 20
22.60739514
 10
8.0514187581
 20
22.6071200646
  0
LWPOLYLINE
  5
3D5
100
AcDbEntity
  8
0
100
AcDbPolyline
 62
7
  6
CONTINUOUS
 90
4
 70
0
 10
8.0447712931
 20
22.203701069
 10
8.0493102526
 20
22.2027035846
 10
8.0525721416
 20
22.2003158476
 10
8.0534886221
 20
22.1990935872
  0
LINE
  5
3D6
100
AcDbEntity
  8
0
100
AcDbLine
 62
7
  6
CONTINUOUS
 10
10.1846761565
 20
22.2099855838
 11
10.0516315372
 21
22.2532144011
  0
LWPOLYLINE
  5
3D7
100
AcDbEntity
  8
0
100
AcDbPolyline
 62
7
  6
CONTINUOUS
 90
3
 70
0
 10
8.065567114
 20
22.7597098729
 10
8.0609209894
 20
22.7584489996
 10
8.0602433766
 20
22.7584298036
  0
LINE
  5
3D8
100
AcDbEntity
  8
0
100
AcDbLine
 62
7
  6
CONTINUOUS
 10
8.0632459974
 20
22.7913489326
 11
8.0606223869
 21
22.7910537008
  0
LINE
  5
3D9
100
AcDbEntity
  8
0
100
AcDbLine
 62
7
  6
CONTINUOUS
 10
8.0447759653
 20
22.2037013903
 11
8.0341395869
 21
22.2037013903
  0
LINE
  5
3DA
100
AcDbEntity
  8
0
100
AcDbLine
 62
7
  6
CONTINUOUS
 10
8.1675461361
 20
22.2797255507
 11
8.1538378174
 21
22.2797255507
  0
LINE
  5
3DB
100
AcDbEntity
  8
0
100
AcDbLine
 62
7
  6
CONTINUOUS
 10
9.9552202327
 20
22.2989855499
 11
9.9352202327
 21
22.2989855499
  0
LINE
  5
3DC
100
AcDbEntity
  8
0
100
AcDbLine
 62
7
  6
CONTINUOUS
 10
8.2303048023
 20
22.3154414888
 11
8.1953849857
 21
22.3154414888
  0
LINE
  5
3DD
100
AcDbEntity
  8
0
100
AcDbLine
 62
7
  6
CONTINUOUS
 10
8.0554436005
 20
22.3454336738
 11
8.0341395869
 21
22.3454336738
  0
LINE
  5
3DE
100
AcDbEntity
  8
0
100
AcDbLine
 62
7
  6
CONTINUOUS
 10
8.192859467
 20
22.4214578341
 11
8.1538378174
 21
22.4214578341
  0
LINE
  5
3DF
100
AcDbEntity
  8
0
100
AcDbLine
 62
7
  6
CONTINUOUS
 10
8.2243832165
 20
22.5393949987
 11
8.1953849857
 21
22.5393949987
  0
LINE
  5
3E0
100
AcDbEntity
  8
0
100
AcDbLine
 62
7
  6
CONTINUOUS
 10
8.1675461361
 20
22.5961457389
 11
8.1538378174
 21
22.5961457389
  0
LINE
  5
3E1
100
AcDbEntity
  8
0
100
AcDbLine
 62
7
  6
CONTINUOUS
 10
8.0399867524
 20
22.616698165
 11
8.0341395869
 21
22.616698165
  0
LINE
  5
3E2
100
AcDbEntity
  8
0
100
AcDbLine
 62
7
  6
CONTINUOUS
 10
8.2303048023
 20
22.7047493294
 11
8.1953849857
 21
22.7047493294
  0
LINE
  5
3E3
100
AcDbEntity
  8
0
100
AcDbLine
 62
7
  6
CONTINUOUS
 10
8.196072533
 20
22.7378780224
 11
8.1538378174
 21
22.7378780224
  0
LINE
  5
3E4
100
AcDbEntity
  8
0
100
AcDbLine
 62
7
  6
CONTINUOUS
 10
8.0602426584
 20
22.7584304484
 11
8.0341395869
 21
22.7584304484
  0
LINE
  5
3E5
100
AcDbEntity
  8
0
100
AcDbLine
 62
7
  6
CONTINUOUS
 10
8.0606214304
 20
22.7910532063
 11
8.0341395869
 21
22.7910532063
  0
LINE
  5
3E6
100
AcDbEntity
  8
0
100
AcDbLine
 62
7
  6
CONTINUOUS
 10
8.1761690829
 20
22.8545017407
 11
8.1538378174
 21
22.8545017407
  0
LINE
  5
3E7
100
AcDbEntity
  8
0
100
AcDbLine
 62
7
  6
CONTINUOUS
 10
8.2204068071
 20
22.8737012203
 11
8.1953849857
 21
22.8737012203
  0
LINE
  5
3E8
100
AcDbEntity
  8
0
100
AcDbLine
 62
7
  6
CONTINUOUS
 10
8.1055917558
 20
22.9764028727
 11
8.0988182653
 21
22.9764028727
  0
LINE
  5
3E9
100
AcDbEntity
  8
0
100
AcDbLine
 62
7
  6
CONTINUOUS
 10
8.1675461361
 20
22.9962340242
 11
8.1538378174
 21
22.9962340242
  0
LINE
  5
3EA
100
AcDbEntity
  8
0
100
AcDbLine
 62
7
  6
CONTINUOUS
 10
8.1743190947
 20
23.0371870215
 11
8.1538378174
 21
23.0371870215
  0
LINE
  5
3EB
100
AcDbEntity
  8
0
100
AcDbLine
 62
7
  6
CONTINUOUS
 10
8.2303048023
 20
23.039055551
 11
8.1953849857
 21
23.039055551
  0
LINE
  5
3EC
100
AcDbEntity
  8
0
100
AcDbLine
 62
7
  6
CONTINUOUS
 10
8.2173571454
 20
23.1302234064
 11
8.1953849857
 21
23.1302234064
  0
LINE
  5
3ED
100
AcDbEntity
  8
0
100
AcDbLine
 62
7
  6
CONTINUOUS
 10
8.1675461361
 20
23.178919305
 11
8.1538378174
 21
23.178919305
  0
LINE
  5
3EE
100
AcDbEntity
  8
0
100
AcDbLine
 62
7
  6
CONTINUOUS
 10
8.1686888868
 20
23.2734841649
 11
8.1538378174
 21
23.2734841649
  0
LINE
  5
3EF
100
AcDbEntity
  8
0
100
AcDbLine
 62
7
  6
CONTINUOUS
 10
8.2303048023
 20
23.2955777371
 11
8.1953849857
 21
23.2955777371
  0
LINE
  5
3F0
100
AcDbEntity
  8
0
100
AcDbLine
 62
7
  6
CONTINUOUS
 10
8.2303048023
 20
23.4568343246
 11
8.1953849857
 21
23.4568343246
  0
LINE
  5
3F1
100
AcDbEntity
  8
0
100
AcDbLine
 62
7
  6
CONTINUOUS
 10
8.1953849857
 20
23.5118359436
 11
8.2303048023
 21
23.5118359436
  0
LINE
  5
3F2
100
AcDbEntity
  8
0
100
AcDbLine
 62
7
  6
CONTINUOUS
 10
9.1732202327
 20
23.8149855499
 11
8.329137398
 21
23.8149855499
  0
ARC
  5
3F3
100
AcDbEntity
  8
0
100
AcDbCircle
 62
7
  6
CONTINUOUS
 10
1.2738103794
 20
8.8471166276
 40
10.3158658815
100
AcDbArc
 50
359.3256803962
 51
0.0001545512
  0
ARC
  5
3F4
100
AcDbEntity
  8
0
100
AcDbCircle
 62
7
  6
CONTINUOUS
 10
1.273804738
 20
8.8471166556
 40
9.7558715229
100
AcDbArc
 50
359.3257290869
 51
0.0001632587
  0
ARC
  5
3F5
100
AcDbEntity
  8
0
100
AcDbCircle
 62
7
  6
CONTINUOUS
 10
-8.2453243614
 20
16.8249855499
 40
20.175
100
AcDbArc
 50
357.0532641779
 51
5.0755073159
  0
ARC
  5
3F6
100
AcDbEntity
  8
0
100
AcDbCircle
 62
9
  6
CONTINUOUS
 10
-0.7571978881
 20
23.8689571605
 40
8.8939142085
100
AcDbArc
 50
352.8728504377
 51
353.0307169926
  0
ARC
  5
3F7
100
AcDbEntity
  8
0
100
AcDbCircle
 62
9
  6
CONTINUOUS
 10
11.2968185989
 20
14.1783665422
 40
0.3890388613
100
AcDbArc
 50
301.948628509
 51
313.7812262503
  0
ARC
  5
3F8
100
AcDbEntity
  8
0
100
AcDbCircle
 62
9
  6
CONTINUOUS
 10
11.296886417
 20
14.2416873875
 40
0.3889317404
100
AcDbArc
 50
46.2176048541
 51
58.1076425475
  0
ARC
  5
3F9
100
AcDbEntity
  8
0
100
AcDbCircle
 62
7
  6
CONTINUOUS
 10
10.4946762609
 20
13.4299855499
 40
0.02
100
AcDbArc
 50
90.0
 51
180.0
  0
ARC
  5
3FA
100
AcDbEntity
  8
0
100
AcDbCircle
 62
7
  6
CONTINUOUS
 10
10.4946762609
 20
13.1199855499
 40
0.02
100
AcDbArc
 50
180.0
 51
270.0
  0
ARC
  5
3FB
100
AcDbEntity
  8
0
100
AcDbCircle
 62
7
  6
CONTINUOUS
 10
10.5096762609
 20
13.4699855499
 40
0.02
100
AcDbArc
 50
270.0
 51
360.0
  0
ARC
  5
3FC
100
AcDbEntity
  8
0
100
AcDbCircle
 62
7
  6
CONTINUOUS
 10
10.5096762609
 20
14.9499855499
 40
0.02
100
AcDbArc
 50
0.0
 51
90.0
  0
ARC
  5
3FD
100
AcDbEntity
  8
0
100
AcDbCircle
 62
7
  6
CONTINUOUS
 10
10.4946762609
 20
14.9899855499
 40
0.02
100
AcDbArc
 50
180.0
 51
270.0
  0
ARC
  5
3FE
100
AcDbEntity
  8
0
100
AcDbCircle
 62
7
  6
CONTINUOUS
 10
10.4946762609
 20
15.2999855499
 40
0.02
100
AcDbArc
 50
90.0
 51
180.0
  0
ARC
  5
3FF
100
AcDbEntity
  8
0
100
AcDbCircle
 62
9
  6
CONTINUOUS
 10
6.4918421125
 20
20.7842634026
 40
1.5843451001
100
AcDbArc
 50
7.5483904244
 51
7.7309227285
  0
ARC
  5
400
100
AcDbEntity
  8
0
100
AcDbCircle
 62
7
  6
CONTINUOUS
 10
7.960921569
 20
20.242755604
 40
0.2729490031
100
AcDbArc
 50
17.1008470379
 51
17.5006532926
  0
ARC
  5
401
100
AcDbEntity
  8
0
100
AcDbCircle
 62
7
  6
CONTINUOUS
 10
8.0699301237
 20
20.4275845837
 40
0.166097277
100
AcDbArc
 50
20.0354900914
 51
20.205616036
  0
ARC
  5
402
100
AcDbEntity
  8
0
100
AcDbCircle
 62
7
  6
CONTINUOUS
 10
8.329137398
 20
19.8949855499
 40
0.08
100
AcDbArc
 50
183.0000020523
 51
270.0
  0
ARC
  5
403
100
AcDbEntity
  8
0
100
AcDbCircle
 62
7
  6
CONTINUOUS
 10
8.1872311754
 20
20.1459740058
 40
0.0196850394
100
AcDbArc
 50
179.998993262
 51
224.9988567098
  0
ARC
  5
404
100
AcDbEntity
  8
0
100
AcDbCircle
 62
7
  6
CONTINUOUS
 10
8.1953849857
 20
20.1378201955
 40
0.0196850394
100
AcDbArc
 50
224.9975411857
 51
270.0
  0
ARC
  5
405
100
AcDbEntity
  8
0
100
AcDbCircle
 62
7
  6
CONTINUOUS
 10
8.1953849857
 20
20.1928218145
 40
0.0196850394
100
AcDbArc
 50
225.0000000002
 51
270.0
  0
ARC
  5
406
100
AcDbEntity
  8
0
100
AcDbCircle
 62
7
  6
CONTINUOUS
 10
8.1953849857
 20
20.3188060665
 40
0.0196850394
100
AcDbArc
 50
115.4026752971
 51
134.9999999998
  0
ARC
  5
407
100
AcDbEntity
  8
0
100
AcDbCircle
 62
7
  6
CONTINUOUS
 10
8.1872311754
 20
20.3106522562
 40
0.0196850394
100
AcDbArc
 50
135.0011432896
 51
180.0
  0
ARC
  5
408
100
AcDbEntity
  8
0
100
AcDbCircle
 62
7
  6
CONTINUOUS
 10
8.1872311754
 20
20.2009756248
 40
0.0196850394
100
AcDbArc
 50
180.0
 51
224.9988567095
  0
ARC
  5
409
100
AcDbEntity
  8
0
100
AcDbCircle
 62
7
  6
CONTINUOUS
 10
8.1953849857
 20
20.354078402
 40
0.0196850394
100
AcDbArc
 50
225.0000000002
 51
270.0
  0
ARC
  5
40A
100
AcDbEntity
  8
0
100
AcDbCircle
 62
7
  6
CONTINUOUS
 10
8.1953849857
 20
20.480062654
 40
0.0196850394
100
AcDbArc
 50
90.0
 51
134.9999999997
  0
ARC
  5
40B
100
AcDbEntity
  8
0
100
AcDbCircle
 62
7
  6
CONTINUOUS
 10
8.1872311754
 20
20.4719088437
 40
0.0196850394
100
AcDbArc
 50
135.0011432897
 51
180.0
  0
ARC
  5
40C
100
AcDbEntity
  8
0
100
AcDbCircle
 62
7
  6
CONTINUOUS
 10
8.1872311754
 20
20.3622322123
 40
0.0196850394
100
AcDbArc
 50
180.0
 51
224.9988567103
  0
ARC
  5
40D
100
AcDbEntity
  8
0
100
AcDbCircle
 62
7
  6
CONTINUOUS
 10
8.1456840072
 20
20.4703803686
 40
0.0196850394
100
AcDbArc
 50
167.2907770745
 51
180.0
  0
ARC
  5
40E
100
AcDbEntity
  8
0
100
AcDbCircle
 62
7
  6
CONTINUOUS
 10
8.1538378174
 20
20.3761719742
 40
0.0196850394
100
AcDbArc
 50
225.0000000001
 51
270.0
  0
ARC
  5
40F
100
AcDbEntity
  8
0
100
AcDbCircle
 62
7
  6
CONTINUOUS
 10
8.1456840072
 20
20.3843257845
 40
0.0196850394
100
AcDbArc
 50
180.0
 51
224.998672795
  0
ARC
  5
410
100
AcDbEntity
  8
0
100
AcDbCircle
 62
7
  6
CONTINUOUS
 10
8.1456840072
 20
20.4788906444
 40
0.0196850394
100
AcDbArc
 50
180.0
 51
224.9986727935
  0
ARC
  5
411
100
AcDbEntity
  8
0
100
AcDbCircle
 62
7
  6
CONTINUOUS
 10
8.1538378174
 20
20.4707368341
 40
0.0196850394
100
AcDbArc
 50
225.0000000004
 51
270.0
  0
ARC
  5
412
100
AcDbEntity
  8
0
100
AcDbCircle
 62
7
  6
CONTINUOUS
 10
7.969615117
 20
20.6940618978
 40
0.2243095538
100
AcDbArc
 50
15.5086731636
 51
15.9119768458
  0
ARC
  5
413
100
AcDbEntity
  8
0
100
AcDbCircle
 62
7
  6
CONTINUOUS
 10
7.9546700071
 20
20.9196709099
 40
0.246967532
100
AcDbArc
 50
0.0342742198
 51
1.2588008813
  0
ARC
  5
414
100
AcDbEntity
  8
0
100
AcDbCircle
 62
7
  6
CONTINUOUS
 10
8.038729752
 20
20.8751705155
 40
0.1285161186
100
AcDbArc
 50
173.0424336459
 51
179.9830432091
  0
ARC
  5
415
100
AcDbEntity
  8
0
100
AcDbCircle
 62
7
  6
CONTINUOUS
 10
7.943769818
 20
21.1715059218
 40
0.0196850394
100
AcDbArc
 50
180.0
 51
249.9999051803
  0
ARC
  5
416
100
AcDbEntity
  8
0
100
AcDbCircle
 62
7
  6
CONTINUOUS
 10
8.0213732849
 20
21.0224407361
 40
0.0118110236
100
AcDbArc
 50
180.0
 51
224.9997468348
  0
ARC
  5
417
100
AcDbEntity
  8
0
100
AcDbCircle
 62
7
  6
CONTINUOUS
 10
8.0341395869
 20
21.0096744342
 40
0.0118110236
100
AcDbArc
 50
225.0
 51
270.0
  0
ARC
  5
418
100
AcDbEntity
  8
0
100
AcDbCircle
 62
7
  6
CONTINUOUS
 10
8.0341395869
 20
21.1277846704
 40
0.0118110236
100
AcDbArc
 50
90.0
 51
135.0
  0
ARC
  5
419
100
AcDbEntity
  8
0
100
AcDbCircle
 62
7
  6
CONTINUOUS
 10
8.0213732849
 20
21.1150183685
 40
0.0118110236
100
AcDbArc
 50
135.0002531649
 51
180.0
  0
ARC
  5
41A
100
AcDbEntity
  8
0
100
AcDbCircle
 62
7
  6
CONTINUOUS
 10
8.0213732849
 20
21.1686864538
 40
0.0118110236
100
AcDbArc
 50
180.0
 51
224.999749965
  0
ARC
  5
41B
100
AcDbEntity
  8
0
100
AcDbCircle
 62
7
  6
CONTINUOUS
 10
8.0341395869
 20
21.1559201519
 40
0.0118110236
100
AcDbArc
 50
225.0000000002
 51
270.0
  0
ARC
  5
41C
100
AcDbEntity
  8
0
100
AcDbCircle
 62
7
  6
CONTINUOUS
 10
8.0213732849
 20
20.9205290032
 40
0.0118110236
100
AcDbArc
 50
180.0
 51
224.9997468355
  0
ARC
  5
41D
100
AcDbEntity
  8
0
100
AcDbCircle
 62
7
  6
CONTINUOUS
 10
8.0341395869
 20
20.9077627013
 40
0.0118110236
100
AcDbArc
 50
225.0
 51
270.0
  0
ARC
  5
41E
100
AcDbEntity
  8
0
100
AcDbCircle
 62
7
  6
CONTINUOUS
 10
8.0213732849
 20
21.0131066356
 40
0.0118110236
100
AcDbArc
 50
157.5002563998
 51
180.0
  0
ARC
  5
41F
100
AcDbEntity
  8
0
100
AcDbCircle
 62
9
  6
CONTINUOUS
 10
8.2238626795
 20
20.7315232298
 40
0.378373227
100
AcDbArc
 50
124.3398522782
 51
124.8035706249
  0
ARC
  5
420
100
AcDbEntity
  8
0
100
AcDbCircle
 62
9
  6
CONTINUOUS
 10
8.2216698116
 20
20.7346807753
 40
0.3745289117
100
AcDbArc
 50
124.8038187412
 51
124.9688983923
  0
ARC
  5
421
100
AcDbEntity
  8
0
100
AcDbCircle
 62
7
  6
CONTINUOUS
 10
8.2166667801
 20
20.7187933441
 40
0.3705535288
100
AcDbArc
 50
124.049712239
 51
124.2862121684
  0
ARC
  5
422
100
AcDbEntity
  8
0
100
AcDbCircle
 62
7
  6
CONTINUOUS
 10
8.2150929347
 20
20.72110267
 40
0.3677588955
100
AcDbArc
 50
124.2862965701
 51
124.4560829867
  0
ARC
  5
423
100
AcDbEntity
  8
0
100
AcDbCircle
 62
9
  6
CONTINUOUS
 10
8.2170363176
 20
20.7412678023
 40
0.3664754833
100
AcDbArc
 50
124.9654988437
 51
125.8374020377
  0
ARC
  5
424
100
AcDbEntity
  8
0
100
AcDbCircle
 62
7
  6
CONTINUOUS
 10
8.2132920455
 20
20.723725216
 40
0.3645775518
100
AcDbArc
 50
124.4558987993
 51
124.7531144934
  0
ARC
  5
425
100
AcDbEntity
  8
0
100
AcDbCircle
 62
7
  6
CONTINUOUS
 10
8.228796131
 20
20.7815435535
 40
0.3599767452
100
AcDbArc
 50
127.6336997221
 51
127.8625776333
  0
ARC
  5
426
100
AcDbEntity
  8
0
100
AcDbCircle
 62
7
  6
CONTINUOUS
 10
8.2104193608
 20
20.7278637167
 40
0.3595397443
100
AcDbArc
 50
124.7529349418
 51
125.294670661
  0
ARC
  5
427
100
AcDbEntity
  8
0
100
AcDbCircle
 62
9
  6
CONTINUOUS
 10
8.2112967818
 20
20.749207595
 40
0.3566784143
100
AcDbArc
 50
125.8367126284
 51
126.4743683483
  0
ARC
  5
428
100
AcDbEntity
  8
0
100
AcDbCircle
 62
7
  6
CONTINUOUS
 10
8.2265497585
 20
20.7844287934
 40
0.3563201359
100
AcDbArc
 50
127.8621587672
 51
128.339770563
  0
ARC
  5
429
100
AcDbEntity
  8
0
100
AcDbCircle
 62
7
  6
CONTINUOUS
 10
8.2226630828
 20
20.7893335274
 40
0.3500621309
100
AcDbArc
 50
128.3387924393
 51
128.9974508241
  0
ARC
  5
42A
100
AcDbEntity
  8
0
100
AcDbCircle
 62
7
  6
CONTINUOUS
 10
8.2200654544
 20
20.7925445388
 40
0.3459319657
100
AcDbArc
 50
128.9977547172
 51
129.2959481298
  0
ARC
  5
42B
100
AcDbEntity
  8
0
100
AcDbCircle
 62
9
  6
CONTINUOUS
 10
8.1656619684
 20
20.7724021195
 40
0.2023004931
100
AcDbArc
 50
137.7740233074
 51
138.1561715428
  0
ARC
  5
42C
100
AcDbEntity
  8
0
100
AcDbCircle
 62
7
  6
CONTINUOUS
 10
8.1953849857
 20
20.6106005881
 40
0.0196850394
100
AcDbArc
 50
225.0000000002
 51
270.0
  0
ARC
  5
42D
100
AcDbEntity
  8
0
100
AcDbCircle
 62
7
  6
CONTINUOUS
 10
8.1953849857
 20
20.7365848401
 40
0.0196850394
100
AcDbArc
 50
90.0
 51
134.9999999998
  0
ARC
  5
42E
100
AcDbEntity
  8
0
100
AcDbCircle
 62
7
  6
CONTINUOUS
 10
8.1872311754
 20
20.7284310298
 40
0.0196850394
100
AcDbArc
 50
135.0011432895
 51
180.0
  0
ARC
  5
42F
100
AcDbEntity
  8
0
100
AcDbCircle
 62
7
  6
CONTINUOUS
 10
8.1872311754
 20
20.6187543984
 40
0.0196850394
100
AcDbArc
 50
180.0
 51
224.9988567095
  0
ARC
  5
430
100
AcDbEntity
  8
0
100
AcDbCircle
 62
7
  6
CONTINUOUS
 10
8.1456840072
 20
20.7476305094
 40
0.0196850394
100
AcDbArc
 50
135.0013272118
 51
180.0
  0
ARC
  5
431
100
AcDbEntity
  8
0
100
AcDbCircle
 62
7
  6
CONTINUOUS
 10
8.1538378174
 20
20.7557843196
 40
0.0196850394
100
AcDbArc
 50
90.0
 51
134.9999999999
  0
ARC
  5
432
100
AcDbEntity
  8
0
100
AcDbCircle
 62
7
  6
CONTINUOUS
 10
8.1538378174
 20
20.6534221149
 40
0.0196850394
100
AcDbArc
 50
225.0000000001
 51
270.0
  0
ARC
  5
433
100
AcDbEntity
  8
0
100
AcDbCircle
 62
7
  6
CONTINUOUS
 10
8.1456840072
 20
20.6615759252
 40
0.0196850394
100
AcDbArc
 50
180.0
 51
224.9986727883
  0
ARC
  5
434
100
AcDbEntity
  8
0
100
AcDbCircle
 62
7
  6
CONTINUOUS
 10
8.1456840072
 20
20.5649452285
 40
0.0196850394
100
AcDbArc
 50
135.0013272065
 51
180.0
  0
ARC
  5
435
100
AcDbEntity
  8
0
100
AcDbCircle
 62
7
  6
CONTINUOUS
 10
8.1538378174
 20
20.5730990388
 40
0.0196850394
100
AcDbArc
 50
90.0
 51
134.9999999996
  0
ARC
  5
436
100
AcDbEntity
  8
0
100
AcDbCircle
 62
7
  6
CONTINUOUS
 10
8.1286847915
 20
20.5542074592
 40
0.0078740157
100
AcDbArc
 50
190.1468867902
 51
249.6248379632
  0
ARC
  5
437
100
AcDbEntity
  8
0
100
AcDbCircle
 62
7
  6
CONTINUOUS
 10
8.0906310647
 20
20.8752962722
 40
0.1804161275
100
AcDbArc
 50
180.0454016304
 51
194.4391442525
  0
ARC
  5
438
100
AcDbEntity
  8
0
100
AcDbCircle
 62
9
  6
CONTINUOUS
 10
8.1344031803
 20
21.0123355932
 40
0.0694123501
100
AcDbArc
 50
195.4283952461
 51
196.0285165153
  0
ARC
  5
439
100
AcDbEntity
  8
0
100
AcDbCircle
 62
9
  6
CONTINUOUS
 10
8.1252383695
 20
21.158526314
 40
0.0628795014
100
AcDbArc
 50
196.6795310394
 51
197.1213002059
  0
ARC
  5
43A
100
AcDbEntity
  8
0
100
AcDbCircle
 62
9
  6
CONTINUOUS
 10
8.1191470075
 20
21.1566516041
 40
0.0565061799
100
AcDbArc
 50
197.1229639366
 51
197.7781172608
  0
ARC
  5
43B
100
AcDbEntity
  8
0
100
AcDbCircle
 62
7
  6
CONTINUOUS
 10
8.1953849857
 20
20.9449068097
 40
0.0196850394
100
AcDbArc
 50
225.0000000003
 51
270.0
  0
ARC
  5
43C
100
AcDbEntity
  8
0
100
AcDbCircle
 62
7
  6
CONTINUOUS
 10
8.1953849857
 20
21.0708910617
 40
0.0196850394
100
AcDbArc
 50
90.0
 51
134.9999999997
  0
ARC
  5
43D
100
AcDbEntity
  8
0
100
AcDbCircle
 62
7
  6
CONTINUOUS
 10
8.1872311754
 20
21.0627372514
 40
0.0196850394
100
AcDbArc
 50
135.00114329
 51
180.0
  0
ARC
  5
43E
100
AcDbEntity
  8
0
100
AcDbCircle
 62
7
  6
CONTINUOUS
 10
8.1872311754
 20
20.95306062
 40
0.0196850394
100
AcDbArc
 50
180.0
 51
224.99885671
  0
ARC
  5
43F
100
AcDbEntity
  8
0
100
AcDbCircle
 62
7
  6
CONTINUOUS
 10
8.1456840072
 20
21.0059865112
 40
0.0196850394
100
AcDbArc
 50
135.0013272058
 51
180.0
  0
ARC
  5
440
100
AcDbEntity
  8
0
100
AcDbCircle
 62
7
  6
CONTINUOUS
 10
8.1456840072
 20
20.919931927
 40
0.0196850394
100
AcDbArc
 50
180.0
 51
224.9986727949
  0
ARC
  5
441
100
AcDbEntity
  8
0
100
AcDbCircle
 62
7
  6
CONTINUOUS
 10
8.1538378174
 20
20.9117781167
 40
0.0196850394
100
AcDbArc
 50
225.0000000001
 51
270.0
  0
ARC
  5
442
100
AcDbEntity
  8
0
100
AcDbCircle
 62
7
  6
CONTINUOUS
 10
8.1538378174
 20
21.0141403215
 40
0.0196850394
100
AcDbArc
 50
90.0
 51
134.9999999999
  0
ARC
  5
443
100
AcDbEntity
  8
0
100
AcDbCircle
 62
7
  6
CONTINUOUS
 10
7.8598830805
 20
21.6230482505
 40
0.3417544144
100
AcDbArc
 50
0.0003572507
 51
0.3847572261
  0
ARC
  5
444
100
AcDbEntity
  8
0
100
AcDbCircle
 62
7
  6
CONTINUOUS
 10
7.8891453339
 20
21.2521989067
 40
0.3124921671
100
AcDbArc
 50
0.0112215036
 51
0.8821195161
  0
ARC
  5
445
100
AcDbEntity
  8
0
100
AcDbCircle
 62
7
  6
CONTINUOUS
 10
7.9291707195
 20
21.2657812732
 40
0.2713662439
100
AcDbArc
 50
9.4755185355
 51
10.4351524352
  0
ARC
  5
446
100
AcDbEntity
  8
0
100
AcDbCircle
 62
7
  6
CONTINUOUS
 10
7.9240847786
 20
21.2444534701
 40
0.0196850394
100
AcDbArc
 50
180.0
 51
224.9974348679
  0
ARC
  5
447
100
AcDbEntity
  8
0
100
AcDbCircle
 62
7
  6
CONTINUOUS
 10
7.9043997393
 20
21.2084608102
 40
0.0196850394
100
AcDbArc
 50
0.0039181288
 51
45.0000000001
  0
ARC
  5
448
100
AcDbEntity
  8
0
100
AcDbCircle
 62
7
  6
CONTINUOUS
 10
7.9240847786
 20
21.4229888509
 40
0.0196850394
100
AcDbArc
 50
180.0
 51
224.9974348101
  0
ARC
  5
449
100
AcDbEntity
  8
0
100
AcDbCircle
 62
7
  6
CONTINUOUS
 10
7.9240847786
 20
21.6389646949
 40
0.0196850394
100
AcDbArc
 50
135.0025651903
 51
180.0
  0
ARC
  5
44A
100
AcDbEntity
  8
0
100
AcDbCircle
 62
7
  6
CONTINUOUS
 10
7.9043997393
 20
21.386996191
 40
0.0196850394
100
AcDbArc
 50
0.0039289499
 51
45.000000001
  0
ARC
  5
44B
100
AcDbEntity
  8
0
100
AcDbCircle
 62
7
  6
CONTINUOUS
 10
7.9043997393
 20
21.6749573549
 40
0.0196850394
100
AcDbArc
 50
314.999999999
 51
359.9960710504
  0
ARC
  5
44C
100
AcDbEntity
  8
0
100
AcDbCircle
 62
7
  6
CONTINUOUS
 10
7.9240847786
 20
21.7678927215
 40
0.0196850394
100
AcDbArc
 50
180.0
 51
224.9974348681
  0
ARC
  5
44D
100
AcDbEntity
  8
0
100
AcDbCircle
 62
7
  6
CONTINUOUS
 10
7.9043997393
 20
21.7319000615
 40
0.0196850394
100
AcDbArc
 50
0.0039181288
 51
45.0000000001
  0
ARC
  5
44E
100
AcDbEntity
  8
0
100
AcDbCircle
 62
7
  6
CONTINUOUS
 10
7.9240847786
 20
21.6461025342
 40
0.0196850394
100
AcDbArc
 50
180.0
 51
190.6595944687
  0
ARC
  5
44F
100
AcDbEntity
  8
0
100
AcDbCircle
 62
7
  6
CONTINUOUS
 10
7.8603580701
 20
22.006923052
 40
0.3412794248
100
AcDbArc
 50
359.7139472696
 51
359.999608211
  0
ARC
  5
450
100
AcDbEntity
  8
0
100
AcDbCircle
 62
7
  6
CONTINUOUS
 10
7.8900503873
 20
22.3777483208
 40
0.3115871098
100
AcDbArc
 50
358.8102006208
 51
359.9931356114
  0
ARC
  5
451
100
AcDbEntity
  8
0
100
AcDbCircle
 62
7
  6
CONTINUOUS
 10
7.9219650195
 20
22.3654443943
 40
0.2786790932
100
AcDbArc
 50
349.5767978336
 51
350.6135101858
  0
ARC
  5
452
100
AcDbEntity
  8
0
100
AcDbCircle
 62
7
  6
CONTINUOUS
 10
7.9240847786
 20
21.9838685655
 40
0.0196850394
100
AcDbArc
 50
135.0025651318
 51
180.0
  0
ARC
  5
453
100
AcDbEntity
  8
0
100
AcDbCircle
 62
7
  6
CONTINUOUS
 10
7.9043997393
 20
22.0198612254
 40
0.0196850394
100
AcDbArc
 50
314.9999999999
 51
359.9960818712
  0
ARC
  5
454
100
AcDbEntity
  8
0
100
AcDbCircle
 62
7
  6
CONTINUOUS
 10
7.9240847786
 20
22.0771250721
 40
0.0196850394
100
AcDbArc
 50
180.0
 51
224.9974348101
  0
ARC
  5
455
100
AcDbEntity
  8
0
100
AcDbCircle
 62
7
  6
CONTINUOUS
 10
7.9240847786
 20
22.2931009161
 40
0.0196850394
100
AcDbArc
 50
135.0025651903
 51
180.0
  0
ARC
  5
456
100
AcDbEntity
  8
0
100
AcDbCircle
 62
7
  6
CONTINUOUS
 10
7.9043997393
 20
22.0411324121
 40
0.0196850394
100
AcDbArc
 50
0.0039289499
 51
45.000000001
  0
ARC
  5
457
100
AcDbEntity
  8
0
100
AcDbCircle
 62
7
  6
CONTINUOUS
 10
7.9043997393
 20
22.329093576
 40
0.0196850394
100
AcDbArc
 50
314.999999999
 51
359.9960710504
  0
ARC
  5
458
100
AcDbEntity
  8
0
100
AcDbCircle
 62
7
  6
CONTINUOUS
 10
7.9240847786
 20
22.3855176296
 40
0.0196850394
100
AcDbArc
 50
135.002565132
 51
180.0
  0
ARC
  5
459
100
AcDbEntity
  8
0
100
AcDbCircle
 62
7
  6
CONTINUOUS
 10
7.9043997393
 20
22.4215102896
 40
0.0196850394
100
AcDbArc
 50
314.9999999999
 51
359.9960818712
  0
ARC
  5
45A
100
AcDbEntity
  8
0
100
AcDbCircle
 62
7
  6
CONTINUOUS
 10
7.9240847786
 20
21.9910064048
 40
0.0196850394
100
AcDbArc
 50
180.0
 51
190.6595944996
  0
ARC
  5
45B
100
AcDbEntity
  8
0
100
AcDbCircle
 62
7
  6
CONTINUOUS
 10
7.943769818
 20
22.4584651779
 40
0.0196850394
100
AcDbArc
 50
110.0000948198
 51
180.0
  0
ARC
  5
45C
100
AcDbEntity
  8
0
100
AcDbCircle
 62
7
  6
CONTINUOUS
 10
8.0341395869
 20
21.2740303881
 40
0.0118110236
100
AcDbArc
 50
90.0
 51
134.9999999998
  0
ARC
  5
45D
100
AcDbEntity
  8
0
100
AcDbCircle
 62
7
  6
CONTINUOUS
 10
8.0213732849
 20
21.2612640862
 40
0.0118110236
100
AcDbArc
 50
135.0002500351
 51
180.0
  0
ARC
  5
45E
100
AcDbEntity
  8
0
100
AcDbCircle
 62
7
  6
CONTINUOUS
 10
8.0213732849
 20
21.8081946041
 40
0.0118110236
100
AcDbArc
 50
180.0
 51
224.9997468346
  0
ARC
  5
45F
100
AcDbEntity
  8
0
100
AcDbCircle
 62
7
  6
CONTINUOUS
 10
8.0341395869
 20
21.7954283022
 40
0.0118110236
100
AcDbArc
 50
225.0000000005
 51
270.0
  0
ARC
  5
460
100
AcDbEntity
  8
0
100
AcDbCircle
 62
7
  6
CONTINUOUS
 10
8.0213732849
 20
22.2282787159
 40
0.0118110236
100
AcDbArc
 50
180.0
 51
224.9997468355
  0
ARC
  5
461
100
AcDbEntity
  8
0
100
AcDbCircle
 62
7
  6
CONTINUOUS
 10
8.0341395869
 20
22.215512414
 40
0.0118110236
100
AcDbArc
 50
224.9999999998
 51
270.0
  0
ARC
  5
462
100
AcDbEntity
  8
0
100
AcDbCircle
 62
7
  6
CONTINUOUS
 10
8.0341395869
 20
22.3336226502
 40
0.0118110236
100
AcDbArc
 50
90.0
 51
135.0000000002
  0
ARC
  5
463
100
AcDbEntity
  8
0
100
AcDbCircle
 62
7
  6
CONTINUOUS
 10
8.0213732849
 20
22.3208563483
 40
0.0118110236
100
AcDbArc
 50
135.0002531656
 51
180.0
  0
ARC
  5
464
100
AcDbEntity
  8
0
100
AcDbCircle
 62
7
  6
CONTINUOUS
 10
8.0213732849
 20
22.0258759828
 40
0.0118110236
100
AcDbArc
 50
180.0
 51
224.9997468347
  0
ARC
  5
465
100
AcDbEntity
  8
0
100
AcDbCircle
 62
7
  6
CONTINUOUS
 10
8.0341395869
 20
22.0131096809
 40
0.0118110236
100
AcDbArc
 50
224.9999999998
 51
270.0
  0
ARC
  5
466
100
AcDbEntity
  8
0
100
AcDbCircle
 62
7
  6
CONTINUOUS
 10
8.0341395869
 20
22.1312199171
 40
0.0118110236
100
AcDbArc
 50
90.0
 51
135.0000000002
  0
ARC
  5
467
100
AcDbEntity
  8
0
100
AcDbCircle
 62
7
  6
CONTINUOUS
 10
8.0213732849
 20
22.1184536152
 40
0.0118110236
100
AcDbArc
 50
135.0002531652
 51
180.0
  0
ARC
  5
468
100
AcDbEntity
  8
0
100
AcDbCircle
 62
7
  6
CONTINUOUS
 10
8.0341395869
 20
21.9135385384
 40
0.0118110236
100
AcDbArc
 50
90.0
 51
134.9999999995
  0
ARC
  5
469
100
AcDbEntity
  8
0
100
AcDbCircle
 62
7
  6
CONTINUOUS
 10
8.0213732849
 20
21.9007722365
 40
0.0118110236
100
AcDbArc
 50
135.0002531657
 51
180.0
  0
ARC
  5
46A
100
AcDbEntity
  8
0
100
AcDbCircle
 62
7
  6
CONTINUOUS
 10
7.9436495706
 20
23.3926077734
 40
0.2910407091
100
AcDbArc
 50
342.5547036598
 51
342.8900233124
  0
ARC
  5
46B
100
AcDbEntity
  8
0
100
AcDbCircle
 62
7
  6
CONTINUOUS
 10
7.9633973651
 20
22.7102024903
 40
0.2382401351
100
AcDbArc
 50
358.7184356219
 51
359.98796656
  0
ARC
  5
46C
100
AcDbEntity
  8
0
100
AcDbCircle
 62
7
  6
CONTINUOUS
 10
7.961940625
 20
22.9380455942
 40
0.232276
100
AcDbArc
 50
344.2838736114
 51
344.5026483341
  0
ARC
  5
46D
100
AcDbEntity
  8
0
100
AcDbCircle
 62
7
  6
CONTINUOUS
 10
8.0717336007
 20
23.2017572413
 40
0.1641889434
100
AcDbArc
 50
339.7608445228
 51
339.9780861393
  0
ARC
  5
46E
100
AcDbEntity
  8
0
100
AcDbCircle
 62
7
  6
CONTINUOUS
 10
8.0015369593
 20
22.5423358419
 40
0.0393700787
100
AcDbArc
 50
290.0
 51
354.208879842
  0
ARC
  5
46F
100
AcDbEntity
  8
0
100
AcDbCircle
 62
9
  6
CONTINUOUS
 10
8.0606099611
 20
22.8028668051
 40
0.0118423374
100
AcDbArc
 50
310.2583431481
 51
314.2622245694
  0
ARC
  5
470
100
AcDbEntity
  8
0
100
AcDbCircle
 62
9
  6
CONTINUOUS
 10
8.0606153063
 20
22.802848663
 40
0.0118256175
100
AcDbArc
 50
314.3050269967
 51
330.916833034
  0
ARC
  5
471
100
AcDbEntity
  8
0
100
AcDbCircle
 62
7
  6
CONTINUOUS
 10
8.0341395869
 20
22.7792421827
 40
0.0118110236
100
AcDbArc
 50
90.0
 51
135.0000000004
  0
ARC
  5
472
100
AcDbEntity
  8
0
100
AcDbCircle
 62
7
  6
CONTINUOUS
 10
8.0213732849
 20
22.7664758808
 40
0.0118110236
100
AcDbArc
 50
135.0002531647
 51
180.0
  0
ARC
  5
473
100
AcDbEntity
  8
0
100
AcDbCircle
 62
7
  6
CONTINUOUS
 10
8.0213732849
 20
22.6412754905
 40
0.0118110236
100
AcDbArc
 50
180.0
 51
224.999746836
  0
ARC
  5
474
100
AcDbEntity
  8
0
100
AcDbCircle
 62
7
  6
CONTINUOUS
 10
8.0341395869
 20
22.6285091886
 40
0.0118110236
100
AcDbArc
 50
224.9999999994
 51
270.0
  0
ARC
  5
475
100
AcDbEntity
  8
0
100
AcDbCircle
 62
7
  6
CONTINUOUS
 10
8.0341395869
 20
22.7466194248
 40
0.0118110236
100
AcDbArc
 50
90.0
 51
135.0000000006
  0
ARC
  5
476
100
AcDbEntity
  8
0
100
AcDbCircle
 62
7
  6
CONTINUOUS
 10
8.0213732849
 20
22.7338531229
 40
0.0118110236
100
AcDbArc
 50
135.0002531659
 51
180.0
  0
ARC
  5
477
100
AcDbEntity
  8
0
100
AcDbCircle
 62
9
  6
CONTINUOUS
 10
8.0606295115
 20
22.802836887
 40
0.0118068724
100
AcDbArc
 50
290.7636118269
 51
310.2797652929
  0
ARC
  5
478
100
AcDbEntity
  8
0
100
AcDbCircle
 62
9
  6
CONTINUOUS
 10
8.0606280171
 20
22.8028361322
 40
0.0118063336
100
AcDbArc
 50
269.9901527933
 51
288.0364280331
  0
ARC
  5
479
100
AcDbEntity
  8
0
100
AcDbCircle
 62
9
  6
CONTINUOUS
 10
8.0606644412
 20
22.8028249335
 40
0.0117709473
100
AcDbArc
 50
334.1388331835
 51
352.1201059752
  0
ARC
  5
47A
100
AcDbEntity
  8
0
100
AcDbCircle
 62
9
  6
CONTINUOUS
 10
8.0606476424
 20
22.8028032236
 40
0.0117689688
100
AcDbArc
 50
287.9951842773
 51
290.7391766398
  0
ARC
  5
47B
100
AcDbEntity
  8
0
100
AcDbCircle
 62
9
  6
CONTINUOUS
 10
8.0606844647
 20
22.8028106078
 40
0.0117466811
100
AcDbArc
 50
330.915079537
 51
334.1591090595
  0
ARC
  5
47C
100
AcDbEntity
  8
0
100
AcDbCircle
 62
9
  6
CONTINUOUS
 10
8.0404159861
 20
22.6079032968
 40
0.0110007297
100
AcDbArc
 50
353.1435510631
 51
355.9260021332
  0
ARC
  5
47D
100
AcDbEntity
  8
0
100
AcDbCircle
 62
9
  6
CONTINUOUS
 10
8.040585566
 20
22.6078912008
 40
0.0108307189
100
AcDbArc
 50
355.9260958035
 51
359.9873732436
  0
ARC
  5
47E
100
AcDbEntity
  8
0
100
AcDbCircle
 62
9
  6
CONTINUOUS
 10
8.1153956955
 20
22.1301943994
 40
0.0574980893
100
AcDbArc
 50
162.9157204485
 51
163.8669148153
  0
ARC
  5
47F
100
AcDbEntity
  8
0
100
AcDbCircle
 62
9
  6
CONTINUOUS
 10
8.1119687387
 20
21.9140990989
 40
0.0562269279
100
AcDbArc
 50
163.6940927009
 51
165.0562887521
  0
ARC
  5
480
100
AcDbEntity
  8
0
100
AcDbCircle
 62
7
  6
CONTINUOUS
 10
8.1456840072
 20
21.3224066994
 40
0.0196850394
100
AcDbArc
 50
135.0013272053
 51
180.0
  0
ARC
  5
481
100
AcDbEntity
  8
0
100
AcDbCircle
 62
7
  6
CONTINUOUS
 10
8.1538378174
 20
21.3305605097
 40
0.0196850394
100
AcDbArc
 50
90.0
 51
134.9999999998
  0
ARC
  5
482
100
AcDbEntity
  8
0
100
AcDbCircle
 62
7
  6
CONTINUOUS
 10
8.1538378174
 20
21.228198305
 40
0.0196850394
100
AcDbArc
 50
225.0000000002
 51
270.0
  0
ARC
  5
483
100
AcDbEntity
  8
0
100
AcDbCircle
 62
7
  6
CONTINUOUS
 10
8.1456840072
 20
21.2363521152
 40
0.0196850394
100
AcDbArc
 50
180.0
 51
224.9986727946
  0
ARC
  5
484
100
AcDbEntity
  8
0
100
AcDbCircle
 62
7
  6
CONTINUOUS
 10
8.1953849857
 20
21.3342146503
 40
0.0196850394
100
AcDbArc
 50
224.9999999999
 51
270.0
  0
ARC
  5
485
100
AcDbEntity
  8
0
100
AcDbCircle
 62
7
  6
CONTINUOUS
 10
8.1953849857
 20
21.4601989023
 40
0.0196850394
100
AcDbArc
 50
90.0
 51
135.0000000001
  0
ARC
  5
486
100
AcDbEntity
  8
0
100
AcDbCircle
 62
7
  6
CONTINUOUS
 10
8.1872311754
 20
21.452045092
 40
0.0196850394
100
AcDbArc
 50
135.0011432902
 51
180.0
  0
ARC
  5
487
100
AcDbEntity
  8
0
100
AcDbCircle
 62
7
  6
CONTINUOUS
 10
8.1456840072
 20
22.0406981228
 40
0.0196850394
100
AcDbArc
 50
135.0013272053
 51
180.0
  0
ARC
  5
488
100
AcDbEntity
  8
0
100
AcDbCircle
 62
7
  6
CONTINUOUS
 10
8.1538378174
 20
22.0488519331
 40
0.0196850394
100
AcDbArc
 50
90.0
 51
134.9999999999
  0
ARC
  5
489
100
AcDbEntity
  8
0
100
AcDbCircle
 62
7
  6
CONTINUOUS
 10
8.1538378174
 20
21.9464897283
 40
0.0196850394
100
AcDbArc
 50
225.0000000001
 51
270.0
  0
ARC
  5
48A
100
AcDbEntity
  8
0
100
AcDbCircle
 62
7
  6
CONTINUOUS
 10
8.1872311754
 20
21.3423684606
 40
0.0196850394
100
AcDbArc
 50
180.0
 51
224.9988567098
  0
ARC
  5
48B
100
AcDbEntity
  8
0
100
AcDbCircle
 62
7
  6
CONTINUOUS
 10
8.1456840072
 20
21.9546435386
 40
0.0196850394
100
AcDbArc
 50
180.0
 51
224.998672795
  0
ARC
  5
48C
100
AcDbEntity
  8
0
100
AcDbCircle
 62
7
  6
CONTINUOUS
 10
8.1456840072
 20
22.3936189845
 40
0.0196850394
100
AcDbArc
 50
135.0013272065
 51
180.0
  0
ARC
  5
48D
100
AcDbEntity
  8
0
100
AcDbCircle
 62
7
  6
CONTINUOUS
 10
8.1953849857
 20
21.7519934239
 40
0.0196850394
100
AcDbArc
 50
225.0000000003
 51
270.0
  0
ARC
  5
48E
100
AcDbEntity
  8
0
100
AcDbCircle
 62
7
  6
CONTINUOUS
 10
8.1456840072
 20
22.3075644003
 40
0.0196850394
100
AcDbArc
 50
180.0
 51
224.9986727935
  0
ARC
  5
48F
100
AcDbEntity
  8
0
100
AcDbCircle
 62
7
  6
CONTINUOUS
 10
8.1953849857
 20
21.8779776758
 40
0.0196850394
100
AcDbArc
 50
90.0
 51
134.9999999997
  0
ARC
  5
490
100
AcDbEntity
  8
0
100
AcDbCircle
 62
7
  6
CONTINUOUS
 10
8.1538378174
 20
22.29941059
 40
0.0196850394
100
AcDbArc
 50
225.0000000004
 51
270.0
  0
ARC
  5
491
100
AcDbEntity
  8
0
100
AcDbCircle
 62
7
  6
CONTINUOUS
 10
8.1872311754
 20
21.8698238656
 40
0.0196850394
100
AcDbArc
 50
135.0011432901
 51
180.0
  0
ARC
  5
492
100
AcDbEntity
  8
0
100
AcDbCircle
 62
7
  6
CONTINUOUS
 10
8.1538378174
 20
22.4017727948
 40
0.0196850394
100
AcDbArc
 50
90.0
 51
134.9999999996
  0
ARC
  5
493
100
AcDbEntity
  8
0
100
AcDbCircle
 62
7
  6
CONTINUOUS
 10
8.1872311754
 20
21.7601472342
 40
0.0196850394
100
AcDbArc
 50
180.0
 51
224.9988567098
  0
ARC
  5
494
100
AcDbEntity
  8
0
100
AcDbCircle
 62
7
  6
CONTINUOUS
 10
8.1953849857
 20
22.1697721975
 40
0.0196850394
100
AcDbArc
 50
225.0000000002
 51
270.0
  0
ARC
  5
495
100
AcDbEntity
  8
0
100
AcDbCircle
 62
7
  6
CONTINUOUS
 10
8.1953849857
 20
22.2957564494
 40
0.0196850394
100
AcDbArc
 50
90.0
 51
134.9999999998
  0
ARC
  5
496
100
AcDbEntity
  8
0
100
AcDbCircle
 62
7
  6
CONTINUOUS
 10
8.1872311754
 20
22.2876026392
 40
0.0196850394
100
AcDbArc
 50
135.0011432896
 51
180.0
  0
ARC
  5
497
100
AcDbEntity
  8
0
100
AcDbCircle
 62
7
  6
CONTINUOUS
 10
8.1872311754
 20
22.1779260077
 40
0.0196850394
100
AcDbArc
 50
180.0
 51
224.9988567095
  0
ARC
  5
498
100
AcDbEntity
  8
0
100
AcDbCircle
 62
7
  6
CONTINUOUS
 10
8.1538378174
 20
21.6834813714
 40
0.0196850394
100
AcDbArc
 50
90.0
 51
134.9999999998
  0
ARC
  5
499
100
AcDbEntity
  8
0
100
AcDbCircle
 62
7
  6
CONTINUOUS
 10
8.1538378174
 20
21.5811191667
 40
0.0196850394
100
AcDbArc
 50
225.0000000002
 51
270.0
  0
ARC
  5
49A
100
AcDbEntity
  8
0
100
AcDbCircle
 62
7
  6
CONTINUOUS
 10
8.1456840072
 20
21.5892729769
 40
0.0196850394
100
AcDbArc
 50
180.0
 51
224.9986727949
  0
ARC
  5
49B
100
AcDbEntity
  8
0
100
AcDbCircle
 62
7
  6
CONTINUOUS
 10
8.1456840072
 20
21.6753275611
 40
0.0196850394
100
AcDbArc
 50
135.0013272051
 51
180.0
  0
ARC
  5
49C
100
AcDbEntity
  8
0
100
AcDbCircle
 62
9
  6
CONTINUOUS
 10
8.1154227703
 20
22.6065040889
 40
0.0640863536
100
AcDbArc
 50
179.0515210633
 51
179.3768466831
  0
ARC
  5
49D
100
AcDbEntity
  8
0
100
AcDbCircle
 62
9
  6
CONTINUOUS
 10
8.1029996498
 20
22.6066209468
 40
0.0516627002
100
AcDbArc
 50
179.3565944532
 51
180.0341803176
  0
ARC
  5
49E
100
AcDbEntity
  8
0
100
AcDbCircle
 62
7
  6
CONTINUOUS
 10
8.1953849857
 20
22.8933862596
 40
0.0196850394
100
AcDbArc
 50
225.0000000002
 51
270.0
  0
ARC
  5
49F
100
AcDbEntity
  8
0
100
AcDbCircle
 62
7
  6
CONTINUOUS
 10
8.1953849857
 20
23.0193705116
 40
0.0196850394
100
AcDbArc
 50
90.0
 51
134.9999999998
  0
ARC
  5
4A0
100
AcDbEntity
  8
0
100
AcDbCircle
 62
7
  6
CONTINUOUS
 10
8.1872311754
 20
23.0112167013
 40
0.0196850394
100
AcDbArc
 50
135.0011432895
 51
180.0
  0
ARC
  5
4A1
100
AcDbEntity
  8
0
100
AcDbCircle
 62
7
  6
CONTINUOUS
 10
8.1872311754
 20
22.9015400699
 40
0.0196850394
100
AcDbArc
 50
180.0
 51
224.9988567094
  0
ARC
  5
4A2
100
AcDbEntity
  8
0
100
AcDbCircle
 62
7
  6
CONTINUOUS
 10
8.1538378174
 20
22.9765489848
 40
0.0196850394
100
AcDbArc
 50
90.0
 51
134.9999999999
  0
ARC
  5
4A3
100
AcDbEntity
  8
0
100
AcDbCircle
 62
7
  6
CONTINUOUS
 10
8.1538378174
 20
22.8741867801
 40
0.0196850394
100
AcDbArc
 50
225.0000000001
 51
270.0
  0
ARC
  5
4A4
100
AcDbEntity
  8
0
100
AcDbCircle
 62
7
  6
CONTINUOUS
 10
8.1456840072
 20
22.8823405904
 40
0.0196850394
100
AcDbArc
 50
180.0
 51
224.998672795
  0
ARC
  5
4A5
100
AcDbEntity
  8
0
100
AcDbCircle
 62
7
  6
CONTINUOUS
 10
8.1456840072
 20
22.9683951745
 40
0.0196850394
100
AcDbArc
 50
135.0013272058
 51
180.0
  0
ARC
  5
4A6
100
AcDbEntity
  8
0
100
AcDbCircle
 62
7
  6
CONTINUOUS
 10
8.1456840072
 20
23.0650258712
 40
0.0196850394
100
AcDbArc
 50
180.0
 51
224.9986727946
  0
ARC
  5
4A7
100
AcDbEntity
  8
0
100
AcDbCircle
 62
7
  6
CONTINUOUS
 10
8.1538378174
 20
23.0568720609
 40
0.0196850394
100
AcDbArc
 50
225.0000000002
 51
270.0
  0
ARC
  5
4A8
100
AcDbEntity
  8
0
100
AcDbCircle
 62
7
  6
CONTINUOUS
 10
8.1456840072
 20
22.6239845885
 40
0.0196850394
100
AcDbArc
 50
180.0
 51
224.9986727884
  0
ARC
  5
4A9
100
AcDbEntity
  8
0
100
AcDbCircle
 62
7
  6
CONTINUOUS
 10
8.1538378174
 20
22.6158307783
 40
0.0196850394
100
AcDbArc
 50
225.0000000001
 51
270.0
  0
ARC
  5
4AA
100
AcDbEntity
  8
0
100
AcDbCircle
 62
7
  6
CONTINUOUS
 10
8.1538378174
 20
22.718192983
 40
0.0196850394
100
AcDbArc
 50
90.0
 51
134.9999999999
  0
ARC
  5
4AB
100
AcDbEntity
  8
0
100
AcDbCircle
 62
7
  6
CONTINUOUS
 10
8.1456840072
 20
22.7100391727
 40
0.0196850394
100
AcDbArc
 50
135.0013272118
 51
180.0
  0
ARC
  5
4AC
100
AcDbEntity
  8
0
100
AcDbCircle
 62
7
  6
CONTINUOUS
 10
8.1953849857
 20
22.559080038
 40
0.0196850394
100
AcDbArc
 50
225.0000000003
 51
270.0
  0
ARC
  5
4AD
100
AcDbEntity
  8
0
100
AcDbCircle
 62
7
  6
CONTINUOUS
 10
8.1872311754
 20
22.5672338483
 40
0.0196850394
100
AcDbArc
 50
180.0
 51
224.9989630351
  0
ARC
  5
4AE
100
AcDbEntity
  8
0
100
AcDbCircle
 62
7
  6
CONTINUOUS
 10
8.1872311754
 20
22.6769104797
 40
0.0196850394
100
AcDbArc
 50
135.0010369649
 51
180.0
  0
ARC
  5
4AF
100
AcDbEntity
  8
0
100
AcDbCircle
 62
7
  6
CONTINUOUS
 10
8.1953849857
 20
22.68506429
 40
0.0196850394
100
AcDbArc
 50
90.0
 51
134.9999999997
  0
ARC
  5
4B0
100
AcDbEntity
  8
0
100
AcDbCircle
 62
7
  6
CONTINUOUS
 10
8.1286847915
 20
23.0757636405
 40
0.0078740157
100
AcDbArc
 50
110.3751729783
 51
169.8531132105
  0
ARC
  5
4B1
100
AcDbEntity
  8
0
100
AcDbCircle
 62
7
  6
CONTINUOUS
 10
8.1953849857
 20
23.3111650332
 40
0.0196850394
100
AcDbArc
 50
224.9999999999
 51
244.5973246504
  0
ARC
  5
4B2
100
AcDbEntity
  8
0
100
AcDbCircle
 62
7
  6
CONTINUOUS
 10
8.1953849857
 20
23.4371492852
 40
0.0196850394
100
AcDbArc
 50
90.0
 51
135.0000000001
  0
ARC
  5
4B3
100
AcDbEntity
  8
0
100
AcDbCircle
 62
7
  6
CONTINUOUS
 10
8.1872311754
 20
23.4289954749
 40
0.0196850394
100
AcDbArc
 50
135.0011432901
 51
180.0
  0
ARC
  5
4B4
100
AcDbEntity
  8
0
100
AcDbCircle
 62
7
  6
CONTINUOUS
 10
8.1872311754
 20
23.3193188435
 40
0.0196850394
100
AcDbArc
 50
180.0
 51
224.9988567098
  0
ARC
  5
4B5
100
AcDbEntity
  8
0
100
AcDbCircle
 62
7
  6
CONTINUOUS
 10
8.1953849857
 20
23.1499084457
 40
0.0196850394
100
AcDbArc
 50
225.0000000003
 51
270.0
  0
ARC
  5
4B6
100
AcDbEntity
  8
0
100
AcDbCircle
 62
7
  6
CONTINUOUS
 10
8.1953849857
 20
23.2758926977
 40
0.0196850394
100
AcDbArc
 50
90.0
 51
134.9999999997
  0
ARC
  5
4B7
100
AcDbEntity
  8
0
100
AcDbCircle
 62
7
  6
CONTINUOUS
 10
8.1872311754
 20
23.2677388874
 40
0.0196850394
100
AcDbArc
 50
135.00114329
 51
180.0
  0
ARC
  5
4B8
100
AcDbEntity
  8
0
100
AcDbCircle
 62
7
  6
CONTINUOUS
 10
8.1872311754
 20
23.158062256
 40
0.0196850394
100
AcDbArc
 50
180.0
 51
224.99885671
  0
ARC
  5
4B9
100
AcDbEntity
  8
0
100
AcDbCircle
 62
7
  6
CONTINUOUS
 10
8.1872311754
 20
23.4839970939
 40
0.0196850394
100
AcDbArc
 50
135.0011432902
 51
180.001006738
  0
ARC
  5
4BA
100
AcDbEntity
  8
0
100
AcDbCircle
 62
7
  6
CONTINUOUS
 10
8.1538378174
 20
23.1592342656
 40
0.0196850394
100
AcDbArc
 50
90.0
 51
134.9999999998
  0
ARC
  5
4BB
100
AcDbEntity
  8
0
100
AcDbCircle
 62
7
  6
CONTINUOUS
 10
8.1953849857
 20
23.4921509042
 40
0.0196850394
100
AcDbArc
 50
90.0
 51
135.0024588143
  0
ARC
  5
4BC
100
AcDbEntity
  8
0
100
AcDbCircle
 62
7
  6
CONTINUOUS
 10
8.1456840072
 20
23.1510804554
 40
0.0196850394
100
AcDbArc
 50
135.0013272053
 51
180.0
  0
ARC
  5
4BD
100
AcDbEntity
  8
0
100
AcDbCircle
 62
7
  6
CONTINUOUS
 10
8.1456840072
 20
23.1595907311
 40
0.0196850394
100
AcDbArc
 50
180.0
 51
192.7092229253
  0
ARC
  5
4BE
100
AcDbEntity
  8
0
100
AcDbCircle
 62
7
  6
CONTINUOUS
 10
8.1456840072
 20
23.2456453152
 40
0.0196850394
100
AcDbArc
 50
135.0013272051
 51
180.0
  0
ARC
  5
4BF
100
AcDbEntity
  8
0
100
AcDbCircle
 62
7
  6
CONTINUOUS
 10
8.1538378174
 20
23.2537991255
 40
0.0196850394
100
AcDbArc
 50
90.0
 51
134.9999999998
  0
ARC
  5
4C0
100
AcDbEntity
  8
0
100
AcDbCircle
 62
7
  6
CONTINUOUS
 10
8.329137398
 20
23.7349855499
 40
0.08
100
AcDbArc
 50
90.0
 51
176.9999979477
  0
ARC
  5
4C1
100
AcDbEntity
  8
0
100
AcDbCircle
 62
7
  6
CONTINUOUS
 10
9.3332202327
 20
20.6449855499
 40
0.08
100
AcDbArc
 50
135.2317553725
 51
180.0
  0
ARC
  5
4C2
100
AcDbEntity
  8
0
100
AcDbCircle
 62
7
  6
CONTINUOUS
 10
9.1732202327
 20
19.8949855499
 40
0.08
100
AcDbArc
 50
270.0
 51
360.0
  0
ARC
  5
4C3
100
AcDbEntity
  8
0
100
AcDbCircle
 62
7
  6
CONTINUOUS
 10
10.7090188289
 20
18.6151457108
 40
0.06
100
AcDbArc
 50
354.9244926841
 51
86.7567985982
  0
ARC
  5
4C4
100
AcDbEntity
  8
0
100
AcDbCircle
 62
7
  6
CONTINUOUS
 10
10.8746762609
 20
19.0647207507
 40
0.06
100
AcDbArc
 50
318.5281704494
 51
360.0
  0
ARC
  5
4C5
100
AcDbEntity
  8
0
100
AcDbCircle
 62
7
  6
CONTINUOUS
 10
10.7290577289
 20
18.8849855499
 40
0.06
100
AcDbArc
 50
270.0
 51
321.0
  0
ARC
  5
4C6
100
AcDbEntity
  8
0
100
AcDbCircle
 62
7
  6
CONTINUOUS
 10
10.7146762609
 20
18.7149855499
 40
0.04
100
AcDbArc
 50
180.0
 51
266.7567985982
  0
ARC
  5
4C7
100
AcDbEntity
  8
0
100
AcDbCircle
 62
7
  6
CONTINUOUS
 10
10.7146762609
 20
18.7849855499
 40
0.04
100
AcDbArc
 50
90.0
 51
180.0
  0
ARC
  5
4C8
100
AcDbEntity
  8
0
100
AcDbCircle
 62
7
  6
CONTINUOUS
 10
10.4603831127
 20
21.8149855499
 40
2.5590551181
100
AcDbArc
 50
174.5049555658
 51
175.9886462846
  0
ARC
  5
4C9
100
AcDbEntity
  8
0
100
AcDbCircle
 62
7
  6
CONTINUOUS
 10
10.4603831127
 20
21.8149855499
 40
2.5590551181
100
AcDbArc
 50
177.3528405073
 51
183.7405671051
  0
ARC
  5
4CA
100
AcDbEntity
  8
0
100
AcDbCircle
 62
7
  6
CONTINUOUS
 10
10.6846762609
 20
21.1899855499
 40
1.0
100
AcDbArc
 50
0.0
 51
90.0
  0
ARC
  5
4CB
100
AcDbEntity
  8
0
100
AcDbCircle
 62
7
  6
CONTINUOUS
 10
10.6846762609
 20
21.1899855499
 40
0.25
100
AcDbArc
 50
0.0
 51
90.0
  0
ARC
  5
4CC
100
AcDbEntity
  8
0
100
AcDbCircle
 62
7
  6
CONTINUOUS
 10
9.9552202327
 20
21.4309855499
 40
0.1
100
AcDbArc
 50
270.0
 51
315.9268242884
  0
ARC
  5
4CD
100
AcDbEntity
  8
0
100
AcDbCircle
 62
7
  6
CONTINUOUS
 10
9.9552202327
 20
22.1989855499
 40
0.1
100
AcDbArc
 50
44.0731757116
 51
90.0
  0
ARC
  5
4CE
100
AcDbEntity
  8
0
100
AcDbCircle
 62
7
  6
CONTINUOUS
 10
9.3332202327
 20
22.9849855499
 40
0.08
100
AcDbArc
 50
180.0
 51
224.7682446275
  0
ARC
  5
4CF
100
AcDbEntity
  8
0
100
AcDbCircle
 62
7
  6
CONTINUOUS
 10
9.7952202327
 20
22.292037862
 40
0.08
100
AcDbArc
 50
0.0
 51
44.7682147276
  0
ARC
  5
4D0
100
AcDbEntity
  8
0
100
AcDbCircle
 62
7
  6
CONTINUOUS
 10
9.7952202327
 20
21.3379332377
 40
0.08
100
AcDbArc
 50
315.2317852724
 51
360.0
  0
ARC
  5
4D1
100
AcDbEntity
  8
0
100
AcDbCircle
 62
7
  6
CONTINUOUS
 10
9.1732202327
 20
23.7349855499
 40
0.08
100
AcDbArc
 50
0.0
 51
90.0
  0
ARC
  5
4D2
100
AcDbEntity
  8
0
100
AcDbCircle
 62
7
  6
CONTINUOUS
 10
10.2293975464
 20
22.2499855499
 40
0.06
100
AcDbArc
 50
221.8103698099
 51
270.0
  0
ARC
  5
4D3
100
AcDbEntity
  8
0
100
AcDbCircle
 62
7
  6
CONTINUOUS
 10
9.9352202327
 20
22.2389855499
 40
0.06
100
AcDbArc
 50
90.0
 51
180.0
  0
ARC
  5
4D4
100
AcDbEntity
  8
0
100
AcDbCircle
 62
7
  6
CONTINUOUS
 10
9.9352202327
 20
21.3909855499
 40
0.06
100
AcDbArc
 50
180.0
 51
270.0
  0
ARC
  5
4D5
100
AcDbEntity
  8
0
100
AcDbCircle
 62
7
  6
CONTINUOUS
 10
10.0701725569
 20
21.3196933077
 40
0.06
100
AcDbArc
 50
108.0000000005
 51
135.9268242885
  0
ARC
  5
4D6
100
AcDbEntity
  8
0
100
AcDbCircle
 62
7
  6
CONTINUOUS
 10
10.0701725569
 20
22.310277792
 40
0.06
100
AcDbArc
 50
224.0731757115
 51
251.9999999995
  0
ARC
  5
4D7
100
AcDbEntity
  8
0
100
AcDbCircle
 62
7
  6
CONTINUOUS
 10
10.2293975464
 20
21.3799855499
 40
0.06
100
AcDbArc
 50
90.0
 51
138.1897285507
  0
ARC
  5
4D8
100
AcDbEntity
  8
0
100
AcDbCircle
 62
9
  6
CONTINUOUS
 10
12.9576126272
 20
-5.4783574419
 40
0.2840800744
100
AcDbArc
 50
101.5555245694
 51
115.014455207
  0
ARC
  5
4D9
100
AcDbEntity
  8
0
100
AcDbCircle
 62
7
  6
CONTINUOUS
 10
11.9664168905
 20
13.8154794205
 40
0.460495129
100
AcDbArc
 50
154.0179554347
 51
154.4656832095
  0
ARC
  5
4DA
100
AcDbEntity
  8
0
100
AcDbCircle
 62
7
  6
CONTINUOUS
 10
11.9063932305
 20
13.8603264587
 40
0.3872772308
100
AcDbArc
 50
156.1716412363
 51
156.6243992104
  0
ARC
  5
4DB
100
AcDbEntity
  8
0
100
AcDbCircle
 62
7
  6
CONTINUOUS
 10
11.3096762609
 20
14.2099855499
 40
0.355
100
AcDbArc
 50
212.8437480037
 51
237.1352711805
  0
ARC
  5
4DC
100
AcDbEntity
  8
0
100
AcDbCircle
 62
7
  6
CONTINUOUS
 10
11.3096762609
 20
14.2099855499
 40
0.355
100
AcDbArc
 50
122.8649694186
 51
147.1558432535
  0
ARC
  5
4DD
100
AcDbEntity
  8
0
100
AcDbCircle
 62
7
  6
CONTINUOUS
 10
11.3096762609
 20
14.2099855499
 40
0.355
100
AcDbArc
 50
37.1962567204
 51
57.0977394236
  0
ARC
  5
4DE
100
AcDbEntity
  8
0
100
AcDbCircle
 62
7
  6
CONTINUOUS
 10
11.3096762609
 20
14.2099855499
 40
0.355
100
AcDbArc
 50
302.8371538751
 51
327.0160305918
  0
ARC
  5
4DF
100
AcDbEntity
  8
0
100
AcDbCircle
 62
9
  6
CONTINUOUS
 10
11.3096762609
 20
14.2099855499
 40
0.335
100
AcDbArc
 50
215.1882771806
 51
234.7721785806
  0
ARC
  5
4E0
100
AcDbEntity
  8
0
100
AcDbCircle
 62
9
  6
CONTINUOUS
 10
11.3096762609
 20
14.2099855499
 40
0.335
100
AcDbArc
 50
125.2036905553
 51
144.8551507865
  0
ARC
  5
4E1
100
AcDbEntity
  8
0
100
AcDbCircle
 62
9
  6
CONTINUOUS
 10
11.3096762609
 20
14.2099855499
 40
0.335
100
AcDbArc
 50
37.6291858913
 51
54.7721785806
  0
ARC
  5
4E2
100
AcDbEntity
  8
0
100
AcDbCircle
 62
9
  6
CONTINUOUS
 10
11.3096762609
 20
14.2099855499
 40
0.335
100
AcDbArc
 50
305.2036905553
 51
324.8551507865
  0
CIRCLE
  5
4E3
100
AcDbEntity
  8
0
100
AcDbCircle
 62
7
  6
CONTINUOUS
 10
11.3096762609
 20
14.2099855499
 40
0.31
  0
ARC
  5
4E4
100
AcDbEntity
  8
0
100
AcDbCircle
 62
7
  6
CONTINUOUS
 10
11.6496762609
 20
14.2379855499
 40
0.1
100
AcDbArc
 50
270.0
 51
360.0
  0
ARC
  5
4E5
100
AcDbEntity
  8
0
100
AcDbCircle
 62
7
  6
CONTINUOUS
 10
12.7596762609
 20
14.2379855499
 40
0.1
100
AcDbArc
 50
180.0
 51
270.0
  0
ARC
  5
4E6
100
AcDbEntity
  8
0
100
AcDbCircle
 62
7
  6
CONTINUOUS
 10
11.5865336249
 20
14.5224855499
 40
0.0625
100
AcDbArc
 50
228.4608684834
 51
270.0
  0
ARC
  5
4E7
100
AcDbEntity
  8
0
100
AcDbCircle
 62
7
  6
CONTINUOUS
 10
11.5865336249
 20
13.8974855499
 40
0.0625
100
AcDbArc
 50
90.0000000018
 51
131.5391315166
  0
ARC
  5
4E8
100
AcDbEntity
  8
0
100
AcDbCircle
 62
7
  6
CONTINUOUS
 10
11.7737075088
 20
13.1199855508
 40
0.020000001
100
AcDbArc
 50
270.0000029824
 51
359.9999971758
  0
ARC
  5
4E9
100
AcDbEntity
  8
0
100
AcDbCircle
 62
7
  6
CONTINUOUS
 10
11.7737075098
 20
13.4299855499
 40
0.02
100
AcDbArc
 50
0.0
 51
90.0
  0
ARC
  5
4EA
100
AcDbEntity
  8
0
100
AcDbCircle
 62
7
  6
CONTINUOUS
 10
15.1732222635
 20
21.8149855498
 40
7.1691060898
100
AcDbArc
 50
173.6126430217
 51
174.208879842
  0
ARC
  5
4EB
100
AcDbEntity
  8
0
100
AcDbCircle
 62
7
  6
CONTINUOUS
 10
15.1732222635
 20
21.8149855498
 40
7.1691060898
100
AcDbArc
 50
170.6768182409
 51
172.097905872
  0
ARC
  5
4EC
100
AcDbEntity
  8
0
100
AcDbCircle
 62
7
  6
CONTINUOUS
 10
15.1732222634
 20
21.8149855498
 40
7.1691060898
100
AcDbArc
 50
187.3617183163
 51
189.3231817588
  0
ARC
  5
4ED
100
AcDbEntity
  8
0
100
AcDbCircle
 62
7
  6
CONTINUOUS
 10
15.1732575742
 20
21.8149855502
 40
7.1643816812
100
AcDbArc
 50
194.2898330329
 51
194.8055270574
  0
ARC
  5
4EE
100
AcDbEntity
  8
0
100
AcDbCircle
 62
7
  6
CONTINUOUS
 10
15.1732575742
 20
21.8149855502
 40
7.1643816812
100
AcDbArc
 50
165.1944729426
 51
165.7101669722
  0
ARC
  5
4EF
100
AcDbEntity
  8
0
100
AcDbCircle
 62
7
  6
CONTINUOUS
 10
11.9103336929
 20
18.6151457108
 40
0.06
100
AcDbArc
 50
93.2432014019
 51
185.0755073159
  0
ARC
  5
4F0
100
AcDbEntity
  8
0
100
AcDbCircle
 62
7
  6
CONTINUOUS
 10
11.8902947928
 20
18.8849855499
 40
0.06
100
AcDbArc
 50
219.0
 51
270.0
  0
ARC
  5
4F1
100
AcDbEntity
  8
0
100
AcDbCircle
 62
7
  6
CONTINUOUS
 10
11.7446762609
 20
19.0647207505
 40
0.06
100
AcDbArc
 50
180.0
 51
221.4718321501
  0
ARC
  5
4F2
100
AcDbEntity
  8
0
100
AcDbCircle
 62
7
  6
CONTINUOUS
 10
11.9046762609
 20
18.7149855499
 40
0.04
100
AcDbArc
 50
273.2432014018
 51
360.0
  0
ARC
  5
4F3
100
AcDbEntity
  8
0
100
AcDbCircle
 62
7
  6
CONTINUOUS
 10
11.9046762609
 20
18.7849855499
 40
0.04
100
AcDbArc
 50
0.0
 51
90.0
  0
ARC
  5
4F4
100
AcDbEntity
  8
0
100
AcDbCircle
 62
7
  6
CONTINUOUS
 10
30.8646768831
 20
16.8249855499
 40
20.175
100
AcDbArc
 50
174.9244926841
 51
184.2788461842
  0
SPLINE
  5
4F5
100
AcDbEntity
  8
0
100
AcDbSpline
 62
7
  6
CONTINUOUS
 70
0
 71
3
 72
13
 73
9
 74
0
 42
0.0000001
 43
0.0000001
 44
0.0000000001
 40
0.0
 40
0.0
 40
0.0
 40
0.0
 40
0.3230479268
 40
0.5911183977
 40
0.7067500257
 40
0.811887546
 40
0.9086828249
 40
1.0
 40
1.0
 40
1.0
 40
1.0
 10
8.2302839926
 20
22.5438466964
 30
0.0
 10
8.2298093372
 20
22.5431737276
 30
0.0
 10
8.2288822194
 20
22.5419816383
 30
0.0
 10
8.2275748584
 20
22.5407254102
 30
0.0
 10
8.2265402857
 20
22.5400253246
 30
0.0
 10
8.2258118227
 20
22.5396652222
 30
0.0
 10
8.225093135
 20
22.5394464589
 30
0.0
 10
8.2246124489
 20
22.5393959811
 30
0.0
 10
8.2243796615
 20
22.5393961196
 30
0.0
  0
SPLINE
  5
4F6
100
AcDbEntity
  8
0
100
AcDbSpline
 62
7
  6
CONTINUOUS
 70
0
 71
3
 72
11
 73
7
 74
0
 42
0.0000001
 43
0.0000001
 44
0.0000000001
 40
0.0
 40
0.0
 40
0.0
 40
0.0
 40
0.2885076622
 40
0.5549217022
 40
0.7933781846
 40
1.0
 40
1.0
 40
1.0
 40
1.0
 10
8.2016374949
 20
21.2522601089
 30
0.0
 10
8.2016374949
 20
21.249310963
 30
0.0
 10
8.2015529319
 20
21.2436380463
 30
0.0
 10
8.2011558042
 20
21.2355358528
 30
0.0
 10
8.2004995588
 20
21.2282904835
 30
0.0
 10
8.1998547884
 20
21.2237831691
 30
0.0
 10
8.1994746272
 20
21.2217055608
 30
0.0
  0
SPLINE
  5
4F7
100
AcDbEntity
  8
0
100
AcDbSpline
 62
7
  6
CONTINUOUS
 70
0
 71
3
 72
16
 73
12
 74
0
 42
0.0000001
 43
0.0000001
 44
0.0000000001
 40
0.0
 40
0.0
 40
0.0
 40
0.0
 40
0.1989288818
 40
0.3756121375
 40
0.5296916078
 40
0.6611177809
 40
0.7706286869
 40
0.8602922221
 40
0.9341696315
 40
0.9675136273
 40
1.0
 40
1.0
 40
1.0
 40
1.0
 10
8.1994746272
 20
21.2217055608
 30
0.0
 10
8.1992891218
 20
21.2206917605
 30
0.0
 10
8.1989015917
 20
21.218783938
 30
0.0
 10
8.1982201838
 20
21.2161241537
 30
0.0
 10
8.1974775995
 20
21.213845393
 30
0.0
 10
8.1966781829
 20
21.2119578445
 30
0.0
 10
8.1958226961
 20
21.2104671148
 30
0.0
 10
8.1949128371
 20
21.2093719707
 30
0.0
 10
8.1940604933
 20
21.2087747934
 30
0.0
 10
8.1933677125
 20
21.2085492651
 30
0.0
 10
8.1930255251
 20
21.2085134668
 30
0.0
 10
8.1928572162
 20
21.2085135854
 30
0.0
  0
SPLINE
  5
4F8
100
AcDbEntity
  8
0
100
AcDbSpline
 62
7
  6
CONTINUOUS
 70
0
 71
3
 72
15
 73
11
 74
0
 42
0.0000001
 43
0.0000001
 44
0.0000000001
 40
0.0
 40
0.0
 40
0.0
 40
0.0
 40
0.1446870914
 40
0.2889591088
 40
0.4297416837
 40
0.5645244252
 40
0.6909618176
 40
0.806904425
 40
0.9104046012
 40
1.0
 40
1.0
 40
1.0
 40
1.0
 10
8.2016332416
 20
22.0052192004
 30
0.0
 10
8.2016169987
 20
22.0019613503
 30
0.0
 10
8.2014928805
 20
21.9954551307
 30
0.0
 10
8.2010463679
 20
21.9857878751
 30
0.0
 10
8.200345801
 20
21.9763591731
 30
0.0
 10
8.1994093808
 20
21.9673544608
 30
0.0
 10
8.1982547252
 20
21.9589391683
 30
0.0
 10
8.1969095597
 20
21.9512657489
 30
0.0
 10
8.1953980647
 20
21.9444708802
 30
0.0
 10
8.1942126797
 20
21.9402833611
 30
0.0
 10
8.1935802188
 20
21.9383676619
 30
0.0
  0
SPLINE
  5
4F9
100
AcDbEntity
  8
0
100
AcDbSpline
 62
7
  6
CONTINUOUS
 70
0
 71
3
 72
15
 73
11
 74
0
 42
0.0000001
 43
0.0000001
 44
0.0000000001
 40
0.0
 40
0.0
 40
0.0
 40
0.0
 40
0.1915598706
 40
0.3629762036
 40
0.5140850741
 40
0.6450014597
 40
0.7564093974
 40
0.8501007282
 40
0.929405869
 40
1.0
 40
1.0
 40
1.0
 40
1.0
 10
8.1935802188
 20
21.9383676619
 30
0.0
 10
8.1932856382
 20
21.9374753888
 30
0.0
 10
8.1926925948
 20
21.9357957574
 30
0.0
 10
8.1917287809
 20
21.9334640167
 30
0.0
 10
8.19074484
 20
21.9314669925
 30
0.0
 10
8.1897453846
 20
21.9298124509
 30
0.0
 10
8.1887324164
 20
21.9285059543
 30
0.0
 10
8.1877048655
 20
21.9275498977
 30
0.0
 10
8.1866551901
 20
21.9269497545
 30
0.0
 10
8.1859157952
 20
21.9268048132
 30
0.0
 10
8.1855695156
 20
21.9268046988
 30
0.0
  0
SPLINE
  5
4FA
100
AcDbEntity
  8
0
100
AcDbSpline
 62
7
  6
CONTINUOUS
 70
0
 71
3
 72
11
 73
7
 74
0
 42
0.0000001
 43
0.0000001
 44
0.0000000001
 40
0.0
 40
0.0
 40
0.0
 40
0.0
 40
0.2510262293
 40
0.5070822157
 40
0.7594859896
 40
1.0
 40
1.0
 40
1.0
 40
1.0
 10
8.2015703178
 20
22.3712783939
 30
0.0
 10
8.2014821562
 20
22.3669671008
 30
0.0
 10
8.2011381746
 20
22.3582608939
 30
0.0
 10
8.200176077
 20
22.3452473761
 30
0.0
 10
8.1987941779
 20
22.3324533474
 30
0.0
 10
8.1975869422
 20
22.3240699335
 30
0.0
 10
8.1969127797
 20
22.3199936939
 30
0.0
  0
SPLINE
  5
4FB
100
AcDbEntity
  8
0
100
AcDbSpline
 62
7
  6
CONTINUOUS
 70
0
 71
3
 72
9
 73
5
 74
0
 42
0.0000001
 43
0.0000001
 44
0.0000000001
 40
0.0
 40
0.0
 40
0.0
 40
0.0
 40
0.5325373741
 40
1.0
 40
1.0
 40
1.0
 40
1.0
 10
8.2016374949
 20
20.9198186454
 30
0.0
 10
8.2016374949
 20
20.9174611141
 30
0.0
 10
8.2015664369
 20
20.9130337398
 30
0.0
 10
8.2013136796
 20
20.9086118877
 30
0.0
 10
8.2011335163
 20
20.9065502982
 30
0.0
  0
SPLINE
  5
4FC
100
AcDbEntity
  8
0
100
AcDbSpline
 62
7
  6
CONTINUOUS
 70
0
 71
3
 72
17
 73
13
 74
0
 42
0.0000001
 43
0.0000001
 44
0.0000000001
 40
0.0
 40
0.0
 40
0.0
 40
0.0
 40
0.2070648518
 40
0.3899500005
 40
0.548120557
 40
0.6813001711
 40
0.7899262851
 40
0.8757017336
 40
0.9112251377
 40
0.9428700848
 40
0.9719089508
 40
1.0
 40
1.0
 40
1.0
 40
1.0
 10
8.2011335163
 20
20.9065502982
 30
0.0
 10
8.2010368478
 20
20.9054441299
 30
0.0
 10
8.2008203914
 20
20.9033636666
 30
0.0
 10
8.2003897816
 20
20.9004548901
 30
0.0
 10
8.1998776231
 20
20.8979623565
 30
0.0
 10
8.1992873173
 20
20.8958967953
 30
0.0
 10
8.1986229266
 20
20.8942670331
 30
0.0
 10
8.1979709469
 20
20.8932064355
 30
0.0
 10
8.1973971808
 20
20.8926155358
 30
0.0
 10
8.1969733263
 20
20.8923149988
 30
0.0
 10
8.196528458
 20
20.892132889
 30
0.0
 10
8.1962204938
 20
20.8920934817
 30
0.0
 10
8.1960698558
 20
20.8920936289
 30
0.0
  0
SPLINE
  5
4FD
100
AcDbEntity
  8
0
100
AcDbSpline
 62
7
  6
CONTINUOUS
 70
0
 71
3
 72
13
 73
9
 74
0
 42
0.0000001
 43
0.0000001
 44
0.0000000001
 40
0.0
 40
0.0
 40
0.0
 40
0.0
 40
0.2922613194
 40
0.5637532668
 40
0.687883327
 40
0.8026318554
 40
0.9069695918
 40
1.0
 40
1.0
 40
1.0
 40
1.0
 10
8.2016374949
 20
21.6230503814
 30
0.0
 10
8.2016374949
 20
21.6182234849
 30
0.0
 10
8.2014421727
 20
21.6089115305
 30
0.0
 10
8.2006856118
 20
21.597570508
 30
0.0
 10
8.1997630636
 20
21.5891908439
 30
0.0
 10
8.1989601326
 20
21.583578308
 30
0.0
 10
8.1980364086
 20
21.5785056249
 30
0.0
 10
8.197304825
 20
21.575327203
 30
0.0
 10
8.1969127797
 20
21.573841601
 30
0.0
  0
SPLINE
  5
4FE
100
AcDbEntity
  8
0
100
AcDbSpline
 62
7
  6
CONTINUOUS
 70
0
 71
3
 72
15
 73
11
 74
0
 42
0.0000001
 43
0.0000001
 44
0.0000000001
 40
0.0
 40
0.0
 40
0.0
 40
0.0
 40
0.193882933
 40
0.3668117547
 40
0.5186127367
 40
0.6494193416
 40
0.7600324978
 40
0.8524382133
 40
0.9303218175
 40
1.0
 40
1.0
 40
1.0
 40
1.0
 10
8.1969127797
 20
21.573841601
 30
0.0
 10
8.1966603658
 20
21.5728851134
 30
0.0
 10
8.1961453334
 20
21.5710849565
 30
0.0
 10
8.1952826643
 20
21.5685818692
 30
0.0
 10
8.1943786549
 20
21.5664382098
 30
0.0
 10
8.1934373847
 20
21.564662498
 30
0.0
 10
8.1924606879
 20
21.5632602531
 30
0.0
 10
8.191447531
 20
21.5622329662
 30
0.0
 10
8.1903876663
 20
21.5615867309
 30
0.0
 10
8.1896293153
 20
21.5614340996
 30
0.0
 10
8.1892738022
 20
21.5614344116
 30
0.0
  0
LINE
  5
4FF
100
AcDbEntity
  8
0
100
AcDbLine
 62
7
  6
CONTINUOUS
 10
8.2302976344
 20
22.1502815896
 11
8.2290134628
 21
22.1500878892
  0
SPLINE
  5
500
100
AcDbEntity
  8
0
100
AcDbSpline
 62
7
  6
CONTINUOUS
 70
0
 71
3
 72
12
 73
8
 74
0
 42
0.0000001
 43
0.0000001
 44
0.0000000001
 40
0.0
 40
0.0
 40
0.0
 40
0.0
 40
0.2663769331
 40
0.5352260219
 40
0.7861208484
 40
0.8987813454
 40
1.0
 40
1.0
 40
1.0
 40
1.0
 10
8.1966671508
 20
23.1300722465
 30
0.0
 10
8.195612908
 20
23.1234894792
 30
0.0
 10
8.1933387506
 20
23.1102874279
 30
0.0
 10
8.1895996887
 20
23.0909705389
 30
0.0
 10
8.1862734298
 20
23.0754949366
 30
0.0
 10
8.1835903297
 20
23.0641762877
 30
0.0
 10
8.1822710576
 20
23.0589882421
 30
0.0
 10
8.1816197684
 20
23.0565401833
 30
0.0
  0
SPLINE
  5
501
100
AcDbEntity
  8
0
100
AcDbSpline
 62
7
  6
CONTINUOUS
 70
0
 71
3
 72
14
 73
10
 74
0
 42
0.0000001
 43
0.0000001
 44
0.0000000001
 40
0.0
 40
0.0
 40
0.0
 40
0.0
 40
0.3491819851
 40
0.5008265106
 40
0.6360270401
 40
0.7540083341
 40
0.8542464552
 40
0.9363321635
 40
1.0
 40
1.0
 40
1.0
 40
1.0
 10
8.1816197684
 20
23.0565401833
 30
0.0
 10
8.1810406139
 20
23.054363264
 30
0.0
 10
8.1801801446
 20
23.0512484989
 30
0.0
 10
8.1789947118
 20
23.0473201639
 30
0.0
 10
8.1781926895
 20
23.0448345129
 30
0.0
 10
8.1774391931
 20
23.0426823865
 30
0.0
 10
8.1767395511
 20
23.0408751328
 30
0.0
 10
8.1760986379
 20
23.039422982
 30
0.0
 10
8.1756594938
 20
23.0385893052
 30
0.0
 10
8.1754421559
 20
23.0382407846
 30
0.0
  0
SPLINE
  5
502
100
AcDbEntity
  8
0
100
AcDbSpline
 62
7
  6
CONTINUOUS
 70
0
 71
3
 72
11
 73
7
 74
0
 42
0.0000001
 43
0.0000001
 44
0.0000000001
 40
0.0
 40
0.0
 40
0.0
 40
0.0
 40
0.3512603248
 40
0.6287922437
 40
0.8395401491
 40
1.0
 40
1.0
 40
1.0
 40
1.0
 10
8.1754421559
 20
23.0382407846
 30
0.0
 10
8.1753436865
 20
23.0380828801
 30
0.0
 10
8.1751576658
 20
23.0378058678
 30
0.0
 10
8.1748665828
 20
23.0374675023
 30
0.0
 10
8.1745963668
 20
23.0372506393
 30
0.0
 10
8.1744010566
 20
23.0371871448
 30
0.0
 10
8.1743160478
 20
23.0371870553
 30
0.0
  0
SPLINE
  5
503
100
AcDbEntity
  8
0
100
AcDbSpline
 62
7
  6
CONTINUOUS
 70
0
 71
3
 72
19
 73
15
 74
0
 42
0.0000001
 43
0.0000001
 44
0.0000000001
 40
0.0
 40
0.0
 40
0.0
 40
0.0
 40
0.2080846429
 40
0.3944751055
 40
0.557571581
 40
0.6959686895
 40
0.7556282045
 40
0.8088242778
 40
0.8555246199
 40
0.8957590614
 40
0.9296901307
 40
0.9577299592
 40
0.9806709297
 40
1.0
 40
1.0
 40
1.0
 40
1.0
 10
8.1855331134
 20
22.8751286705
 30
0.0
 10
8.1850981806
 20
22.8735831625
 30
0.0
 10
8.1842427301
 20
22.8706618141
 30
0.0
 10
8.1829242686
 20
22.8665660217
 30
0.0
 10
8.1816508072
 20
22.8630227435
 30
0.0
 10
8.1805917773
 20
22.8604434632
 30
0.0
 10
8.1797645871
 20
22.8586897154
 30
0.0
 10
8.1791936671
 20
22.8575985052
 30
0.0
 10
8.1786425107
 20
22.8566675658
 30
0.0
 10
8.1781121268
 20
22.8558992757
 30
0.0
 10
8.177603006
 20
22.8552948964
 30
0.0
 10
8.1771142177
 20
22.8548542447
 30
0.0
 10
8.1766424299
 20
22.8545762474
 30
0.0
 10
8.1763156313
 20
22.854503668
 30
0.0
 10
8.1761664923
 20
22.8545033739
 30
0.0
  0
SPLINE
  5
504
100
AcDbEntity
  8
0
100
AcDbSpline
 62
7
  6
CONTINUOUS
 70
0
 71
3
 72
16
 73
12
 74
0
 42
0.0000001
 43
0.0000001
 44
0.0000000001
 40
0.0
 40
0.0
 40
0.0
 40
0.0
 40
0.1965850164
 40
0.3727458049
 40
0.5278656315
 40
0.6615384348
 40
0.7738999385
 40
0.8658156015
 40
0.90477289
 40
0.9396354267
 40
1.0
 40
1.0
 40
1.0
 40
1.0
 10
8.2302839833
 20
22.8877451633
 30
0.0
 10
8.2298437393
 20
22.8866699027
 30
0.0
 10
8.2289769637
 20
22.8846439054
 30
0.0
 10
8.2276352063
 20
22.8818261278
 30
0.0
 10
8.2263290309
 20
22.8794067264
 30
0.0
 10
8.2250645799
 20
22.8773979664
 30
0.0
 10
8.2238480537
 20
22.8758099076
 30
0.0
 10
8.2228264658
 20
22.8747873755
 30
0.0
 10
8.222027573
 20
22.8742153815
 30
0.0
 10
8.2213272468
 20
22.8738422327
 30
0.0
 10
8.2207621134
 20
22.8737017575
 30
0.0
 10
8.2204053354
 20
22.8737023158
 30
0.0
  0
LINE
  5
505
100
AcDbEntity
  8
0
100
AcDbLine
 62
7
  6
CONTINUOUS
 10
8.2302839833
 20
23.1585368493
 11
8.2259992501
 21
23.1455423094
  0
SPLINE
  5
506
100
AcDbEntity
  8
0
100
AcDbSpline
 62
7
  6
CONTINUOUS
 70
0
 71
3
 72
17
 73
13
 74
0
 42
0.0000001
 43
0.0000001
 44
0.0000000001
 40
0.0
 40
0.0
 40
0.0
 40
0.0
 40
0.2064924691
 40
0.3905705865
 40
0.5513135618
 40
0.6879168299
 40
0.7999604808
 40
0.8468642557
 40
0.8878233028
 40
0.9230660949
 40
0.9530028954
 40
1.0
 40
1.0
 40
1.0
 40
1.0
 10
8.2257849982
 20
23.1449578041
 30
0.0
 10
8.2253713338
 20
23.1438359163
 30
0.0
 10
8.224565478
 20
23.1417223869
 30
0.0
 10
8.2233427794
 20
23.1387728243
 30
0.0
 10
8.2221809803
 20
23.1362376794
 30
0.0
 10
8.2210865639
 20
23.13413363
 30
0.0
 10
8.2201906992
 20
23.1326722353
 30
0.0
 10
8.2195009861
 20
23.1317414079
 30
0.0
 10
8.2190357121
 20
23.1312007496
 30
0.0
 10
8.2185891595
 20
23.130774807
 30
0.0
 10
8.2180670065
 20
23.1303920558
 30
0.0
 10
8.2176259944
 20
23.1302232511
 30
0.0
 10
8.2173538515
 20
23.1302233403
 30
0.0
  0
SPLINE
  5
507
100
AcDbEntity
  8
0
100
AcDbSpline
 62
7
  6
CONTINUOUS
 70
0
 71
3
 72
10
 73
6
 74
0
 42
0.0000001
 43
0.0000001
 44
0.0000000001
 40
0.0
 40
0.0
 40
0.0
 40
0.0
 40
0.549470844
 40
0.788966451
 40
1.0
 40
1.0
 40
1.0
 40
1.0
 10
8.2302839833
 20
23.3377677345
 30
0.0
 10
8.2288429955
 20
23.3320991196
 30
0.0
 10
8.2267122836
 20
23.3239748861
 30
0.0
 10
8.2238332727
 20
23.3137268072
 30
0.0
 10
8.2224703172
 20
23.3091285572
 30
0.0
 10
8.2218093419
 20
23.3069816325
 30
0.0
  0
SPLINE
  5
508
100
AcDbEntity
  8
0
100
AcDbSpline
 62
7
  6
CONTINUOUS
 70
0
 71
3
 72
10
 73
6
 74
0
 42
0.0000001
 43
0.0000001
 44
0.0000000001
 40
0.0
 40
0.0
 40
0.0
 40
0.0
 40
0.5672503839
 40
0.801074318
 40
1.0
 40
1.0
 40
1.0
 40
1.0
 10
8.22130346
 20
23.305355197
 30
0.0
 10
8.2207085671
 20
23.3034628959
 30
0.0
 10
8.2198412117
 20
23.3007986008
 30
0.0
 10
8.218660315
 20
23.2975069378
 30
0.0
 10
8.2181130381
 20
23.2960957613
 30
0.0
 10
8.2178485713
 20
23.2954523764
 30
0.0
  0
SPLINE
  5
509
100
AcDbEntity
  8
0
100
AcDbSpline
 62
7
  6
CONTINUOUS
 70
0
 71
3
 72
17
 73
13
 74
0
 42
0.0000001
 43
0.0000001
 44
0.0000000001
 40
0.0
 40
0.0
 40
0.0
 40
0.0
 40
0.0285539183
 40
0.0580101919
 40
0.0899913849
 40
0.125756485
 40
0.2117511345
 40
0.3203172002
 40
0.4532386921
 40
0.6110249219
 40
0.7934446258
 40
1.0
 40
1.0
 40
1.0
 40
1.0
 10
8.1960707514
 20
22.7378776221
 30
0.0
 10
8.1962182365
 20
22.7378777596
 30
0.0
 10
8.1965193778
 20
22.7378400793
 30
0.0
 10
8.196955012
 20
22.7376658111
 30
0.0
 10
8.1973706985
 20
22.7373780434
 30
0.0
 10
8.1979332728
 20
22.7368128634
 30
0.0
 10
8.1985748197
 20
22.7357971628
 30
0.0
 10
8.1992307335
 20
22.7342343805
 30
0.0
 10
8.1998160204
 20
22.7322534096
 30
0.0
 10
8.2003268511
 20
22.72986207
 30
0.0
 10
8.2007600932
 20
22.7270702174
 30
0.0
 10
8.2009807987
 20
22.7250726774
 30
0.0
 10
8.2010801974
 20
22.7240104289
 30
0.0
  0
LINE
  5
50A
100
AcDbEntity
  8
0
100
AcDbLine
 62
7
  6
CONTINUOUS
 10
8.2010801974
 20
22.7240104289
 11
8.201402411
 21
22.7195749664
  0
LINE
  5
50B
100
AcDbEntity
  8
0
100
AcDbLine
 62
7
  6
CONTINUOUS
 10
8.201402411
 20
22.7195749664
 11
8.2016374949
 21
22.7101524543
  0
SPLINE
  5
50C
100
AcDbEntity
  8
0
100
AcDbSpline
 62
7
  6
CONTINUOUS
 70
0
 71
3
 72
10
 73
6
 74
0
 42
0.0000001
 43
0.0000001
 44
0.0000000001
 40
0.0
 40
0.0
 40
0.0
 40
0.0
 40
0.199320171
 40
0.433261014
 40
1.0
 40
1.0
 40
1.0
 40
1.0
 10
8.2178374849
 20
20.334541261
 30
0.0
 10
8.218097783
 20
20.3339093852
 30
0.0
 10
8.2186366414
 20
20.3325247717
 30
0.0
 10
8.2197989738
 20
20.3292989938
 30
0.0
 10
8.2206522956
 20
20.3266890733
 30
0.0
 10
8.221236724
 20
20.3248359203
 30
0.0
  0
SPLINE
  5
50D
100
AcDbEntity
  8
0
100
AcDbSpline
 62
7
  6
CONTINUOUS
 70
0
 71
3
 72
10
 73
6
 74
0
 42
0.0000001
 43
0.0000001
 44
0.0000000001
 40
0.0
 40
0.0
 40
0.0
 40
0.0
 40
0.2109264449
 40
0.450388211
 40
1.0
 40
1.0
 40
1.0
 40
1.0
 10
8.221803133
 20
20.3230174744
 30
0.0
 10
8.2224644603
 20
20.3208690673
 30
0.0
 10
8.2238272521
 20
20.3162663992
 30
0.0
 10
8.226706882
 20
20.3060054081
 30
0.0
 10
8.2288420621
 20
20.2978708978
 30
0.0
 10
8.2302855459
 20
20.2921942164
 30
0.0
  0
SPLINE
  5
50E
100
AcDbEntity
  8
0
100
AcDbSpline
 62
7
  6
CONTINUOUS
 70
0
 71
3
 72
17
 73
13
 74
0
 42
0.0000001
 43
0.0000001
 44
0.0000000001
 40
0.0
 40
0.0
 40
0.0
 40
0.0
 40
0.0469623874
 40
0.0769058462
 40
0.1121621375
 40
0.1531371737
 40
0.2000566189
 40
0.3121235917
 40
0.4487270516
 40
0.609445205
 40
0.7935013275
 40
1.0
 40
1.0
 40
1.0
 40
1.0
 10
8.2173519156
 20
20.4997478253
 30
0.0
 10
8.2176248851
 20
20.499747843
 30
0.0
 10
8.2180672382
 20
20.4995779837
 30
0.0
 10
8.2185912238
 20
20.4991938065
 30
0.0
 10
8.2190396382
 20
20.4987661208
 30
0.0
 10
8.2195068974
 20
20.4982232724
 30
0.0
 10
8.2201994415
 20
20.497288691
 30
0.0
 10
8.2210985036
 20
20.4958213613
 30
0.0
 10
8.2221954722
 20
20.4937085262
 30
0.0
 10
8.2233591992
 20
20.4911629722
 30
0.0
 10
8.2245837458
 20
20.4882013745
 30
0.0
 10
8.2253910624
 20
20.4860793596
 30
0.0
 10
8.2258056369
 20
20.4849529533
 30
0.0
  0
LINE
  5
50F
100
AcDbEntity
  8
0
100
AcDbLine
 62
7
  6
CONTINUOUS
 10
8.225975291
 20
20.4844898665
 11
8.2302855459
 21
20.471426535
  0
SPLINE
  5
510
100
AcDbEntity
  8
0
100
AcDbSpline
 62
7
  6
CONTINUOUS
 70
0
 71
3
 72
16
 73
12
 74
0
 42
0.0000001
 43
0.0000001
 44
0.0000000001
 40
0.0
 40
0.0
 40
0.0
 40
0.0
 40
0.060427873
 40
0.0952921858
 40
0.1342357362
 40
0.2261015607
 40
0.3384184912
 40
0.4720844007
 40
0.6272229766
 40
0.8034048184
 40
1.0
 40
1.0
 40
1.0
 40
1.0
 10
8.2204073075
 20
20.7562688301
 30
0.0
 10
8.2207638536
 20
20.7562694163
 30
0.0
 10
8.2213284676
 20
20.7561293774
 30
0.0
 10
8.2220279826
 20
20.7557568899
 30
0.0
 10
8.2228252875
 20
20.7551861656
 30
0.0
 10
8.2238445705
 20
20.7541656738
 30
0.0
 10
8.2250583593
 20
20.7525805603
 30
0.0
 10
8.2263205456
 20
20.750575383
 30
0.0
 10
8.2276253988
 20
20.7481603647
 30
0.0
 10
8.2289662723
 20
20.7453477058
 30
0.0
 10
8.2298325512
 20
20.7433253609
 30
0.0
 10
8.230272492
 20
20.7422520417
 30
0.0
  0
SPLINE
  5
511
100
AcDbEntity
  8
0
100
AcDbSpline
 62
7
  6
CONTINUOUS
 70
0
 71
3
 72
13
 73
9
 74
0
 42
0.0000001
 43
0.0000001
 44
0.0000000001
 40
0.0
 40
0.0
 40
0.0
 40
0.0
 40
0.0912119757
 40
0.1879427499
 40
0.2930671552
 40
0.4087181777
 40
0.6768720758
 40
1.0
 40
1.0
 40
1.0
 40
1.0
 10
8.2243793001
 20
21.0905752458
 30
0.0
 10
8.224611922
 20
21.0905753842
 30
0.0
 10
8.22509239
 20
21.0905248146
 30
0.0
 10
8.225810826
 20
21.0903056715
 30
0.0
 10
8.2265392718
 20
21.0899450811
 30
0.0
 10
8.2275743042
 20
21.0892443068
 30
0.0
 10
8.2288825978
 20
21.0879872592
 30
0.0
 10
8.2298105313
 20
21.0867944223
 30
0.0
 10
8.2302855459
 20
21.0861210123
 30
0.0
  0
SPLINE
  5
512
100
AcDbEntity
  8
0
100
AcDbSpline
 62
7
  6
CONTINUOUS
 70
0
 71
3
 72
19
 73
15
 74
0
 42
0.0000001
 43
0.0000001
 44
0.0000000001
 40
0.0
 40
0.0
 40
0.0
 40
0.0
 40
0.0195786486
 40
0.0427113387
 40
0.07087736
 40
0.1048779761
 40
0.1451302021
 40
0.1918007032
 40
0.2449327114
 40
0.3045064575
 40
0.4427131469
 40
0.6056399135
 40
0.7919175781
 40
1.0
 40
1.0
 40
1.0
 40
1.0
 10
8.176167138
 20
20.7754677784
 30
0.0
 10
8.1763133438
 20
20.7754675482
 30
0.0
 10
8.1766330202
 20
20.7753982037
 30
0.0
 10
8.1770955517
 20
20.7751308638
 30
0.0
 10
8.1775743273
 20
20.774706373
 30
0.0
 10
8.1780724846
 20
20.7741238998
 30
0.0
 10
8.1785910055
 20
20.7733833914
 30
0.0
 10
8.1791296038
 20
20.7724861271
 30
0.0
 10
8.1796873295
 20
20.7714342452
 30
0.0
 10
8.1804953716
 20
20.7697432522
 30
0.0
 10
8.181530263
 20
20.7672546087
 30
0.0
 10
8.1827757257
 20
20.763833737
 30
0.0
 10
8.1840662791
 20
20.759876608
 30
0.0
 10
8.1849039775
 20
20.7570529924
 30
0.0
 10
8.1853300307
 20
20.7555586613
 30
0.0
  0
SPLINE
  5
513
100
AcDbEntity
  8
0
100
AcDbSpline
 62
7
  6
CONTINUOUS
 70
0
 71
3
 72
11
 73
7
 74
0
 42
0.0000001
 43
0.0000001
 44
0.0000000001
 40
0.0
 40
0.0
 40
0.0
 40
0.0
 40
0.2405312915
 40
0.493471978
 40
0.749824464
 40
1.0
 40
1.0
 40
1.0
 40
1.0
 10
8.1968344514
 20
21.3104552582
 30
0.0
 10
8.1975441318
 20
21.3062084907
 30
0.0
 10
8.1988080601
 20
21.2974631305
 30
0.0
 10
8.2002371476
 20
21.2841144287
 30
0.0
 10
8.2012088556
 20
21.2705515488
 30
0.0
 10
8.2015317894
 20
21.2614875796
 30
0.0
 10
8.2016004661
 20
21.2570098116
 30
0.0
  0
LINE
  5
514
100
AcDbEntity
  8
0
100
AcDbLine
 62
7
  6
CONTINUOUS
 10
8.229012282
 20
21.479882897
 11
8.2302976106
 21
21.4796891603
  0
SPLINE
  5
515
100
AcDbEntity
  8
0
100
AcDbSpline
 62
7
  6
CONTINUOUS
 70
0
 71
3
 72
15
 73
11
 74
0
 42
0.0000001
 43
0.0000001
 44
0.0000000001
 40
0.0
 40
0.0
 40
0.0
 40
0.0
 40
0.0702028497
 40
0.1484769385
 40
0.2410828765
 40
0.3517226496
 40
0.4824096392
 40
0.6339587175
 40
0.8065358236
 40
1.0
 40
1.0
 40
1.0
 40
1.0
 10
8.1892739233
 20
22.068536918
 30
0.0
 10
8.1896249
 20
22.0685370564
 30
0.0
 10
8.190372409
 20
22.0683881805
 30
0.0
 10
8.1914194204
 20
22.0677586101
 30
0.0
 10
8.1924212653
 20
22.0667566048
 30
0.0
 10
8.1933875892
 20
22.0653884297
 30
0.0
 10
8.194319609
 20
22.0636555776
 30
0.0
 10
8.1952157408
 20
22.0615633814
 30
0.0
 10
8.1960718086
 20
22.0591198318
 30
0.0
 10
8.1965835313
 20
22.0573619607
 30
0.0
 10
8.1968344514
 20
22.0564278573
 30
0.0
  0
SPLINE
  5
516
100
AcDbEntity
  8
0
100
AcDbSpline
 62
7
  6
CONTINUOUS
 70
0
 71
3
 72
13
 73
9
 74
0
 42
0.0000001
 43
0.0000001
 44
0.0000000001
 40
0.0
 40
0.0
 40
0.0
 40
0.0
 40
0.0924907214
 40
0.1964714635
 40
0.3110432031
 40
0.4351635588
 40
0.7070258308
 40
1.0
 40
1.0
 40
1.0
 40
1.0
 10
8.1968344514
 20
22.0564278573
 30
0.0
 10
8.1972332016
 20
22.0549434249
 30
0.0
 10
8.197976813
 20
22.051762149
 30
0.0
 10
8.1989148218
 20
22.0466775487
 30
0.0
 10
8.1997306419
 20
22.0410402992
 30
0.0
 10
8.2006692404
 20
22.0326065132
 30
0.0
 10
8.2014390596
 20
22.0211774519
 30
0.0
 10
8.2016374949
 20
22.0117895064
 30
0.0
 10
8.2016374949
 20
22.0069207183
 30
0.0
  0
SPLINE
  5
517
100
AcDbEntity
  8
0
100
AcDbSpline
 62
7
  6
CONTINUOUS
 70
0
 71
3
 72
16
 73
12
 74
0
 42
0.0000001
 43
0.0000001
 44
0.0000000001
 40
0.0
 40
0.0
 40
0.0
 40
0.0
 40
0.0326569394
 40
0.066163428
 40
0.1402944359
 40
0.2300833135
 40
0.3396034374
 40
0.4709433553
 40
0.6248511139
 40
0.8013116568
 40
1.0
 40
1.0
 40
1.0
 40
1.0
 10
8.1928569859
 20
22.4214574876
 30
0.0
 10
8.1930240355
 20
22.4214576327
 30
0.0
 10
8.1933635915
 20
22.4214224095
 30
0.0
 10
8.1940509093
 20
22.4212004002
 30
0.0
 10
8.1948972316
 20
22.420613046
 30
0.0
 10
8.19580198
 20
22.4195344229
 30
0.0
 10
8.1966528668
 20
22.4180658368
 30
0.0
 10
8.1974481927
 20
22.4162061039
 30
0.0
 10
8.1981875182
 20
22.4139607889
 30
0.0
 10
8.1988666558
 20
22.4113396718
 30
0.0
 10
8.199253526
 20
22.4094592961
 30
0.0
 10
8.1994389073
 20
22.4084599976
 30
0.0
  0
SPLINE
  5
518
100
AcDbEntity
  8
0
100
AcDbSpline
 62
7
  6
CONTINUOUS
 70
0
 71
3
 72
11
 73
7
 74
0
 42
0.0000001
 43
0.0000001
 44
0.0000000001
 40
0.0
 40
0.0
 40
0.0
 40
0.0
 40
0.2060584878
 40
0.4443702875
 40
0.7109991533
 40
1.0
 40
1.0
 40
1.0
 40
1.0
 10
8.1994389073
 20
22.4084599976
 30
0.0
 10
8.1998255791
 20
22.4063756418
 30
0.0
 10
8.20048107
 20
22.4018474661
 30
0.0
 10
8.2011480786
 20
22.3945610507
 30
0.0
 10
8.2015516407
 20
22.3864009825
 30
0.0
 10
8.2016374949
 20
22.3806842156
 30
0.0
 10
8.2016374949
 20
22.3777109907
 30
0.0
  0
SPLINE
  5
519
100
AcDbEntity
  8
0
100
AcDbSpline
 62
7
  6
CONTINUOUS
 70
0
 71
3
 72
16
 73
12
 74
0
 42
0.0000001
 43
0.0000001
 44
0.0000000001
 40
0.0
 40
0.0
 40
0.0
 40
0.0
 40
0.0712879299
 40
0.1510950684
 40
0.2450439208
 40
0.356491637
 40
0.4194187166
 40
0.4872924189
 40
0.6380632425
 40
0.8090065185
 40
1.0
 40
1.0
 40
1.0
 40
1.0
 10
8.1855693486
 20
21.7031663434
 30
0.0
 10
8.1859096131
 20
21.7031661693
 30
0.0
 10
8.1866347825
 20
21.7030268617
 30
0.0
 10
8.1876668687
 20
21.7024479163
 30
0.0
 10
8.188677724
 20
21.7015238934
 30
0.0
 10
8.1894735282
 20
21.7005151925
 30
0.0
 10
8.1901106965
 20
21.6995499505
 30
0.0
 10
8.1907929797
 20
21.6983913959
 30
0.0
 10
8.1916274447
 20
21.6967273057
 30
0.0
 10
8.1925777508
 20
21.6944708077
 30
0.0
 10
8.1931632275
 20
21.6928446334
 30
0.0
 10
8.1934542348
 20
21.6919806968
 30
0.0
  0
SPLINE
  5
51A
100
AcDbEntity
  8
0
100
AcDbSpline
 62
7
  6
CONTINUOUS
 70
0
 71
3
 72
15
 73
11
 74
0
 42
0.0000001
 43
0.0000001
 44
0.0000000001
 40
0.0
 40
0.0
 40
0.0
 40
0.0
 40
0.0889351465
 40
0.1919440276
 40
0.3075833626
 40
0.4339187173
 40
0.5688044037
 40
0.7098817849
 40
0.8546329936
 40
1.0
 40
1.0
 40
1.0
 40
1.0
 10
8.1934542348
 20
21.6919806968
 30
0.0
 10
8.1940916442
 20
21.6900883688
 30
0.0
 10
8.1952868084
 20
21.6859433195
 30
0.0
 10
8.1968114709
 20
21.679205244
 30
0.0
 10
8.1981702455
 20
21.6715772627
 30
0.0
 10
8.1993394551
 20
21.6631953832
 30
0.0
 10
8.2002918943
 20
21.654211745
 30
0.0
 10
8.2010093721
 20
21.6447917266
 30
0.0
 10
8.2014728642
 20
21.6351203397
 30
0.0
 10
8.2016079293
 20
21.6286069569
 30
0.0
 10
8.2016297893
 20
21.6253432099
 30
0.0
  0
SPLINE
  5
51B
100
AcDbEntity
  8
0
100
AcDbSpline
 62
7
  6
CONTINUOUS
 70
0
 71
3
 72
10
 73
6
 74
0
 42
0.0000001
 43
0.0000001
 44
0.0000000001
 40
0.0
 40
0.0
 40
0.0
 40
0.0
 40
0.3703751084
 40
0.6488329567
 40
1.0
 40
1.0
 40
1.0
 40
1.0
 10
8.1743159013
 20
20.5927841857
 30
0.0
 10
8.1745017556
 20
20.5927840045
 30
0.0
 10
8.1748018687
 20
20.5925758419
 30
0.0
 10
8.1751258022
 20
20.5922050785
 30
0.0
 10
8.1753074058
 20
20.5919426438
 30
0.0
 10
8.175402196
 20
20.5917940947
 30
0.0
  0
SPLINE
  5
51C
100
AcDbEntity
  8
0
100
AcDbSpline
 62
7
  6
CONTINUOUS
 70
0
 71
3
 72
14
 73
10
 74
0
 42
0.0000001
 43
0.0000001
 44
0.0000000001
 40
0.0
 40
0.0
 40
0.0
 40
0.0
 40
0.0634260481
 40
0.1452666442
 40
0.2452979598
 40
0.3631449447
 40
0.4983109725
 40
0.6500549907
 40
1.0
 40
1.0
 40
1.0
 40
1.0
 10
8.175402196
 20
20.5917940947
 30
0.0
 10
8.1756135228
 20
20.5914629165
 30
0.0
 10
8.176040389
 20
20.5906685637
 30
0.0
 10
8.1766627434
 20
20.5892821124
 30
0.0
 10
8.1773418026
 20
20.5875536347
 30
0.0
 10
8.1780728606
 20
20.5854924551
 30
0.0
 10
8.1788508624
 20
20.5831089392
 30
0.0
 10
8.1800017331
 20
20.5793357291
 30
0.0
 10
8.1808370074
 20
20.5763421334
 30
0.0
 10
8.1813996322
 20
20.5742488785
 30
0.0
  0
SPLINE
  5
51D
100
AcDbEntity
  8
0
100
AcDbSpline
 62
7
  6
CONTINUOUS
 70
0
 71
3
 72
13
 73
9
 74
0
 42
0.0000001
 43
0.0000001
 44
0.0000000001
 40
0.0
 40
0.0
 40
0.0
 40
0.0
 40
0.1001696177
 40
0.2122111016
 40
0.3339298026
 40
0.4629149487
 40
0.7325585074
 40
1.0
 40
1.0
 40
1.0
 40
1.0
 10
8.1813996322
 20
20.5742488785
 30
0.0
 10
8.1820575287
 20
20.5718011637
 30
0.0
 10
8.1833917444
 20
20.5665995841
 30
0.0
 10
8.1853539792
 20
20.5583808797
 30
0.0
 10
8.1873573317
 20
20.5494233553
 30
0.0
 10
8.1900745835
 20
20.5365402134
 30
0.0
 10
8.1932826491
 20
20.5199935186
 30
0.0
 10
8.1955946108
 20
20.5066004928
 30
0.0
 10
8.196665076
 20
20.4999186348
 30
0.0
  0
SPLINE
  5
51E
100
AcDbEntity
  8
0
100
AcDbSpline
 62
9
  6
CONTINUOUS
 70
0
 71
3
 72
28
 73
24
 74
0
 42
0.0000001
 43
0.0000001
 44
0.0000000001
 40
0.0
 40
0.0
 40
0.0
 40
0.0
 40
0.082710931
 40
0.1522129248
 40
0.2084095741
 40
0.2513757707
 40
0.2680754825
 40
0.2818147967
 40
0.2929533986
 40
0.3021578984
 40
0.3105647753
 40
0.3196130273
 40
0.3304874555
 40
0.3438952788
 40
0.3602179836
 40
0.3796681895
 40
0.4283930731
 40
0.4906588892
 40
0.5667321675
 40
0.6565106058
 40
0.759236892
 40
0.8740327686
 40
1.0
 40
1.0
 40
1.0
 40
1.0
 10
8.0676892776
 20
20.9931697502
 30
0.0
 10
8.067853075
 20
20.9926000378
 30
0.0
 10
8.0681688545
 20
20.9915556381
 30
0.0
 10
8.0686579972
 20
20.9901435277
 30
0.0
 10
8.0691197345
 20
20.9890259045
 30
0.0
 10
8.0695046515
 20
20.9882868691
 30
0.0
 10
8.0698094853
 20
20.9878569548
 30
0.0
 10
8.0700119855
 20
20.9876367925
 30
0.0
 10
8.0702095957
 20
20.9874897682
 30
0.0
 10
8.0704076523
 20
20.9874180518
 30
0.0
 10
8.0706044267
 20
20.9874334755
 30
0.0
 10
8.0707854976
 20
20.9875356874
 30
0.0
 10
8.0709498461
 20
20.9877121012
 30
0.0
 10
8.0711034602
 20
20.9879606756
 30
0.0
 10
8.0712482144
 20
20.9882828008
 30
0.0
 10
8.0714448379
 20
20.9888562165
 30
0.0
 10
8.0716555872
 20
20.9897690359
 30
0.0
 10
8.0718604926
 20
20.9910944553
 30
0.0
 10
8.0720282838
 20
20.9927213408
 30
0.0
 10
8.0721579218
 20
20.9946421125
 30
0.0
 10
8.0722507461
 20
20.9968427723
 30
0.0
 10
8.0723073508
 20
20.9993040286
 30
0.0
 10
8.0723209693
 20
21.0010295931
 30
0.0
 10
8.0723227571
 20
21.001932402
 30
0.0
  0
SPLINE
  5
51F
100
AcDbEntity
  8
0
100
AcDbSpline
 62
9
  6
CONTINUOUS
 70
0
 71
3
 72
35
 73
31
 74
0
 42
0.0000001
 43
0.0000001
 44
0.0000000001
 40
0.0
 40
0.0
 40
0.0
 40
0.0
 40
0.0140490241
 40
0.0319283338
 40
0.0535006409
 40
0.0785903244
 40
0.1384712657
 40
0.2096015243
 40
0.2896566419
 40
0.3760568484
 40
0.46605024
 40
0.5567781054
 40
0.64537609
 40
0.7290360986
 40
0.7681842821
 40
0.8051171887
 40
0.8395481894
 40
0.8712042538
 40
0.8998276668
 40
0.925193825
 40
0.9470903465
 40
0.9653448453
 40
0.9798073552
 40
0.9855835801
 40
0.9903775935
 40
0.9941851552
 40
0.9970150119
 40
0.9980734901
 40
0.9989064919
 40
1.0
 40
1.0
 40
1.0
 40
1.0
 10
8.0606259793
 20
22.7558535261
 30
0.0
 10
8.0606259827
 20
22.7551935234
 30
0.0
 10
8.0605861963
 20
22.7536936719
 30
0.0
 10
8.0604534792
 20
22.7511836984
 30
0.0
 10
8.0602387479
 20
22.7481591079
 30
0.0
 10
8.0598192774
 20
22.743171396
 30
0.0
 10
8.0590923145
 20
22.7358737385
 30
0.0
 10
8.0579849682
 20
22.7260200273
 30
0.0
 10
8.0566300528
 20
22.7149409856
 30
0.0
 10
8.0550712947
 20
22.7029945521
 30
0.0
 10
8.0533580763
 20
22.6905629671
 30
0.0
 10
8.0515450409
 20
22.6780412158
 30
0.0
 10
8.0496899013
 20
22.6658264969
 30
0.0
 10
8.0481250648
 20
22.6560188728
 30
0.0
 10
8.0468932451
 20
22.6486162334
 30
0.0
 10
8.0460158575
 20
22.6434991875
 30
0.0
 10
8.0451714864
 20
22.6387336565
 30
0.0
 10
8.0443669283
 20
22.6343576063
 30
0.0
 10
8.0436085858
 20
22.6304061578
 30
0.0
 10
8.0429029717
 20
22.626911605
 30
0.0
 10
8.0422560987
 20
22.6239023136
 30
0.0
 10
8.0416736159
 20
22.6214035318
 30
0.0
 10
8.0412195486
 20
22.6196526805
 30
0.0
 10
8.0408847332
 20
22.6185251849
 30
0.0
 10
8.0406724939
 20
22.6178838516
 30
0.0
 10
8.040479521
 20
22.6173821789
 30
0.0
 10
8.0403262806
 20
22.6170546861
 30
0.0
 10
8.0402070049
 20
22.6168656499
 30
0.0
 10
8.0401209499
 20
22.6167585297
 30
0.0
 10
8.0400383758
 20
22.616697663
 30
0.0
 10
8.0399870043
 20
22.6166976896
 30
0.0
  0
SPLINE
  5
520
100
AcDbEntity
  8
0
100
AcDbSpline
 62
9
  6
CONTINUOUS
 70
0
 71
3
 72
13
 73
9
 74
0
 42
0.0000001
 43
0.0000001
 44
0.0000000001
 40
0.0
 40
0.0
 40
0.0
 40
0.0
 40
0.2766797439
 40
0.5224089718
 40
0.6325573938
 40
0.7470985641
 40
0.8700521967
 40
1.0
 40
1.0
 40
1.0
 40
1.0
 10
8.0606259793
 20
22.755853526
 30
0.0
 10
8.06215575
 20
22.7558528264
 30
0.0
 10
8.065074703
 20
22.7564045805
 30
0.0
 10
8.0681177319
 20
22.758269392
 30
0.0
 10
8.0699323152
 20
22.7601456549
 30
0.0
 10
8.0710320435
 20
22.7617335168
 30
0.0
 10
8.0718857182
 20
22.7635888375
 30
0.0
 10
8.0722216129
 20
22.7649572482
 30
0.0
 10
8.0723240416
 20
22.765668395
 30
0.0
  0
SPLINE
  5
521
100
AcDbEntity
  8
0
100
AcDbSpline
 62
9
  6
CONTINUOUS
 70
0
 71
3
 72
25
 73
21
 74
0
 42
0.0000001
 43
0.0000001
 44
0.0000000001
 40
0.0
 40
0.0
 40
0.0
 40
0.0
 40
0.1135568644
 40
0.2130969495
 40
0.2985062616
 40
0.3696872823
 40
0.4692514218
 40
0.498363027
 40
0.5161056709
 40
0.5234967617
 40
0.5321915418
 40
0.5434332027
 40
0.5577880496
 40
0.5755008035
 40
0.5966793321
 40
0.6495707841
 40
0.7165300068
 40
0.7974091702
 40
0.8919853043
 40
1.0
 40
1.0
 40
1.0
 40
1.0
 10
8.0708118393
 20
22.7656163338
 30
0.0
 10
8.0708695942
 20
22.7658527838
 30
0.0
 10
8.0709809935
 20
22.7662958215
 30
0.0
 10
8.0711485867
 20
22.766913174
 30
0.0
 10
8.0713051267
 20
22.767439987
 30
0.0
 10
8.0714801386
 20
22.7679587682
 30
0.0
 10
8.0716412629
 20
22.7683628003
 30
0.0
 10
8.0718114249
 20
22.7686217758
 30
0.0
 10
8.0719171012
 20
22.7686962036
 30
0.0
 10
8.071991562
 20
22.7686784496
 30
0.0
 10
8.0720359127
 20
22.7686379822
 30
0.0
 10
8.0720753016
 20
22.7685754903
 30
0.0
 10
8.0721114942
 20
22.7684896889
 30
0.0
 10
8.0721448438
 20
22.7683804233
 30
0.0
 10
8.0721888206
 20
22.7681885473
 30
0.0
 10
8.0722331228
 20
22.7678891661
 30
0.0
 10
8.0722726827
 20
22.7674606552
 30
0.0
 10
8.0723010972
 20
22.7669417316
 30
0.0
 10
8.0723184485
 20
22.7663343396
 30
0.0
 10
8.0723223352
 20
22.7659000908
 30
0.0
 10
8.0723227571
 20
22.7656685691
 30
0.0
  0
LINE
  5
522
100
AcDbEntity
  8
0
100
AcDbLine
 62
9
  6
CONTINUOUS
 10
8.0606261079
 20
22.7910297988
 11
8.056142158
 21
22.7593227598
  0
LINE
  5
523
100
AcDbEntity
  8
0
100
AcDbLine
 62
9
  6
CONTINUOUS
 10
8.056142158
 20
22.7593227598
 11
8.0560505077
 21
22.7586943258
  0
SPLINE
  5
524
100
AcDbEntity
  8
0
100
AcDbSpline
 62
9
  6
CONTINUOUS
 70
0
 71
3
 72
31
 73
27
 74
0
 42
0.0000001
 43
0.0000001
 44
0.0000000001
 40
0.0
 40
0.0
 40
0.0
 40
0.0
 40
0.0799920192
 40
0.1459758074
 40
0.1737146095
 40
0.1979584257
 40
0.2187241579
 40
0.2360457967
 40
0.2499911553
 40
0.2607036617
 40
0.268522753
 40
0.2743437559
 40
0.2800905809
 40
0.2877339046
 40
0.2982181128
 40
0.3119065142
 40
0.3289544914
 40
0.3494375213
 40
0.3733955663
 40
0.4008507428
 40
0.4662916639
 40
0.5457400759
 40
0.6390322915
 40
0.7459761298
 40
0.8663684945
 40
1.0
 40
1.0
 40
1.0
 40
1.0
 10
8.0513369588
 20
22.606590127
 30
0.0
 10
8.0513369533
 20
22.6062914647
 30
0.0
 10
8.051342143
 20
22.6057464213
 30
0.0
 10
8.0513668019
 20
22.605098133
 30
0.0
 10
8.0513988922
 20
22.6046588103
 30
0.0
 10
8.0514265408
 20
22.6043885584
 30
0.0
 10
8.0514590328
 20
22.6041580303
 30
0.0
 10
8.0514963604
 20
22.6039672726
 30
0.0
 10
8.0515381321
 20
22.6038159197
 30
0.0
 10
8.0515850002
 20
22.6037036567
 30
0.0
 10
8.0516365051
 20
22.6036273798
 30
0.0
 10
8.0517037019
 20
22.6035889915
 30
0.0
 10
8.0517784744
 20
22.6036066208
 30
0.0
 10
8.0518468608
 20
22.6036658834
 30
0.0
 10
8.0519190305
 20
22.603760671
 30
0.0
 10
8.0519956612
 20
22.6038945046
 30
0.0
 10
8.0520774413
 20
22.6040674785
 30
0.0
 10
8.0521641257
 20
22.6042801609
 30
0.0
 10
8.0522556986
 20
22.6045325427
 30
0.0
 10
8.0523923095
 20
22.6049469482
 30
0.0
 10
8.0525719694
 20
22.6055650127
 30
0.0
 10
8.0527955722
 20
22.6064257959
 30
0.0
 10
8.0530371915
 20
22.6074417647
 30
0.0
 10
8.0532962171
 20
22.6086105548
 30
0.0
 10
8.0535719909
 20
22.6099297924
 30
0.0
 10
8.0537570721
 20
22.6108600092
 30
0.0
 10
8.0538525713
 20
22.6113497178
 30
0.0
  0
SPLINE
  5
525
100
AcDbEntity
  8
0
100
AcDbSpline
 62
9
  6
CONTINUOUS
 70
0
 71
3
 72
19
 73
15
 74
0
 42
0.0000001
 43
0.0000001
 44
0.0000000001
 40
0.0
 40
0.0
 40
0.0
 40
0.0
 40
0.0376366942
 40
0.0840082299
 40
0.1382446346
 40
0.1993284076
 40
0.3374187944
 40
0.4881983121
 40
0.6406918873
 40
0.7837078153
 40
0.8482903173
 40
0.9065919592
 40
0.9574737691
 40
1.0
 40
1.0
 40
1.0
 40
1.0
 10
8.0538525713
 20
22.6113497178
 30
0.0
 10
8.0542072283
 20
22.6131683556
 30
0.0
 10
8.0549452045
 20
22.6172381208
 30
0.0
 10
8.0560644209
 20
22.6239515025
 30
0.0
 10
8.0572928058
 20
22.6318165418
 30
0.0
 10
8.0591211514
 20
22.6441576134
 30
0.0
 10
8.0614791581
 20
22.6612245077
 30
0.0
 10
8.0642471459
 20
22.6827765719
 30
0.0
 10
8.0668527751
 20
22.7045931037
 30
0.0
 10
8.0687923785
 20
22.7222147785
 30
0.0
 10
8.0701073883
 20
22.735239197
 30
0.0
 10
8.0709068269
 20
22.7437565527
 30
0.0
 10
8.0715384873
 20
22.7511987238
 30
0.0
 10
8.0718730914
 20
22.7557853347
 30
0.0
 10
8.0720044386
 20
22.7578748242
 30
0.0
  0
LINE
  5
526
100
AcDbEntity
  8
0
100
AcDbLine
 62
9
  6
CONTINUOUS
 10
8.0720044386
 20
22.7578748242
 11
8.0723227571
 21
22.7656685691
  0
SPLINE
  5
527
100
AcDbEntity
  8
0
100
AcDbSpline
 62
9
  6
CONTINUOUS
 70
0
 71
3
 72
22
 73
18
 74
0
 42
0.0000001
 43
0.0000001
 44
0.0000000001
 40
0.0
 40
0.0
 40
0.0
 40
0.0
 40
0.0080931253
 40
0.016545162
 40
0.0258027889
 40
0.0362079955
 40
0.0612924385
 40
0.092948074
 40
0.1316519799
 40
0.1775638502
 40
0.2306845725
 40
0.2909335117
 40
0.3581367232
 40
0.4320815304
 40
0.5990931497
 40
0.7894223097
 40
1.0
 40
1.0
 40
1.0
 40
1.0
 10
8.0554483295
 20
22.3454338546
 30
0.0
 10
8.0555458602
 20
22.3454335331
 30
0.0
 10
8.0557460746
 20
22.3454070048
 30
0.0
 10
8.0560369358
 20
22.3452894967
 30
0.0
 10
8.0563183458
 20
22.3450969478
 30
0.0
 10
8.0567055066
 20
22.344718637
 30
0.0
 10
8.0571589983
 20
22.3440399379
 30
0.0
 10
8.057642273
 20
22.3429939827
 30
0.0
 10
8.0580959737
 20
22.3416661543
 30
0.0
 10
8.0585183078
 20
22.3400599682
 30
0.0
 10
8.0589073193
 20
22.3381795455
 30
0.0
 10
8.059260565
 20
22.3360318358
 30
0.0
 10
8.0595766135
 20
22.3336250869
 30
0.0
 10
8.0599615088
 20
22.3299310657
 30
0.0
 10
8.0603223556
 20
22.3247446432
 30
0.0
 10
8.060574778
 20
22.3179044349
 30
0.0
 10
8.0606259929
 20
22.3130727565
 30
0.0
 10
8.0606259882
 20
22.3105350579
 30
0.0
  0
SPLINE
  5
528
100
AcDbEntity
  8
0
100
AcDbSpline
 62
9
  6
CONTINUOUS
 70
0
 71
3
 72
11
 73
7
 74
0
 42
0.0000001
 43
0.0000001
 44
0.0000000001
 40
0.0
 40
0.0
 40
0.0
 40
0.0
 40
0.4473224683
 40
0.6736376392
 40
0.7486541218
 40
1.0
 40
1.0
 40
1.0
 40
1.0
 10
8.0723227571
 20
22.8012113787
 30
0.0
 10
8.0723227252
 20
22.8012169949
 30
0.0
 10
8.0723212398
 20
22.8012236498
 30
0.0
 10
8.0723229762
 20
22.8012370479
 30
0.0
 10
8.0723145928
 20
22.8012365452
 30
0.0
 10
8.0723146609
 20
22.8012307734
 30
0.0
 10
8.0723136313
 20
22.8012277904
 30
0.0
  0
LINE
  5
529
100
AcDbEntity
  8
0
100
AcDbLine
 62
9
  6
CONTINUOUS
 10
8.0723136313
 20
22.8012277904
 11
8.0720145382
 21
22.7993105494
  0
LINE
  5
52A
100
AcDbEntity
  8
0
100
AcDbLine
 62
9
  6
CONTINUOUS
 10
8.0674589465
 20
22.7611848049
 11
8.0675209066
 21
22.7616798005
  0
LINE
  5
52B
100
AcDbEntity
  8
0
100
AcDbLine
 62
9
  6
CONTINUOUS
 10
8.0675209066
 20
22.7616798005
 11
8.0679953401
 21
22.7654742953
  0
LINE
  5
52C
100
AcDbEntity
  8
0
100
AcDbLine
 62
9
  6
CONTINUOUS
 10
8.0710022541
 20
22.7897944301
 11
8.0719816429
 21
22.7979860254
  0
LINE
  5
52D
100
AcDbEntity
  8
0
100
AcDbLine
 62
9
  6
CONTINUOUS
 10
8.0719816429
 20
22.7979860254
 11
8.0723227571
 21
22.8012113787
  0
SPLINE
  5
52E
100
AcDbEntity
  8
0
100
AcDbSpline
 62
9
  6
CONTINUOUS
 70
0
 71
3
 72
24
 73
20
 74
0
 42
0.0000001
 43
0.0000001
 44
0.0000000001
 40
0.0
 40
0.0
 40
0.0
 40
0.0
 40
0.0076947247
 40
0.0158804338
 40
0.0250444894
 40
0.0355337597
 40
0.0475669447
 40
0.061279184
 40
0.0940234344
 40
0.1341240596
 40
0.1816705381
 40
0.2365771491
 40
0.2985548167
 40
0.3672607312
 40
0.442332038
 40
0.5233850049
 40
0.6099342524
 40
0.7973193519
 40
1.0
 40
1.0
 40
1.0
 40
1.0
 10
8.0531005037
 20
22.1430293795
 30
0.0
 10
8.053235044
 20
22.1430290569
 30
0.0
 10
8.053514038
 20
22.1429880206
 30
0.0
 10
8.0539179643
 20
22.1428079532
 30
0.0
 10
8.054309931
 20
22.1425140364
 30
0.0
 10
8.0546913827
 20
22.1421095263
 30
0.0
 10
8.0550642701
 20
22.1415957098
 30
0.0
 10
8.0555813283
 20
22.1407119406
 30
0.0
 10
8.0561884155
 20
22.1393207544
 30
0.0
 10
8.0568459072
 20
22.1373193829
 30
0.0
 10
8.0574633379
 20
22.1349029572
 30
0.0
 10
8.0580358781
 20
22.1320846696
 30
0.0
 10
8.0585605514
 20
22.128881719
 30
0.0
 10
8.0590333025
 20
22.1253148774
 30
0.0
 10
8.0594504247
 20
22.1214055969
 30
0.0
 10
8.0598079668
 20
22.1171772932
 30
0.0
 10
8.0602130596
 20
22.1109833441
 30
0.0
 10
8.0605443722
 20
22.1026549946
 30
0.0
 10
8.0606255399
 20
22.0958344124
 30
0.0
 10
8.0606251323
 20
22.092290584
 30
0.0
  0
SPLINE
  5
52F
100
AcDbEntity
  8
0
100
AcDbSpline
 62
9
  6
CONTINUOUS
 70
0
 71
3
 72
11
 73
7
 74
0
 42
0.0000001
 43
0.0000001
 44
0.0000000001
 40
0.0
 40
0.0
 40
0.0
 40
0.0
 40
0.1984547719
 40
0.4209047903
 40
0.6846847897
 40
1.0
 40
1.0
 40
1.0
 40
1.0
 10
8.0505661962
 20
21.9253498963
 30
0.0
 10
8.0507610973
 20
21.9253496461
 30
0.0
 10
8.0511769762
 20
21.9252663791
 30
0.0
 10
8.0517629666
 20
21.9249193027
 30
0.0
 10
8.0523310547
 20
21.9243673938
 30
0.0
 10
8.0526699444
 20
21.9239081459
 30
0.0
 10
8.0528404032
 20
21.9236496139
 30
0.0
  0
SPLINE
  5
530
100
AcDbEntity
  8
0
100
AcDbSpline
 62
9
  6
CONTINUOUS
 70
0
 71
3
 72
18
 73
14
 74
0
 42
0.0000001
 43
0.0000001
 44
0.0000000001
 40
0.0
 40
0.0
 40
0.0
 40
0.0
 40
0.0252469398
 40
0.0564228217
 40
0.0936133229
 40
0.136701504
 40
0.1855067712
 40
0.239817126
 40
0.3637817625
 40
0.5055021685
 40
0.6614899667
 40
0.8277463411
 40
1.0
 40
1.0
 40
1.0
 40
1.0
 10
8.0528404032
 20
21.9236496139
 30
0.0
 10
8.0531505341
 20
21.9231792437
 30
0.0
 10
8.053743947
 20
21.9220629588
 30
0.0
 10
8.0545219418
 20
21.9201221671
 30
0.0
 10
8.0552742675
 20
21.9177495073
 30
0.0
 10
8.0559961854
 20
21.9149598352
 30
0.0
 10
8.056682174
 20
21.9117693025
 30
0.0
 10
8.0575810146
 20
21.9067814038
 30
0.0
 10
8.0585473241
 20
21.8997030348
 30
0.0
 10
8.0594569097
 20
21.89033544
 30
0.0
 10
8.0601248539
 20
21.8800016004
 30
0.0
 10
8.0605353905
 20
21.8689729061
 30
0.0
 10
8.0606255568
 20
21.8614183621
 30
0.0
 10
8.0606251324
 20
21.8575743633
 30
0.0
  0
SPLINE
  5
531
100
AcDbEntity
  8
0
100
AcDbSpline
 62
9
  6
CONTINUOUS
 70
0
 71
3
 72
25
 73
21
 74
0
 42
0.0000001
 43
0.0000001
 44
0.0000000001
 40
0.0
 40
0.0
 40
0.0
 40
0.0
 40
0.1878043758
 40
0.3695598901
 40
0.4559066466
 40
0.5381004723
 40
0.6153076298
 40
0.6867518462
 40
0.7518237747
 40
0.8099588877
 40
0.860624606
 40
0.9034698682
 40
0.9219169895
 40
0.938371887
 40
0.9528500384
 40
0.9653958183
 40
0.9761064115
 40
0.9851826692
 40
0.9929682059
 40
1.0
 40
1.0
 40
1.0
 40
1.0
 10
8.060626108
 20
21.8575745964
 30
0.0
 10
8.0606262416
 20
21.8528055586
 30
0.0
 10
8.0604858714
 20
21.8434205649
 30
0.0
 10
8.0599646283
 20
21.831853065
 30
0.0
 10
8.059334811
 20
21.8229796722
 30
0.0
 10
8.0587789218
 20
21.8167636561
 30
0.0
 10
8.0581372876
 20
21.8109364053
 30
0.0
 10
8.0574152422
 20
21.8055568326
 30
0.0
 10
8.0566223318
 20
21.800677215
 30
0.0
 10
8.05576837
 20
21.7963441766
 30
0.0
 10
8.0548611943
 20
21.7926003908
 30
0.0
 10
8.0540336142
 20
21.7898776155
 30
0.0
 10
8.0533373882
 20
21.7880294213
 30
0.0
 10
8.0528341615
 20
21.7868801038
 30
0.0
 10
8.0523248081
 20
21.7858993741
 30
0.0
 10
8.0518101312
 20
21.7850892161
 30
0.0
 10
8.0512896282
 20
21.7844509553
 30
0.0
 10
8.0507614251
 20
21.7839848248
 30
0.0
 10
8.0502216497
 20
21.7836930844
 30
0.0
 10
8.0498440276
 20
21.783621611
 30
0.0
 10
8.0496654749
 20
21.7836197061
 30
0.0
  0
SPLINE
  5
532
100
AcDbEntity
  8
0
100
AcDbSpline
 62
9
  6
CONTINUOUS
 70
0
 71
3
 72
17
 73
13
 74
0
 42
0.0000001
 43
0.0000001
 44
0.0000000001
 40
0.0
 40
0.0
 40
0.0
 40
0.0
 40
0.2236976033
 40
0.4184101748
 40
0.584072122
 40
0.7207167667
 40
0.8285842153
 40
0.908420553
 40
0.9384909244
 40
0.9627468571
 40
0.98246905
 40
1.0
 40
1.0
 40
1.0
 40
1.0
 10
8.0606261083
 20
20.9004386422
 30
0.0
 10
8.0606261394
 20
20.9000909674
 30
0.0
 10
8.0606204605
 20
20.8994406418
 30
0.0
 10
8.060590702
 20
20.8985332215
 30
0.0
 10
8.0605406245
 20
20.8977622576
 30
0.0
 10
8.0604710161
 20
20.8971280951
 30
0.0
 10
8.0603820791
 20
20.8966317595
 30
0.0
 10
8.0602868823
 20
20.8963049535
 30
0.0
 10
8.0601933305
 20
20.8961178377
 30
0.0
 10
8.0601241027
 20
20.896024846
 30
0.0
 10
8.0600468602
 20
20.8959653498
 30
0.0
 10
8.0599883138
 20
20.8959515664
 30
0.0
 10
8.0599610669
 20
20.8959515113
 30
0.0
  0
SPLINE
  5
533
100
AcDbEntity
  8
0
100
AcDbSpline
 62
9
  6
CONTINUOUS
 70
0
 71
3
 72
13
 73
9
 74
0
 42
0.0000001
 43
0.0000001
 44
0.0000000001
 40
0.0
 40
0.0
 40
0.0
 40
0.0
 40
0.2798079376
 40
0.5266742938
 40
0.6365732326
 40
0.750334769
 40
0.8719269565
 40
1.0
 40
1.0
 40
1.0
 40
1.0
 10
8.0606259871
 20
20.9004386402
 30
0.0
 10
8.0621542727
 20
20.9004393324
 30
0.0
 10
8.0650600774
 20
20.8999077102
 30
0.0
 10
8.0681097603
 20
20.8980976278
 30
0.0
 10
8.0699296907
 20
20.8962699735
 30
0.0
 10
8.0710299972
 20
20.8947270372
 30
0.0
 10
8.0718846942
 20
20.8929234571
 30
0.0
 10
8.0722216767
 20
20.8915907401
 30
0.0
 10
8.0723242417
 20
20.8908987766
 30
0.0
  0
SPLINE
  5
534
100
AcDbEntity
  8
0
100
AcDbSpline
 62
9
  6
CONTINUOUS
 70
0
 71
3
 72
15
 73
11
 74
0
 42
0.0000001
 43
0.0000001
 44
0.0000000001
 40
0.0
 40
0.0
 40
0.0
 40
0.0
 40
0.1385011917
 40
0.2798461976
 40
0.4205181412
 40
0.5577300825
 40
0.6877405398
 40
0.8055645135
 40
0.9104039024
 40
1.0
 40
1.0
 40
1.0
 40
1.0
 10
8.0624577041
 20
20.9923885081
 30
0.0
 10
8.0630223498
 20
20.9881287381
 30
0.0
 10
8.0641311444
 20
20.979517459
 30
0.0
 10
8.065710604
 20
20.9665666432
 30
0.0
 10
8.0671868635
 20
20.9536438987
 30
0.0
 10
8.0685399091
 20
20.9410613697
 30
0.0
 10
8.0697418842
 20
20.9291756724
 30
0.0
 10
8.0707158193
 20
20.9182770451
 30
0.0
 10
8.071477733
 20
20.9086190616
 30
0.0
 10
8.0718826309
 20
20.9025998745
 30
0.0
 10
8.0720340568
 20
20.8998242635
 30
0.0
  0
LINE
  5
535
100
AcDbEntity
  8
0
100
AcDbLine
 62
9
  6
CONTINUOUS
 10
8.0720340568
 20
20.8998242635
 11
8.0723227571
 21
20.8908985826
  0
SPLINE
  5
536
100
AcDbEntity
  8
0
100
AcDbSpline
 62
9
  6
CONTINUOUS
 70
0
 71
3
 72
29
 73
25
 74
0
 42
0.0000001
 43
0.0000001
 44
0.0000000001
 40
0.0
 40
0.0
 40
0.0
 40
0.0
 40
0.0041673545
 40
0.007117794
 40
0.0107739917
 40
0.0151788987
 40
0.0203542659
 40
0.0263111714
 40
0.0330542519
 40
0.0488729773
 40
0.0677276293
 40
0.0895129032
 40
0.1141154868
 40
0.1712063912
 40
0.2375770987
 40
0.3116638604
 40
0.3916542092
 40
0.4756003301
 40
0.5614675599
 40
0.7304303032
 40
0.8093061858
 40
0.8816995134
 40
0.9458198177
 40
1.0
 40
1.0
 40
1.0
 40
1.0
 10
8.0414512519
 20
21.1395957841
 30
0.0
 10
8.0416338924
 20
21.1395952461
 30
0.0
 10
8.0419303685
 20
21.1394181308
 30
0.0
 10
8.0422454401
 20
21.1390740127
 30
0.0
 10
8.0425263693
 20
21.138677792
 30
0.0
 10
8.0428163098
 20
21.1381755656
 30
0.0
 10
8.0431190638
 20
21.1375649826
 30
0.0
 10
8.0434328046
 20
21.1368469637
 30
0.0
 10
8.043890202
 20
21.1356835128
 30
0.0
 10
8.0444769142
 20
21.1339649502
 30
0.0
 10
8.0451864661
 20
21.1315941091
 30
0.0
 10
8.0459282863
 20
21.1288323194
 30
0.0
 10
8.0470079458
 20
21.1244273008
 30
0.0
 10
8.0483801186
 20
21.1180837524
 30
0.0
 10
8.0500091631
 20
21.1095799751
 30
0.0
 10
8.0516453546
 20
21.1000575086
 30
0.0
 10
8.0532499021
 20
21.0897495218
 30
0.0
 10
8.0547813212
 20
21.0789087153
 30
0.0
 10
8.0566630131
 20
21.0641807482
 30
0.0
 10
8.0582409843
 20
21.0496386989
 30
0.0
 10
8.0594495217
 20
21.0356556775
 30
0.0
 10
8.0601031441
 20
21.0262379234
 30
0.0
 10
8.0605116692
 20
21.0178898845
 30
0.0
 10
8.0606255953
 20
21.0127051912
 30
0.0
 10
8.0606251324
 20
21.0103306541
 30
0.0
  0
SPLINE
  5
537
100
AcDbEntity
  8
0
100
AcDbSpline
 62
9
  6
CONTINUOUS
 70
0
 71
3
 72
17
 73
13
 74
0
 42
0.0000001
 43
0.0000001
 44
0.0000000001
 40
0.0
 40
0.0
 40
0.0
 40
0.0
 40
0.1998859022
 40
0.3847520347
 40
0.5465863824
 40
0.6814073608
 40
0.7898916581
 40
0.8823610372
 40
0.9218960152
 40
0.9553488135
 40
0.9816875219
 40
1.0
 40
1.0
 40
1.0
 40
1.0
 10
8.0606259875
 20
21.8575745759
 30
0.0
 10
8.0614066611
 20
21.8575745601
 30
0.0
 10
8.0629093554
 20
21.8575810345
 30
0.0
 10
8.0650439495
 20
21.8576087647
 30
0.0
 10
8.066924134
 20
21.857650858
 30
0.0
 10
8.068505634
 20
21.8577029012
 30
0.0
 10
8.0698156821
 20
21.8577628035
 30
0.0
 10
8.0707532292
 20
21.8578214026
 30
0.0
 10
8.0713970536
 20
21.8578767831
 30
0.0
 10
8.0717828742
 20
21.8579184616
 30
0.0
 10
8.0720846302
 20
21.8579622706
 30
0.0
 10
8.0722560101
 20
21.8579974029
 30
0.0
 10
8.0723242429
 20
21.8580188403
 30
0.0
  0
SPLINE
  5
538
100
AcDbEntity
  8
0
100
AcDbSpline
 62
9
  6
CONTINUOUS
 70
0
 71
3
 72
31
 73
27
 74
0
 42
0.0000001
 43
0.0000001
 44
0.0000000001
 40
0.0
 40
0.0
 40
0.0
 40
0.0
 40
0.0220750402
 40
0.041250392
 40
0.0575115292
 40
0.0709013315
 40
0.0815967604
 40
0.0900715373
 40
0.0937718839
 40
0.0973242762
 40
0.1009248384
 40
0.1047624295
 40
0.1089937073
 40
0.1137332292
 40
0.1250140603
 40
0.1389912179
 40
0.1558250215
 40
0.175581654
 40
0.1982771691
 40
0.2524243932
 40
0.3179422449
 40
0.3939011528
 40
0.4791766984
 40
0.5725502678
 40
0.7784524517
 40
1.0
 40
1.0
 40
1.0
 40
1.0
 10
8.058003463
 20
21.9298856897
 30
0.0
 10
8.0581887272
 20
21.9305174972
 30
0.0
 10
8.05855795
 20
21.9316916597
 30
0.0
 10
8.0591604179
 20
21.9332988904
 30
0.0
 10
8.0597703024
 20
21.9346231358
 30
0.0
 10
8.0603874083
 20
21.9356603476
 30
0.0
 10
8.061012936
 20
21.9364097581
 30
0.0
 10
8.0615822087
 20
21.9368119451
 30
0.0
 10
8.0620348571
 20
21.9369493601
 30
0.0
 10
8.0623612233
 20
21.9369682108
 30
0.0
 10
8.0626863542
 20
21.9369068615
 30
0.0
 10
8.0630077675
 20
21.9367670441
 30
0.0
 10
8.0633251126
 20
21.9365511934
 30
0.0
 10
8.0637696851
 20
21.936139748
 30
0.0
 10
8.0643096922
 20
21.9354187234
 30
0.0
 10
8.0649138544
 20
21.9343159722
 30
0.0
 10
8.0655086311
 20
21.9329279557
 30
0.0
 10
8.0660919784
 20
21.9312576956
 30
0.0
 10
8.0668994378
 20
21.9284909365
 30
0.0
 10
8.0678316015
 20
21.9243447592
 30
0.0
 10
8.0688137404
 20
21.9185918802
 30
0.0
 10
8.069701699
 20
21.9118860007
 30
0.0
 10
8.0704805015
 20
21.9043312833
 30
0.0
 10
8.0713870657
 20
21.8928967082
 30
0.0
 10
8.0721361453
 20
21.8773767553
 30
0.0
 10
8.0723195762
 20
21.8646267326
 30
0.0
 10
8.0723227571
 20
21.8580188594
 30
0.0
  0
SPLINE
  5
539
100
AcDbEntity
  8
0
100
AcDbSpline
 62
9
  6
CONTINUOUS
 70
0
 71
3
 72
19
 73
15
 74
0
 42
0.0000001
 43
0.0000001
 44
0.0000000001
 40
0.0
 40
0.0
 40
0.0
 40
0.0
 40
0.2157990177
 40
0.4079476272
 40
0.5745476889
 40
0.7138690399
 40
0.7729914815
 40
0.8250138744
 40
0.8699307427
 40
0.9078088523
 40
0.9388542547
 40
0.9635729087
 40
0.9831641691
 40
1.0
 40
1.0
 40
1.0
 40
1.0
 10
8.0606261137
 20
21.1680173685
 30
0.0
 10
8.0606261832
 20
21.1662338946
 30
0.0
 10
8.0605927457
 20
21.1628622464
 30
0.0
 10
8.0604254412
 20
21.1581161625
 30
0.0
 10
8.0601473049
 20
21.1540085086
 30
0.0
 10
8.0598112883
 20
21.1510085549
 30
0.0
 10
8.059474015
 20
21.1489657531
 30
0.0
 10
8.0592098838
 20
21.1477028182
 30
0.0
 10
8.0589217996
 20
21.1466257185
 30
0.0
 10
8.0586106796
 20
21.1457365847
 30
0.0
 10
8.0582770698
 20
21.1450357524
 30
0.0
 10
8.0579181222
 20
21.1445219972
 30
0.0
 10
8.0575226443
 20
21.144191646
 30
0.0
 10
8.0572187932
 20
21.144111607
 30
0.0
 10
8.0570796538
 20
21.1441111988
 30
0.0
  0
SPLINE
  5
53A
100
AcDbEntity
  8
0
100
AcDbSpline
 62
9
  6
CONTINUOUS
 70
0
 71
3
 72
14
 73
10
 74
0
 42
0.0000001
 43
0.0000001
 44
0.0000000001
 40
0.0
 40
0.0
 40
0.0
 40
0.0
 40
0.1622014289
 40
0.3148842986
 40
0.5754705781
 40
0.6831556877
 40
0.7884789592
 40
0.8943786472
 40
1.0
 40
1.0
 40
1.0
 40
1.0
 10
8.0606259875
 20
21.168017353
 30
0.0
 10
8.0614083689
 20
21.1680176039
 30
0.0
 10
8.0629299033
 20
21.1679171925
 30
0.0
 10
8.0656560795
 20
21.1673740712
 30
0.0
 10
8.0680216225
 20
21.1664156413
 30
0.0
 10
8.0698956531
 20
21.1650965442
 30
0.0
 10
8.0709992697
 20
21.1640130621
 30
0.0
 10
8.0718655074
 20
21.1627398214
 30
0.0
 10
8.0722197604
 20
21.1617672962
 30
0.0
 10
8.0723242369
 20
21.1612686573
 30
0.0
  0
SPLINE
  5
53B
100
AcDbEntity
  8
0
100
AcDbSpline
 62
9
  6
CONTINUOUS
 70
0
 71
3
 72
40
 73
36
 74
0
 42
0.0000001
 43
0.0000001
 44
0.0000000001
 40
0.0
 40
0.0
 40
0.0
 40
0.0
 40
0.0175948466
 40
0.025079349
 40
0.0316736889
 40
0.0373730988
 40
0.0421836741
 40
0.0461325846
 40
0.0492958839
 40
0.0518462367
 40
0.0541040054
 40
0.0565094947
 40
0.0594371643
 40
0.0631042465
 40
0.0676124312
 40
0.0730025088
 40
0.0792886703
 40
0.0864717305
 40
0.0945452004
 40
0.1133267845
 40
0.1355738531
 40
0.1612145989
 40
0.1901315233
 40
0.2221139791
 40
0.2569344068
 40
0.2943470848
 40
0.3340804435
 40
0.3758594778
 40
0.4644106095
 40
0.5576326531
 40
0.6528656788
 40
0.7473778541
 40
0.8385263477
 40
0.9235477781
 40
1.0
 40
1.0
 40
1.0
 40
1.0
 10
8.0522901222
 20
21.2913697488
 30
0.0
 10
8.0524033077
 20
21.2922264561
 30
0.0
 10
8.0525891666
 20
21.2934450426
 30
0.0
 10
8.0529050506
 20
21.2949686029
 30
0.0
 10
8.0531439152
 20
21.2959105764
 30
0.0
 10
8.0533971697
 20
21.296712212
 30
0.0
 10
8.053664459
 20
21.2973711851
 30
0.0
 10
8.0539464152
 20
21.2978866734
 30
0.0
 10
8.0542458828
 20
21.2982591582
 30
0.0
 10
8.0545733072
 20
21.2984893598
 30
0.0
 10
8.0549357772
 20
21.2985517207
 30
0.0
 10
8.055301181
 20
21.2984341748
 30
0.0
 10
8.0556580029
 20
21.2981655123
 30
0.0
 10
8.0560192582
 20
21.2977539117
 30
0.0
 10
8.0563893659
 20
21.2971984245
 30
0.0
 10
8.0567696153
 20
21.2964995672
 30
0.0
 10
8.0571593898
 20
21.2956588074
 30
0.0
 10
8.0575579827
 20
21.2946783789
 30
0.0
 10
8.05812929
 20
21.2931069676
 30
0.0
 10
8.0588482819
 20
21.2908038321
 30
0.0
 10
8.0596974529
 20
21.2876409041
 30
0.0
 10
8.060563349
 20
21.2839689412
 30
0.0
 10
8.0614391431
 20
21.2798095104
 30
0.0
 10
8.0623195109
 20
21.2751912594
 30
0.0
 10
8.0631973871
 20
21.2701484825
 30
0.0
 10
8.064066276
 20
21.2647183003
 30
0.0
 10
8.0649206416
 20
21.2589401214
 30
0.0
 10
8.066054341
 20
21.2506648057
 30
0.0
 10
8.0673839636
 20
21.2397653864
 30
0.0
 10
8.0687951304
 20
21.2262333005
 30
0.0
 10
8.0700136176
 20
21.2123885947
 30
0.0
 10
8.0710064464
 20
21.1986280114
 30
0.0
 10
8.0717476467
 20
21.18535374
 30
0.0
 10
8.0722049859
 20
21.1729541082
 30
0.0
 10
8.0723204002
 20
21.1650233964
 30
0.0
 10
8.0723227571
 20
21.161268529
 30
0.0
  0
LINE
  5
53C
100
AcDbEntity
  8
0
100
AcDbLine
 62
9
  6
CONTINUOUS
 10
8.0568563639
 20
21.7800909091
 11
8.057673709
 21
21.7772749971
  0
SPLINE
  5
53D
100
AcDbEntity
  8
0
100
AcDbSpline
 62
9
  6
CONTINUOUS
 70
0
 71
3
 72
34
 73
30
 74
0
 42
0.0000001
 43
0.0000001
 44
0.0000000001
 40
0.0
 40
0.0
 40
0.0
 40
0.0
 40
0.0185806029
 40
0.0343238639
 40
0.0472855183
 40
0.0576323457
 40
0.0619532177
 40
0.0658201634
 40
0.0693689023
 40
0.0727725253
 40
0.0762251368
 40
0.0799123037
 40
0.0839869527
 40
0.0885626641
 40
0.0994922939
 40
0.1130759089
 40
0.1294643582
 40
0.1487183163
 40
0.1708449521
 40
0.1958077355
 40
0.2235533728
 40
0.2540198778
 40
0.3227445424
 40
0.4010382262
 40
0.4878014813
 40
0.5817146708
 40
0.6813972972
 40
0.785425639
 40
1.0
 40
1.0
 40
1.0
 40
1.0
 10
8.057673709
 20
21.7772749971
 30
0.0
 10
8.0578575869
 20
21.7767160974
 30
0.0
 10
8.0582231299
 20
21.7756917648
 30
0.0
 10
8.0588285297
 20
21.7743199674
 30
0.0
 10
8.0594432563
 20
21.7732444649
 30
0.0
 10
8.0599953362
 20
21.7725559042
 30
0.0
 10
8.0604505335
 20
21.7721819294
 30
0.0
 10
8.0607754006
 20
21.7719969305
 30
0.0
 10
8.061104556
 20
21.7718918363
 30
0.0
 10
8.0614366427
 20
21.7718691439
 30
0.0
 10
8.0617682718
 20
21.7719294535
 30
0.0
 10
8.0620968585
 20
21.7720706799
 30
0.0
 10
8.0624221941
 20
21.7722902701
 30
0.0
 10
8.0628796231
 20
21.7727114712
 30
0.0
 10
8.0634368556
 20
21.7734528428
 30
0.0
 10
8.0640630204
 20
21.7745888634
 30
0.0
 10
8.0646826068
 20
21.776021285
 30
0.0
 10
8.0652931147
 20
21.7777466994
 30
0.0
 10
8.0658920752
 20
21.7797610784
 30
0.0
 10
8.0664771997
 20
21.7820579093
 30
0.0
 10
8.0670460142
 20
21.7846299367
 30
0.0
 10
8.0678099367
 20
21.7885766185
 30
0.0
 10
8.0686888688
 20
21.7941292735
 30
0.0
 10
8.0696091027
 20
21.8014756564
 30
0.0
 10
8.070414219
 20
21.8096373614
 30
0.0
 10
8.0710945071
 20
21.8184896402
 30
0.0
 10
8.0716382612
 20
21.8278990141
 30
0.0
 10
8.0721679271
 20
21.8411343116
 30
0.0
 10
8.07231538
 20
21.851224184
 30
0.0
 10
8.0723227571
 20
21.8580188594
 30
0.0
  0
SPLINE
  5
53E
100
AcDbEntity
  8
0
100
AcDbSpline
 62
9
  6
CONTINUOUS
 70
0
 71
3
 72
21
 73
17
 74
0
 42
0.0000001
 43
0.0000001
 44
0.0000000001
 40
0.0
 40
0.0
 40
0.0
 40
0.0
 40
0.2207313765
 40
0.414572442
 40
0.58075019
 40
0.6532536027
 40
0.7186013498
 40
0.7767425533
 40
0.8276685162
 40
0.8714785188
 40
0.8907764235
 40
0.9083792342
 40
0.9386903008
 40
0.9630588679
 40
0.9827257893
 40
1.0
 40
1.0
 40
1.0
 40
1.0
 10
8.060626108
 20
21.0103261865
 30
0.0
 10
8.0606261551
 20
21.0093739998
 30
0.0
 10
8.0606097107
 20
21.0075855228
 30
0.0
 10
8.0605249623
 20
21.0050814665
 30
0.0
 10
8.0604023386
 20
21.0032191521
 30
0.0
 10
8.0602699247
 20
21.0019142037
 30
0.0
 10
8.0601610179
 20
21.0010756466
 30
0.0
 10
8.0600382318
 20
21.000333142
 30
0.0
 10
8.0599016
 20
20.9996877177
 30
0.0
 10
8.0597716925
 20
20.9992128023
 30
0.0
 10
8.0596588345
 20
20.9988832869
 30
0.0
 10
8.0595514907
 20
20.9986138965
 30
0.0
 10
8.0594123545
 20
20.9983336937
 30
0.0
 10
8.0592216095
 20
20.9980731333
 30
0.0
 10
8.0590101298
 20
20.9979058727
 30
0.0
 10
8.0588492641
 20
20.9978659698
 30
0.0
 10
8.058774748
 20
20.9978655721
 30
0.0
  0
SPLINE
  5
53F
100
AcDbEntity
  8
0
100
AcDbSpline
 62
9
  6
CONTINUOUS
 70
0
 71
3
 72
13
 73
9
 74
0
 42
0.0000001
 43
0.0000001
 44
0.0000000001
 40
0.0
 40
0.0
 40
0.0
 40
0.0
 40
0.2934196405
 40
0.5454613316
 40
0.6543748933
 40
0.7647831975
 40
0.8803526455
 40
1.0
 40
1.0
 40
1.0
 40
1.0
 10
8.0606259875
 20
21.0103261748
 30
0.0
 10
8.0621485134
 20
21.0103267819
 30
0.0
 10
8.0650018815
 20
21.0098747566
 30
0.0
 10
8.0680746584
 20
21.008293658
 30
0.0
 10
8.0699172164
 20
21.006671363
 30
0.0
 10
8.0710195752
 20
21.0053163183
 30
0.0
 10
8.0718787698
 20
21.0037291485
 30
0.0
 10
8.0722211076
 20
21.0025447783
 30
0.0
 10
8.0723242429
 20
21.0019325663
 30
0.0
  0
LINE
  5
540
100
AcDbEntity
  8
0
100
AcDbLine
 62
9
  6
CONTINUOUS
 10
8.0565758702
 20
21.1444655515
 11
8.058003463
 21
21.1382462483
  0
SPLINE
  5
541
100
AcDbEntity
  8
0
100
AcDbSpline
 62
9
  6
CONTINUOUS
 70
0
 71
3
 72
19
 73
15
 74
0
 42
0.0000001
 43
0.0000001
 44
0.0000000001
 40
0.0
 40
0.0
 40
0.0
 40
0.0
 40
0.0452909389
 40
0.0970752168
 40
0.1547583412
 40
0.2174787777
 40
0.3542518267
 40
0.4995400036
 40
0.6450173391
 40
0.7821904163
 40
0.8451657424
 40
0.9030333232
 40
0.9548358576
 40
1.0
 40
1.0
 40
1.0
 40
1.0
 10
8.058003463
 20
21.1382462483
 30
0.0
 10
8.0584303659
 20
21.136219278
 30
0.0
 10
8.0592870426
 20
21.1318624103
 30
0.0
 10
8.0605217961
 20
21.124892586
 30
0.0
 10
8.061776403
 20
21.1171176646
 30
0.0
 10
8.0635041031
 20
21.1054827079
 30
0.0
 10
8.0655624838
 20
21.0898474875
 30
0.0
 10
8.0677778906
 20
21.0704184659
 30
0.0
 10
8.0696582819
 20
21.0509357502
 30
0.0
 10
8.0708989666
 20
21.0351757644
 30
0.0
 10
8.0716322039
 20
21.0233976484
 30
0.0
 10
8.0720223098
 20
21.0155108441
 30
0.0
 10
8.0722582791
 20
21.008432923
 30
0.0
 10
8.0723210123
 20
21.0039980399
 30
0.0
 10
8.0723227571
 20
21.001932402
 30
0.0
  0
LINE
  5
542
100
AcDbEntity
  8
0
100
AcDbLine
 62
9
  6
CONTINUOUS
 10
8.0694814453
 20
20.8920392647
 11
8.0701638561
 21
20.8892373402
  0
SPLINE
  5
543
100
AcDbEntity
  8
0
100
AcDbSpline
 62
9
  6
CONTINUOUS
 70
0
 71
3
 72
25
 73
21
 74
0
 42
0.0000001
 43
0.0000001
 44
0.0000000001
 40
0.0
 40
0.0
 40
0.0
 40
0.0
 40
0.1008533109
 40
0.1878525057
 40
0.2609551966
 40
0.3201778135
 40
0.3656529366
 40
0.3978545727
 40
0.4094780767
 40
0.4187560725
 40
0.4267947852
 40
0.4352321807
 40
0.4455401773
 40
0.4585895591
 40
0.4944628056
 40
0.5444291949
 40
0.6085601969
 40
0.6865868483
 40
0.7781285735
 40
1.0
 40
1.0
 40
1.0
 40
1.0
 10
8.0701638561
 20
20.8892373402
 30
0.0
 10
8.0702447195
 20
20.888933885
 30
0.0
 10
8.0704005368
 20
20.8883700263
 30
0.0
 10
8.0706370155
 20
20.8875924461
 30
0.0
 10
8.0708585258
 20
20.886946359
 30
0.0
 10
8.0710642269
 20
20.8864315949
 30
0.0
 10
8.0712535742
 20
20.8860498664
 30
0.0
 10
8.0714101906
 20
20.8858164169
 30
0.0
 10
8.071534821
 20
20.8857062059
 30
0.0
 10
8.0716173528
 20
20.8856656186
 30
0.0
 10
8.0717007129
 20
20.8856638458
 30
0.0
 10
8.0717769668
 20
20.8857040056
 30
0.0
 10
8.0718438032
 20
20.8857786138
 30
0.0
 10
8.0719352483
 20
20.8859397328
 30
0.0
 10
8.0720280509
 20
20.8862357919
 30
0.0
 10
8.0721168219
 20
20.8866942043
 30
0.0
 10
8.0721898845
 20
20.8872885004
 30
0.0
 10
8.0722474713
 20
20.8880139911
 30
0.0
 10
8.0723068123
 20
20.889231604
 30
0.0
 10
8.0723206423
 20
20.8902077062
 30
0.0
 10
8.0723227571
 20
20.8908985826
 30
0.0
  0
SPLINE
  5
544
100
AcDbEntity
  8
0
100
AcDbSpline
 62
9
  6
CONTINUOUS
 70
0
 71
3
 72
28
 73
24
 74
0
 42
0.0000001
 43
0.0000001
 44
0.0000000001
 40
0.0
 40
0.0
 40
0.0
 40
0.0
 40
0.0024096454
 40
0.0051120292
 40
0.0082641643
 40
0.0119621218
 40
0.0211894887
 40
0.0330297571
 40
0.0475523827
 40
0.0647661754
 40
0.0846174067
 40
0.1070140076
 40
0.1318552847
 40
0.1590357775
 40
0.2199381945
 40
0.2885248522
 40
0.3634619517
 40
0.4433132632
 40
0.5264620903
 40
0.6959890989
 40
0.8582522005
 40
0.932478395
 40
1.0
 40
1.0
 40
1.0
 40
1.0
 10
8.0431468379
 20
21.2858415831
 30
0.0
 10
8.0432434474
 20
21.2858417856
 30
0.0
 10
8.0434493433
 20
21.2858067139
 30
0.0
 10
8.0437499555
 20
21.2856602697
 30
0.0
 10
8.0440542764
 20
21.2854245609
 30
0.0
 10
8.0445006578
 20
21.2849572475
 30
0.0
 10
8.0450603173
 20
21.2841305744
 30
0.0
 10
8.0457180207
 20
21.28286298
 30
0.0
 10
8.0464005048
 20
21.2812530542
 30
0.0
 10
8.0471034307
 20
21.2793072168
 30
0.0
 10
8.0478232216
 20
21.2770339471
 30
0.0
 10
8.0485560941
 20
21.2744455827
 30
0.0
 10
8.0492979622
 20
21.2715553731
 30
0.0
 10
8.0503334092
 20
21.2671476459
 30
0.0
 10
8.0516051848
 20
21.260995273
 30
0.0
 10
8.0530572489
 20
21.2529282268
 30
0.0
 10
8.0544550245
 20
21.2440815992
 30
0.0
 10
8.0557682766
 20
21.2346323287
 30
0.0
 10
8.0573829898
 20
21.2213979641
 30
0.0
 10
8.0590034412
 20
21.2048382107
 30
0.0
 10
8.0600855224
 20
21.1885922515
 30
0.0
 10
8.0605417564
 20
21.1764113867
 30
0.0
 10
8.060625511
 20
21.1707281644
 30
0.0
 10
8.0606251108
 20
21.1680210259
 30
0.0
  0
SPLINE
  5
545
100
AcDbEntity
  8
0
100
AcDbSpline
 62
9
  6
CONTINUOUS
 70
0
 71
3
 72
18
 73
14
 74
0
 42
0.0000001
 43
0.0000001
 44
0.0000000001
 40
0.0
 40
0.0
 40
0.0
 40
0.0
 40
0.153535084
 40
0.3099382405
 40
0.4632184665
 40
0.6075730383
 40
0.7376369807
 40
0.7958184086
 40
0.8487263787
 40
0.8959336651
 40
0.9370418241
 40
0.9717715333
 40
1.0
 40
1.0
 40
1.0
 40
1.0
 10
8.060625892
 20
22.0922920033
 30
0.0
 10
8.060625912
 20
22.0877321484
 30
0.0
 10
8.0604840175
 20
22.078526814
 30
0.0
 10
8.0598900037
 20
22.0647808596
 30
0.0
 10
8.0589338937
 20
22.0513283408
 30
0.0
 10
8.0576548445
 20
22.038688704
 30
0.0
 10
8.0563209255
 20
22.0288982472
 30
0.0
 10
8.0551075041
 20
22.0218390615
 30
0.0
 10
8.0541855654
 20
22.017228345
 30
0.0
 10
8.0532286953
 20
22.0131438749
 30
0.0
 10
8.0522459601
 20
22.0096224407
 30
0.0
 10
8.0512473182
 20
22.0066959615
 30
0.0
 10
8.0505029349
 20
22.0049760696
 30
0.0
 10
8.0501158695
 20
22.0042324108
 30
0.0
  0
SPLINE
  5
546
100
AcDbEntity
  8
0
100
AcDbSpline
 62
9
  6
CONTINUOUS
 70
0
 71
3
 72
13
 73
9
 74
0
 42
0.0000001
 43
0.0000001
 44
0.0000000001
 40
0.0
 40
0.0
 40
0.0
 40
0.0
 40
0.3403625191
 40
0.6122067693
 40
0.7252507534
 40
0.8254150041
 40
0.9156464389
 40
1.0
 40
1.0
 40
1.0
 40
1.0
 10
8.0501158695
 20
22.0042324108
 30
0.0
 10
8.0498870758
 20
22.0037928353
 30
0.0
 10
8.0494412805
 20
22.0030192196
 30
0.0
 10
8.0487846752
 20
22.0021827656
 30
0.0
 10
8.0482520082
 20
22.0017158543
 30
0.0
 10
8.0478769893
 20
22.0014780727
 30
0.0
 10
8.0475012855
 20
22.0013323374
 30
0.0
 10
8.0472462032
 20
22.0012984825
 30
0.0
 10
8.047123388
 20
22.0012983626
 30
0.0
  0
SPLINE
  5
547
100
AcDbEntity
  8
0
100
AcDbSpline
 62
9
  6
CONTINUOUS
 70
0
 71
3
 72
34
 73
30
 74
0
 42
0.0000001
 43
0.0000001
 44
0.0000000001
 40
0.0
 40
0.0
 40
0.0
 40
0.0
 40
0.0975604616
 40
0.1974611798
 40
0.2973338339
 40
0.3956258841
 40
0.4903412202
 40
0.5793477671
 40
0.661063411
 40
0.7341654997
 40
0.7975913675
 40
0.8253244446
 40
0.8501803931
 40
0.871999248
 40
0.8906798184
 40
0.9062897659
 40
0.9189698585
 40
0.9289470724
 40
0.9330419937
 40
0.9366334264
 40
0.939851085
 40
0.9428874108
 40
0.9459832308
 40
0.9493799156
 40
0.9532746629
 40
0.9577977752
 40
0.9689436046
 40
0.9830214127
 40
1.0
 40
1.0
 40
1.0
 40
1.0
 10
8.0723227571
 20
22.0951848432
 30
0.0
 10
8.0723319767
 20
22.0914476183
 30
0.0
 10
8.0722702014
 20
22.083883147
 30
0.0
 10
8.0719572231
 20
22.0724968618
 30
0.0
 10
8.071435023
 20
22.0610903392
 30
0.0
 10
8.0707605044
 20
22.0498909515
 30
0.0
 10
8.0699343442
 20
22.0391188194
 30
0.0
 10
8.0689341585
 20
22.0289991659
 30
0.0
 10
8.0677979981
 20
22.0197273691
 30
0.0
 10
8.0665576187
 20
22.0114586085
 30
0.0
 10
8.0654158916
 20
22.0052687268
 30
0.0
 10
8.0644496359
 20
22.000930352
 30
0.0
 10
8.063747077
 20
21.9981674365
 30
0.0
 10
8.0630375016
 20
21.9957656302
 30
0.0
 10
8.0623214806
 20
21.9937378325
 30
0.0
 10
8.0616043672
 20
21.9920850083
 30
0.0
 10
8.0608897415
 20
21.9908025234
 30
0.0
 10
8.0602607867
 20
21.9899833876
 30
0.0
 10
8.0597498788
 20
21.9895361272
 30
0.0
 10
8.0593910718
 20
21.9893171528
 30
0.0
 10
8.059029617
 20
21.9891961101
 30
0.0
 10
8.058666566
 20
21.9891804332
 30
0.0
 10
8.0583086424
 20
21.9892746232
 30
0.0
 10
8.0579611509
 20
21.9894761614
 30
0.0
 10
8.0576240789
 20
21.9897818704
 30
0.0
 10
8.0571530652
 20
21.990367521
 30
0.0
 10
8.0566001842
 20
21.9913715048
 30
0.0
 10
8.0559958573
 20
21.9928723479
 30
0.0
 10
8.0556402888
 20
21.9940089746
 30
0.0
 10
8.0554618207
 20
21.9946344063
 30
0.0
  0
LINE
  5
548
100
AcDbEntity
  8
0
100
AcDbLine
 62
9
  6
CONTINUOUS
 10
8.0554618207
 20
21.9946344063
 11
8.0547798355
 21
21.9973557271
  0
SPLINE
  5
549
100
AcDbEntity
  8
0
100
AcDbSpline
 62
9
  6
CONTINUOUS
 70
0
 71
3
 72
16
 73
12
 74
0
 42
0.0000001
 43
0.0000001
 44
0.0000000001
 40
0.0
 40
0.0
 40
0.0
 40
0.0
 40
0.1894368927
 40
0.3652066662
 40
0.5201650692
 40
0.6508472018
 40
0.7581742132
 40
0.8531863072
 40
0.8961429099
 40
0.9350698305
 40
1.0
 40
1.0
 40
1.0
 40
1.0
 10
8.060625892
 20
22.0922920034
 30
0.0
 10
8.0614068762
 20
22.0922918966
 30
0.0
 10
8.0629128649
 20
22.0923341928
 30
0.0
 10
8.0650508305
 20
22.0925153595
 30
0.0
 10
8.0669343497
 20
22.0927903948
 30
0.0
 10
8.0685196728
 20
22.0931311387
 30
0.0
 10
8.0698366513
 20
22.0935242458
 30
0.0
 10
8.0707744619
 20
22.093909903
 30
0.0
 10
8.071411625
 20
22.0942686112
 30
0.0
 10
8.0719033352
 20
22.0946190172
 30
0.0
 10
8.0722064994
 20
22.0949442813
 30
0.0
 10
8.0723240307
 20
22.0951847844
 30
0.0
  0
SPLINE
  5
54A
100
AcDbEntity
  8
0
100
AcDbSpline
 62
9
  6
CONTINUOUS
 70
0
 71
3
 72
31
 73
27
 74
0
 42
0.0000001
 43
0.0000001
 44
0.0000000001
 40
0.0
 40
0.0
 40
0.0
 40
0.0
 40
0.025535016
 40
0.0481047993
 40
0.0677186894
 40
0.0844168692
 40
0.098297202
 40
0.1095859951
 40
0.1187441274
 40
0.1266168917
 40
0.1344749239
 40
0.1435940463
 40
0.1548258144
 40
0.1686341017
 40
0.1852670827
 40
0.204864518
 40
0.2274846808
 40
0.2531016159
 40
0.3130977109
 40
0.3843091914
 40
0.4660032709
 40
0.5573644037
 40
0.6575277433
 40
0.7655888908
 40
0.8803340667
 40
1.0
 40
1.0
 40
1.0
 40
1.0
 10
8.0604347868
 20
22.1470860771
 30
0.0
 10
8.0606085
 20
22.1476505884
 30
0.0
 10
8.0609535758
 20
22.1487087598
 30
0.0
 10
8.0615047016
 20
22.1501756199
 30
0.0
 10
8.0620557943
 20
22.1514221586
 30
0.0
 10
8.0626052758
 20
22.1524465306
 30
0.0
 10
8.0631528479
 20
22.1532484964
 30
0.0
 10
8.0637009555
 20
22.153829184
 30
0.0
 10
8.0642589866
 20
22.1541907058
 30
0.0
 10
8.0648407142
 20
22.1543091526
 30
0.0
 10
8.0654132552
 20
22.1541552635
 30
0.0
 10
8.0659448508
 20
22.1537598804
 30
0.0
 10
8.0664505179
 20
22.1531468576
 30
0.0
 10
8.0669400062
 20
22.1523133316
 30
0.0
 10
8.0674153021
 20
22.1512563272
 30
0.0
 10
8.0678753866
 20
22.1499741256
 30
0.0
 10
8.0683188478
 20
22.1484683748
 30
0.0
 10
8.06891902
 20
22.1460372701
 30
0.0
 10
8.0695975489
 20
22.1424715029
 30
0.0
 10
8.0702955876
 20
22.1375957196
 30
0.0
 10
8.0709040932
 20
22.1319776696
 30
0.0
 10
8.0714154731
 20
22.125678151
 30
0.0
 10
8.0718213579
 20
22.1187600086
 30
0.0
 10
8.0721121889
 20
22.1112948318
 30
0.0
 10
8.0722834303
 20
22.1033748456
 30
0.0
 10
8.0723213676
 20
22.0979527614
 30
0.0
 10
8.0723227571
 20
22.0951848432
 30
0.0
  0
SPLINE
  5
54B
100
AcDbEntity
  8
0
100
AcDbSpline
 62
9
  6
CONTINUOUS
 70
0
 71
3
 72
31
 73
27
 74
0
 42
0.0000001
 43
0.0000001
 44
0.0000000001
 40
0.0
 40
0.0
 40
0.0
 40
0.0
 40
0.0631408963
 40
0.0901521853
 40
0.114112518
 40
0.135036215
 40
0.1529689454
 40
0.1680189758
 40
0.1804168969
 40
0.1905909065
 40
0.1993135255
 40
0.2077755157
 40
0.2172755927
 40
0.2287722017
 40
0.2428068748
 40
0.2596539084
 40
0.2794536975
 40
0.3022773744
 40
0.3281581965
 40
0.3891165262
 40
0.4623088211
 40
0.5476140599
 40
0.6448584732
 40
0.7534667761
 40
0.8722614742
 40
1.0
 40
1.0
 40
1.0
 40
1.0
 10
8.0653392193
 20
21.1393984795
 30
0.0
 10
8.0655693374
 20
21.1386812678
 30
0.0
 10
8.0659188213
 20
21.1376633193
 30
0.0
 10
8.0664286443
 20
21.1364007985
 30
0.0
 10
8.0667838174
 20
21.1356197697
 30
0.0
 10
8.06713139
 20
21.1349553398
 30
0.0
 10
8.0674709859
 20
21.1344083477
 30
0.0
 10
8.0678028023
 20
21.1339789358
 30
0.0
 10
8.068128005
 20
21.1336663692
 30
0.0
 10
8.0684508236
 20
21.1334701192
 30
0.0
 10
8.0687780739
 20
21.1333995436
 30
0.0
 10
8.069098003
 20
21.1334704594
 30
0.0
 10
8.0693927094
 20
21.1336728755
 30
0.0
 10
8.0696664592
 20
21.1339924014
 30
0.0
 10
8.0699261004
 20
21.1344280619
 30
0.0
 10
8.0701737627
 20
21.1349806037
 30
0.0
 10
8.0704097677
 20
21.1356502523
 30
0.0
 10
8.0706339091
 20
21.136436517
 30
0.0
 10
8.0709328059
 20
21.1377104886
 30
0.0
 10
8.0712613912
 20
21.1395924677
 30
0.0
 10
8.0715861121
 20
21.1421907897
 30
0.0
 10
8.0718548024
 20
21.1452303053
 30
0.0
 10
8.0720634009
 20
21.1486976757
 30
0.0
 10
8.0722105545
 20
21.1525679296
 30
0.0
 10
8.072299539
 20
21.1568037266
 30
0.0
 10
8.072320495
 20
21.1597447041
 30
0.0
 10
8.0723227571
 20
21.161268529
 30
0.0
  0
SPLINE
  5
54C
100
AcDbEntity
  8
0
100
AcDbSpline
 62
9
  6
CONTINUOUS
 70
0
 71
3
 72
31
 73
27
 74
0
 42
0.0000001
 43
0.0000001
 44
0.0000000001
 40
0.0
 40
0.0
 40
0.0
 40
0.0
 40
0.1252236836
 40
0.2426258297
 40
0.3509942538
 40
0.4493229737
 40
0.5369031851
 40
0.6130828907
 40
0.6773786107
 40
0.7049669161
 40
0.7294735514
 40
0.7508954016
 40
0.7692822979
 40
0.7847366925
 40
0.7974496771
 40
0.8077875165
 40
0.8164509784
 40
0.8246101215
 40
0.8336267791
 40
0.8445334366
 40
0.8579219657
 40
0.8741054205
 40
0.8932403766
 40
0.9153893411
 40
0.9405718527
 40
1.0
 40
1.0
 40
1.0
 40
1.0
 10
8.0723227571
 20
22.3157045774
 30
0.0
 10
8.072322498
 20
22.3178303685
 30
0.0
 10
8.0722947936
 20
22.3219492433
 30
0.0
 10
8.0721646329
 20
22.3279065302
 30
0.0
 10
8.0719479295
 20
22.3334044994
 30
0.0
 10
8.0716460752
 20
22.3383914295
 30
0.0
 10
8.0712636751
 20
22.3428248382
 30
0.0
 10
8.0708038138
 20
22.3466696346
 30
0.0
 10
8.0703412466
 20
22.3494865818
 30
0.0
 10
8.0699229892
 20
22.3514180779
 30
0.0
 10
8.0696090033
 20
22.3526264054
 30
0.0
 10
8.0692791869
 20
22.3536678889
 30
0.0
 10
8.0689344271
 20
22.3545414433
 30
0.0
 10
8.0685753414
 20
22.3552472927
 30
0.0
 10
8.0682009151
 20
22.3557865589
 30
0.0
 10
8.0678067694
 20
22.3561613462
 30
0.0
 10
8.0673792943
 20
22.3563632405
 30
0.0
 10
8.0669264405
 20
22.3563638225
 30
0.0
 10
8.0664806274
 20
22.3561689866
 30
0.0
 10
8.066042118
 20
22.3558049967
 30
0.0
 10
8.0656001397
 20
22.3552755644
 30
0.0
 10
8.0651516876
 20
22.3545792299
 30
0.0
 10
8.0646961857
 20
22.3537155528
 30
0.0
 10
8.0642340228
 20
22.3526855881
 30
0.0
 10
8.0635733187
 20
22.3509974317
 30
0.0
 10
8.0631298037
 20
22.3496298471
 30
0.0
 10
8.06283982
 20
22.3486635727
 30
0.0
  0
LINE
  5
54D
100
AcDbEntity
  8
0
100
AcDbLine
 62
9
  6
CONTINUOUS
 10
8.0490622102
 20
20.9981170787
 11
8.0493272787
 21
20.9964974251
  0
SPLINE
  5
54E
100
AcDbEntity
  8
0
100
AcDbSpline
 62
9
  6
CONTINUOUS
 70
0
 71
3
 72
17
 73
13
 74
0
 42
0.0000001
 43
0.0000001
 44
0.0000000001
 40
0.0
 40
0.0
 40
0.0
 40
0.0
 40
0.1434359725
 40
0.2936313121
 40
0.4444528646
 40
0.5896549719
 40
0.7231314162
 40
0.839186805
 40
0.889082604
 40
0.9328140925
 40
0.9699145529
 40
1.0
 40
1.0
 40
1.0
 40
1.0
 10
8.0493272787
 20
20.9964974251
 30
0.0
 10
8.0500710207
 20
20.9919306642
 30
0.0
 10
8.0515337356
 20
20.9825721357
 30
0.0
 10
8.0535961624
 20
20.968383947
 30
0.0
 10
8.0555207859
 20
20.9541189013
 30
0.0
 10
8.0572276321
 20
20.9403694089
 30
0.0
 10
8.0586445023
 20
20.9277149386
 30
0.0
 10
8.0595785433
 20
20.9181007179
 30
0.0
 10
8.0601210356
 20
20.9113584659
 30
0.0
 10
8.0604019673
 20
20.9071506457
 30
0.0
 10
8.060575708
 20
20.9035767457
 30
0.0
 10
8.0606259695
 20
20.9014095451
 30
0.0
 10
8.06062597
 20
20.900439055
 30
0.0
  0
SPLINE
  5
54F
100
AcDbEntity
  8
0
100
AcDbSpline
 62
9
  6
CONTINUOUS
 70
0
 71
3
 72
28
 73
24
 74
0
 42
0.0000001
 43
0.0000001
 44
0.0000000001
 40
0.0
 40
0.0
 40
0.0
 40
0.0
 40
0.0764693099
 40
0.1573092929
 40
0.3265367182
 40
0.4120103775
 40
0.4960706375
 40
0.5773130486
 40
0.6543833057
 40
0.7259739619
 40
0.7909704369
 40
0.848323289
 40
0.8971186109
 40
0.9181092229
 40
0.9367369295
 40
0.9529467616
 40
0.9667112889
 40
0.9780734499
 40
0.9871556744
 40
0.9909264315
 40
0.9942561118
 40
0.9972371031
 40
1.0
 40
1.0
 40
1.0
 40
1.0
 10
8.0606261078
 20
22.3105352628
 30
0.0
 10
8.0606261984
 20
22.3077474713
 30
0.0
 10
8.0605587933
 20
22.30201241
 30
0.0
 10
8.0601852769
 20
22.2901134263
 30
0.0
 10
8.0594692841
 20
22.2778988632
 30
0.0
 10
8.0584464605
 20
22.2655909202
 30
0.0
 10
8.0575343984
 20
22.2564936388
 30
0.0
 10
8.0564978855
 20
22.2477181385
 30
0.0
 10
8.0553568357
 20
22.2394141507
 30
0.0
 10
8.054128775
 20
22.2317217145
 30
0.0
 10
8.0528383112
 20
22.2247691486
 30
0.0
 10
8.0515084594
 20
22.2186721072
 30
0.0
 10
8.0503351163
 20
22.2141857043
 30
0.0
 10
8.0493756331
 20
22.2111079937
 30
0.0
 10
8.0486970244
 20
22.2091884986
 30
0.0
 10
8.0480261758
 20
22.2075476734
 30
0.0
 10
8.0473650517
 20
22.2061915453
 30
0.0
 10
8.0467169426
 20
22.2051240369
 30
0.0
 10
8.0461573207
 20
22.2044338885
 30
0.0
 10
8.0457092398
 20
22.2040476142
 30
0.0
 10
8.0453967719
 20
22.2038507793
 30
0.0
 10
8.045086384
 20
22.2037297621
 30
0.0
 10
8.0448763043
 20
22.2037012167
 30
0.0
 10
8.0447755793
 20
22.2037010674
 30
0.0
  0
SPLINE
  5
550
100
AcDbEntity
  8
0
100
AcDbSpline
 62
9
  6
CONTINUOUS
 70
0
 71
3
 72
15
 73
11
 74
0
 42
0.0000001
 43
0.0000001
 44
0.0000000001
 40
0.0
 40
0.0
 40
0.0
 40
0.0
 40
0.1735798285
 40
0.3357966411
 40
0.4809857684
 40
0.6065002988
 40
0.7135335934
 40
0.814100107
 40
0.9099575868
 40
1.0
 40
1.0
 40
1.0
 40
1.0
 10
8.0606259874
 20
22.3105352579
 30
0.0
 10
8.0614076612
 20
22.3105350668
 30
0.0
 10
8.0629210073
 20
22.3106112535
 30
0.0
 10
8.0650659985
 20
22.3109372955
 30
0.0
 10
8.0669556626
 20
22.3114323485
 30
0.0
 10
8.06854613
 20
22.3120466097
 30
0.0
 10
8.0698717348
 20
22.3127577282
 30
0.0
 10
8.0709721859
 20
22.3135788548
 30
0.0
 10
8.0718433189
 20
22.3145446644
 30
0.0
 10
8.0722172552
 20
22.3153133603
 30
0.0
 10
8.072324243
 20
22.315704475
 30
0.0
  0
SPLINE
  5
551
100
AcDbEntity
  8
0
100
AcDbSpline
 62
9
  6
CONTINUOUS
 70
0
 71
3
 72
36
 73
32
 74
0
 42
0.0000001
 43
0.0000001
 44
0.0000000001
 40
0.0
 40
0.0
 40
0.0
 40
0.0
 40
0.0190651358
 40
0.0346647976
 40
0.0411661865
 40
0.0468195356
 40
0.0516535143
 40
0.0557192389
 40
0.0591097315
 40
0.0619941751
 40
0.0646382306
 40
0.0673716413
 40
0.0704901096
 40
0.0741934341
 40
0.0785987083
 40
0.083773115
 40
0.0965642107
 40
0.1127349886
 40
0.1323222343
 40
0.1552465115
 40
0.181386047
 40
0.2106019371
 40
0.2775422179
 40
0.3545164378
 40
0.4397399669
 40
0.5311952633
 40
0.6266099711
 40
0.7236281787
 40
0.8198212887
 40
0.9126886053
 40
1.0
 40
1.0
 40
1.0
 40
1.0
 10
8.053193039
 20
22.1989488417
 30
0.0
 10
8.053337327
 20
22.1981004826
 30
0.0
 10
8.0536316348
 20
22.1965631357
 30
0.0
 10
8.0540985644
 20
22.1947619747
 30
0.0
 10
8.0545108452
 20
22.1935782459
 30
0.0
 10
8.0548121728
 20
22.192872275
 30
0.0
 10
8.0551242647
 20
22.1922929124
 30
0.0
 10
8.0554477191
 20
22.1918397276
 30
0.0
 10
8.0557853472
 20
22.191512345
 30
0.0
 10
8.0561427329
 20
22.1913133574
 30
0.0
 10
8.0565199238
 20
22.1912548526
 30
0.0
 10
8.0569013827
 20
22.1913414582
 30
0.0
 10
8.0572784962
 20
22.1915599246
 30
0.0
 10
8.0576558886
 20
22.1919018593
 30
0.0
 10
8.0580373822
 20
22.1923663364
 30
0.0
 10
8.0585927707
 20
22.193211226
 30
0.0
 10
8.0592792358
 20
22.1945957085
 30
0.0
 10
8.0600753477
 20
22.1966386419
 30
0.0
 10
8.0608844804
 20
22.1991622093
 30
0.0
 10
8.0617029619
 20
22.2021514841
 30
0.0
 10
8.0625246039
 20
22.2055884646
 30
0.0
 10
8.0636686105
 20
22.2109891416
 30
0.0
 10
8.0650412842
 20
22.2186841452
 30
0.0
 10
8.0665566249
 20
22.228916142
 30
0.0
 10
8.0679633199
 20
22.2402794906
 30
0.0
 10
8.0692237197
 20
22.2524968555
 30
0.0
 10
8.0703043022
 20
22.265265736
 30
0.0
 10
8.0711795542
 20
22.2782646032
 30
0.0
 10
8.0718285909
 20
22.2911616917
 30
0.0
 10
8.0722215521
 20
22.3036308188
 30
0.0
 10
8.0723178865
 20
22.3117636118
 30
0.0
 10
8.0723227571
 20
22.3157045774
 30
0.0
  0
SPLINE
  5
552
100
AcDbEntity
  8
0
100
AcDbSpline
 62
9
  6
CONTINUOUS
 70
0
 71
3
 72
15
 73
11
 74
0
 42
0.0000001
 43
0.0000001
 44
0.0000000001
 40
0.0
 40
0.0
 40
0.0
 40
0.0
 40
0.1482486746
 40
0.2936130777
 40
0.4328102613
 40
0.5637391017
 40
0.685096018
 40
0.7968494446
 40
0.9007905166
 40
1.0
 40
1.0
 40
1.0
 40
1.0
 10
11.8634256109
 20
13.1199855499
 30
0.0
 10
11.8634256109
 20
13.1186833984
 30
0.0
 10
11.8632576287
 20
13.1161012901
 30
0.0
 10
11.8625151028
 20
13.112361638
 30
0.0
 10
11.8613047024
 20
13.1089044794
 30
0.0
 10
11.8596701497
 20
13.1058613281
 30
0.0
 10
11.8576698662
 20
13.103341426
 30
0.0
 10
11.855362419
 20
13.1014440577
 30
0.0
 10
11.8528275447
 20
13.1002600323
 30
0.0
 10
11.851033566
 20
13.0999855499
 30
0.0
 10
11.8501621533
 20
13.0999855499
 30
0.0
  0
SPLINE
  5
553
100
AcDbEntity
  8
0
100
AcDbSpline
 62
9
  6
CONTINUOUS
 70
0
 71
3
 72
15
 73
11
 74
0
 42
0.0000001
 43
0.0000001
 44
0.0000000001
 40
0.0
 40
0.0
 40
0.0
 40
0.0
 40
0.0992094508
 40
0.2031504649
 40
0.3149038666
 40
0.4362607804
 40
0.5671896099
 40
0.7063868178
 40
0.8517512925
 40
1.0
 40
1.0
 40
1.0
 40
1.0
 10
11.8501621534
 20
13.4499855499
 30
0.0
 10
11.8510335658
 20
13.4499855499
 30
0.0
 10
11.8528275439
 20
13.4497110682
 30
0.0
 10
11.855362417
 20
13.4485270428
 30
0.0
 10
11.8576698645
 20
13.4466296763
 30
0.0
 10
11.8596701485
 20
13.4441097747
 30
0.0
 10
11.8613047016
 20
13.4410666235
 30
0.0
 10
11.8625151024
 20
13.4376094642
 30
0.0
 10
11.8632576282
 20
13.4338698108
 30
0.0
 10
11.8634256109
 20
13.4312877016
 30
0.0
 10
11.8634256109
 20
13.4299855499
 30
0.0
  0
SPLINE
  5
554
100
AcDbEntity
  8
0
100
AcDbSpline
 62
7
  6
CONTINUOUS
 70
0
 71
3
 72
10
 73
6
 74
0
 42
0.0000001
 43
0.0000001
 44
0.0000000001
 40
0.0
 40
0.0
 40
0.0
 40
0.0
 40
0.246139757
 40
0.6194894823
 40
1.0
 40
1.0
 40
1.0
 40
1.0
 10
11.795783245
 20
13.4499855499
 30
0.0
 10
11.7947239871
 20
13.4499855499
 30
0.0
 10
11.7920564737
 20
13.4498521348
 30
0.0
 10
11.7878034663
 20
13.4491016387
 30
0.0
 10
11.7847133085
 20
13.4480632937
 30
0.0
 10
11.7832092499
 20
13.4474157759
 30
0.0
  0
SPLINE
  5
555
100
AcDbEntity
  8
0
100
AcDbSpline
 62
7
  6
CONTINUOUS
 70
0
 71
3
 72
9
 73
5
 74
0
 42
0.0000001
 43
0.0000001
 44
0.0000000001
 40
0.0
 40
0.0
 40
0.0
 40
0.0
 40
0.2552102018
 40
1.0
 40
1.0
 40
1.0
 40
1.0
 10
8.0026839729
 20
21.021317012
 30
0.0
 10
8.0008401441
 20
21.0200117006
 30
0.0
 10
7.9936644465
 20
21.014828323
 30
0.0
 10
7.9866896155
 20
21.0093652542
 30
0.0
 10
7.981635951
 20
21.0051313649
 30
0.0
  0
SPLINE
  5
556
100
AcDbEntity
  8
0
100
AcDbSpline
 62
7
  6
CONTINUOUS
 70
0
 71
3
 72
9
 73
5
 74
0
 42
0.0000001
 43
0.0000001
 44
0.0000000001
 40
0.0
 40
0.0
 40
0.0
 40
0.0
 40
0.255409793
 40
1.0
 40
1.0
 40
1.0
 40
1.0
 10
7.981635951
 20
21.0051313649
 30
0.0
 10
7.979988395
 20
21.0037510657
 30
0.0
 10
7.9735961819
 20
20.9982776737
 30
0.0
 10
7.9674431443
 20
20.9925232625
 30
0.0
 10
7.963028044
 20
20.9880770631
 30
0.0
  0
SPLINE
  5
557
100
AcDbEntity
  8
0
100
AcDbSpline
 62
7
  6
CONTINUOUS
 70
0
 71
3
 72
9
 73
5
 74
0
 42
0.0000001
 43
0.0000001
 44
0.0000000001
 40
0.0
 40
0.0
 40
0.0
 40
0.0
 40
0.2572168785
 40
1.0
 40
1.0
 40
1.0
 40
1.0
 10
7.963028044
 20
20.9880770631
 30
0.0
 10
7.9611234113
 20
20.9861590144
 30
0.0
 10
7.9538386219
 20
20.9785846778
 30
0.0
 10
7.9470490359
 20
20.97052799
 30
0.0
 10
7.9423724602
 20
20.964278157
 30
0.0
  0
SPLINE
  5
558
100
AcDbEntity
  8
0
100
AcDbSpline
 62
7
  6
CONTINUOUS
 70
0
 71
3
 72
9
 73
5
 74
0
 42
0.0000001
 43
0.0000001
 44
0.0000000001
 40
0.0
 40
0.0
 40
0.0
 40
0.0
 40
0.2552030533
 40
1.0
 40
1.0
 40
1.0
 40
1.0
 10
7.9423724602
 20
20.964278157
 30
0.0
 10
7.9412023115
 20
20.9627143559
 30
0.0
 10
7.9367064218
 20
20.9565206527
 30
0.0
 10
7.9325771484
 20
20.9500587273
 30
0.0
 10
7.9297500924
 20
20.9451090768
 30
0.0
  0
SPLINE
  5
559
100
AcDbEntity
  8
0
100
AcDbSpline
 62
7
  6
CONTINUOUS
 70
0
 71
3
 72
9
 73
5
 74
0
 42
0.0000001
 43
0.0000001
 44
0.0000000001
 40
0.0
 40
0.0
 40
0.0
 40
0.0
 40
0.2554718877
 40
1.0
 40
1.0
 40
1.0
 40
1.0
 10
7.9297500924
 20
20.9451090768
 30
0.0
 10
7.9286029682
 20
20.9431006749
 30
0.0
 10
7.9242716438
 20
20.9351500449
 30
0.0
 10
7.9205984137
 20
20.9268362181
 30
0.0
 10
7.9183108997
 20
20.9204956545
 30
0.0
  0
SPLINE
  5
55A
100
AcDbEntity
  8
0
100
AcDbSpline
 62
7
  6
CONTINUOUS
 70
0
 71
3
 72
9
 73
5
 74
0
 42
0.0000001
 43
0.0000001
 44
0.0000000001
 40
0.0
 40
0.0
 40
0.0
 40
0.0
 40
0.5048593094
 40
1.0
 40
1.0
 40
1.0
 40
1.0
 10
7.9183108997
 20
20.9204956545
 30
0.0
 10
7.9165602833
 20
20.9156432714
 30
0.0
 10
7.913603776
 20
20.9058383865
 30
0.0
 10
7.9117721929
 20
20.8957602539
 30
0.0
 10
7.9111600085
 20
20.8907382158
 30
0.0
  0
SPLINE
  5
55B
100
AcDbEntity
  8
0
100
AcDbSpline
 62
7
  6
CONTINUOUS
 70
0
 71
3
 72
15
 73
11
 74
0
 42
0.0000001
 43
0.0000001
 44
0.0000000001
 40
0.0
 40
0.0
 40
0.0
 40
0.0
 40
0.1215518082
 40
0.2425785323
 40
0.3642729918
 40
0.4872406383
 40
0.6116877976
 40
0.738148162
 40
0.8674000296
 40
1.0
 40
1.0
 40
1.0
 40
1.0
 10
7.9102149545
 20
20.8911649622
 30
0.0
 10
7.9102133864
 20
20.8992030005
 30
0.0
 10
7.9112969052
 20
20.9152655299
 30
0.0
 10
7.9161242369
 20
20.9389336644
 30
0.0
 10
7.9239911857
 20
20.9618683086
 30
0.0
 10
7.9346460613
 20
20.9838891669
 30
0.0
 10
7.9478670287
 20
21.0048385814
 30
0.0
 10
7.9634538009
 20
21.0246160145
 30
0.0
 10
7.9812028534
 20
21.0432183266
 30
0.0
 10
7.994191794
 20
21.0547026732
 30
0.0
 10
8.0009776906
 20
21.0602561045
 30
0.0
  0
SPLINE
  5
55C
100
AcDbEntity
  8
0
100
AcDbSpline
 62
9
  6
CONTINUOUS
 70
0
 71
3
 72
15
 73
11
 74
0
 42
0.0000001
 43
0.0000001
 44
0.0000000001
 40
0.0
 40
0.0
 40
0.0
 40
0.0
 40
0.1424013578
 40
0.2847218737
 40
0.4241909711
 40
0.5581869989
 40
0.6843121441
 40
0.8007535792
 40
0.9062067641
 40
1.0
 40
1.0
 40
1.0
 40
1.0
 10
8.0922466415
 20
20.7032879127
 30
0.0
 10
8.0884544813
 20
20.7030271537
 30
0.0
 10
8.0808474459
 20
20.7028204106
 30
0.0
 10
8.0695284248
 20
20.7034138791
 30
0.0
 10
8.058517341
 20
20.7049055848
 30
0.0
 10
8.0480957024
 20
20.7072445817
 30
0.0
 10
8.0385282292
 20
20.7103812836
 30
0.0
 10
8.0300486417
 20
20.7142321417
 30
0.0
 10
8.022881243
 20
20.7187125068
 30
0.0
 10
8.0188552659
 20
20.7222442461
 30
0.0
 10
8.0171678287
 20
20.7240937509
 30
0.0
  0
LINE
  5
55D
100
AcDbEntity
  8
0
100
AcDbLine
 62
9
  6
CONTINUOUS
 10
8.0158584587
 20
20.9083594569
 11
8.0162917033
 21
20.9088353177
  0
SPLINE
  5
55E
100
AcDbEntity
  8
0
100
AcDbSpline
 62
9
  6
CONTINUOUS
 70
0
 71
3
 72
9
 73
5
 74
0
 42
0.0000001
 43
0.0000001
 44
0.0000000001
 40
0.0
 40
0.0
 40
0.0
 40
0.0
 40
0.4963573835
 40
1.0
 40
1.0
 40
1.0
 40
1.0
 10
7.9102154645
 20
20.8911946729
 30
0.0
 10
7.9102161268
 20
20.8970376157
 30
0.0
 10
7.9110273144
 20
20.9088226707
 30
0.0
 10
7.9134195273
 20
20.9203880364
 30
0.0
 10
7.9149897849
 20
20.9261050109
 30
0.0
  0
SPLINE
  5
55F
100
AcDbEntity
  8
0
100
AcDbSpline
 62
9
  6
CONTINUOUS
 70
0
 71
3
 72
15
 73
11
 74
0
 42
0.0000001
 43
0.0000001
 44
0.0000000001
 40
0.0
 40
0.0
 40
0.0
 40
0.0
 40
0.1167037635
 40
0.2344061651
 40
0.3539646538
 40
0.476168667
 40
0.601653283
 40
0.7308679481
 40
0.8637937733
 40
1.0
 40
1.0
 40
1.0
 40
1.0
 10
7.9683089671
 20
20.7369436567
 30
0.0
 10
7.969696601
 20
20.7354235575
 30
0.0
 10
7.9727194116
 20
20.732576857
 30
0.0
 10
7.9778623602
 20
20.7290013093
 30
0.0
 10
7.9835548253
 20
20.7261614285
 30
0.0
 10
7.989716721
 20
20.724102407
 30
0.0
 10
7.9962620702
 20
20.7228416697
 30
0.0
 10
8.0031017591
 20
20.7224057425
 30
0.0
 10
8.0101312233
 20
20.7227886644
 30
0.0
 10
8.0148238068
 20
20.7235720983
 30
0.0
 10
8.0171688082
 20
20.7240930003
 30
0.0
  0
SPLINE
  5
560
100
AcDbEntity
  8
0
100
AcDbSpline
 62
7
  6
CONTINUOUS
 70
0
 71
3
 72
9
 73
5
 74
0
 42
0.0000001
 43
0.0000001
 44
0.0000000001
 40
0.0
 40
0.0
 40
0.0
 40
0.0
 40
0.2552101761
 40
1.0
 40
1.0
 40
1.0
 40
1.0
 10
8.0026838728
 20
21.0213169409
 30
0.0
 10
8.0008400531
 20
21.020011635
 30
0.0
 10
7.9936643904
 20
21.0148282791
 30
0.0
 10
7.9866895925
 20
21.0093652346
 30
0.0
 10
7.981635951
 20
21.0051313649
 30
0.0
  0
SPLINE
  5
561
100
AcDbEntity
  8
0
100
AcDbSpline
 62
7
  6
CONTINUOUS
 70
0
 71
3
 72
9
 73
5
 74
0
 42
0.0000001
 43
0.0000001
 44
0.0000000001
 40
0.0
 40
0.0
 40
0.0
 40
0.0
 40
0.2554097958
 40
1.0
 40
1.0
 40
1.0
 40
1.0
 10
7.981635951
 20
21.0051313649
 30
0.0
 10
7.979988395
 20
21.0037510657
 30
0.0
 10
7.9735961818
 20
20.9982776739
 30
0.0
 10
7.9674431442
 20
20.9925232625
 30
0.0
 10
7.963028044
 20
20.988077063
 30
0.0
  0
SPLINE
  5
562
100
AcDbEntity
  8
0
100
AcDbSpline
 62
7
  6
CONTINUOUS
 70
0
 71
3
 72
9
 73
5
 74
0
 42
0.0000001
 43
0.0000001
 44
0.0000000001
 40
0.0
 40
0.0
 40
0.0
 40
0.0
 40
0.2572168754
 40
1.0
 40
1.0
 40
1.0
 40
1.0
 10
7.963028044
 20
20.988077063
 30
0.0
 10
7.9611234114
 20
20.9861590144
 30
0.0
 10
7.9538386222
 20
20.9785846776
 30
0.0
 10
7.9470490364
 20
20.9705279897
 30
0.0
 10
7.9423724604
 20
20.9642781569
 30
0.0
  0
SPLINE
  5
563
100
AcDbEntity
  8
0
100
AcDbSpline
 62
7
  6
CONTINUOUS
 70
0
 71
3
 72
9
 73
5
 74
0
 42
0.0000001
 43
0.0000001
 44
0.0000000001
 40
0.0
 40
0.0
 40
0.0
 40
0.0
 40
0.2552030602
 40
1.0
 40
1.0
 40
1.0
 40
1.0
 10
7.9423724604
 20
20.9642781569
 30
0.0
 10
7.9412023116
 20
20.9627143559
 30
0.0
 10
7.9367064217
 20
20.9565206528
 30
0.0
 10
7.9325771484
 20
20.9500587274
 30
0.0
 10
7.9297500925
 20
20.9451090768
 30
0.0
  0
SPLINE
  5
564
100
AcDbEntity
  8
0
100
AcDbSpline
 62
7
  6
CONTINUOUS
 70
0
 71
3
 72
9
 73
5
 74
0
 42
0.0000001
 43
0.0000001
 44
0.0000000001
 40
0.0
 40
0.0
 40
0.0
 40
0.0
 40
0.2554718898
 40
1.0
 40
1.0
 40
1.0
 40
1.0
 10
7.9297500925
 20
20.9451090768
 30
0.0
 10
7.9286029683
 20
20.9431006749
 30
0.0
 10
7.924271644
 20
20.9351500448
 30
0.0
 10
7.9205984138
 20
20.926836218
 30
0.0
 10
7.9183108993
 20
20.9204956546
 30
0.0
  0
SPLINE
  5
565
100
AcDbEntity
  8
0
100
AcDbSpline
 62
7
  6
CONTINUOUS
 70
0
 71
3
 72
9
 73
5
 74
0
 42
0.0000001
 43
0.0000001
 44
0.0000000001
 40
0.0
 40
0.0
 40
0.0
 40
0.0
 40
0.504859266
 40
1.0
 40
1.0
 40
1.0
 40
1.0
 10
7.9183108993
 20
20.9204956546
 30
0.0
 10
7.9165602867
 20
20.915643283
 30
0.0
 10
7.9136037852
 20
20.9058384209
 30
0.0
 10
7.9117722032
 20
20.895760312
 30
0.0
 10
7.9111600177
 20
20.8907382851
 30
0.0
  0
SPLINE
  5
566
100
AcDbEntity
  8
0
100
AcDbSpline
 62
7
  6
CONTINUOUS
 70
0
 71
3
 72
15
 73
11
 74
0
 42
0.0000001
 43
0.0000001
 44
0.0000000001
 40
0.0
 40
0.0
 40
0.0
 40
0.0
 40
0.1215518075
 40
0.2425785323
 40
0.364272993
 40
0.4872406403
 40
0.6116877999
 40
0.7381481642
 40
0.8674000311
 40
1.0
 40
1.0
 40
1.0
 40
1.0
 10
7.91021497
 20
20.8911649831
 30
0.0
 10
7.9102134025
 20
20.8992030202
 30
0.0
 10
7.9112969221
 20
20.9152655469
 30
0.0
 10
7.9161242542
 20
20.9389336775
 30
0.0
 10
7.9239912026
 20
20.9618683179
 30
0.0
 10
7.934646077
 20
20.9838891727
 30
0.0
 10
7.9478670427
 20
21.0048385838
 30
0.0
 10
7.9634538124
 20
21.0246160137
 30
0.0
 10
7.9812028619
 20
21.0432183227
 30
0.0
 10
7.9941918003
 20
21.0547026675
 30
0.0
 10
8.0009776957
 20
21.0602560979
 30
0.0
  0
SPLINE
  5
567
100
AcDbEntity
  8
0
100
AcDbSpline
 62
7
  6
CONTINUOUS
 70
0
 71
3
 72
11
 73
7
 74
0
 42
0.0000001
 43
0.0000001
 44
0.0000000001
 40
0.0
 40
0.0
 40
0.0
 40
0.0
 40
0.2453107018
 40
0.4930340855
 40
0.743784195
 40
1.0
 40
1.0
 40
1.0
 40
1.0
 10
7.915913751
 20
20.8303092325
 30
0.0
 10
7.9181086122
 20
20.8217487364
 30
0.0
 10
7.9237580004
 20
20.8048397323
 30
0.0
 10
7.9355455036
 20
20.7806998071
 30
0.0
 10
7.9504307057
 20
20.7578739026
 30
0.0
 10
7.9620878296
 20
20.7437629742
 30
0.0
 10
7.9683088405
 20
20.7369441339
 30
0.0
  0
SPLINE
  5
568
100
AcDbEntity
  8
0
100
AcDbSpline
 62
7
  6
CONTINUOUS
 70
0
 71
3
 72
11
 73
7
 74
0
 42
0.0000001
 43
0.0000001
 44
0.0000000001
 40
0.0
 40
0.0
 40
0.0
 40
0.0
 40
0.2493672177
 40
0.4978139067
 40
0.747528501
 40
1.0
 40
1.0
 40
1.0
 40
1.0
 10
7.9683088853
 20
20.7369437091
 30
0.0
 10
7.9711388315
 20
20.7338418869
 30
0.0
 10
7.9771794063
 20
20.7279954812
 30
0.0
 10
7.9871987772
 20
20.7203372393
 30
0.0
 10
7.9980042118
 20
20.7137414478
 30
0.0
 10
8.0056205326
 20
20.7100372557
 30
0.0
 10
8.00952037
 20
20.7083452647
 30
0.0
  0
SPLINE
  5
569
100
AcDbEntity
  8
0
100
AcDbSpline
 62
7
  6
CONTINUOUS
 70
0
 71
3
 72
11
 73
7
 74
0
 42
0.0000001
 43
0.0000001
 44
0.0000000001
 40
0.0
 40
0.0
 40
0.0
 40
0.0
 40
0.2426033563
 40
0.4913087579
 40
0.7448271058
 40
1.0
 40
1.0
 40
1.0
 40
1.0
 10
8.00952037
 20
20.7083452647
 30
0.0
 10
8.0158823166
 20
20.7055850583
 30
0.0
 10
8.0291702753
 20
20.7008951645
 30
0.0
 10
8.049999442
 20
20.6962770712
 30
0.0
 10
8.0715631215
 20
20.6939367024
 30
0.0
 10
8.0861353041
 20
20.693882055
 30
0.0
 10
8.0934207386
 20
20.6942400479
 30
0.0
  0
SPLINE
  5
56A
100
AcDbEntity
  8
0
100
AcDbSpline
 62
9
  6
CONTINUOUS
 70
0
 71
3
 72
20
 73
16
 74
0
 42
0.0000001
 43
0.0000001
 44
0.0000000001
 40
0.0
 40
0.0
 40
0.0
 40
0.0
 40
0.1376375019
 40
0.2655817987
 40
0.3266415208
 40
0.3862195579
 40
0.4447499502
 40
0.5027000353
 40
0.5605518133
 40
0.6187881998
 40
0.6778819691
 40
0.7382760306
 40
0.8003694072
 40
0.8645157259
 40
1.0
 40
1.0
 40
1.0
 40
1.0
 10
8.017167832
 20
20.7240937519
 30
0.0
 10
8.0108569265
 20
20.7310111282
 30
0.0
 10
7.9995436259
 20
20.7451931966
 30
0.0
 10
7.9885940142
 20
20.7646697361
 30
0.0
 10
7.9824608657
 20
20.7804551267
 30
0.0
 10
7.9791709547
 20
20.7922132656
 30
0.0
 10
7.9771344514
 20
20.804038173
 30
0.0
 10
7.9763604104
 20
20.8158952195
 30
0.0
 10
7.9768478448
 20
20.8277474561
 30
0.0
 10
7.978595319
 20
20.8395586387
 30
0.0
 10
7.9816012626
 20
20.8512915508
 30
0.0
 10
7.9858515006
 20
20.862911082
 30
0.0
 10
7.9913301972
 20
20.8743859328
 30
0.0
 10
8.0004137621
 20
20.8897205675
 30
0.0
 10
8.0088062558
 20
20.9004907926
 30
0.0
 10
8.014954996
 20
20.9073572898
 30
0.0
  0
LINE
  5
56B
100
AcDbEntity
  8
0
100
AcDbLine
 62
9
  6
CONTINUOUS
 10
8.015858458
 20
20.9083594577
 11
8.0162917025
 21
20.9088353183
  0
SPLINE
  5
56C
100
AcDbEntity
  8
0
100
AcDbSpline
 62
9
  6
CONTINUOUS
 70
0
 71
3
 72
14
 73
10
 74
0
 42
0.0000001
 43
0.0000001
 44
0.0000000001
 40
0.0
 40
0.0
 40
0.0
 40
0.0
 40
0.1092173326
 40
0.2217553431
 40
0.3383650196
 40
0.4596827959
 40
0.5862017352
 40
0.7182906214
 40
1.0
 40
1.0
 40
1.0
 40
1.0
 10
7.9149897848
 20
20.9261050107
 30
0.0
 10
7.9163494165
 20
20.9310551412
 30
0.0
 10
7.9196698997
 20
20.9409598692
 30
0.0
 10
7.9262667942
 20
20.9554585407
 30
0.0
 10
7.9345174107
 20
20.9697442155
 30
0.0
 10
7.9443949203
 20
20.9837649973
 30
0.0
 10
7.9558611389
 20
20.9974800616
 30
0.0
 10
7.9735903336
 20
21.0156886981
 30
0.0
 10
7.9886173403
 20
21.0281494846
 30
0.0
 10
7.99926462
 20
21.0360208681
 30
0.0
  0
SPLINE
  5
56D
100
AcDbEntity
  8
0
100
AcDbSpline
 62
9
  6
CONTINUOUS
 70
0
 71
3
 72
15
 73
11
 74
0
 42
0.0000001
 43
0.0000001
 44
0.0000000001
 40
0.0
 40
0.0
 40
0.0
 40
0.0
 40
0.1167037555
 40
0.2344061464
 40
0.353964625
 40
0.4761686313
 40
0.6016532457
 40
0.7308679159
 40
0.8637937541
 40
1.0
 40
1.0
 40
1.0
 40
1.0
 10
7.9683088646
 20
20.7369436902
 30
0.0
 10
7.9696965001
 20
20.7354235862
 30
0.0
 10
7.972719315
 20
20.7325768766
 30
0.0
 10
7.977862273
 20
20.729001318
 30
0.0
 10
7.98355475
 20
20.726161429
 30
0.0
 10
7.9897166596
 20
20.7241024026
 30
0.0
 10
7.9962620242
 20
20.7228416639
 30
0.0
 10
8.0031017294
 20
20.7224057385
 30
0.0
 10
8.0101312103
 20
20.7227886658
 30
0.0
 10
8.0148238046
 20
20.7235721053
 30
0.0
 10
8.0171688113
 20
20.7240930106
 30
0.0
  0
LINE
  5
56E
100
AcDbEntity
  8
0
100
AcDbLine
 62
7
  6
CONTINUOUS
 10
12.6796762609
 20
14.6879855499
 11
12.678660611
 21
14.6888624634
  0
SPLINE
  5
56F
100
AcDbEntity
  8
0
100
AcDbSpline
 62
7
  6
CONTINUOUS
 70
0
 71
3
 72
51
 73
47
 74
0
 42
0.0000001
 43
0.0000001
 44
0.0000000001
 40
0.0
 40
0.0
 40
0.0
 40
0.0
 40
0.0186761094
 40
0.057363655
 40
0.1116001516
 40
0.1431907146
 40
0.1771541781
 40
0.2131177589
 40
0.231750608
 40
0.250771171
 40
0.2701491026
 40
0.2898566778
 40
0.3098688221
 40
0.330162633
 40
0.3507173144
 40
0.3715122614
 40
0.392528174
 40
0.4137433884
 40
0.4351325412
 40
0.4566642007
 40
0.4674735081
 40
0.4783031417
 40
0.4891463975
 40
0.4999966829
 40
0.5108469603
 40
0.5216902111
 40
0.5325198318
 40
0.5433291556
 40
0.5648608396
 40
0.586250022
 40
0.6074653118
 40
0.6284813369
 40
0.6492763818
 40
0.6698311725
 40
0.6901251178
 40
0.7101373868
 40
0.7298450953
 40
0.7492231491
 40
0.7682438411
 40
0.7868768362
 40
0.8228407263
 40
0.8568045352
 40
0.888395524
 40
0.9426331044
 40
0.9813221108
 40
1.0
 40
1.0
 40
1.0
 40
1.0
 10
12.678660611
 20
14.6888624634
 30
0.0
 10
12.6734139041
 20
14.6933912399
 30
0.0
 10
12.6572695237
 20
14.7072676732
 30
0.0
 10
12.6256723079
 20
14.7340437736
 30
0.0
 10
12.5900144999
 20
14.7634385483
 30
0.0
 10
12.5552453139
 20
14.7911427684
 30
0.0
 10
12.5254257761
 20
14.8141706979
 30
0.0
 10
12.4990199678
 20
14.8337435092
 30
0.0
 10
12.4767604735
 20
14.8495848914
 30
0.0
 10
12.459333476
 20
14.8615972765
 30
0.0
 10
12.4413658191
 20
14.8735227769
 30
0.0
 10
12.422849487
 20
14.8852798187
 30
0.0
 10
12.4037664445
 20
14.896767936
 30
0.0
 10
12.3840963356
 20
14.9078752896
 30
0.0
 10
12.3638132128
 20
14.9184656483
 30
0.0
 10
12.3428903777
 20
14.9283763865
 30
0.0
 10
12.3213078918
 20
14.9374163306
 30
0.0
 10
12.2990591301
 20
14.9453579599
 30
0.0
 10
12.2761697824
 20
14.9519469658
 30
0.0
 10
12.2566417954
 20
14.9560822384
 30
0.0
 10
12.2407947572
 20
14.9584634228
 30
0.0
 10
12.228806419
 20
14.9597595011
 30
0.0
 10
12.2167586667
 20
14.9605466483
 30
0.0
 10
12.2046802964
 20
14.9608093611
 30
0.0
 10
12.1926019208
 20
14.9605469951
 30
0.0
 10
12.1805541542
 20
14.9597602102
 30
0.0
 10
12.1685657816
 20
14.9584644533
 30
0.0
 10
12.152718667
 20
14.9560837081
 30
0.0
 10
12.1331905475
 20
14.9519489245
 30
0.0
 10
12.1103010066
 20
14.9453604131
 30
0.0
 10
12.0880520026
 20
14.9374192181
 30
0.0
 10
12.0664692734
 20
14.928379575
 30
0.0
 10
12.0455461991
 20
14.9184690654
 30
0.0
 10
12.0252628089
 20
14.9078789423
 30
0.0
 10
12.0055925053
 20
14.8967716547
 30
0.0
 10
11.9865092086
 20
14.8852836774
 30
0.0
 10
11.9679926964
 20
14.8735266549
 30
0.0
 10
11.9500248341
 20
14.8616012062
 30
0.0
 10
11.9325976601
 20
14.849588817
 30
0.0
 10
11.9103379071
 20
14.8337474244
 30
0.0
 10
11.8839317963
 20
14.8141745213
 30
0.0
 10
11.854111873
 20
14.7911464349
 30
0.0
 10
11.8193420895
 20
14.7634418596
 30
0.0
 10
11.7836833876
 20
14.7340464359
 30
0.0
 10
11.7520849263
 20
14.7072693226
 30
0.0
 10
11.7359396284
 20
14.693392112
 30
0.0
 10
11.7306924213
 20
14.688862904
 30
0.0
  0
LINE
  5
570
100
AcDbEntity
  8
0
100
AcDbLine
 62
7
  6
CONTINUOUS
 10
11.7306924213
 20
14.688862904
 11
11.7296762609
 21
14.6879855499
  0
SPLINE
  5
571
100
AcDbEntity
  8
0
100
AcDbSpline
 62
9
  6
CONTINUOUS
 70
0
 71
3
 72
13
 73
9
 74
0
 42
0.0000001
 43
0.0000001
 44
0.0000000001
 40
0.0
 40
0.0
 40
0.0
 40
0.0
 40
0.1254722026
 40
0.2505474854
 40
0.3753496242
 40
0.500020403
 40
0.749412515
 40
1.0
 40
1.0
 40
1.0
 40
1.0
 10
11.1169861751
 20
14.5719083769
 30
0.0
 10
11.1088431218
 20
14.5668503109
 30
0.0
 10
11.0929584309
 20
14.5561308424
 30
0.0
 10
11.0704261795
 20
14.5383529507
 30
0.0
 10
11.0492935422
 20
14.5190201171
 30
0.0
 10
11.0230664687
 20
14.4913276677
 30
0.0
 10
10.9939889255
 20
14.4532829072
 30
0.0
 10
10.9750909388
 20
14.4199328898
 30
0.0
 10
10.9667824831
 20
14.4026847567
 30
0.0
  0
SPLINE
  5
572
100
AcDbEntity
  8
0
100
AcDbSpline
 62
9
  6
CONTINUOUS
 70
0
 71
3
 72
13
 73
9
 74
0
 42
0.0000001
 43
0.0000001
 44
0.0000000001
 40
0.0
 40
0.0
 40
0.0
 40
0.0
 40
0.2505879843
 40
0.4999797552
 40
0.6246504874
 40
0.749452654
 40
0.8745279073
 40
1.0
 40
1.0
 40
1.0
 40
1.0
 10
10.9667820283
 20
14.0172871094
 30
0.0
 10
10.9750908493
 20
14.0000392093
 30
0.0
 10
10.9939870906
 20
13.9666883996
 30
0.0
 10
11.0230656362
 20
13.928644594
 30
0.0
 10
11.0492920323
 20
13.9009518172
 30
0.0
 10
11.0704248062
 20
13.8816193167
 30
0.0
 10
11.0929567643
 20
13.8638413129
 30
0.0
 10
11.1088412698
 20
13.8531217333
 30
0.0
 10
11.1169842791
 20
13.8480636973
 30
0.0
  0
SPLINE
  5
573
100
AcDbEntity
  8
0
100
AcDbSpline
 62
9
  6
CONTINUOUS
 70
0
 71
3
 72
34
 73
30
 74
0
 42
0.0000001
 43
0.0000001
 44
0.0000000001
 40
0.0
 40
0.0
 40
0.0
 40
0.0
 40
0.0000830483
 40
0.0003306365
 40
0.0007418632
 40
0.0013158272
 40
0.0020516275
 40
0.0029483638
 40
0.0052210435
 40
0.0081266696
 40
0.0116580512
 40
0.0158080035
 40
0.0205693478
 40
0.031897525
 40
0.0455852868
 40
0.0615754423
 40
0.0798109147
 40
0.1002347425
 40
0.1227834303
 40
0.173917137
 40
0.2325203607
 40
0.2979043938
 40
0.3693887806
 40
0.4463534102
 40
0.5283433093
 40
0.61494332
 40
0.705749798
 40
0.8003783142
 40
1.0
 40
1.0
 40
1.0
 40
1.0
 10
11.5865337111
 20
13.9599855499
 30
0.0
 10
11.5865352163
 20
13.9599874009
 30
0.0
 10
11.5865441089
 20
13.9599916459
 30
0.0
 10
11.5865605511
 20
13.9600049494
 30
0.0
 10
11.5865902068
 20
13.9600245502
 30
0.0
 10
11.5866304891
 20
13.9600531239
 30
0.0
 10
11.5866825456
 20
13.9600893272
 30
0.0
 10
11.5867743989
 20
13.9601537221
 30
0.0
 10
11.5869172611
 20
13.9602539717
 30
0.0
 10
11.5871217804
 20
13.9603981041
 30
0.0
 10
11.5873701016
 20
13.9605737063
 30
0.0
 10
11.5876615816
 20
13.9607806054
 30
0.0
 10
11.5881351134
 20
13.961117988
 30
0.0
 10
11.5888303852
 20
13.9616163382
 30
0.0
 10
11.5897853243
 20
13.9623061079
 30
0.0
 10
11.5908980814
 20
13.963116255
 30
0.0
 10
11.5921637053
 20
13.9640451884
 30
0.0
 10
11.5935771083
 20
13.9650911812
 30
0.0
 10
11.5957435806
 20
13.9667082694
 30
0.0
 10
11.5987717358
 20
13.9690044853
 30
0.0
 10
11.602744204
 20
13.9720914873
 30
0.0
 10
11.6071309876
 20
13.9755973488
 30
0.0
 10
11.6118705336
 20
13.9795056678
 30
0.0
 10
11.6169058824
 20
13.9838037066
 30
0.0
 10
11.6221876086
 20
13.9884802816
 30
0.0
 10
11.6276702514
 20
13.9935277611
 30
0.0
 10
11.6333093641
 20
13.9989391425
 30
0.0
 10
11.6411193691
 20
14.006773548
 30
0.0
 10
11.6468731131
 20
14.0129723053
 30
0.0
 10
11.6506689806
 20
14.0172708243
 30
0.0
  0
SPLINE
  5
574
100
AcDbEntity
  8
0
100
AcDbSpline
 62
9
  6
CONTINUOUS
 70
0
 71
3
 72
27
 73
23
 74
0
 42
0.0000001
 43
0.0000001
 44
0.0000000001
 40
0.0
 40
0.0
 40
0.0
 40
0.0
 40
0.2147169793
 40
0.4092143921
 40
0.5806976416
 40
0.6569127151
 40
0.7262934256
 40
0.7884764036
 40
0.843149628
 40
0.8900700545
 40
0.9289988042
 40
0.9453915025
 40
0.9596964415
 40
0.9718836047
 40
0.9819229434
 40
0.9897843776
 40
0.9928889724
 40
0.9954377972
 40
0.9974270835
 40
0.998853061
 40
0.9997119577
 40
1.0
 40
1.0
 40
1.0
 40
1.0
 10
11.6149391141
 20
14.4378379641
 30
0.0
 10
11.6129815673
 20
14.4395168296
 30
0.0
 10
11.6092177578
 20
14.4426781623
 30
0.0
 10
11.6037909233
 20
14.4470597287
 30
0.0
 10
11.5996027334
 20
14.4503259973
 30
0.0
 10
11.5965737142
 20
14.4526343182
 30
0.0
 10
11.5945791392
 20
14.4541341414
 30
0.0
 10
11.592784013
 20
14.4554686382
 30
0.0
 10
11.5911998428
 20
14.4566347072
 30
0.0
 10
11.589835931
 20
14.4576288273
 30
0.0
 10
11.5888403164
 20
14.4583476481
 30
0.0
 10
11.5881606031
 20
14.4588347913
 30
0.0
 10
11.5877412987
 20
14.4591339262
 30
0.0
 10
11.5873835627
 20
14.4593879717
 30
0.0
 10
11.5870885057
 20
14.4595966106
 30
0.0
 10
11.5868821715
 20
14.459741792
 30
0.0
 10
11.5867493421
 20
14.4598350738
 30
0.0
 10
11.5866740262
 20
14.4598875821
 30
0.0
 10
11.5866156048
 20
14.4599289462
 30
0.0
 10
11.5865728076
 20
14.4599575257
 30
0.0
 10
11.5865486511
 20
14.4599765495
 30
0.0
 10
11.5865360831
 20
14.4599829844
 30
0.0
 10
11.5865337622
 20
14.4599855499
 30
0.0
  0
SPLINE
  5
575
100
AcDbEntity
  8
0
100
AcDbSpline
 62
9
  6
CONTINUOUS
 70
0
 71
3
 72
20
 73
16
 74
0
 42
0.0000001
 43
0.0000001
 44
0.0000000001
 40
0.0
 40
0.0
 40
0.0
 40
0.0
 40
0.1309728342
 40
0.2613004513
 40
0.3904905822
 40
0.4545304315
 40
0.5181472122
 40
0.5812186034
 40
0.643649395
 40
0.705288523
 40
0.7660583839
 40
0.825851104
 40
0.8846339976
 40
0.9426304423
 40
1.0
 40
1.0
 40
1.0
 40
1.0
 10
11.7286303627
 20
13.9433485704
 30
0.0
 10
11.725697963
 20
13.9422101638
 30
0.0
 10
11.7199008326
 20
13.9397982067
 30
0.0
 10
11.7114428638
 20
13.935734841
 30
0.0
 10
11.7046701389
 20
13.9319075272
 30
0.0
 10
11.6995001581
 20
13.928538969
 30
0.0
 10
11.6957802421
 20
13.9258624728
 30
0.0
 10
11.6922419455
 20
13.923010242
 30
0.0
 10
11.688926774
 20
13.9199698834
 30
0.0
 10
11.6858899341
 20
13.916724669
 30
0.0
 10
11.683200088
 20
13.913263877
 30
0.0
 10
11.6809374059
 20
13.9095864896
 30
0.0
 10
11.6792105922
 20
13.9056962939
 30
0.0
 10
11.6781239415
 20
13.9016393613
 30
0.0
 10
11.6778649692
 20
13.8988634153
 30
0.0
 10
11.6778649716
 20
13.8974855499
 30
0.0
  0
SPLINE
  5
576
100
AcDbEntity
  8
0
100
AcDbSpline
 62
9
  6
CONTINUOUS
 70
0
 71
3
 72
23
 73
19
 74
0
 42
0.0000001
 43
0.0000001
 44
0.0000000001
 40
0.0
 40
0.0
 40
0.0
 40
0.0
 40
0.0139801719
 40
0.0282308958
 40
0.0431636464
 40
0.0590608464
 40
0.0942890567
 40
0.134389528
 40
0.1791494575
 40
0.2286474027
 40
0.2829503646
 40
0.3420149493
 40
0.4057900717
 40
0.4744523172
 40
0.5482417017
 40
0.6273990156
 40
0.8023659493
 40
1.0
 40
1.0
 40
1.0
 40
1.0
 10
11.677867941
 20
13.4699855496
 30
0.0
 10
11.6778679168
 20
13.4696362517
 30
0.0
 10
11.6779411694
 20
13.4689289522
 30
0.0
 10
11.6782608605
 20
13.4678929392
 30
0.0
 10
11.6787735333
 20
13.4668847126
 30
0.0
 10
11.6797275949
 20
13.4655323797
 30
0.0
 10
11.68136674
 20
13.46392466
 30
0.0
 10
11.6838131947
 20
13.4621759965
 30
0.0
 10
11.6867464568
 20
13.4605322039
 30
0.0
 10
11.6901306999
 20
13.4589993842
 30
0.0
 10
11.693942748
 20
13.4575689997
 30
0.0
 10
11.6981636973
 20
13.456232449
 30
0.0
 10
11.702782934
 20
13.4549801274
 30
0.0
 10
11.7078063351
 20
13.4538278443
 30
0.0
 10
11.71324591
 20
13.4527877138
 30
0.0
 10
11.7213422749
 20
13.4515244937
 30
0.0
 10
11.7325749361
 20
13.4503362796
 30
0.0
 10
11.7418876594
 20
13.4499857024
 30
0.0
 10
11.7468255929
 20
13.4499855498
 30
0.0
  0
SPLINE
  5
577
100
AcDbEntity
  8
0
100
AcDbSpline
 62
9
  6
CONTINUOUS
 70
0
 71
3
 72
20
 73
16
 74
0
 42
0.0000001
 43
0.0000001
 44
0.0000000001
 40
0.0
 40
0.0
 40
0.0
 40
0.0
 40
0.0293850972
 40
0.061101364
 40
0.0966440436
 40
0.1370649413
 40
0.1830106633
 40
0.2347754168
 40
0.2923214775
 40
0.3554093796
 40
0.4237008204
 40
0.4967134092
 40
0.6546495895
 40
0.8243925199
 40
1.0
 40
1.0
 40
1.0
 40
1.0
 10
11.5865661785
 20
13.9599855404
 30
0.0
 10
11.5858859392
 20
13.9599855403
 30
0.0
 10
11.5844648324
 20
13.9597626635
 30
0.0
 10
11.582414145
 20
13.9588136816
 30
0.0
 10
11.5804319058
 20
13.9572742031
 30
0.0
 10
11.5785375637
 20
13.9551676462
 30
0.0
 10
11.5767305588
 20
13.9525209161
 30
0.0
 10
11.5750189196
 20
13.9493549271
 30
0.0
 10
11.5734137591
 20
13.9456971212
 30
0.0
 10
11.5719313723
 20
13.9415795258
 30
0.0
 10
11.570589436
 20
13.9370399097
 30
0.0
 10
11.5689587347
 20
13.9303050749
 30
0.0
 10
11.5673855809
 20
13.9211522775
 30
0.0
 10
11.5662502228
 20
13.9095489789
 30
0.0
 10
11.5659952561
 20
13.9015517718
 30
0.0
 10
11.5659952447
 20
13.8974866121
 30
0.0
  0
SPLINE
  5
578
100
AcDbEntity
  8
0
100
AcDbSpline
 62
9
  6
CONTINUOUS
 70
0
 71
3
 72
20
 73
16
 74
0
 42
0.0000001
 43
0.0000001
 44
0.0000000001
 40
0.0
 40
0.0
 40
0.0
 40
0.0
 40
0.1858290908
 40
0.3660434018
 40
0.5324417495
 40
0.6081869445
 40
0.6778109385
 40
0.7406206069
 40
0.7964270297
 40
0.8452086283
 40
0.887040621
 40
0.9222732108
 40
0.9518848171
 40
0.9772354182
 40
1.0
 40
1.0
 40
1.0
 40
1.0
 10
11.5659948129
 20
13.897486233
 30
0.0
 10
11.5639428532
 20
13.9000827718
 30
0.0
 10
11.5600111249
 20
13.9052858453
 30
0.0
 10
11.5546568765
 20
13.9131165849
 30
0.0
 10
11.5507817838
 20
13.9195708815
 30
0.0
 10
11.5481966698
 20
13.9244861875
 30
0.0
 10
11.5466148894
 20
13.927840953
 30
0.0
 10
11.5453496529
 20
13.9309474789
 30
0.0
 10
11.544402518
 20
13.9337768104
 30
0.0
 10
11.5437689499
 20
13.9363096002
 30
0.0
 10
11.5434424857
 20
13.9385319038
 30
0.0
 10
11.5434211011
 20
13.9404390133
 30
0.0
 10
11.5436892956
 20
13.9420340195
 30
0.0
 10
11.5442316139
 20
13.9433237708
 30
0.0
 10
11.5447845742
 20
13.9439982647
 30
0.0
 10
11.5450880381
 20
13.9442671027
 30
0.0
  0
SPLINE
  5
579
100
AcDbEntity
  8
0
100
AcDbSpline
 62
9
  6
CONTINUOUS
 70
0
 71
3
 72
16
 73
12
 74
0
 42
0.0000001
 43
0.0000001
 44
0.0000000001
 40
0.0
 40
0.0
 40
0.0
 40
0.0
 40
0.0444875888
 40
0.0900245679
 40
0.1866570018
 40
0.2943732711
 40
0.4149845345
 40
0.54828034
 40
0.6924302981
 40
0.8445273983
 40
1.0
 40
1.0
 40
1.0
 40
1.0
 10
11.7737075098
 20
13.4499855499
 30
0.0
 10
11.7740794897
 20
13.4499855499
 30
0.0
 10
11.7748337724
 20
13.4499184553
 30
0.0
 10
11.7763488711
 20
13.4495190711
 30
0.0
 10
11.7782116158
 20
13.448499633
 30
0.0
 10
11.7801805464
 20
13.4465928448
 30
0.0
 10
11.7818898911
 20
13.4440781926
 30
0.0
 10
11.7832822798
 20
13.4410412217
 30
0.0
 10
11.7843182657
 20
13.4375916343
 30
0.0
 10
11.7849496969
 20
13.4338593744
 30
0.0
 10
11.7850947797
 20
13.4312855232
 30
0.0
 10
11.7850947797
 20
13.4299855499
 30
0.0
  0
SPLINE
  5
57A
100
AcDbEntity
  8
0
100
AcDbSpline
 62
9
  6
CONTINUOUS
 70
0
 71
3
 72
16
 73
12
 74
0
 42
0.0000001
 43
0.0000001
 44
0.0000000001
 40
0.0
 40
0.0
 40
0.0
 40
0.0
 40
0.1554726017
 40
0.3075697019
 40
0.4517196599
 40
0.5850154654
 40
0.7056267288
 40
0.8133429982
 40
0.9099754321
 40
0.9555124112
 40
1.0
 40
1.0
 40
1.0
 40
1.0
 10
11.7850947797
 20
13.1199855499
 30
0.0
 10
11.7850947797
 20
13.1186855765
 30
0.0
 10
11.7849496969
 20
13.1161117253
 30
0.0
 10
11.7843182657
 20
13.1123794655
 30
0.0
 10
11.7832822798
 20
13.108929878
 30
0.0
 10
11.7818898911
 20
13.1058929071
 30
0.0
 10
11.7801805464
 20
13.1033782549
 30
0.0
 10
11.7782116158
 20
13.1014714668
 30
0.0
 10
11.7763488711
 20
13.1004520286
 30
0.0
 10
11.7748337724
 20
13.1000526445
 30
0.0
 10
11.7740794897
 20
13.0999855499
 30
0.0
 10
11.7737075098
 20
13.0999855499
 30
0.0
  0
SPLINE
  5
57B
100
AcDbEntity
  8
0
100
AcDbSpline
 62
9
  6
CONTINUOUS
 70
0
 71
3
 72
20
 73
16
 74
0
 42
0.0000001
 43
0.0000001
 44
0.0000000001
 40
0.0
 40
0.0
 40
0.0
 40
0.0
 40
0.175680606
 40
0.3454932091
 40
0.5034967353
 40
0.5765409522
 40
0.644860201
 40
0.7079712303
 40
0.7655415509
 40
0.8173424594
 40
0.8633324731
 40
0.9037558118
 40
0.9391867365
 40
0.9707140197
 40
1.0
 40
1.0
 40
1.0
 40
1.0
 10
11.565996598
 20
14.5224855518
 30
0.0
 10
11.565996598
 20
14.5184204101
 30
0.0
 10
11.5662504291
 20
14.5104232478
 30
0.0
 10
11.5673849708
 20
14.4988198627
 30
0.0
 10
11.5689586404
 20
14.4896671426
 30
0.0
 10
11.5705895354
 20
14.4829323406
 30
0.0
 10
11.5719311543
 20
14.478392728
 30
0.0
 10
11.5734125018
 20
14.4742748782
 30
0.0
 10
11.5750171868
 20
14.4706165469
 30
0.0
 10
11.5767307458
 20
14.4674504671
 30
0.0
 10
11.5785406679
 20
14.4648050099
 30
0.0
 10
11.5804326607
 20
14.4627004725
 30
0.0
 10
11.5824030862
 20
14.4611595738
 30
0.0
 10
11.5844413502
 20
14.4602073141
 30
0.0
 10
11.5858555735
 20
14.4599855695
 30
0.0
 10
11.5865332331
 20
14.4599855499
 30
0.0
  0
SPLINE
  5
57C
100
AcDbEntity
  8
0
100
AcDbSpline
 62
9
  6
CONTINUOUS
 70
0
 71
3
 72
20
 73
16
 74
0
 42
0.0000001
 43
0.0000001
 44
0.0000000001
 40
0.0
 40
0.0
 40
0.0
 40
0.0
 40
0.022764426
 40
0.0481150446
 40
0.0777268548
 40
0.1129598438
 40
0.1547923457
 40
0.2035744633
 40
0.2593814224
 40
0.3221916623
 40
0.3918161587
 40
0.4675616569
 40
0.6339599787
 40
0.8141732544
 40
1.0
 40
1.0
 40
1.0
 40
1.0
 10
11.5450878749
 20
14.4757041486
 30
0.0
 10
11.544784411
 20
14.4759730007
 30
0.0
 10
11.5442314547
 20
14.4766475285
 30
0.0
 10
11.5436891559
 20
14.4779373343
 30
0.0
 10
11.5434209917
 20
14.4795324055
 30
0.0
 10
11.5434424199
 20
14.481439591
 30
0.0
 10
11.5437689374
 20
14.48366198
 30
0.0
 10
11.5444025678
 20
14.4861948631
 30
0.0
 10
11.5453497764
 20
14.4890242944
 30
0.0
 10
11.5466150987
 20
14.4921309244
 30
0.0
 10
11.548196972
 20
14.4954857955
 30
0.0
 10
11.5507822137
 20
14.5004012373
 30
0.0
 10
11.554657468
 20
14.5068556832
 30
0.0
 10
11.5600119006
 20
14.5146865662
 30
0.0
 10
11.563943745
 20
14.5198897205
 30
0.0
 10
11.5659957588
 20
14.5224862892
 30
0.0
  0
SPLINE
  5
57D
100
AcDbEntity
  8
0
100
AcDbSpline
 62
9
  6
CONTINUOUS
 70
0
 71
3
 72
15
 73
11
 74
0
 42
0.0000001
 43
0.0000001
 44
0.0000000001
 40
0.0
 40
0.0
 40
0.0
 40
0.0
 40
0.1176940519
 40
0.2371356962
 40
0.3589316541
 40
0.483159294
 40
0.6095285304
 40
0.7381532108
 40
0.8685705654
 40
1.0
 40
1.0
 40
1.0
 40
1.0
 10
11.6778648866
 20
14.5224855499
 30
0.0
 10
11.6778648929
 20
14.5207486862
 30
0.0
 10
11.6782760941
 20
14.5172391983
 30
0.0
 10
11.6799830303
 20
14.5121902094
 30
0.0
 10
11.6826317671
 20
14.5074638985
 30
0.0
 10
11.6859738248
 20
14.5030840373
 30
0.0
 10
11.6898571172
 20
14.4990404574
 30
0.0
 10
11.6941680011
 20
14.4953199822
 30
0.0
 10
11.6988025681
 20
14.4918890277
 30
0.0
 10
11.702039269
 20
14.4897742053
 30
0.0
 10
11.7036896353
 20
14.4887552867
 30
0.0
  0
SPLINE
  5
57E
100
AcDbEntity
  8
0
100
AcDbSpline
 62
7
  6
CONTINUOUS
 70
0
 71
3
 72
11
 73
7
 74
0
 42
0.0000001
 43
0.0000001
 44
0.0000000001
 40
0.0
 40
0.0
 40
0.0
 40
0.0
 40
0.1678450197
 40
0.3816745528
 40
0.6544910602
 40
1.0
 40
1.0
 40
1.0
 40
1.0
 10
11.7485732904
 20
14.0243151571
 30
0.0
 10
11.7466430511
 20
14.0227826081
 30
0.0
 10
11.7427866663
 20
14.0186291711
 30
0.0
 10
11.7377226897
 20
14.0104205461
 30
0.0
 10
11.7327819053
 20
13.9992112827
 30
0.0
 10
11.7300215661
 20
13.9905461423
 30
0.0
 10
11.7286528153
 20
13.9856607697
 30
0.0
  0
SPLINE
  5
57F
100
AcDbEntity
  8
0
100
AcDbSpline
 62
7
  6
CONTINUOUS
 70
0
 71
3
 72
11
 73
7
 74
0
 42
0.0000001
 43
0.0000001
 44
0.0000000001
 40
0.0
 40
0.0
 40
0.0
 40
0.0
 40
0.1678450197
 40
0.3816745528
 40
0.6544910602
 40
1.0
 40
1.0
 40
1.0
 40
1.0
 10
12.6607792314
 20
14.0243151571
 30
0.0
 10
12.6627094706
 20
14.0227826081
 30
0.0
 10
12.6665658554
 20
14.0186291711
 30
0.0
 10
12.671629832
 20
14.0104205461
 30
0.0
 10
12.6765706164
 20
13.9992112827
 30
0.0
 10
12.6793309557
 20
13.9905461423
 30
0.0
 10
12.6806997065
 20
13.9856607697
 30
0.0
  0
SPLINE
  5
580
100
AcDbEntity
  8
0
100
AcDbSpline
 62
7
  6
CONTINUOUS
 70
0
 71
3
 72
11
 73
7
 74
0
 42
0.0000001
 43
0.0000001
 44
0.0000000001
 40
0.0
 40
0.0
 40
0.0
 40
0.0
 40
0.3454912777
 40
0.618338538
 40
0.8321460208
 40
1.0
 40
1.0
 40
1.0
 40
1.0
 10
12.6806997065
 20
13.58031033
 30
0.0
 10
12.6793308641
 20
13.5754246305
 30
0.0
 10
12.6765713233
 20
13.566758196
 30
0.0
 10
12.6716327297
 20
13.5555458024
 30
0.0
 10
12.6665618222
 20
13.5473403565
 30
0.0
 10
12.6627091595
 20
13.5431832223
 30
0.0
 10
12.6607793193
 20
13.5416494917
 30
0.0
  0
SPLINE
  5
581
100
AcDbEntity
  8
0
100
AcDbSpline
 62
7
  6
CONTINUOUS
 70
0
 71
3
 72
33
 73
29
 74
0
 42
0.0000001
 43
0.0000001
 44
0.0000000001
 40
0.0
 40
0.0
 40
0.0
 40
0.0
 40
0.083780175
 40
0.1674803332
 40
0.250289589
 40
0.3315097743
 40
0.410452679
 40
0.4864357383
 40
0.5588292064
 40
0.6270507357
 40
0.6905958585
 40
0.7490379481
 40
0.7762449971
 40
0.8020673789
 40
0.8265109214
 40
0.8495920775
 40
0.8713346736
 40
0.8918014092
 40
0.9110800876
 40
0.929303852
 40
0.9381326035
 40
0.9468538196
 40
0.9555328361
 40
0.9642360797
 40
0.9730029652
 40
0.9818581394
 40
0.9908394469
 40
1.0
 40
1.0
 40
1.0
 40
1.0
 10
10.9194885553
 20
-0.5606840919
 30
0.0
 10
10.9181570386
 20
-0.6736740681
 30
0.0
 10
10.9171229701
 20
-0.8995685015
 30
0.0
 10
10.9203742709
 20
-1.237139786
 30
0.0
 10
10.9284163512
 20
-1.5711783183
 30
0.0
 10
10.9411697442
 20
-1.8986495444
 30
0.0
 10
10.9585197318
 20
-2.2166905595
 30
0.0
 10
10.9803290607
 20
-2.522524591
 30
0.0
 10
11.006407063
 20
-2.8135109146
 30
0.0
 10
11.0365578335
 20
-3.0872366635
 30
0.0
 10
11.0705727738
 20
-3.341539381
 30
0.0
 10
11.1026997709
 20
-3.5402180481
 30
0.0
 10
11.1304773172
 20
-3.6879832649
 30
0.0
 10
11.1516948075
 20
-3.7903045825
 30
0.0
 10
11.1738438319
 20
-3.8867282231
 30
0.0
 10
11.1969872626
 20
-3.9772510121
 30
0.0
 10
11.2211966689
 20
-4.0619315527
 30
0.0
 10
11.2466260941
 20
-4.1408879082
 30
0.0
 10
11.2735000789
 20
-4.2143306989
 30
0.0
 10
11.2976022562
 20
-4.2720203522
 30
0.0
 10
11.3182803972
 20
-4.315623712
 30
0.0
 10
11.3345647054
 20
-4.3470384483
 30
0.0
 10
11.3519839855
 20
-4.3776448018
 30
0.0
 10
11.3706826209
 20
-4.4075614624
 30
0.0
 10
11.3909203548
 20
-4.4367547872
 30
0.0
 10
11.4130316945
 20
-4.4650425651
 30
0.0
 10
11.4373038233
 20
-4.4922214641
 30
0.0
 10
11.4549092381
 20
-4.5092550556
 30
0.0
 10
11.4641157827
 20
-4.5174946558
 30
0.0
  0
SPLINE
  5
582
100
AcDbEntity
  8
0
100
AcDbSpline
 62
7
  6
CONTINUOUS
 70
0
 71
3
 72
21
 73
17
 74
0
 42
0.0000001
 43
0.0000001
 44
0.0000000001
 40
0.0
 40
0.0
 40
0.0
 40
0.0
 40
0.261015813
 40
0.4803505846
 40
0.5732026119
 40
0.6542001827
 40
0.7228583204
 40
0.7786934007
 40
0.8213551213
 40
0.8377090035
 40
0.850725659
 40
0.8690474982
 40
0.8804707275
 40
0.9059168755
 40
0.9456583007
 40
1.0
 40
1.0
 40
1.0
 40
1.0
 10
11.8189679875
 20
-4.063894135
 30
0.0
 10
11.8210778898
 20
-4.0681810725
 30
0.0
 10
11.8250669769
 20
-4.0760185174
 30
0.0
 10
11.8300943746
 20
-4.0852311316
 30
0.0
 10
11.8336950659
 20
-4.0914622745
 30
0.0
 10
11.8359829164
 20
-4.0952697407
 30
0.0
 10
11.8379763149
 20
-4.0984513767
 30
0.0
 10
11.8396752176
 20
-4.1010209602
 30
0.0
 10
11.8408559129
 20
-4.102705714
 30
0.0
 10
11.8416837831
 20
-4.1038176477
 30
0.0
 10
11.8421052127
 20
-4.1043867632
 30
0.0
 10
11.8430583717
 20
-4.1055493286
 30
0.0
 10
11.8420296095
 20
-4.1044195519
 30
0.0
 10
11.8412258767
 20
-4.1036313671
 30
0.0
 10
11.8395563364
 20
-4.1019993755
 30
0.0
 10
11.8383166588
 20
-4.1008716922
 30
0.0
 10
11.8375754152
 20
-4.1002082999
 30
0.0
  0
SPLINE
  5
583
100
AcDbEntity
  8
0
100
AcDbSpline
 62
7
  6
CONTINUOUS
 70
0
 71
3
 72
27
 73
23
 74
0
 42
0.0000001
 43
0.0000001
 44
0.0000000001
 40
0.0
 40
0.0
 40
0.0
 40
0.0
 40
0.0823804724
 40
0.1647802579
 40
0.2465347981
 40
0.3270750013
 40
0.4058459497
 40
0.4822803056
 40
0.5558200882
 40
0.625929508
 40
0.6920854028
 40
0.7537799569
 40
0.8105087243
 40
0.8617688903
 40
0.8851862498
 40
0.9070377274
 40
0.9272527886
 40
0.9457359234
 40
0.9623830462
 40
0.9770823761
 40
0.989678009
 40
1.0
 40
1.0
 40
1.0
 40
1.0
 10
11.4794496753
 20
-0.5672828858
 30
0.0
 10
11.4783079995
 20
-0.6641633234
 30
0.0
 10
11.4772523922
 20
-0.8579635045
 30
0.0
 10
11.479290867
 20
-1.1479116114
 30
0.0
 10
11.4849523819
 20
-1.4356475381
 30
0.0
 10
11.494181228
 20
-1.7190212539
 30
0.0
 10
11.5069120783
 20
-1.9959963088
 30
0.0
 10
11.5230364668
 20
-2.2645477847
 30
0.0
 10
11.5424342819
 20
-2.5226693605
 30
0.0
 10
11.5649341372
 20
-2.768403974
 30
0.0
 10
11.5903427742
 20
-2.9998467878
 30
0.0
 10
11.6184187385
 20
-3.2151237373
 30
0.0
 10
11.6488579269
 20
-3.4123722549
 30
0.0
 10
11.6766408501
 20
-3.5644288357
 30
0.0
 10
11.6999592384
 20
-3.6755411787
 30
0.0
 10
11.7172131718
 20
-3.7506043503
 30
0.0
 10
11.7346805567
 20
-3.819647516
 30
0.0
 10
11.7521853752
 20
-3.8823483784
 30
0.0
 10
11.7695176481
 20
-3.9383405995
 30
0.0
 10
11.78646079
 20
-3.9871765379
 30
0.0
 10
11.8025643469
 20
-4.0283953294
 30
0.0
 10
11.8136073135
 20
-4.0530022212
 30
0.0
 10
11.8189679875
 20
-4.063894135
 30
0.0
  0
SPLINE
  5
584
100
AcDbEntity
  8
0
100
AcDbSpline
 62
7
  6
CONTINUOUS
 70
0
 71
3
 72
11
 73
7
 74
0
 42
0.0000001
 43
0.0000001
 44
0.0000000001
 40
0.0
 40
0.0
 40
0.0
 40
0.0
 40
0.3454912777
 40
0.618338538
 40
0.8321460208
 40
1.0
 40
1.0
 40
1.0
 40
1.0
 10
11.7286528153
 20
13.58031033
 30
0.0
 10
11.7300216577
 20
13.5754246305
 30
0.0
 10
11.7327811984
 20
13.566758196
 30
0.0
 10
11.737719792
 20
13.5555458024
 30
0.0
 10
11.7427906995
 20
13.5473403565
 30
0.0
 10
11.7466433622
 20
13.5431832223
 30
0.0
 10
11.7485732024
 20
13.5416494917
 30
0.0
  0
SPLINE
  5
585
100
AcDbEntity
  8
0
100
AcDbSpline
 62
9
  6
CONTINUOUS
 70
0
 71
3
 72
23
 73
19
 74
0
 42
0.0000001
 43
0.0000001
 44
0.0000000001
 40
0.0
 40
0.0
 40
0.0
 40
0.0
 40
0.184867407
 40
0.3674454478
 40
0.5388988681
 40
0.691632705
 40
0.758769368
 40
0.8186760151
 40
0.8707311748
 40
0.9143467953
 40
0.932837692
 40
0.9490716318
 40
0.963025759
 40
0.9746884413
 40
0.9840707225
 40
0.9879257125
 40
0.9912459378
 40
1.0
 40
1.0
 40
1.0
 40
1.0
 10
11.3506182114
 20
8.7069587077
 30
0.0
 10
11.3306094325
 20
8.7069587077
 30
0.0
 10
11.290838983
 20
8.7073002429
 30
0.0
 10
11.2325277143
 20
8.7087574517
 30
0.0
 10
11.1777261943
 20
8.7111036831
 30
0.0
 10
11.1354525899
 20
8.7137933798
 30
0.0
 10
11.105280556
 20
8.7163750977
 30
0.0
 10
11.0859974825
 20
8.7183678619
 30
0.0
 10
11.0692892924
 20
8.7204707747
 30
0.0
 10
11.057077817
 20
8.7223784384
 30
0.0
 10
11.0487517345
 20
8.723986061
 30
0.0
 10
11.0436090281
 20
8.7251366808
 30
0.0
 10
11.0392286771
 20
8.7262930004
 30
0.0
 10
11.0356185754
 20
8.7274552035
 30
0.0
 10
11.0331232007
 20
8.7284691493
 30
0.0
 10
11.0315298174
 20
8.7293180857
 30
0.0
 10
11.0301125226
 20
8.7302256558
 30
0.0
 10
11.0289965866
 20
8.7313622984
 30
0.0
 10
11.0290081673
 20
8.7323097072
 30
0.0
  0
SPLINE
  5
586
100
AcDbEntity
  8
0
100
AcDbSpline
 62
9
  6
CONTINUOUS
 70
0
 71
3
 72
24
 73
20
 74
0
 42
0.0000001
 43
0.0000001
 44
0.0000000001
 40
0.0
 40
0.0
 40
0.0
 40
0.0
 40
0.2000047192
 40
0.3887951498
 40
0.5597603924
 40
0.6369480838
 40
0.7078022552
 40
0.7718140902
 40
0.8285067593
 40
0.8774152087
 40
0.9181879887
 40
0.9354640625
 40
0.9506425723
 40
0.9637153039
 40
0.9746884194
 40
0.9835979006
 40
0.9905562537
 40
0.9958253978
 40
1.0
 40
1.0
 40
1.0
 40
1.0
 10
11.2411060514
 20
-0.5860351793
 30
0.0
 10
11.2571729988
 20
-0.5860351793
 30
0.0
 10
11.2884065803
 20
-0.58581818
 30
0.0
 10
11.3333645781
 20
-0.5848308055
 30
0.0
 10
11.3684406412
 20
-0.5834406334
 30
0.0
 10
11.3940265122
 20
-0.5819834018
 30
0.0
 10
11.4110200003
 20
-0.5807878708
 30
0.0
 10
11.4263521964
 20
-0.5794646888
 30
0.0
 10
11.439902912
 20
-0.5780274997
 30
0.0
 10
11.4515616087
 20
-0.5764873732
 30
0.0
 10
11.4600385127
 20
-0.5750648577
 30
0.0
 10
11.4657953929
 20
-0.5738511149
 30
0.0
 10
11.4693469914
 20
-0.572974375
 30
0.0
 10
11.472370835
 20
-0.5720830203
 30
0.0
 10
11.4748613251
 20
-0.5711792061
 30
0.0
 10
11.4768194555
 20
-0.5702650881
 30
0.0
 10
11.4782484351
 20
-0.569335252
 30
0.0
 10
11.4791802419
 20
-0.5683746315
 30
0.0
 10
11.4794381244
 20
-0.5676181306
 30
0.0
 10
11.4794422234
 20
-0.567282798
 30
0.0
  0
SPLINE
  5
587
100
AcDbEntity
  8
0
100
AcDbSpline
 62
9
  6
CONTINUOUS
 70
0
 71
3
 72
21
 73
17
 74
0
 42
0.0000001
 43
0.0000001
 44
0.0000000001
 40
0.0
 40
0.0
 40
0.0
 40
0.0
 40
0.1247231668
 40
0.2501192687
 40
0.3758525982
 40
0.4388898302
 40
0.5018519686
 40
0.5646872478
 40
0.6273659777
 40
0.6898578593
 40
0.721057059
 40
0.7522095721
 40
0.8143346798
 40
0.8763139559
 40
0.9381835736
 40
1.0
 40
1.0
 40
1.0
 40
1.0
 10
11.6563724163
 20
-4.0313137292
 30
0.0
 10
11.6284607973
 20
-4.0313137292
 30
0.0
 10
11.5721309236
 20
-4.0399358283
 30
0.0
 10
11.4954081586
 20
-4.0771779364
 30
0.0
 10
11.4430843138
 20
-4.1258294489
 30
0.0
 10
11.41121578
 20
-4.1724883943
 30
0.0
 10
11.3927059192
 20
-4.2106594544
 30
0.0
 10
11.3801210701
 20
-4.2510809332
 30
0.0
 10
11.3736991695
 20
-4.2928178731
 30
0.0
 10
11.373638498
 20
-4.3279572758
 30
0.0
 10
11.3767662404
 20
-4.3557433632
 30
0.0
 10
11.3819617546
 20
-4.3831345668
 30
0.0
 10
11.3923434945
 20
-4.4164460873
 30
0.0
 10
11.4107148592
 20
-4.4539709849
 30
0.0
 10
11.4345785735
 20
-4.4881782208
 30
0.0
 10
11.4538151762
 20
-4.5082603798
 30
0.0
 10
11.4641209284
 20
-4.5174889094
 30
0.0
  0
SPLINE
  5
588
100
AcDbEntity
  8
0
100
AcDbSpline
 62
9
  6
CONTINUOUS
 70
0
 71
3
 72
25
 73
21
 74
0
 42
0.0000001
 43
0.0000001
 44
0.0000000001
 40
0.0
 40
0.0
 40
0.0
 40
0.0
 40
0.057847455
 40
0.1182028985
 40
0.1809296599
 40
0.2460039238
 40
0.3128264926
 40
0.3806673621
 40
0.4148013911
 40
0.4489958793
 40
0.5173420437
 40
0.5851990097
 40
0.6518053163
 40
0.6843950069
 40
0.7164067109
 40
0.7786798443
 40
0.8385232867
 40
0.8955449547
 40
0.9493257232
 40
1.0
 40
1.0
 40
1.0
 40
1.0
 10
12.7634269137
 20
-5.6802930897
 30
0.0
 10
12.7555555602
 20
-5.6732048397
 30
0.0
 10
12.7402962159
 20
-5.6577749291
 30
0.0
 10
12.7199037184
 20
-5.6315639959
 30
0.0
 10
12.7023177937
 20
-5.6018170778
 30
0.0
 10
12.6884490038
 20
-5.5688739707
 30
0.0
 10
12.6786628557
 20
-5.5335333717
 30
0.0
 10
12.6743220221
 20
-5.5028303842
 30
0.0
 10
12.6733666549
 20
-5.4778963693
 30
0.0
 10
12.6742055023
 20
-5.4528646157
 30
0.0
 10
12.6785242796
 20
-5.4218584748
 30
0.0
 10
12.6883657698
 20
-5.3859535796
 30
0.0
 10
12.7001042445
 20
-5.357608901
 30
0.0
 10
12.7114125163
 20
-5.3363938882
 30
0.0
 10
12.723664132
 20
-5.3166382168
 30
0.0
 10
12.7407463995
 20
-5.2940780044
 30
0.0
 10
12.7635003232
 20
-5.2703577563
 30
0.0
 10
12.7875166116
 20
-5.2502703545
 30
0.0
 10
12.8121413665
 20
-5.233807884
 30
0.0
 10
12.8290826248
 20
-5.2248496048
 30
0.0
 10
12.8374902479
 20
-5.220923756
 30
0.0
  0
SPLINE
  5
589
100
AcDbEntity
  8
0
100
AcDbSpline
 62
7
  6
CONTINUOUS
 70
0
 71
3
 72
15
 73
11
 74
0
 42
0.0000001
 43
0.0000001
 44
0.0000000001
 40
0.0
 40
0.0
 40
0.0
 40
0.0
 40
0.1294966261
 40
0.2562214306
 40
0.3809240712
 40
0.5046316151
 40
0.6279559209
 40
0.7513074856
 40
0.8750970932
 40
1.0
 40
1.0
 40
1.0
 40
1.0
 10
12.3283277658
 20
13.58031033
 30
0.0
 10
12.3378513652
 20
13.5738243347
 30
0.0
 10
12.3578599363
 20
13.562637999
 30
0.0
 10
12.3896784842
 20
13.5506903094
 30
0.0
 10
12.4221931183
 20
13.5428249714
 30
0.0
 10
12.4550402127
 20
13.5385180048
 30
0.0
 10
12.4880140846
 20
13.5372012162
 30
0.0
 10
12.5209794079
 20
13.5388997639
 30
0.0
 10
12.5537957609
 20
13.5436142865
 30
0.0
 10
12.575285017
 20
13.5491458357
 30
0.0
 10
12.5858560498
 20
13.5525762799
 30
0.0
  0
SPLINE
  5
58A
100
AcDbEntity
  8
0
100
AcDbSpline
 62
7
  6
CONTINUOUS
 70
0
 71
3
 72
9
 73
5
 74
0
 42
0.0000001
 43
0.0000001
 44
0.0000000001
 40
0.0
 40
0.0
 40
0.0
 40
0.0
 40
0.4948327196
 40
1.0
 40
1.0
 40
1.0
 40
1.0
 10
12.5858560498
 20
13.5525762799
 30
0.0
 10
12.5959177697
 20
13.5558414451
 30
0.0
 10
12.615888923
 20
13.5636419289
 30
0.0
 10
12.6345754801
 20
13.5742314674
 30
0.0
 10
12.6435012732
 20
13.58031033
 30
0.0
  0
SPLINE
  5
58B
100
AcDbEntity
  8
0
100
AcDbSpline
 62
9
  6
CONTINUOUS
 70
0
 71
3
 72
13
 73
9
 74
0
 42
0.0000001
 43
0.0000001
 44
0.0000000001
 40
0.0
 40
0.0
 40
0.0
 40
0.0
 40
0.1246584991
 40
0.2493350932
 40
0.3741075134
 40
0.499049636
 40
0.7493943705
 40
1.0
 40
1.0
 40
1.0
 40
1.0
 10
11.8375702696
 20
-4.1002140463
 30
0.0
 10
11.8314391114
 20
-4.0947237557
 30
0.0
 10
11.8186654685
 20
-4.0842969107
 30
0.0
 10
11.7981451081
 20
-4.0704916133
 30
0.0
 10
11.7764284562
 20
-4.0586118382
 30
0.0
 10
11.7461048554
 20
-4.0454557002
 30
0.0
 10
11.7060607012
 20
-4.0343304961
 30
0.0
 10
11.6729176745
 20
-4.0313137292
 30
0.0
 10
11.6563724163
 20
-4.0313137292
 30
0.0
  0
SPLINE
  5
58C
100
AcDbEntity
  8
0
100
AcDbSpline
 62
7
  6
CONTINUOUS
 70
0
 71
3
 72
9
 73
5
 74
0
 42
0.0000001
 43
0.0000001
 44
0.0000000001
 40
0.0
 40
0.0
 40
0.0
 40
0.0
 40
0.5051129459
 40
1.0
 40
1.0
 40
1.0
 40
1.0
 10
12.6435012732
 20
13.9856607697
 30
0.0
 10
12.6347800595
 20
13.9916003046
 30
0.0
 10
12.6165423122
 20
14.0019793459
 30
0.0
 10
12.5970643083
 20
14.0096915715
 30
0.0
 10
12.5872488742
 20
14.012936956
 30
0.0
  0
SPLINE
  5
58D
100
AcDbEntity
  8
0
100
AcDbSpline
 62
7
  6
CONTINUOUS
 70
0
 71
3
 72
15
 73
11
 74
0
 42
0.0000001
 43
0.0000001
 44
0.0000000001
 40
0.0
 40
0.0
 40
0.0
 40
0.0
 40
0.1249559986
 40
0.2487775158
 40
0.3721374344
 40
0.4954580147
 40
0.6191605366
 40
0.7438328059
 40
0.870517288
 40
1.0
 40
1.0
 40
1.0
 40
1.0
 10
12.5872488742
 20
14.012936956
 30
0.0
 10
12.5766347253
 20
14.0164464283
 30
0.0
 10
12.5550453353
 20
14.0221122182
 30
0.0
 10
12.5220564989
 20
14.0269663279
 30
0.0
 10
12.488911525
 20
14.0287632239
 30
0.0
 10
12.455754132
 20
14.0275085758
 30
0.0
 10
12.4227223757
 20
14.0232432432
 30
0.0
 10
12.3900212769
 20
14.0153959842
 30
0.0
 10
12.358022962
 20
14.0034169082
 30
0.0
 10
12.3379024589
 20
13.9921815621
 30
0.0
 10
12.3283277658
 20
13.9856607697
 30
0.0
  0
SPLINE
  5
58E
100
AcDbEntity
  8
0
100
AcDbSpline
 62
9
  6
CONTINUOUS
 70
0
 71
3
 72
23
 73
19
 74
0
 42
0.0000001
 43
0.0000001
 44
0.0000000001
 40
0.0
 40
0.0
 40
0.0
 40
0.0
 40
0.0087540622
 40
0.0120742875
 40
0.0159292775
 40
0.0253115587
 40
0.036974241
 40
0.0509283682
 40
0.067162308
 40
0.0856532047
 40
0.1292688252
 40
0.1813239849
 40
0.241230632
 40
0.308367295
 40
0.4611011319
 40
0.6325545522
 40
0.815132593
 40
1.0
 40
1.0
 40
1.0
 40
1.0
 10
10.9194960073
 20
-0.5606841797
 30
0.0
 10
10.9194844266
 20
-0.5616315885
 30
0.0
 10
10.9206003625
 20
-0.5627682312
 30
0.0
 10
10.9220176574
 20
-0.5636758012
 30
0.0
 10
10.9236110407
 20
-0.5645247376
 30
0.0
 10
10.9261064153
 20
-0.5655386835
 30
0.0
 10
10.9297165171
 20
-0.5667008866
 30
0.0
 10
10.9340968681
 20
-0.5678572061
 30
0.0
 10
10.9392395744
 20
-0.5690078259
 30
0.0
 10
10.947565657
 20
-0.5706154485
 30
0.0
 10
10.9597771324
 20
-0.5725231122
 30
0.0
 10
10.9764853225
 20
-0.574626025
 30
0.0
 10
10.9957683959
 20
-0.5766187892
 30
0.0
 10
11.0259404299
 20
-0.5792005071
 30
0.0
 10
11.0682140342
 20
-0.5818902038
 30
0.0
 10
11.1230155543
 20
-0.5842364353
 30
0.0
 10
11.181326823
 20
-0.5856936441
 30
0.0
 10
11.2210972725
 20
-0.5860351793
 30
0.0
 10
11.2411060514
 20
-0.5860351793
 30
0.0
  0
SPLINE
  5
58F
100
AcDbEntity
  8
0
100
AcDbSpline
 62
7
  6
CONTINUOUS
 70
0
 71
3
 72
19
 73
15
 74
0
 42
0.0000001
 43
0.0000001
 44
0.0000000001
 40
0.0
 40
0.0
 40
0.0
 40
0.0
 40
0.1257995389
 40
0.1885314932
 40
0.2510174707
 40
0.3133472998
 40
0.3756094985
 40
0.4999999705
 40
0.6243906044
 40
0.6866528001
 40
0.7489824995
 40
0.8114683307
 40
0.874200262
 40
1.0
 40
1.0
 40
1.0
 40
1.0
 10
12.2276162336
 20
13.9856607697
 30
0.0
 10
12.2134623678
 20
13.9937556035
 30
0.0
 10
12.1909756638
 20
14.0037501701
 30
0.0
 10
12.1599005506
 20
14.013418539
 30
0.0
 10
12.136242573
 20
14.0190889666
 30
0.0
 10
12.1123493123
 20
14.0232962179
 30
0.0
 10
12.0802946712
 20
14.0271340954
 30
0.0
 10
12.0399602585
 20
14.0290236688
 30
0.0
 10
11.9996259547
 20
14.0271329641
 30
0.0
 10
11.9675712616
 20
14.023295595
 30
0.0
 10
11.9436779325
 20
14.0190889444
 30
0.0
 10
11.9200198728
 20
14.0134189964
 30
0.0
 10
11.8889447559
 20
14.0037505581
 30
0.0
 10
11.8664582084
 20
13.9937556163
 30
0.0
 10
11.8523043202
 20
13.9856607697
 30
0.0
  0
SPLINE
  5
590
100
AcDbEntity
  8
0
100
AcDbSpline
 62
7
  6
CONTINUOUS
 70
0
 71
3
 72
9
 73
5
 74
0
 42
0.0000001
 43
0.0000001
 44
0.0000000001
 40
0.0
 40
0.0
 40
0.0
 40
0.0
 40
0.5710201521
 40
1.0
 40
1.0
 40
1.0
 40
1.0
 10
11.7887912213
 20
13.9856607697
 30
0.0
 10
11.787183636
 20
13.9913985949
 30
0.0
 10
11.7839541856
 20
14.0013423789
 30
0.0
 10
11.7794161195
 20
14.0108004521
 30
0.0
 10
11.7770601912
 20
14.014606893
 30
0.0
  0
SPLINE
  5
591
100
AcDbEntity
  8
0
100
AcDbSpline
 62
7
  6
CONTINUOUS
 70
0
 71
3
 72
9
 73
5
 74
0
 42
0.0000001
 43
0.0000001
 44
0.0000000001
 40
0.0
 40
0.0
 40
0.0
 40
0.0
 40
0.5649442804
 40
1.0
 40
1.0
 40
1.0
 40
1.0
 10
11.7770601912
 20
14.014606893
 30
0.0
 10
11.7753832486
 20
14.0173163061
 30
0.0
 10
11.7720449093
 20
14.0219180301
 30
0.0
 10
11.7675327679
 20
14.0254909822
 30
0.0
 10
11.7653428335
 20
14.0265979057
 30
0.0
  0
SPLINE
  5
592
100
AcDbEntity
  8
0
100
AcDbSpline
 62
7
  6
CONTINUOUS
 70
0
 71
3
 72
11
 73
7
 74
0
 42
0.0000001
 43
0.0000001
 44
0.0000000001
 40
0.0
 40
0.0
 40
0.0
 40
0.0
 40
0.2572082191
 40
0.4999819373
 40
0.7427666552
 40
1.0
 40
1.0
 40
1.0
 40
1.0
 10
11.7653428335
 20
14.0265979057
 30
0.0
 10
11.7642903076
 20
14.0271299151
 30
0.0
 10
11.762133454
 20
14.027969703
 30
0.0
 10
11.758720623
 20
14.0284128291
 30
0.0
 10
11.755307864
 20
14.0279683776
 30
0.0
 10
11.7531511068
 20
14.0271279639
 30
0.0
 10
11.7520985797
 20
14.0265957014
 30
0.0
  0
SPLINE
  5
593
100
AcDbEntity
  8
0
100
AcDbSpline
 62
7
  6
CONTINUOUS
 70
0
 71
3
 72
9
 73
5
 74
0
 42
0.0000001
 43
0.0000001
 44
0.0000000001
 40
0.0
 40
0.0
 40
0.0
 40
0.0
 40
0.2386742316
 40
1.0
 40
1.0
 40
1.0
 40
1.0
 10
11.7520985797
 20
14.0265957014
 30
0.0
 10
11.7518001998
 20
14.0264448108
 30
0.0
 10
11.7505674261
 20
14.0257784317
 30
0.0
 10
11.7494085816
 20
14.0249783519
 30
0.0
 10
11.7485732904
 20
14.0243151571
 30
0.0
  0
SPLINE
  5
594
100
AcDbEntity
  8
0
100
AcDbSpline
 62
9
  6
CONTINUOUS
 70
0
 71
3
 72
24
 73
20
 74
0
 42
0.0000001
 43
0.0000001
 44
0.0000000001
 40
0.0
 40
0.0
 40
0.0
 40
0.0
 40
0.0041746022
 40
0.0094437463
 40
0.0164020994
 40
0.0253115806
 40
0.0362846961
 40
0.0493574277
 40
0.0645359375
 40
0.0818120113
 40
0.1225847913
 40
0.1714932407
 40
0.2281859098
 40
0.2921977448
 40
0.3630519162
 40
0.4402396076
 40
0.6112048502
 40
0.7999952808
 40
1.0
 40
1.0
 40
1.0
 40
1.0
 10
11.5889543834
 20
8.725711089
 30
0.0
 10
11.5889502844
 20
8.7253757563
 30
0.0
 10
11.5886924019
 20
8.7246192554
 30
0.0
 10
11.5877605951
 20
8.723658635
 30
0.0
 10
11.5863316155
 20
8.7227287988
 30
0.0
 10
11.5843734852
 20
8.7218146808
 30
0.0
 10
11.581882995
 20
8.7209108666
 30
0.0
 10
11.5788591514
 20
8.7200195119
 30
0.0
 10
11.5753075529
 20
8.7191427721
 30
0.0
 10
11.5695506727
 20
8.7179290292
 30
0.0
 10
11.5610737688
 20
8.7165065137
 30
0.0
 10
11.549415072
 20
8.7149663872
 30
0.0
 10
11.5358643564
 20
8.7135291982
 30
0.0
 10
11.5205321603
 20
8.7122060162
 30
0.0
 10
11.5035386722
 20
8.7110104851
 30
0.0
 10
11.4779528012
 20
8.7095532535
 30
0.0
 10
11.4428767381
 20
8.7081630815
 30
0.0
 10
11.3979187403
 20
8.707175707
 30
0.0
 10
11.3666851589
 20
8.7069587077
 30
0.0
 10
11.3506182114
 20
8.7069587077
 30
0.0
  0
SPLINE
  5
595
100
AcDbEntity
  8
0
100
AcDbSpline
 62
7
  6
CONTINUOUS
 70
0
 71
3
 72
19
 73
15
 74
0
 42
0.0000001
 43
0.0000001
 44
0.0000000001
 40
0.0
 40
0.0
 40
0.0
 40
0.0
 40
0.1257996481
 40
0.1885639157
 40
0.2510852931
 40
0.3134071442
 40
0.3756417673
 40
0.4999996494
 40
0.6243582552
 40
0.6865934725
 40
0.7489156181
 40
0.8114366439
 40
0.8742005372
 40
1.0
 40
1.0
 40
1.0
 40
1.0
 10
11.8523043202
 20
13.58031033
 30
0.0
 10
11.8664583267
 20
13.5722154157
 30
0.0
 10
11.8889451788
 20
13.5622101628
 30
0.0
 10
11.9200312723
 20
13.5525449838
 30
0.0
 10
11.9436984698
 20
13.5468797076
 30
0.0
 10
11.9675907976
 20
13.5426668014
 30
0.0
 10
11.9996371444
 20
13.5388287169
 30
0.0
 10
12.0399602746
 20
13.5369556443
 30
0.0
 10
12.0802834899
 20
13.5388284905
 30
0.0
 10
12.1123300726
 20
13.5426663797
 30
0.0
 10
12.136222464
 20
13.54687936
 30
0.0
 10
12.1598895433
 20
13.5525448937
 30
0.0
 10
12.1909754554
 20
13.5622102384
 30
0.0
 10
12.213462248
 20
13.5722154277
 30
0.0
 10
12.2276162336
 20
13.58031033
 30
0.0
  0
SPLINE
  5
596
100
AcDbEntity
  8
0
100
AcDbSpline
 62
9
  6
CONTINUOUS
 70
0
 71
3
 72
51
 73
47
 74
0
 42
0.0000001
 43
0.0000001
 44
0.0000000001
 40
0.0
 40
0.0
 40
0.0
 40
0.0
 40
0.0321161056
 40
0.06596625
 40
0.1013413462
 40
0.1380394479
 40
0.1758623789
 40
0.2146238565
 40
0.2541417456
 40
0.294233533
 40
0.3754164068
 40
0.456771625
 40
0.5369197609
 40
0.6145073794
 40
0.6519250891
 40
0.6882094197
 40
0.723204636
 40
0.7567597505
 40
0.7887299754
 40
0.8189896297
 40
0.8474423192
 40
0.8740124879
 40
0.8865830064
 40
0.8986819758
 40
0.9103159261
 40
0.9214930397
 40
0.9322125985
 40
0.9424594959
 40
0.9521823143
 40
0.9612636637
 40
0.9655225279
 40
0.9695653999
 40
0.9733703069
 40
0.9769157299
 40
0.980186855
 40
0.9831810352
 40
0.9858976073
 40
0.9883369526
 40
0.9905038957
 40
0.9924133632
 40
0.9940848179
 40
0.9955424464
 40
0.996816999
 40
0.9979481156
 40
0.9989880769
 40
1.0
 40
1.0
 40
1.0
 40
1.0
 10
12.2482204
 20
12.5279855499
 30
0.0
 10
12.2511069907
 20
12.3307816897
 30
0.0
 10
12.2596746217
 20
11.9257626197
 30
0.0
 10
12.2793857799
 20
11.3037289185
 30
0.0
 10
12.3057945146
 20
10.6537825043
 30
0.0
 10
12.3382810865
 20
9.9796874622
 30
0.0
 10
12.3762299503
 20
9.2850514018
 30
0.0
 10
12.4189918672
 20
8.5733478203
 30
0.0
 10
12.4659141596
 20
7.8479444793
 30
0.0
 10
12.5334418398
 20
6.8628272973
 30
0.0
 10
12.6244766251
 20
5.6218053035
 30
0.0
 10
12.7394005741
 20
4.1359054754
 30
0.0
 10
12.8552976011
 20
2.672229339
 30
0.0
 10
12.9495083642
 20
1.4775001908
 30
0.0
 10
13.0206011338
 20
0.5511540097
 30
0.0
 10
13.070271142
 20
-0.1145058989
 30
0.0
 10
13.1162952969
 20
-0.7566494776
 30
0.0
 10
13.1580311892
 20
-1.3725356469
 30
0.0
 10
13.1948571756
 20
-1.9596003896
 30
0.0
 10
13.2261353815
 20
-2.5156080648
 30
0.0
 10
13.2511798297
 20
-3.0387357444
 30
0.0
 10
13.2665837159
 20
-3.4535529069
 30
0.0
 10
13.2748630045
 20
-3.7681095434
 30
0.0
 10
13.2788915172
 20
-3.9910154762
 30
0.0
 10
13.2807117045
 20
-4.205394064
 30
0.0
 10
13.2801394141
 20
-4.4113098846
 30
0.0
 10
13.2769671419
 20
-4.6086849412
 30
0.0
 10
13.2709021598
 20
-4.7970601414
 30
0.0
 10
13.2617136823
 20
-4.9752383518
 30
0.0
 10
13.2510240514
 20
-5.1164847897
 30
0.0
 10
13.2404624292
 20
-5.2227149928
 30
0.0
 10
13.2318317806
 20
-5.2965634716
 30
0.0
 10
13.222345226
 20
-5.3658882255
 30
0.0
 10
13.2120173502
 20
-5.4302986598
 30
0.0
 10
13.2008583119
 20
-5.4895126323
 30
0.0
 10
13.1889351602
 20
-5.5433772078
 30
0.0
 10
13.1762965596
 20
-5.5918192042
 30
0.0
 10
13.1629867832
 20
-5.6347936321
 30
0.0
 10
13.1490209232
 20
-5.6723179083
 30
0.0
 10
13.134416496
 20
-5.7044915864
 30
0.0
 10
13.1191688579
 20
-5.7314736985
 30
0.0
 10
13.103253521
 20
-5.7534266009
 30
0.0
 10
13.0866297446
 20
-5.7704998054
 30
0.0
 10
13.0691807042
 20
-5.7827427035
 30
0.0
 10
13.0508562877
 20
-5.7900803447
 30
0.0
 10
13.0381886882
 20
-5.7916338382
 30
0.0
 10
13.0319744759
 20
-5.791624649
 30
0.0
  0
SPLINE
  5
597
100
AcDbEntity
  8
0
100
AcDbSpline
 62
7
  6
CONTINUOUS
 70
0
 71
3
 72
15
 73
11
 74
0
 42
0.0000001
 43
0.0000001
 44
0.0000000001
 40
0.0
 40
0.0
 40
0.0
 40
0.0
 40
0.1216021383
 40
0.23071453
 40
0.3338188604
 40
0.4380871619
 40
0.5504842858
 40
0.6774311433
 40
0.8253464613
 40
1.0
 40
1.0
 40
1.0
 40
1.0
 10
11.7485732024
 20
13.5416494917
 30
0.0
 10
11.7496798135
 20
13.5407700182
 30
0.0
 10
11.7519376309
 20
13.5392827065
 30
0.0
 10
11.7556045908
 20
13.5379045558
 30
0.0
 10
11.7593135477
 20
13.5375476709
 30
0.0
 10
11.7630118378
 20
13.5382351554
 30
0.0
 10
11.7666673254
 20
13.5399303094
 30
0.0
 10
11.7702806142
 20
13.5426629133
 30
0.0
 10
11.773836824
 20
13.546520365
 30
0.0
 10
11.7759754916
 20
13.5496134436
 30
0.0
 10
11.7770456907
 20
13.5513386739
 30
0.0
  0
SPLINE
  5
598
100
AcDbEntity
  8
0
100
AcDbSpline
 62
7
  6
CONTINUOUS
 70
0
 71
3
 72
9
 73
5
 74
0
 42
0.0000001
 43
0.0000001
 44
0.0000000001
 40
0.0
 40
0.0
 40
0.0
 40
0.0
 40
0.4288967373
 40
1.0
 40
1.0
 40
1.0
 40
1.0
 10
11.7770456907
 20
13.5513386739
 30
0.0
 10
11.7794072202
 20
13.5551456125
 30
0.0
 10
11.7839514893
 20
13.5646125104
 30
0.0
 10
11.7871818787
 20
13.5745662324
 30
0.0
 10
11.7887912213
 20
13.58031033
 30
0.0
  0
ENDSEC
  0
SECTION
  2
OBJECTS
  0
DICTIONARY
  5
C
100
AcDbDictionary
280
0
281
1
  3
ACAD_GROUP
350
D
  3
ACAD_MLINESTYLE
350
17
  3
ACAD_LAYOUT
350
1A
  3
ACAD_PLOTSETTINGS
350
19
  3
ACAD_PLOTSTYLENAME
350
E
  0
DICTIONARY
  5
D
102
{ACAD_REACTORS
330
C
102
}
100
AcDbDictionary
280
0
281
1
  0
ACDBDICTIONARYWDFLT
  5
E
102
{ACAD_REACTORS
330
C
102
}
100
AcDbDictionary
281
1
  3
Normal
350
F
100
AcDbDictionaryWithDefault
340
F
  0
DICTIONARY
  5
17
102
{ACAD_REACTORS
330
C
102
}
100
AcDbDictionary
280
0
281
1
  3
Standard
350
18
  0
DICTIONARY
  5
19
102
{ACAD_REACTORS
330
C
102
}
100
AcDbDictionary
281
1
  0
DICTIONARY
  5
1A
102
{ACAD_REACTORS
330
C
102
}
100
AcDbDictionary
281
1
  3
Model
350
599
  3
Layout1
350
59A
  0
ACDBPLACEHOLDER
  5
F
102
{ACAD_REACTORS
330
E
102
}
  0
MLINESTYLE
  5
18
102
{ACAD_REACTORS
330
17
102
}
100
AcDbMlineStyle
  2
STANDARD
 70
0
  3

 62
256
 51
90.0
 52
90.0
 71
2
 49
0.5
 62
256
  6
BYLAYER
 49
-0.5
 62
256
  6
BYLAYER
  0
LAYOUT
  5
599
102
{ACAD_REACTORS
330
1A
102
}
100
AcDbPlotSettings
  1

  2
none_device
  4
ANSI_C_(22.00_x_17.00_Inches)
  6

 40
0.0
 41
0.0
 42
0.0
 43
0.0
 44
558.8
 45
431.8
 46
0.0
 47
0.0
 48
0.0
 49
0.0
140
0.0
141
0.0
142
1.0
143
1.0
 70
1024
 72
0
 73
0
 74
0
  7

 75
0
147
1.0
148
0.0
149
0.0
100
AcDbLayout
  1
Model
 70
0
 71
0
 10
0.0
 20
0.0
 11
22.0
 21
17.0
 12
0.0
 22
0.0
 32
0.0
 14
0.0
 24
0.0
 34
0.0
 15
0.0
 25
0.0
 35
0.0
146
0.0
 13
0.0
 23
0.0
 33
0.0
 16
1.0
 26
0.0
 36
0.0
 17
0.0
 27
1.0
 37
0.0
 76
0
330
202
345
0
346
0
  0
LAYOUT
  5
59A
102
{ACAD_REACTORS
330
1A
102
}
100
AcDbPlotSettings
  1

  2
none_device
  4
ANSI_C_(22.00_x_17.00_Inches)
  6

 40
0.0
 41
0.0
 42
0.0
 43
0.0
 44
558.8
 45
431.8
 46
0.0
 47
0.0
 48
0.0
 49
0.0
140
0.0
141
0.0
142
1.0
143
1.0
 70
0
 72
0
 73
0
 74
0
  7

 75
0
147
1.0
148
0.0
149
0.0
100
AcDbLayout
  1
Layout1
 70
0
 71
1
 10
0.0
 20
0.0
 11
22.0
 21
17.0
 12
0.0
 22
0.0
 32
0.0
 14
0.0
 24
0.0
 34
0.0
 15
0.0
 25
0.0
 35
0.0
146
0.0
 13
0.0
 23
0.0
 33
0.0
 16
1.0
 26
0.0
 36
0.0
 17
0.0
 27
1.0
 37
0.0
 76
0
330
203
345
0
346
0
  0
ENDSEC
  0
EOF
