999
DXF file: E:\BT Custom\CADOUTPUT\_TOP.dxf
999
Pro/ENGINEER 2018400 by Parametric Technology Corporation
  0
SECTION
  2
HEADER
  9
$ACADVER
  1
AC1018
  9
$DWGCODEPAGE
  3
ANSI_1252
  9
$EXTMAX
 10
22.0
 20
17.0
 30
0.0
  9
$EXTMIN
 10
0.0
 20
0.0
 30
0.0
  9
$LIMMIN
 10
0.0
 20
0.0
  9
$LIMMAX
 10
22.0
 20
17.0
  9
$VIEWCTR
 10
11.0
 20
8.5
  9
$VIEWSIZE
 40
17.0
  9
$CLAYER
  8
0
  9
$LTSCALE
 40
1.21
  9
$CELTYPE
  6
BYLAYER
  9
$DIMSCALE
 40
1.0
  9
$DIMASZ
 40
0.1
  9
$DIMEXO
 40
0.0625
  9
$DIMDLI
 40
0.836
  9
$DIMEXE
 40
0.125
  9
$DIMCEN
 40
0.198
  9
$DIMLFAC
 40
1.0
  9
$DIMBLK
  1
_FILLED
  9
$DIMALT
 70
1
  9
$DIMALTD
 70
2
  9
$DIMALTTD
 70
2
  9
$DIMALTF
 40
25.4
  9
$DIMTXT
 40
0.08
  9
$DIMTOL
 70
1
  9
$DIMLIM
 70
0
  9
$DIMTFAC
 40
1.0
  9
$DIMTP
 40
0.001
  9
$DIMTM
 40
0.001
  9
$DIMGAP
 40
0.09
  9
$DIMDSEP
 70
46
  9
$AUNITS
 70
0
  9
$PDMODE
 70
3
  9
$PDSIZE
 40
0.06
  9
$HANDSEED
  5
5FB
  9
$TILEMODE
 70
1
  9
$MEASUREMENT
 70
0
  9
$INSUNITS
 70
1
  0
ENDSEC
  0
SECTION
  2
CLASSES
  0
CLASS
  1
ACDBDICTIONARYWDFLT
  2
AcDbDictionaryWithDefault
  3
AutoCAD 2000
 90
0
 91
1
280
0
281
0
  0
CLASS
  1
ACDBPLACEHOLDER
  2
AcDbPlaceHolder
  3
AutoCAD 2000
 90
0
 91
1
280
0
281
0
  0
CLASS
  1
LAYOUT
  2
AcDbLayout
  3
AutoCAD 2000
 90
0
 91
0
280
0
281
0
  0
ENDSEC
  0
SECTION
  2
TABLES
  0
TABLE
  2
VPORT
  5
8
100
AcDbSymbolTable
 70
2
  0
VPORT
  5
1F4
100
AcDbSymbolTableRecord
100
AcDbViewportTableRecord
  2
*ACTIVE
 70
0
 10
0.0
 20
0.0
 11
1.0
 21
1.0
 12
11.0
 22
8.5
 13
0.0
 23
0.0
 14
1.0
 24
1.0
 15
0.0
 25
0.0
 16
0.0
 26
0.0
 36
1.0
 17
0.0
 27
0.0
 37
0.0
 40
17.0
 41
1.2941176471
 42
50.0
 43
0.0
 44
0.0
 50
0.0
 51
0.0
 71
0
 72
100
 73
1
 74
1
 75
0
 76
0
 77
0
 78
0
  0
ENDTAB
  0
TABLE
  2
LTYPE
  5
5
100
AcDbSymbolTable
 70
6
  0
LTYPE
  5
14
100
AcDbSymbolTableRecord
100
AcDbLinetypeTableRecord
  2
BYBLOCK
 70
0
  3

 72
65
 73
0
 40
0.0
  0
LTYPE
  5
15
100
AcDbSymbolTableRecord
100
AcDbLinetypeTableRecord
  2
BYLAYER
 70
0
  3

 72
65
 73
0
 40
0.0
  0
LTYPE
  5
16
100
AcDbSymbolTableRecord
100
AcDbLinetypeTableRecord
  2
CONTINUOUS
 70
64
  3
Solid line
 72
65
 73
0
 40
0.0
  0
LTYPE
  5
1F5
100
AcDbSymbolTableRecord
100
AcDbLinetypeTableRecord
  2
CENTER
 70
64
  3
____ _ ____ _ ____ _ ____ _ ____ _ ____ _ ____
 72
65
 73
4
 40
0.6
 49
0.375
 74
0
 49
-0.075
 74
0
 49
0.075
 74
0
 49
-0.075
 74
0
  0
LTYPE
  5
1F6
100
AcDbSymbolTableRecord
100
AcDbLinetypeTableRecord
  2
HIDDEN
 70
64
  3
- - - - - - - - - - - - - - - - - - - -
 72
65
 73
2
 40
0.2
 49
0.1
 74
0
 49
-0.1
 74
0
  0
LTYPE
  5
1F7
100
AcDbSymbolTableRecord
100
AcDbLinetypeTableRecord
  2
PHANTOM
 70
64
  3
_____ _ _ _____ _ _ _____ _ _ _____
 72
65
 73
6
 40
0.8
 49
0.45
 74
0
 49
-0.05
 74
0
 49
0.1
 74
0
 49
-0.05
 74
0
 49
0.1
 74
0
 49
-0.05
 74
0
  0
LTYPE
  5
1F8
100
AcDbSymbolTableRecord
100
AcDbLinetypeTableRecord
  2
DOT
 70
64
  3
. . . . . . . . . . . . . . . . . . . .
 72
65
 73
2
 40
0.2
 49
0.1
 74
0
 49
-0.1
 74
0
  0
LTYPE
  5
1F9
100
AcDbSymbolTableRecord
100
AcDbLinetypeTableRecord
  2
DASHED
 70
64
  3
- - - - - - - - - - - - - - - - - - - -
 72
65
 73
2
 40
0.2
 49
0.1
 74
0
 49
-0.1
 74
0
  0
ENDTAB
  0
TABLE
  2
LAYER
  5
2
100
AcDbSymbolTable
 70
36
  0
LAYER
  5
10
100
AcDbSymbolTableRecord
100
AcDbLayerTableRecord
  2
0
 70
0
 62
7
  6
CONTINUOUS
370
-3
390
F
  0
LAYER
  5
1FA
100
AcDbSymbolTableRecord
100
AcDbLayerTableRecord
  2
DEFAULT_1
 70
0
 62
7
  6
CENTER
370
-3
390
F
  0
LAYER
  5
1FB
100
AcDbSymbolTableRecord
100
AcDbLayerTableRecord
  2
DEFAULT_2
 70
0
 62
8
  6
HIDDEN
370
-3
390
F
  0
LAYER
  5
1FC
100
AcDbSymbolTableRecord
100
AcDbLayerTableRecord
  2
DEFAULT_3
 70
0
 62
7
  6
PHANTOM
370
-3
390
F
  0
LAYER
  5
1FD
100
AcDbSymbolTableRecord
100
AcDbLayerTableRecord
  2
ALL_FEATURES
 70
0
 62
7
  6
CONTINUOUS
370
-3
390
F
  0
LAYER
  5
1FE
100
AcDbSymbolTableRecord
100
AcDbLayerTableRecord
  2
AXES_FEATURES
 70
0
 62
7
  6
CONTINUOUS
370
-3
390
F
  0
LAYER
  5
1FF
100
AcDbSymbolTableRecord
100
AcDbLayerTableRecord
  2
DIMENSIONS
 70
0
 62
7
  6
CONTINUOUS
370
-3
390
F
  0
ENDTAB
  0
TABLE
  2
STYLE
  5
3
100
AcDbSymbolTable
 70
1
  0
STYLE
  5
11
100
AcDbSymbolTableRecord
100
AcDbTextStyleTableRecord
  2
STANDARD
 70
0
 40
0.0
 41
0.8
 50
0.0
 71
0
 42
0.2
  3
txt
  4

  0
STYLE
  5
200
100
AcDbSymbolTableRecord
100
AcDbTextStyleTableRecord
  2
TEXTSTYLE_1
 70
0
 40
0.0
 41
0.8
 50
0.0
 71
0
 42
0.2
  3
gdt
  4

  0
ENDTAB
  0
TABLE
  2
VIEW
  5
6
100
AcDbSymbolTable
 70
0
  0
ENDTAB
  0
TABLE
  2
UCS
  5
7
100
AcDbSymbolTable
 70
0
  0
ENDTAB
  0
TABLE
  2
APPID
  5
9
100
AcDbSymbolTable
 70
1
  0
APPID
  5
201
100
AcDbSymbolTableRecord
100
AcDbRegAppTableRecord
  2
ACAD
 70
0
  0
ENDTAB
  0
TABLE
  2
BLOCK_RECORD
  5
1
100
AcDbSymbolTable
 70
0
  0
BLOCK_RECORD
  5
202
100
AcDbSymbolTableRecord
100
AcDbBlockTableRecord
  2
*Model_Space
  0
BLOCK_RECORD
  5
203
100
AcDbSymbolTableRecord
100
AcDbBlockTableRecord
  2
*Paper_Space
  0
BLOCK_RECORD
  5
204
100
AcDbSymbolTableRecord
100
AcDbBlockTableRecord
  2
_FILLED
  0
ENDTAB
  0
TABLE
  2
DIMSTYLE
  5
A
100
AcDbSymbolTable
 70
1
100
AcDbDimStyleTable
 71
0
  0
DIMSTYLE
105
205
100
AcDbSymbolTableRecord
100
AcDbDimStyleTableRecord
  2
STANDARD
 70
0
  3

  4

 40
1.0
 41
0.1
 42
0.0625
 43
0.38
 44
0.125
 45
0.0
 46
0.0
 47
0.001
 48
0.001
140
0.08
141
0.09
142
0.0
143
25.4
144
1.0
145
0.0
146
1.0
147
0.09
 71
1.0
 72
0.0
 73
1
 74
1
 75
0
 76
0
 77
0
 78
4
 79
1
170
1
171
2
172
0
173
0
174
0
175
0
176
0
177
0
178
0
270
2
179
3
271
3
272
3
273
2
274
2
275
0
280
0
281
0
282
0
283
1
284
4
285
0
286
0
287
3
288
0
340
11
278
46
341
204
342
204
343
204
344
204
  0
ENDTAB
  0
ENDSEC
  0
SECTION
  2
BLOCKS
  0
BLOCK
  5
20
100
AcDbEntity
  8
0
100
AcDbBlockBegin
  2
*Model_Space
 70
0
 10
0.0
 20
0.0
 30
0.0
  3
*Model_Space
  1

  0
ENDBLK
  5
21
100
AcDbEntity
  8
0
100
AcDbBlockEnd
  0
BLOCK
  5
1C
100
AcDbEntity
  8
0
100
AcDbBlockBegin
  2
*Paper_Space
 70
0
 10
0.0
 20
0.0
 30
0.0
  3
*Paper_Space
  1

  0
ENDBLK
  5
1D
100
AcDbEntity
  8
0
100
AcDbBlockEnd
  0
BLOCK
  5
206
100
AcDbEntity
  8
0
100
AcDbBlockBegin
  2
_FILLED
 70
64
 10
0.0
 20
0.0
  3
_FILLED
  1

  0
SOLID
  5
207
100
AcDbEntity
  8
0
  6
BYBLOCK
 62
0
100
AcDbTrace
 10
0.0
 20
0.0
 11
-1.0
 21
0.2
 12
-1.0
 22
-0.2
 13
-1.0
 23
-0.2
  0
ENDBLK
  5
208
100
AcDbEntity
  8
0
  6
BYBLOCK
 62
0
100
AcDbBlockEnd
  0
ENDSEC
  0
SECTION
  2
ENTITIES
  0
LINE
  5
209
100
AcDbEntity
  8
0
100
AcDbLine
 62
7
  6
CONTINUOUS
 10
3.5139059542
 20
5.1014857693
 11
3.5139059542
 21
5.945568604
  0
LINE
  5
20A
100
AcDbEntity
  8
0
100
AcDbLine
 62
7
  6
CONTINUOUS
 10
3.8170555605
 20
4.967733357
 11
3.8170555605
 21
5.0026531735
  0
LINE
  5
20B
100
AcDbEntity
  8
0
100
AcDbLine
 62
7
  6
CONTINUOUS
 10
3.8720571795
 20
5.0026531735
 11
3.8720571795
 21
4.967733357
  0
LINE
  5
20C
100
AcDbEntity
  8
0
100
AcDbLine
 62
7
  6
CONTINUOUS
 10
4.033313767
 20
5.0026531735
 11
4.033313767
 21
4.967733357
  0
LINE
  5
20D
100
AcDbEntity
  8
0
100
AcDbLine
 62
7
  6
CONTINUOUS
 10
4.0554073392
 20
4.941037258
 11
4.0554073392
 21
4.9261861887
  0
LINE
  5
20E
100
AcDbEntity
  8
0
100
AcDbLine
 62
7
  6
CONTINUOUS
 10
4.1499721991
 20
4.9398945073
 11
4.1499721991
 21
4.9261861887
  0
LINE
  5
20F
100
AcDbEntity
  8
0
100
AcDbLine
 62
7
  6
CONTINUOUS
 10
3.8309752631
 20
4.9456598441
 11
3.8228217724
 21
4.9538133348
  0
LINE
  5
210
100
AcDbEntity
  8
0
100
AcDbLine
 62
7
  6
CONTINUOUS
 10
4.5881701675
 20
4.8377120062
 11
4.5894672712
 21
4.8323702148
  0
LINE
  5
211
100
AcDbEntity
  8
0
100
AcDbLine
 62
7
  6
CONTINUOUS
 10
4.1986680977
 20
4.9897055061
 11
4.1986680977
 21
4.967733357
  0
LINE
  5
212
100
AcDbEntity
  8
0
100
AcDbLine
 62
7
  6
CONTINUOUS
 10
4.2898359531
 20
5.0026531735
 11
4.2898359531
 21
4.967733357
  0
LINE
  5
213
100
AcDbEntity
  8
0
100
AcDbLine
 62
7
  6
CONTINUOUS
 10
4.2917044825
 20
4.946667466
 11
4.2917044825
 21
4.9261861887
  0
LINE
  5
214
100
AcDbEntity
  8
0
100
AcDbLine
 62
7
  6
CONTINUOUS
 10
4.3326574799
 20
4.9398945073
 11
4.3326574799
 21
4.9261861887
  0
LINE
  5
215
100
AcDbEntity
  8
0
100
AcDbLine
 62
7
  6
CONTINUOUS
 10
4.3524886314
 20
4.877940127
 11
4.3524886314
 21
4.8711666366
  0
LINE
  5
216
100
AcDbEntity
  8
0
100
AcDbLine
 62
7
  6
CONTINUOUS
 10
4.4551902838
 20
4.9927551783
 11
4.4551902838
 21
4.967733357
  0
LINE
  5
217
100
AcDbEntity
  8
0
100
AcDbLine
 62
7
  6
CONTINUOUS
 10
4.4743897634
 20
4.9485174414
 11
4.4743897634
 21
4.9261861887
  0
LINE
  5
218
100
AcDbEntity
  8
0
100
AcDbLine
 62
7
  6
CONTINUOUS
 10
4.5416967982
 20
4.8329232326
 11
4.5416967982
 21
4.8064879581
  0
LINE
  5
219
100
AcDbEntity
  8
0
100
AcDbLine
 62
7
  6
CONTINUOUS
 10
4.5894668087
 20
4.8323700782
 11
4.5894668087
 21
4.8064879581
  0
LINE
  5
21A
100
AcDbEntity
  8
0
100
AcDbLine
 62
7
  6
CONTINUOUS
 10
4.5910134817
 20
4.9684209037
 11
4.5910134817
 21
4.9261861887
  0
LINE
  5
21B
100
AcDbEntity
  8
0
100
AcDbLine
 62
7
  6
CONTINUOUS
 10
4.6241421747
 20
5.0026531735
 11
4.6241421747
 21
4.967733357
  0
LINE
  5
21C
100
AcDbEntity
  8
0
100
AcDbLine
 62
7
  6
CONTINUOUS
 10
3.8859766043
 20
4.9456601219
 11
3.8778233914
 21
4.9538133348
  0
LINE
  5
21D
100
AcDbEntity
  8
0
100
AcDbLine
 62
7
  6
CONTINUOUS
 10
4.069326764
 20
4.9041129536
 11
4.0611732464
 21
4.9122664712
  0
LINE
  5
21E
100
AcDbEntity
  8
0
100
AcDbLine
 62
7
  6
CONTINUOUS
 10
4.0472331918
 20
4.9456601219
 11
4.0390799789
 21
4.9538133348
  0
LINE
  5
21F
100
AcDbEntity
  8
0
100
AcDbLine
 62
7
  6
CONTINUOUS
 10
4.1638916239
 20
4.9041129536
 11
4.1557381063
 21
4.9122664712
  0
LINE
  5
220
100
AcDbEntity
  8
0
100
AcDbLine
 62
7
  6
CONTINUOUS
 10
4.3037553779
 20
4.9456601219
 11
4.295602165
 21
4.9538133348
  0
LINE
  5
221
100
AcDbEntity
  8
0
100
AcDbLine
 62
7
  6
CONTINUOUS
 10
4.3465769047
 20
4.9041129536
 11
4.3384233871
 21
4.9122664712
  0
LINE
  5
222
100
AcDbEntity
  8
0
100
AcDbLine
 62
7
  6
CONTINUOUS
 10
4.5579224688
 20
4.7853700013
 11
4.5451562107
 21
4.7981362595
  0
LINE
  5
223
100
AcDbEntity
  8
0
100
AcDbLine
 62
7
  6
CONTINUOUS
 10
4.6056924794
 20
4.7853700013
 11
4.5929262212
 21
4.7981362595
  0
LINE
  5
224
100
AcDbEntity
  8
0
100
AcDbLine
 62
7
  6
CONTINUOUS
 10
4.7041720222
 20
4.7853700013
 11
4.6914057639
 21
4.7981362596
  0
LINE
  5
225
100
AcDbEntity
  8
0
100
AcDbLine
 62
7
  6
CONTINUOUS
 10
4.6049329065
 20
4.9041129536
 11
4.5967793889
 21
4.9122664712
  0
LINE
  5
226
100
AcDbEntity
  8
0
100
AcDbLine
 62
7
  6
CONTINUOUS
 10
4.85192844
 20
4.7093855093
 11
4.8235514542
 21
4.7873506368
  0
LWPOLYLINE
  5
227
100
AcDbEntity
  8
0
100
AcDbPolyline
 62
7
  6
CONTINUOUS
 90
3
 70
0
 10
4.6866457176
 20
4.8365100153
 10
4.6879384871
 20
4.8317356983
 10
4.6879495241
 20
4.8312285759
  0
LINE
  5
228
100
AcDbEntity
  8
0
100
AcDbLine
 62
7
  6
CONTINUOUS
 10
4.5411756523
 20
4.8363914407
 11
4.5416961154
 21
4.8329259299
  0
LINE
  5
229
100
AcDbEntity
  8
0
100
AcDbLine
 62
7
  6
CONTINUOUS
 10
4.6879463515
 20
4.8312271428
 11
4.6879463515
 21
4.8064879581
  0
LINE
  5
22A
100
AcDbEntity
  8
0
100
AcDbLine
 62
7
  6
CONTINUOUS
 10
4.7327457652
 20
4.9398945073
 11
4.7327457652
 21
4.9261861887
  0
LINE
  5
22B
100
AcDbEntity
  8
0
100
AcDbLine
 62
7
  6
CONTINUOUS
 10
4.7894965054
 20
4.9967315872
 11
4.7894965054
 21
4.967733357
  0
LINE
  5
22C
100
AcDbEntity
  8
0
100
AcDbLine
 62
7
  6
CONTINUOUS
 10
4.829678635
 20
4.8136963468
 11
4.829678635
 21
4.8064879581
  0
LINE
  5
22D
100
AcDbEntity
  8
0
100
AcDbLine
 62
7
  6
CONTINUOUS
 10
4.9074336699
 20
4.9652078382
 11
4.9074336699
 21
4.9261861887
  0
LINE
  5
22E
100
AcDbEntity
  8
0
100
AcDbLine
 62
7
  6
CONTINUOUS
 10
5.0134500153
 20
5.0026531735
 11
5.0134500153
 21
4.967733357
  0
LINE
  5
22F
100
AcDbEntity
  8
0
100
AcDbLine
 62
7
  6
CONTINUOUS
 10
5.0299059542
 20
6.707568604
 11
5.0299059542
 21
6.727568604
  0
LINE
  5
230
100
AcDbEntity
  8
0
100
AcDbLine
 62
7
  6
CONTINUOUS
 10
5.0491659534
 20
4.9398945073
 11
5.0491659534
 21
4.9261861887
  0
LINE
  5
231
100
AcDbEntity
  8
0
100
AcDbLine
 62
7
  6
CONTINUOUS
 10
5.1389059542
 20
8.0820246321
 11
5.1389059542
 21
7.0017459176
  0
LINE
  5
232
100
AcDbEntity
  8
0
100
AcDbLine
 62
7
  6
CONTINUOUS
 10
5.178804346
 20
5.0013650688
 11
5.178804346
 21
4.967733357
  0
LWPOLYLINE
  5
233
100
AcDbEntity
  8
0
100
AcDbPolyline
 62
7
  6
CONTINUOUS
 90
4
 70
0
 10
4.6827555738
 20
4.8406145605
 10
4.6827765819
 20
4.8405964311
 10
4.6842063959
 20
4.8395962282
 10
4.6866457176
 20
4.8365100153
  0
LINE
  5
234
100
AcDbEntity
  8
0
100
AcDbLine
 62
7
  6
CONTINUOUS
 10
4.6380615995
 20
4.9456601219
 11
4.6299083864
 21
4.953813335
  0
LINE
  5
235
100
AcDbEntity
  8
0
100
AcDbLine
 62
7
  6
CONTINUOUS
 10
4.9294544496
 20
4.6825137251
 11
4.9213012284
 21
4.6906669463
  0
LINE
  5
236
100
AcDbEntity
  8
0
100
AcDbLine
 62
7
  6
CONTINUOUS
 10
5.0218711632
 20
4.6825137251
 11
5.0137179437
 21
4.6906669446
  0
LINE
  5
237
100
AcDbEntity
  8
0
100
AcDbLine
 62
7
  6
CONTINUOUS
 10
4.9213530948
 20
4.9041129536
 11
4.9131995772
 21
4.9122664712
  0
LINE
  5
238
100
AcDbEntity
  8
0
100
AcDbLine
 62
7
  6
CONTINUOUS
 10
5.0273694401
 20
4.9456601219
 11
5.0192162271
 21
4.9538133348
  0
LINE
  5
239
100
AcDbEntity
  8
0
100
AcDbLine
 62
7
  6
CONTINUOUS
 10
5.3311035138
 20
4.6825137251
 11
5.3229502926
 21
4.6906669463
  0
LINE
  5
23A
100
AcDbEntity
  8
0
100
AcDbLine
 62
7
  6
CONTINUOUS
 10
5.2632768563
 20
4.7853700013
 11
5.2505105981
 21
4.7981362595
  0
LINE
  5
23B
100
AcDbEntity
  8
0
100
AcDbLine
 62
7
  6
CONTINUOUS
 10
5.2742739565
 20
4.9041129536
 11
5.2661204389
 21
4.9122664712
  0
LINE
  5
23C
100
AcDbEntity
  8
0
100
AcDbLine
 62
7
  6
CONTINUOUS
 10
5.482969019
 20
4.7853700013
 11
5.4702027608
 21
4.7981362595
  0
LINE
  5
23D
100
AcDbEntity
  8
0
100
AcDbLine
 62
7
  6
CONTINUOUS
 10
5.2603545316
 20
4.9616258462
 11
5.2603545316
 21
4.9261861887
  0
LINE
  5
23E
100
AcDbEntity
  8
0
100
AcDbLine
 62
7
  6
CONTINUOUS
 10
5.3887834604
 20
4.8201840385
 11
5.3887834691
 21
4.8064879581
  0
LINE
  5
23F
100
AcDbEntity
  8
0
100
AcDbLine
 62
7
  6
CONTINUOUS
 10
5.4020868151
 20
4.9579194305
 11
5.4020868151
 21
4.9261861887
  0
LINE
  5
240
100
AcDbEntity
  8
0
100
AcDbLine
 62
7
  6
CONTINUOUS
 10
5.4312287888
 20
5.0026531735
 11
5.4312287888
 21
4.967733357
  0
LINE
  5
241
100
AcDbEntity
  8
0
100
AcDbLine
 62
7
  6
CONTINUOUS
 10
5.4667433483
 20
4.8221833832
 11
5.4667433483
 21
4.8064879581
  0
LINE
  5
242
100
AcDbEntity
  8
0
100
AcDbLine
 62
7
  6
CONTINUOUS
 10
5.5965831196
 20
5.0026531735
 11
5.5965831196
 21
4.967733357
  0
LINE
  5
243
100
AcDbEntity
  8
0
100
AcDbLine
 62
7
  6
CONTINUOUS
 10
5.6084756105
 20
4.8227373254
 11
5.6084756318
 21
4.8064879581
  0
LINE
  5
244
100
AcDbEntity
  8
0
100
AcDbLine
 62
7
  6
CONTINUOUS
 10
5.6257250933
 20
4.9579194295
 11
5.6257250933
 21
4.9261861887
  0
LINE
  5
245
100
AcDbEntity
  8
0
100
AcDbLine
 62
7
  6
CONTINUOUS
 10
5.6850273184
 20
4.8196486166
 11
5.6850273184
 21
4.8064879581
  0
LINE
  5
246
100
AcDbEntity
  8
0
100
AcDbLine
 62
7
  6
CONTINUOUS
 10
5.2470511857
 20
4.8064879581
 11
5.2470511966
 21
4.8247400053
  0
LINE
  5
247
100
AcDbEntity
  8
0
100
AcDbLine
 62
7
  6
CONTINUOUS
 10
5.4667433483
 20
4.8221833832
 11
5.4667434282
 21
4.8221990658
  0
LWPOLYLINE
  5
248
100
AcDbEntity
  8
0
100
AcDbPolyline
 62
7
  6
CONTINUOUS
 90
5
 70
0
 10
5.6084737889
 20
4.8227395968
 10
5.6084947236
 20
4.8234018087
 10
5.6099557009
 20
4.8280730693
 10
5.612039326
 20
4.8304230152
 10
5.6124087448
 20
4.8306749385
  0
LWPOLYLINE
  5
249
100
AcDbEntity
  8
0
100
AcDbPolyline
 62
7
  6
CONTINUOUS
 90
3
 70
0
 10
4.8296771678
 20
4.8136978784
 10
4.8303651382
 20
4.8176014836
 10
4.832705943
 20
4.8214273838
  0
LINE
  5
24A
100
AcDbEntity
  8
0
100
AcDbLine
 62
7
  6
CONTINUOUS
 10
5.075677103
 20
6.8239799085
 11
5.1189059203
 21
6.9570245278
  0
LINE
  5
24B
100
AcDbEntity
  8
0
100
AcDbLine
 62
7
  6
CONTINUOUS
 10
5.6760073843
 20
4.6825137251
 11
5.6678541648
 21
4.6906669446
  0
LINE
  5
24C
100
AcDbEntity
  8
0
100
AcDbLine
 62
7
  6
CONTINUOUS
 10
5.4451482137
 20
4.9456601219
 11
5.4369950007
 21
4.9538133348
  0
LINE
  5
24D
100
AcDbEntity
  8
0
100
AcDbLine
 62
7
  6
CONTINUOUS
 10
5.701252989
 20
4.7853700013
 11
5.6884867308
 21
4.7981362595
  0
LINE
  5
24E
100
AcDbEntity
  8
0
100
AcDbLine
 62
7
  6
CONTINUOUS
 10
5.6396445181
 20
4.9041129536
 11
5.6314910006
 21
4.9122664712
  0
LINE
  5
24F
100
AcDbEntity
  8
0
100
AcDbLine
 62
7
  6
CONTINUOUS
 10
5.8629269873
 20
4.9456601219
 11
5.8547737743
 21
4.9538133348
  0
LINE
  5
250
100
AcDbEntity
  8
0
100
AcDbLine
 62
7
  6
CONTINUOUS
 10
5.9925653798
 20
4.9041129536
 11
5.9844118622
 21
4.9122664712
  0
LINE
  5
251
100
AcDbEntity
  8
0
100
AcDbLine
 62
7
  6
CONTINUOUS
 10
6.2394808646
 20
4.7853700013
 11
6.2267146064
 21
4.7981362595
  0
LWPOLYLINE
  5
252
100
AcDbEntity
  8
0
100
AcDbPolyline
 62
7
  6
CONTINUOUS
 90
3
 70
0
 10
6.220177839
 20
4.8212135096
 10
6.2227031588
 20
4.8169207615
 10
6.2232548162
 20
4.813404493
  0
LINE
  5
253
100
AcDbEntity
  8
0
100
AcDbLine
 62
7
  6
CONTINUOUS
 10
5.7674573768
 20
4.9616258453
 11
5.7674573768
 21
4.9261861887
  0
LINE
  5
254
100
AcDbEntity
  8
0
100
AcDbLine
 62
7
  6
CONTINUOUS
 10
5.826759599
 20
4.8252677524
 11
5.8267596018
 21
4.8064879581
  0
LINE
  5
255
100
AcDbEntity
  8
0
100
AcDbLine
 62
7
  6
CONTINUOUS
 10
5.8490075624
 20
5.0013651035
 11
5.8490075624
 21
4.967733357
  0
LINE
  5
256
100
AcDbEntity
  8
0
100
AcDbLine
 62
7
  6
CONTINUOUS
 10
5.8889059542
 20
8.0820246321
 11
5.8889059542
 21
7.0017459176
  0
LINE
  5
257
100
AcDbEntity
  8
0
100
AcDbLine
 62
7
  6
CONTINUOUS
 10
5.978645955
 20
4.9398945073
 11
5.978645955
 21
4.9261861887
  0
LINE
  5
258
100
AcDbEntity
  8
0
100
AcDbLine
 62
7
  6
CONTINUOUS
 10
5.9979059542
 20
6.707568604
 11
5.9979059542
 21
6.727568604
  0
LINE
  5
259
100
AcDbEntity
  8
0
100
AcDbLine
 62
7
  6
CONTINUOUS
 10
6.0143618931
 20
5.0026531735
 11
6.0143618931
 21
4.967733357
  0
LINE
  5
25A
100
AcDbEntity
  8
0
100
AcDbLine
 62
7
  6
CONTINUOUS
 10
6.1203782385
 20
4.9652078391
 11
6.1203782385
 21
4.9261861887
  0
LINE
  5
25B
100
AcDbEntity
  8
0
100
AcDbLine
 62
7
  6
CONTINUOUS
 10
6.223255194
 20
4.8134054689
 11
6.223255194
 21
4.8064879581
  0
LINE
  5
25C
100
AcDbEntity
  8
0
100
AcDbLine
 62
7
  6
CONTINUOUS
 10
6.238315403
 20
4.9967315951
 11
6.238315403
 21
4.967733357
  0
LINE
  5
25D
100
AcDbEntity
  8
0
100
AcDbLine
 62
7
  6
CONTINUOUS
 10
6.2743283638
 20
7.8120246321
 11
6.2743283638
 21
8.3520246321
  0
LINE
  5
25E
100
AcDbEntity
  8
0
100
AcDbLine
 62
7
  6
CONTINUOUS
 10
6.2923283638
 20
8.4189062854
 11
6.2923283638
 21
7.7451423188
  0
LINE
  5
25F
100
AcDbEntity
  8
0
100
AcDbLine
 62
7
  6
CONTINUOUS
 10
6.2950661432
 20
4.9398945073
 11
6.2950661432
 21
4.9261861887
  0
LWPOLYLINE
  5
260
100
AcDbEntity
  8
0
100
AcDbPolyline
 62
7
  6
CONTINUOUS
 90
4
 70
0
 10
5.3887839244
 20
4.8201868646
 10
5.390162554
 20
4.8253763158
 10
5.3922894388
 20
4.8279010683
 10
5.3930046601
 20
4.8283985906
  0
LINE
  5
261
100
AcDbEntity
  8
0
100
AcDbLine
 62
7
  6
CONTINUOUS
 10
6.2522348278
 20
4.9456601219
 11
6.2440816149
 21
4.9538133348
  0
LINE
  5
262
100
AcDbEntity
  8
0
100
AcDbLine
 62
7
  6
CONTINUOUS
 10
6.3089855681
 20
4.9041129536
 11
6.3008320505
 21
4.9122664712
  0
LINE
  5
263
100
AcDbEntity
  8
0
100
AcDbLine
 62
7
  6
CONTINUOUS
 10
6.5673415699
 20
4.9041129536
 11
6.5591880523
 21
4.9122664712
  0
LINE
  5
264
100
AcDbEntity
  8
0
100
AcDbLine
 62
7
  6
CONTINUOUS
 10
6.5865410494
 20
4.9456601219
 11
6.5783878365
 21
4.9538133348
  0
LINE
  5
265
100
AcDbEntity
  8
0
100
AcDbLine
 62
7
  6
CONTINUOUS
 10
6.7500268507
 20
4.9041129536
 11
6.7418733332
 21
4.9122664712
  0
LINE
  5
266
100
AcDbEntity
  8
0
100
AcDbLine
 62
7
  6
CONTINUOUS
 10
6.8430632355
 20
4.9456601219
 11
6.8349096738
 21
4.9538136836
  0
LINE
  5
267
100
AcDbEntity
  8
0
100
AcDbLine
 62
7
  6
CONTINUOUS
 10
5.9521348054
 20
6.8239799085
 11
5.9089059881
 21
6.9570245278
  0
LINE
  5
268
100
AcDbEntity
  8
0
100
AcDbLine
 62
9
  6
CONTINUOUS
 10
6.3082627682
 20
8.4454052289
 11
6.3082627682
 21
7.7186440354
  0
LINE
  5
269
100
AcDbEntity
  8
0
100
AcDbLine
 62
9
  6
CONTINUOUS
 10
6.3443283638
 20
7.6925813651
 11
6.3443283638
 21
8.4714678992
  0
LINE
  5
26A
100
AcDbEntity
  8
0
100
AcDbLine
 62
7
  6
CONTINUOUS
 10
6.3649874774
 20
4.8315182657
 11
6.3649874774
 21
4.8064879581
  0
LINE
  5
26B
100
AcDbEntity
  8
0
100
AcDbLine
 62
9
  6
CONTINUOUS
 10
6.3723283638
 20
7.6610668111
 11
6.3723283638
 21
8.5029824531
  0
LINE
  5
26C
100
AcDbEntity
  8
0
100
AcDbLine
 62
7
  6
CONTINUOUS
 10
6.4036697337
 20
5.0026531735
 11
6.4036697337
 21
4.967733357
  0
LINE
  5
26D
100
AcDbEntity
  8
0
100
AcDbLine
 62
9
  6
CONTINUOUS
 10
6.4203283638
 20
7.5810947159
 11
6.4203283638
 21
8.5829545484
  0
LINE
  5
26E
100
AcDbEntity
  8
0
100
AcDbLine
 62
7
  6
CONTINUOUS
 10
6.4367984267
 20
4.9684209344
 11
6.4367984267
 21
4.9261861887
  0
LINE
  5
26F
100
AcDbEntity
  8
0
100
AcDbLine
 62
7
  6
CONTINUOUS
 10
6.4529946905
 20
4.8325412834
 11
6.4529946905
 21
4.8064879581
  0
LINE
  5
270
100
AcDbEntity
  8
0
100
AcDbLine
 62
9
  6
CONTINUOUS
 10
6.470813884
 20
8.7112906175
 11
6.470813884
 21
7.4527586468
  0
LINE
  5
271
100
AcDbEntity
  8
0
100
AcDbLine
 62
7
  6
CONTINUOUS
 10
6.4894220604
 20
4.8329628889
 11
6.4894220604
 21
4.8064879581
  0
LINE
  5
272
100
AcDbEntity
  8
0
100
AcDbLine
 62
9
  6
CONTINUOUS
 10
6.4993470492
 20
8.7320246321
 11
6.4993470492
 21
7.4320246321
  0
LINE
  5
273
100
AcDbEntity
  8
0
100
AcDbLine
 62
7
  6
CONTINUOUS
 10
6.553422145
 20
4.9485174263
 11
6.553422145
 21
4.9261861887
  0
LINE
  5
274
100
AcDbEntity
  8
0
100
AcDbLine
 62
7
  6
CONTINUOUS
 10
6.5726216246
 20
4.9927551783
 11
6.5726216246
 21
4.967733357
  0
LINE
  5
275
100
AcDbEntity
  8
0
100
AcDbLine
 62
7
  6
CONTINUOUS
 10
6.675323277
 20
4.877940127
 11
6.675323277
 21
4.8711666366
  0
LINE
  5
276
100
AcDbEntity
  8
0
100
AcDbLine
 62
9
  6
CONTINUOUS
 10
6.6873283638
 20
7.4320246321
 11
6.6873283638
 21
8.7320246321
  0
LINE
  5
277
100
AcDbEntity
  8
0
100
AcDbLine
 62
7
  6
CONTINUOUS
 10
6.6951544285
 20
4.9398945073
 11
6.6951544285
 21
4.9261861887
  0
LINE
  5
278
100
AcDbEntity
  8
0
100
AcDbLine
 62
7
  6
CONTINUOUS
 10
6.7023283638
 20
7.4470300546
 11
6.7023283638
 21
8.7170192096
  0
LINE
  5
279
100
AcDbEntity
  8
0
100
AcDbLine
 62
7
  6
CONTINUOUS
 10
6.7361074259
 20
4.9466674652
 11
6.7361074259
 21
4.9261861887
  0
LINE
  5
27A
100
AcDbEntity
  8
0
100
AcDbLine
 62
7
  6
CONTINUOUS
 10
6.7379759553
 20
5.0026531735
 11
6.7379759553
 21
4.967733357
  0
LINE
  5
27B
100
AcDbEntity
  8
0
100
AcDbLine
 62
7
  6
CONTINUOUS
 10
6.7848283638
 20
9.0120246321
 11
6.7848283638
 21
8.9320246321
  0
LINE
  5
27C
100
AcDbEntity
  8
0
100
AcDbLine
 62
7
  6
CONTINUOUS
 10
6.7848283638
 20
8.8920246321
 11
6.7848283638
 21
8.7295246828
  0
LINE
  5
27D
100
AcDbEntity
  8
0
100
AcDbLine
 62
7
  6
CONTINUOUS
 10
6.8291438107
 20
4.9897055095
 11
6.8291438107
 21
4.967733357
  0
LINE
  5
27E
100
AcDbEntity
  8
0
100
AcDbLine
 62
7
  6
CONTINUOUS
 10
6.4529949868
 20
4.8325410364
 11
6.45301354
 21
4.8332061593
  0
LINE
  5
27F
100
AcDbEntity
  8
0
100
AcDbLine
 62
7
  6
CONTINUOUS
 10
6.4894229378
 20
4.8329644279
 11
6.4896356725
 21
4.8351961897
  0
LWPOLYLINE
  5
280
100
AcDbEntity
  8
0
100
AcDbPolyline
 62
7
  6
CONTINUOUS
 90
7
 70
0
 10
6.7848298257
 20
8.7295246826
 10
6.7834087996
 20
8.716272987
 10
6.777142395
 20
8.6994941704
 10
6.7663667976
 20
8.685173695
 10
6.7519701957
 20
8.6744997002
 10
6.7351473939
 20
8.6683523031
 10
6.7223284583
 20
8.6670235835
  0
LWPOLYLINE
  5
281
100
AcDbEntity
  8
0
100
AcDbPolyline
 62
7
  6
CONTINUOUS
 90
4
 70
0
 10
5.8267597577
 20
4.8252684105
 10
5.8281126256
 20
4.8304088248
 10
5.8301145807
 20
4.8328218582
 10
5.8306122963
 20
4.8331820626
  0
LWPOLYLINE
  5
282
100
AcDbEntity
  8
0
100
AcDbPolyline
 62
7
  6
CONTINUOUS
 90
5
 70
0
 10
4.583139928
 20
4.8426486663
 10
4.5829183021
 20
4.8427209489
 10
4.5835073571
 20
4.8424539076
 10
4.5854802688
 20
4.8411193799
 10
4.5881701675
 20
4.8377120062
  0
LWPOLYLINE
  5
283
100
AcDbEntity
  8
0
100
AcDbPolyline
 62
7
  6
CONTINUOUS
 90
5
 70
0
 10
5.6808999938
 20
4.8278994963
 10
5.6805786871
 20
4.8280276444
 10
5.6815024064
 20
4.8274066442
 10
5.6837223137
 20
4.8247200723
 10
5.6850278477
 20
4.8196464184
  0
LWPOLYLINE
  5
284
100
AcDbEntity
  8
0
100
AcDbPolyline
 62
7
  6
CONTINUOUS
 90
6
 70
0
 10
5.2442990983
 20
4.8321722588
 10
5.2433303247
 20
4.8325680802
 10
5.2436043622
 20
4.8323461095
 10
5.2456283637
 20
4.8299904376
 10
5.2470349677
 20
4.8253699097
 10
5.2470539148
 20
4.8247369931
  0
LWPOLYLINE
  5
285
100
AcDbEntity
  8
0
100
AcDbPolyline
 62
7
  6
CONTINUOUS
 90
5
 70
0
 10
5.4629572041
 20
4.8300790462
 10
5.4627750352
 20
4.8301555325
 10
5.4642012
 20
4.828941846
 10
5.4662814104
 20
4.8252524779
 10
5.4667429464
 20
4.8221969519
  0
LINE
  5
286
100
AcDbEntity
  8
0
100
AcDbLine
 62
7
  6
CONTINUOUS
 10
7.004319823
 20
4.9456601219
 11
6.9961666101
 21
4.9538133348
  0
LINE
  5
287
100
AcDbEntity
  8
0
100
AcDbLine
 62
7
  6
CONTINUOUS
 10
6.8778397094
 20
4.9398945073
 11
6.8778397094
 21
4.9261861887
  0
LINE
  5
288
100
AcDbEntity
  8
0
100
AcDbLine
 62
7
  6
CONTINUOUS
 10
6.9724045692
 20
4.9410372634
 11
6.9724045692
 21
4.9261861887
  0
LINE
  5
289
100
AcDbEntity
  8
0
100
AcDbLine
 62
7
  6
CONTINUOUS
 10
6.9944981414
 20
5.0026531735
 11
6.9944981414
 21
4.967733357
  0
LINE
  5
28A
100
AcDbEntity
  8
0
100
AcDbLine
 62
9
  6
CONTINUOUS
 10
7.0348283638
 20
9.0320246321
 11
7.0348283638
 21
8.5943833301
  0
LINE
  5
28B
100
AcDbEntity
  8
0
100
AcDbLine
 62
9
  6
CONTINUOUS
 10
7.1248283638
 20
8.8920246321
 11
7.1248283638
 21
8.9120246321
  0
LINE
  5
28C
100
AcDbEntity
  8
0
100
AcDbLine
 62
9
  6
CONTINUOUS
 10
7.1448283638
 20
8.9120246321
 11
7.1448283638
 21
8.9320246321
  0
LINE
  5
28D
100
AcDbEntity
  8
0
100
AcDbLine
 62
7
  6
CONTINUOUS
 10
7.1557547289
 20
5.0026531735
 11
7.1557547289
 21
4.967733357
  0
LINE
  5
28E
100
AcDbEntity
  8
0
100
AcDbLine
 62
9
  6
CONTINUOUS
 10
7.1648283638
 20
8.0820246321
 11
7.1648283638
 21
8.5460558811
  0
LINE
  5
28F
100
AcDbEntity
  8
0
100
AcDbLine
 62
9
  6
CONTINUOUS
 10
7.1648283638
 20
8.5657634434
 11
7.1648283638
 21
8.8520246321
  0
LINE
  5
290
100
AcDbEntity
  8
0
100
AcDbLine
 62
7
  6
CONTINUOUS
 10
7.1848283638
 20
8.0820246321
 11
7.1848283638
 21
8.852024632
  0
LINE
  5
291
100
AcDbEntity
  8
0
100
AcDbLine
 62
7
  6
CONTINUOUS
 10
7.2023283638
 20
8.0820246321
 11
7.2023283638
 21
8.2662195018
  0
LINE
  5
292
100
AcDbEntity
  8
0
100
AcDbLine
 62
7
  6
CONTINUOUS
 10
7.2048283638
 20
8.3591527613
 11
7.2048283638
 21
8.8520246321
  0
LINE
  5
293
100
AcDbEntity
  8
0
100
AcDbLine
 62
7
  6
CONTINUOUS
 10
7.2107563479
 20
4.967733357
 11
7.2107563479
 21
5.0026531735
  0
LINE
  5
294
100
AcDbEntity
  8
0
100
AcDbLine
 62
9
  6
CONTINUOUS
 10
7.2248283637
 20
8.8520246323
 11
7.2248283638
 21
8.6595192211
  0
LINE
  5
295
100
AcDbEntity
  8
0
100
AcDbLine
 62
9
  6
CONTINUOUS
 10
7.2248283638
 20
8.6225105246
 11
7.2248283638
 21
8.3591527613
  0
LINE
  5
296
100
AcDbEntity
  8
0
100
AcDbLine
 62
7
  6
CONTINUOUS
 10
6.3649838539
 20
4.8315179318
 11
6.366200575
 21
4.8366484335
  0
LINE
  5
297
100
AcDbEntity
  8
0
100
AcDbLine
 62
7
  6
CONTINUOUS
 10
6.45301354
 20
4.8332061593
 11
6.4543706348
 21
4.8380431083
  0
LINE
  5
298
100
AcDbEntity
  8
0
100
AcDbLine
 62
7
  6
CONTINUOUS
 10
6.3723283638
 20
8.5029824531
 11
6.3443283638
 21
8.4714678992
  0
LINE
  5
299
100
AcDbEntity
  8
0
100
AcDbLine
 62
7
  6
CONTINUOUS
 10
4.2517402506
 20
4.8932799029
 11
4.3406776079
 21
4.877940127
  0
LWPOLYLINE
  5
29A
100
AcDbEntity
  8
0
100
AcDbPolyline
 62
7
  6
CONTINUOUS
 90
7
 70
0
 10
4.5331871718
 20
4.8442283792
 10
4.5331266403
 20
4.8442411315
 10
4.5336435715
 20
4.8440933285
 10
4.5352597815
 20
4.8434276494
 10
4.5375298206
 20
4.8419212244
 10
4.5396361877
 20
4.8395865575
 10
4.5411756523
 20
4.8363914407
  0
LINE
  5
29B
100
AcDbEntity
  8
0
100
AcDbLine
 62
7
  6
CONTINUOUS
 10
6.6275666876
 20
6.0487717111
 11
6.0472975033
 21
6.6243655262
  0
LINE
  5
29C
100
AcDbEntity
  8
0
100
AcDbLine
 62
7
  6
CONTINUOUS
 10
7.5139059542
 20
5.1014857693
 11
7.5139059542
 21
5.945568604
  0
LWPOLYLINE
  5
29D
100
AcDbEntity
  8
0
100
AcDbPolyline
 62
7
  6
CONTINUOUS
 90
7
 70
0
 10
6.4896356725
 20
4.8351961897
 10
6.4906618101
 20
4.8382313639
 10
6.4923416141
 20
4.8407377074
 10
6.4944269911
 20
4.8426154676
 10
6.4966419711
 20
4.8438429053
 10
6.4981210922
 20
4.8443499924
 10
6.4986134104
 20
4.8444681071
  0
LINE
  5
29E
100
AcDbEntity
  8
0
100
AcDbLine
 62
7
  6
CONTINUOUS
 10
6.1758834685
 20
4.7093855093
 11
6.2042604542
 21
4.7873506368
  0
LINE
  5
29F
100
AcDbEntity
  8
0
100
AcDbLine
 62
7
  6
CONTINUOUS
 10
4.0234920854
 20
4.9456601219
 11
4.0316452983
 21
4.9538133348
  0
LINE
  5
2A0
100
AcDbEntity
  8
0
100
AcDbLine
 62
7
  6
CONTINUOUS
 10
4.4002452208
 20
6.0487717111
 11
4.9805144051
 21
6.6243655262
  0
LINE
  5
2A1
100
AcDbEntity
  8
0
100
AcDbLine
 62
7
  6
CONTINUOUS
 10
3.7474870514
 20
5.0026531735
 11
3.7455435313
 21
5.0028967992
  0
LWPOLYLINE
  5
2A2
100
AcDbEntity
  8
0
100
AcDbPolyline
 62
7
  6
CONTINUOUS
 90
5
 70
0
 10
6.2157310164
 20
4.8240543862
 10
6.2155609093
 20
4.8240798045
 10
6.2157147927
 20
4.8240377633
 10
6.2172208784
 20
4.8234419054
 10
6.220177839
 20
4.8212135096
  0
LINE
  5
2A3
100
AcDbEntity
  8
0
100
AcDbLine
 62
9
  6
CONTINUOUS
 10
6.4893546115
 20
4.8329743582
 11
6.4894220597
 21
4.8329629529
  0
LINE
  5
2A4
100
AcDbEntity
  8
0
100
AcDbLine
 62
7
  6
CONTINUOUS
 10
6.3723283638
 20
7.6610668111
 11
6.3443283638
 21
7.6925813651
  0
LINE
  5
2A5
100
AcDbEntity
  8
0
100
AcDbLine
 62
7
  6
CONTINUOUS
 10
4.1847486729
 20
4.9456601219
 11
4.1929018858
 21
4.9538133348
  0
LINE
  5
2A6
100
AcDbEntity
  8
0
100
AcDbLine
 62
7
  6
CONTINUOUS
 10
4.2777850577
 20
4.9041129536
 11
4.2859385753
 21
4.9122664712
  0
LINE
  5
2A7
100
AcDbEntity
  8
0
100
AcDbLine
 62
7
  6
CONTINUOUS
 10
4.441270859
 20
4.9456601219
 11
4.4494240719
 21
4.9538133348
  0
LINE
  5
2A8
100
AcDbEntity
  8
0
100
AcDbLine
 62
7
  6
CONTINUOUS
 10
4.4604703385
 20
4.9041129536
 11
4.4686238561
 21
4.9122664712
  0
LINE
  5
2A9
100
AcDbEntity
  8
0
100
AcDbLine
 62
7
  6
CONTINUOUS
 10
4.7188263404
 20
4.9041129536
 11
4.7269798579
 21
4.9122664712
  0
LINE
  5
2AA
100
AcDbEntity
  8
0
100
AcDbLine
 62
7
  6
CONTINUOUS
 10
4.7755770806
 20
4.9456601219
 11
4.7837302936
 21
4.953813335
  0
LINE
  5
2AB
100
AcDbEntity
  8
0
100
AcDbLine
 62
7
  6
CONTINUOUS
 10
4.9433850404
 20
4.6767481105
 11
5.3378837926
 21
4.6767481105
  0
LINE
  5
2AC
100
AcDbEntity
  8
0
100
AcDbLine
 62
7
  6
CONTINUOUS
 10
5.3450305938
 20
4.6767481105
 11
5.5609911273
 21
4.6767481105
  0
LINE
  5
2AD
100
AcDbEntity
  8
0
100
AcDbLine
 62
7
  6
CONTINUOUS
 10
5.6320794062
 20
4.6767481105
 11
5.6827813146
 21
4.6767481105
  0
LINE
  5
2AE
100
AcDbEntity
  8
0
100
AcDbLine
 62
7
  6
CONTINUOUS
 10
5.6899281158
 20
4.6767481105
 11
6.084426868
 21
4.6767481105
  0
LINE
  5
2AF
100
AcDbEntity
  8
0
100
AcDbLine
 62
9
  6
CONTINUOUS
 10
4.9294550728
 20
4.6825131019
 11
5.3041092886
 21
4.6825131019
  0
LINE
  5
2B0
100
AcDbEntity
  8
0
100
AcDbLine
 62
9
  6
CONTINUOUS
 10
5.3311041369
 20
4.6825131019
 11
5.5749175842
 21
4.6825131019
  0
LINE
  5
2B1
100
AcDbEntity
  8
0
100
AcDbLine
 62
9
  6
CONTINUOUS
 10
5.6760080075
 20
4.6825131019
 11
6.0983568356
 21
4.6825131019
  0
LINE
  5
2B2
100
AcDbEntity
  8
0
100
AcDbLine
 62
7
  6
CONTINUOUS
 10
3.9046236584
 20
4.6825620102
 11
3.8953939719
 21
4.6825620102
  0
LINE
  5
2B3
100
AcDbEntity
  8
0
100
AcDbLine
 62
9
  6
CONTINUOUS
 10
3.8953939824
 20
4.6825620102
 11
3.8954460748
 21
4.6825620138
  0
LINE
  5
2B4
100
AcDbEntity
  8
0
100
AcDbLine
 62
9
  6
CONTINUOUS
 10
5.6710866043
 20
4.6874345051
 11
5.5798389874
 21
4.6874345051
  0
LINE
  5
2B5
100
AcDbEntity
  8
0
100
AcDbLine
 62
9
  6
CONTINUOUS
 10
5.3261827337
 20
4.6874345051
 11
5.2706066369
 21
4.6874345051
  0
LINE
  5
2B6
100
AcDbEntity
  8
0
100
AcDbLine
 62
9
  6
CONTINUOUS
 10
6.10651068
 20
4.6906669463
 11
5.6678541648
 21
4.6906669446
  0
LINE
  5
2B7
100
AcDbEntity
  8
0
100
AcDbLine
 62
9
  6
CONTINUOUS
 10
5.5830714286
 20
4.6906669463
 11
5.3229502926
 21
4.6906669463
  0
LINE
  5
2B8
100
AcDbEntity
  8
0
100
AcDbLine
 62
9
  6
CONTINUOUS
 10
5.2738390764
 20
4.6906669446
 11
4.9213012284
 21
4.6906669463
  0
LINE
  5
2B9
100
AcDbEntity
  8
0
100
AcDbLine
 62
7
  6
CONTINUOUS
 10
4.8704299093
 20
4.6964331499
 11
6.1573819991
 21
4.6964331499
  0
LINE
  5
2BA
100
AcDbEntity
  8
0
100
AcDbLine
 62
9
  6
CONTINUOUS
 10
4.8519284511
 20
4.7093854787
 11
6.1758834573
 21
4.7093854787
  0
LINE
  5
2BB
100
AcDbEntity
  8
0
100
AcDbLine
 62
7
  6
CONTINUOUS
 10
4.5662741801
 20
4.7819106326
 11
4.6140441343
 21
4.7819106326
  0
LINE
  5
2BC
100
AcDbEntity
  8
0
100
AcDbLine
 62
7
  6
CONTINUOUS
 10
4.6140549715
 20
4.7819106326
 11
4.7066109294
 21
4.7819106326
  0
LINE
  5
2BD
100
AcDbEntity
  8
0
100
AcDbLine
 62
7
  6
CONTINUOUS
 10
4.7125278867
 20
4.7819106326
 11
4.8255314538
 21
4.7819106326
  0
LINE
  5
2BE
100
AcDbEntity
  8
0
100
AcDbLine
 62
7
  6
CONTINUOUS
 10
5.2716336118
 20
4.7819106326
 11
5.364201043
 21
4.7819106326
  0
LINE
  5
2BF
100
AcDbEntity
  8
0
100
AcDbLine
 62
7
  6
CONTINUOUS
 10
5.4913272264
 20
4.7819106326
 11
5.5838917537
 21
4.7819106326
  0
LINE
  5
2C0
100
AcDbEntity
  8
0
100
AcDbLine
 62
7
  6
CONTINUOUS
 10
5.7096112424
 20
4.7819106326
 11
5.8021756778
 21
4.7819106326
  0
LINE
  5
2C1
100
AcDbEntity
  8
0
100
AcDbLine
 62
7
  6
CONTINUOUS
 10
6.2022804546
 20
4.7819106326
 11
6.2383762409
 21
4.7819106326
  0
LINE
  5
2C2
100
AcDbEntity
  8
0
100
AcDbLine
 62
7
  6
CONTINUOUS
 10
6.2478351752
 20
4.7819106326
 11
6.4648342038
 21
4.7819106326
  0
LINE
  5
2C3
100
AcDbEntity
  8
0
100
AcDbLine
 62
9
  6
CONTINUOUS
 10
4.5579225057
 20
4.7853699644
 11
4.82427236
 21
4.7853699644
  0
LINE
  5
2C4
100
AcDbEntity
  8
0
100
AcDbLine
 62
9
  6
CONTINUOUS
 10
5.2632768932
 20
4.7853699644
 11
5.3725577616
 21
4.7853699644
  0
LINE
  5
2C5
100
AcDbEntity
  8
0
100
AcDbLine
 62
9
  6
CONTINUOUS
 10
5.4829690559
 20
4.7853699644
 11
5.5922499243
 21
4.7853699644
  0
LINE
  5
2C6
100
AcDbEntity
  8
0
100
AcDbLine
 62
9
  6
CONTINUOUS
 10
5.7012530259
 20
4.7853699644
 11
5.8105338943
 21
4.7853699644
  0
LINE
  5
2C7
100
AcDbEntity
  8
0
100
AcDbLine
 62
9
  6
CONTINUOUS
 10
6.2035395485
 20
4.7853699649
 11
6.4731963528
 21
4.7853699644
  0
LINE
  5
2C8
100
AcDbEntity
  8
0
100
AcDbLine
 62
9
  6
CONTINUOUS
 10
6.2042604542
 20
4.7873506368
 11
5.8125145667
 21
4.7873506368
  0
LINE
  5
2C9
100
AcDbEntity
  8
0
100
AcDbLine
 62
9
  6
CONTINUOUS
 10
5.6992723535
 20
4.7873506368
 11
5.5942305966
 21
4.7873506368
  0
LINE
  5
2CA
100
AcDbEntity
  8
0
100
AcDbLine
 62
9
  6
CONTINUOUS
 10
5.4809883835
 20
4.7873506368
 11
5.374538434
 21
4.7873506368
  0
LINE
  5
2CB
100
AcDbEntity
  8
0
100
AcDbLine
 62
9
  6
CONTINUOUS
 10
5.2612962208
 20
4.7873506368
 11
4.8235514542
 21
4.7873506368
  0
LINE
  5
2CC
100
AcDbEntity
  8
0
100
AcDbLine
 62
9
  6
CONTINUOUS
 10
6.4859626479
 20
4.7981362595
 11
6.4497251495
 21
4.7981362595
  0
LINE
  5
2CD
100
AcDbEntity
  8
0
100
AcDbLine
 62
9
  6
CONTINUOUS
 10
6.449535278
 20
4.7981362595
 11
6.210472828
 21
4.7981362594
  0
LINE
  5
2CE
100
AcDbEntity
  8
0
100
AcDbLine
 62
9
  6
CONTINUOUS
 10
5.8233001894
 20
4.7981362595
 11
5.6884867308
 21
4.7981362595
  0
LINE
  5
2CF
100
AcDbEntity
  8
0
100
AcDbLine
 62
9
  6
CONTINUOUS
 10
5.6050162194
 20
4.7981362595
 11
5.4702027608
 21
4.7981362595
  0
LINE
  5
2D0
100
AcDbEntity
  8
0
100
AcDbLine
 62
9
  6
CONTINUOUS
 10
5.3853240567
 20
4.7981362595
 11
5.2505105981
 21
4.7981362595
  0
LINE
  5
2D1
100
AcDbEntity
  8
0
100
AcDbLine
 62
9
  6
CONTINUOUS
 10
4.8262192226
 20
4.7981362596
 11
4.5451562107
 21
4.7981362595
  0
LINE
  5
2D2
100
AcDbEntity
  8
0
100
AcDbLine
 62
9
  6
CONTINUOUS
 10
4.5416967982
 20
4.8064879581
 11
4.829678635
 21
4.8064879581
  0
LINE
  5
2D3
100
AcDbEntity
  8
0
100
AcDbLine
 62
9
  6
CONTINUOUS
 10
5.2470511857
 20
4.8064879581
 11
5.3887834691
 21
4.8064879581
  0
LINE
  5
2D4
100
AcDbEntity
  8
0
100
AcDbLine
 62
9
  6
CONTINUOUS
 10
5.4667433483
 20
4.8064879581
 11
5.6084756318
 21
4.8064879581
  0
LINE
  5
2D5
100
AcDbEntity
  8
0
100
AcDbLine
 62
9
  6
CONTINUOUS
 10
5.6850273184
 20
4.8064879581
 11
5.8267596018
 21
4.8064879581
  0
LINE
  5
2D6
100
AcDbEntity
  8
0
100
AcDbLine
 62
9
  6
CONTINUOUS
 10
6.2197459883
 20
4.8064879581
 11
6.4894220604
 21
4.8064879581
  0
LINE
  5
2D7
100
AcDbEntity
  8
0
100
AcDbLine
 62
9
  6
CONTINUOUS
 10
5.6850273184
 20
4.8130530899
 11
5.6084756318
 21
4.8130530899
  0
LINE
  5
2D8
100
AcDbEntity
  8
0
100
AcDbLine
 62
9
  6
CONTINUOUS
 10
5.4667433483
 20
4.8130530899
 11
5.3887834691
 21
4.8130530899
  0
LINE
  5
2D9
100
AcDbEntity
  8
0
100
AcDbLine
 62
9
  6
CONTINUOUS
 10
5.2470511857
 20
4.8130530899
 11
4.8296786349
 21
4.8130530899
  0
LINE
  5
2DA
100
AcDbEntity
  8
0
100
AcDbLine
 62
9
  6
CONTINUOUS
 10
6.223255194
 20
4.8130530899
 11
5.8267596018
 21
4.8130530899
  0
LINE
  5
2DB
100
AcDbEntity
  8
0
100
AcDbLine
 62
7
  6
CONTINUOUS
 10
6.2209320233
 20
4.8711689076
 11
6.675323277
 21
4.8711666366
  0
LINE
  5
2DC
100
AcDbEntity
  8
0
100
AcDbLine
 62
7
  6
CONTINUOUS
 10
4.3524886314
 20
4.8711666366
 11
6.2209320233
 21
4.8711689076
  0
LINE
  5
2DD
100
AcDbEntity
  8
0
100
AcDbLine
 62
7
  6
CONTINUOUS
 10
3.5897190748
 20
5.0215954067
 11
3.634809643
 21
5.0192323101
  0
LINE
  5
2DE
100
AcDbEntity
  8
0
100
AcDbLine
 62
9
  6
CONTINUOUS
 10
8.4448283638
 20
8.3591527613
 11
8.4448283638
 21
8.6225105246
  0
LINE
  5
2DF
100
AcDbEntity
  8
0
100
AcDbLine
 62
9
  6
CONTINUOUS
 10
8.4448283638
 20
8.6595192209
 11
8.4448283638
 21
8.8520246323
  0
LINE
  5
2E0
100
AcDbEntity
  8
0
100
AcDbLine
 62
7
  6
CONTINUOUS
 10
8.4648283638
 20
8.3591527613
 11
8.4648283638
 21
8.8520246321
  0
LINE
  5
2E1
100
AcDbEntity
  8
0
100
AcDbLine
 62
7
  6
CONTINUOUS
 10
8.4673283638
 20
8.2662195018
 11
8.4673283638
 21
8.0820246321
  0
LINE
  5
2E2
100
AcDbEntity
  8
0
100
AcDbLine
 62
7
  6
CONTINUOUS
 10
8.4848283638
 20
8.0820246321
 11
8.4848283638
 21
8.8520246321
  0
LINE
  5
2E3
100
AcDbEntity
  8
0
100
AcDbLine
 62
9
  6
CONTINUOUS
 10
8.5048283638
 20
8.8520246321
 11
8.5048283638
 21
8.5928144618
  0
LINE
  5
2E4
100
AcDbEntity
  8
0
100
AcDbLine
 62
9
  6
CONTINUOUS
 10
8.5048283638
 20
8.5460558811
 11
8.5048283638
 21
8.0820246321
  0
LINE
  5
2E5
100
AcDbEntity
  8
0
100
AcDbLine
 62
9
  6
CONTINUOUS
 10
8.5248283638
 20
8.9320246321
 11
8.5248283638
 21
8.9120246321
  0
LINE
  5
2E6
100
AcDbEntity
  8
0
100
AcDbLine
 62
9
  6
CONTINUOUS
 10
8.5448283638
 20
8.9120246321
 11
8.5448283638
 21
8.8920246321
  0
LINE
  5
2E7
100
AcDbEntity
  8
0
100
AcDbLine
 62
9
  6
CONTINUOUS
 10
8.6305395237
 20
8.3588819961
 11
8.6305395237
 21
8.3342979679
  0
LINE
  5
2E8
100
AcDbEntity
  8
0
100
AcDbLine
 62
9
  6
CONTINUOUS
 10
8.6348283345
 20
8.318070634
 11
8.6348283638
 21
9.0320246321
  0
LINE
  5
2E9
100
AcDbEntity
  8
0
100
AcDbLine
 62
7
  6
CONTINUOUS
 10
8.8848283638
 20
9.0120246321
 11
8.8848283638
 21
8.9320246321
  0
LINE
  5
2EA
100
AcDbEntity
  8
0
100
AcDbLine
 62
7
  6
CONTINUOUS
 10
8.8848283638
 20
8.8920246321
 11
8.8848283638
 21
8.4995247007
  0
LWPOLYLINE
  5
2EB
100
AcDbEntity
  8
0
100
AcDbPolyline
 62
7
  6
CONTINUOUS
 90
4
 70
0
 10
6.366200575
 20
4.8366484335
 10
6.3686837206
 20
4.8398883993
 10
6.3703107833
 20
4.8410389836
 10
6.3704556343
 20
4.8411150672
  0
LINE
  5
2EC
100
AcDbEntity
  8
0
100
AcDbLine
 62
7
  6
CONTINUOUS
 10
4.8134529644
 20
4.7853700013
 11
4.8262192226
 21
4.7981362596
  0
LINE
  5
2ED
100
AcDbEntity
  8
0
100
AcDbLine
 62
7
  6
CONTINUOUS
 10
5.0352465286
 20
4.9041129536
 11
5.0434000461
 21
4.9122664712
  0
LINE
  5
2EE
100
AcDbEntity
  8
0
100
AcDbLine
 62
7
  6
CONTINUOUS
 10
5.1648849211
 20
4.9456601219
 11
5.1730381341
 21
4.9538133348
  0
LINE
  5
2EF
100
AcDbEntity
  8
0
100
AcDbLine
 62
7
  6
CONTINUOUS
 10
5.3881673903
 20
4.9041129536
 11
5.3963209079
 21
4.9122664712
  0
LINE
  5
2F0
100
AcDbEntity
  8
0
100
AcDbLine
 62
7
  6
CONTINUOUS
 10
5.2656858568
 20
4.6825137251
 11
5.2738390764
 21
4.6906669446
  0
LINE
  5
2F1
100
AcDbEntity
  8
0
100
AcDbLine
 62
7
  6
CONTINUOUS
 10
5.3725577985
 20
4.7853700013
 11
5.3853240567
 21
4.7981362595
  0
LINE
  5
2F2
100
AcDbEntity
  8
0
100
AcDbLine
 62
9
  6
CONTINUOUS
 10
8.4597976889
 20
8.6357739821
 11
8.4448283638
 21
8.6225105246
  0
LINE
  5
2F3
100
AcDbEntity
  8
0
100
AcDbLine
 62
9
  6
CONTINUOUS
 10
8.5048283638
 20
8.5460558811
 11
8.5212700816
 21
8.557443151
  0
LINE
  5
2F4
100
AcDbEntity
  8
0
100
AcDbLine
 62
7
  6
CONTINUOUS
 10
7.4380928336
 20
5.0215954067
 11
7.3930022654
 21
5.0192323101
  0
LINE
  5
2F5
100
AcDbEntity
  8
0
100
AcDbLine
 62
7
  6
CONTINUOUS
 10
4.3406942614
 20
4.877940127
 11
6.687118163
 21
4.877940127
  0
LINE
  5
2F6
100
AcDbEntity
  8
0
100
AcDbLine
 62
9
  6
CONTINUOUS
 10
4.2517402506
 20
4.8932799029
 11
6.7760716578
 21
4.8932799029
  0
LINE
  5
2F7
100
AcDbEntity
  8
0
100
AcDbLine
 62
7
  6
CONTINUOUS
 10
4.083246567
 20
4.8983473391
 11
4.1692979701
 21
4.8983473391
  0
LINE
  5
2F8
100
AcDbEntity
  8
0
100
AcDbLine
 62
7
  6
CONTINUOUS
 10
4.1778179992
 20
4.8983473391
 11
4.2638586824
 21
4.8983473391
  0
LINE
  5
2F9
100
AcDbEntity
  8
0
100
AcDbLine
 62
7
  6
CONTINUOUS
 10
4.3605088552
 20
4.8983473391
 11
4.4465383881
 21
4.8983473391
  0
LINE
  5
2FA
100
AcDbEntity
  8
0
100
AcDbLine
 62
7
  6
CONTINUOUS
 10
4.6188614421
 20
4.8983473391
 11
4.7048978048
 21
4.8983473391
  0
LINE
  5
2FB
100
AcDbEntity
  8
0
100
AcDbLine
 62
7
  6
CONTINUOUS
 10
4.9352747271
 20
4.8983473391
 11
5.0213248962
 21
4.8983473391
  0
LINE
  5
2FC
100
AcDbEntity
  8
0
100
AcDbLine
 62
7
  6
CONTINUOUS
 10
5.2881964278
 20
4.8983473391
 11
5.3742449189
 21
4.8983473391
  0
LINE
  5
2FD
100
AcDbEntity
  8
0
100
AcDbLine
 62
7
  6
CONTINUOUS
 10
5.6535736782
 20
4.8983473391
 11
5.7396087919
 21
4.8983473391
  0
LINE
  5
2FE
100
AcDbEntity
  8
0
100
AcDbLine
 62
7
  6
CONTINUOUS
 10
6.0064972793
 20
4.8983473391
 11
6.0925269142
 21
4.8983473391
  0
LINE
  5
2FF
100
AcDbEntity
  8
0
100
AcDbLine
 62
7
  6
CONTINUOUS
 10
6.3229132667
 20
4.8983473391
 11
6.4089513032
 21
4.8983473391
  0
LINE
  5
300
100
AcDbEntity
  8
0
100
AcDbLine
 62
7
  6
CONTINUOUS
 10
6.5812623179
 20
4.8983473391
 11
6.6673142556
 21
4.8983473391
  0
LINE
  5
301
100
AcDbEntity
  8
0
100
AcDbLine
 62
7
  6
CONTINUOUS
 10
6.7639497717
 20
4.8983473391
 11
6.8499973636
 21
4.8983473391
  0
LINE
  5
302
100
AcDbEntity
  8
0
100
AcDbLine
 62
7
  6
CONTINUOUS
 10
6.8585310463
 20
4.8983473391
 11
6.9445458087
 21
4.8983473391
  0
LINE
  5
303
100
AcDbEntity
  8
0
100
AcDbLine
 62
9
  6
CONTINUOUS
 10
4.2721486262
 20
4.9003468836
 11
4.3522133362
 21
4.9003468836
  0
LINE
  5
304
100
AcDbEntity
  8
0
100
AcDbLine
 62
9
  6
CONTINUOUS
 10
4.454833907
 20
4.9003468836
 11
4.610569338
 21
4.9003468836
  0
LINE
  5
305
100
AcDbEntity
  8
0
100
AcDbLine
 62
9
  6
CONTINUOUS
 10
4.7131899088
 20
4.9003468836
 11
4.9269895263
 21
4.9003468836
  0
LINE
  5
306
100
AcDbEntity
  8
0
100
AcDbLine
 62
9
  6
CONTINUOUS
 10
5.0296100971
 20
4.9003468836
 11
5.279910388
 21
4.9003468836
  0
LINE
  5
307
100
AcDbEntity
  8
0
100
AcDbLine
 62
9
  6
CONTINUOUS
 10
5.3825309588
 20
4.9003468836
 11
5.6452809496
 21
4.9003468836
  0
LINE
  5
308
100
AcDbEntity
  8
0
100
AcDbLine
 62
9
  6
CONTINUOUS
 10
5.7479015204
 20
4.9003468836
 11
5.9982018113
 21
4.9003468836
  0
LINE
  5
309
100
AcDbEntity
  8
0
100
AcDbLine
 62
9
  6
CONTINUOUS
 10
6.1008223821
 20
4.9003468836
 11
6.3089855681
 21
4.9003468836
  0
LINE
  5
30A
100
AcDbEntity
  8
0
100
AcDbLine
 62
9
  6
CONTINUOUS
 10
6.4172425704
 20
4.9003468836
 11
6.5673415699
 21
4.9003468836
  0
LINE
  5
30B
100
AcDbEntity
  8
0
100
AcDbLine
 62
9
  6
CONTINUOUS
 10
6.6755985838
 20
4.9003468914
 11
6.7556632706
 21
4.9003468914
  0
LINE
  5
30C
100
AcDbEntity
  8
0
100
AcDbLine
 62
9
  6
CONTINUOUS
 10
4.0693270864
 20
4.9041126312
 11
4.2777847353
 21
4.9041126312
  0
LINE
  5
30D
100
AcDbEntity
  8
0
100
AcDbLine
 62
9
  6
CONTINUOUS
 10
4.3465772272
 20
4.9041126312
 11
4.4604700161
 21
4.9041126312
  0
LINE
  5
30E
100
AcDbEntity
  8
0
100
AcDbLine
 62
9
  6
CONTINUOUS
 10
4.604933229
 20
4.9041126312
 11
4.7188260179
 21
4.9041126312
  0
LINE
  5
30F
100
AcDbEntity
  8
0
100
AcDbLine
 62
9
  6
CONTINUOUS
 10
4.9213534172
 20
4.9041126312
 11
5.0352462061
 21
4.9041126312
  0
LINE
  5
310
100
AcDbEntity
  8
0
100
AcDbLine
 62
9
  6
CONTINUOUS
 10
5.2742742789
 20
4.9041126312
 11
5.3881670678
 21
4.9041126312
  0
LINE
  5
311
100
AcDbEntity
  8
0
100
AcDbLine
 62
9
  6
CONTINUOUS
 10
5.6396448406
 20
4.9041126312
 11
5.7535376295
 21
4.9041126312
  0
LINE
  5
312
100
AcDbEntity
  8
0
100
AcDbLine
 62
9
  6
CONTINUOUS
 10
5.9925657023
 20
4.9041126312
 11
6.1064584912
 21
4.9041126312
  0
LINE
  5
313
100
AcDbEntity
  8
0
100
AcDbLine
 62
9
  6
CONTINUOUS
 10
6.3089858905
 20
4.9041126312
 11
6.4228786794
 21
4.9041126312
  0
LINE
  5
314
100
AcDbEntity
  8
0
100
AcDbLine
 62
9
  6
CONTINUOUS
 10
6.5673418923
 20
4.9041126312
 11
6.6812346812
 21
4.9041126312
  0
LINE
  5
315
100
AcDbEntity
  8
0
100
AcDbLine
 62
9
  6
CONTINUOUS
 10
6.7500271731
 20
4.9041126312
 11
6.958484822
 21
4.9041126312
  0
LINE
  5
316
100
AcDbEntity
  8
0
100
AcDbLine
 62
9
  6
CONTINUOUS
 10
6.9666381014
 20
4.9122664712
 11
6.8780573252
 21
4.9122664712
  0
LINE
  5
317
100
AcDbEntity
  8
0
100
AcDbLine
 62
9
  6
CONTINUOUS
 10
6.8720738021
 20
4.9122664712
 11
6.7418733332
 21
4.9122664712
  0
LINE
  5
318
100
AcDbEntity
  8
0
100
AcDbLine
 62
9
  6
CONTINUOUS
 10
6.6893885213
 20
4.9122664712
 11
6.5591880523
 21
4.9122664712
  0
LINE
  5
319
100
AcDbEntity
  8
0
100
AcDbLine
 62
9
  6
CONTINUOUS
 10
6.4310325195
 20
4.9122664712
 11
6.3008320505
 21
4.9122664712
  0
LINE
  5
31A
100
AcDbEntity
  8
0
100
AcDbLine
 62
9
  6
CONTINUOUS
 10
6.1146123312
 20
4.9122664712
 11
5.9844118622
 21
4.9122664712
  0
LINE
  5
31B
100
AcDbEntity
  8
0
100
AcDbLine
 62
9
  6
CONTINUOUS
 10
5.7616914695
 20
4.9122664712
 11
5.6314910006
 21
4.9122664712
  0
LINE
  5
31C
100
AcDbEntity
  8
0
100
AcDbLine
 62
9
  6
CONTINUOUS
 10
5.3963209079
 20
4.9122664712
 11
5.2661204389
 21
4.9122664712
  0
LINE
  5
31D
100
AcDbEntity
  8
0
100
AcDbLine
 62
9
  6
CONTINUOUS
 10
5.0434000461
 20
4.9122664712
 11
4.9131995772
 21
4.9122664712
  0
LINE
  5
31E
100
AcDbEntity
  8
0
100
AcDbLine
 62
9
  6
CONTINUOUS
 10
4.7269798579
 20
4.9122664712
 11
4.5967793889
 21
4.9122664712
  0
LINE
  5
31F
100
AcDbEntity
  8
0
100
AcDbLine
 62
9
  6
CONTINUOUS
 10
4.4686238561
 20
4.9122664712
 11
4.3384233871
 21
4.9122664712
  0
LINE
  5
320
100
AcDbEntity
  8
0
100
AcDbLine
 62
9
  6
CONTINUOUS
 10
4.2859385753
 20
4.9122664712
 11
4.0611732464
 21
4.9122664712
  0
LINE
  5
321
100
AcDbEntity
  8
0
100
AcDbLine
 62
9
  6
CONTINUOUS
 10
6.7373297707
 20
4.9200412151
 11
6.6939320837
 21
4.9200412151
  0
LINE
  5
322
100
AcDbEntity
  8
0
100
AcDbLine
 62
9
  6
CONTINUOUS
 10
6.5546444899
 20
4.9200412151
 11
6.4355760819
 21
4.9200412151
  0
LINE
  5
323
100
AcDbEntity
  8
0
100
AcDbLine
 62
9
  6
CONTINUOUS
 10
6.2962884881
 20
4.9200412151
 11
6.1191558937
 21
4.9200412151
  0
LINE
  5
324
100
AcDbEntity
  8
0
100
AcDbLine
 62
9
  6
CONTINUOUS
 10
5.9798682998
 20
4.9200412151
 11
5.766235032
 21
4.9200412151
  0
LINE
  5
325
100
AcDbEntity
  8
0
100
AcDbLine
 62
9
  6
CONTINUOUS
 10
5.6269474381
 20
4.9200412151
 11
5.4008644703
 21
4.9200412151
  0
LINE
  5
326
100
AcDbEntity
  8
0
100
AcDbLine
 62
9
  6
CONTINUOUS
 10
5.2615768765
 20
4.9200412151
 11
5.0479436086
 21
4.9200412151
  0
LINE
  5
327
100
AcDbEntity
  8
0
100
AcDbLine
 62
9
  6
CONTINUOUS
 10
4.9086560148
 20
4.9200412151
 11
4.7315234204
 21
4.9200412151
  0
LINE
  5
328
100
AcDbEntity
  8
0
100
AcDbLine
 62
9
  6
CONTINUOUS
 10
4.5922358265
 20
4.9200412151
 11
4.4731674185
 21
4.9200412151
  0
LINE
  5
329
100
AcDbEntity
  8
0
100
AcDbLine
 62
9
  6
CONTINUOUS
 10
4.3338798247
 20
4.9200412151
 11
4.2904821377
 21
4.9200412151
  0
LINE
  5
32A
100
AcDbEntity
  8
0
100
AcDbLine
 62
9
  6
CONTINUOUS
 10
4.0554073392
 20
4.9261861887
 11
4.2917044825
 21
4.9261861887
  0
LINE
  5
32B
100
AcDbEntity
  8
0
100
AcDbLine
 62
9
  6
CONTINUOUS
 10
4.3326574799
 20
4.9261861887
 11
4.4743897634
 21
4.9261861887
  0
LINE
  5
32C
100
AcDbEntity
  8
0
100
AcDbLine
 62
9
  6
CONTINUOUS
 10
4.5910134817
 20
4.9261861887
 11
4.7327457652
 21
4.9261861887
  0
LINE
  5
32D
100
AcDbEntity
  8
0
100
AcDbLine
 62
9
  6
CONTINUOUS
 10
4.9074336699
 20
4.9261861887
 11
5.0491659534
 21
4.9261861887
  0
LINE
  5
32E
100
AcDbEntity
  8
0
100
AcDbLine
 62
9
  6
CONTINUOUS
 10
5.2603545316
 20
4.9261861887
 11
5.4020868151
 21
4.9261861887
  0
LINE
  5
32F
100
AcDbEntity
  8
0
100
AcDbLine
 62
9
  6
CONTINUOUS
 10
5.6257250933
 20
4.9261861887
 11
5.7674573768
 21
4.9261861887
  0
LINE
  5
330
100
AcDbEntity
  8
0
100
AcDbLine
 62
9
  6
CONTINUOUS
 10
5.978645955
 20
4.9261861887
 11
6.1203782385
 21
4.9261861887
  0
LINE
  5
331
100
AcDbEntity
  8
0
100
AcDbLine
 62
9
  6
CONTINUOUS
 10
6.2950661432
 20
4.9261861887
 11
6.4367984267
 21
4.9261861887
  0
LINE
  5
332
100
AcDbEntity
  8
0
100
AcDbLine
 62
9
  6
CONTINUOUS
 10
6.553422145
 20
4.9261861887
 11
6.6951544285
 21
4.9261861887
  0
LINE
  5
333
100
AcDbEntity
  8
0
100
AcDbLine
 62
9
  6
CONTINUOUS
 10
6.7361074259
 20
4.9261861887
 11
6.972403959
 21
4.9261861887
  0
LINE
  5
334
100
AcDbEntity
  8
0
100
AcDbLine
 62
9
  6
CONTINUOUS
 10
6.7361074259
 20
4.937684637
 11
6.6951544285
 21
4.937684637
  0
LINE
  5
335
100
AcDbEntity
  8
0
100
AcDbLine
 62
9
  6
CONTINUOUS
 10
6.553422145
 20
4.937684637
 11
6.4367984267
 21
4.937684637
  0
LINE
  5
336
100
AcDbEntity
  8
0
100
AcDbLine
 62
9
  6
CONTINUOUS
 10
6.2955739102
 20
4.937684637
 11
6.1203782385
 21
4.937684637
  0
LINE
  5
337
100
AcDbEntity
  8
0
100
AcDbLine
 62
9
  6
CONTINUOUS
 10
5.978645955
 20
4.937684637
 11
5.7674573768
 21
4.937684637
  0
LINE
  5
338
100
AcDbEntity
  8
0
100
AcDbLine
 62
9
  6
CONTINUOUS
 10
5.6257250933
 20
4.937684637
 11
5.4020868151
 21
4.937684637
  0
LINE
  5
339
100
AcDbEntity
  8
0
100
AcDbLine
 62
9
  6
CONTINUOUS
 10
5.2603545316
 20
4.937684637
 11
5.0491659534
 21
4.937684637
  0
LINE
  5
33A
100
AcDbEntity
  8
0
100
AcDbLine
 62
9
  6
CONTINUOUS
 10
4.9074336699
 20
4.937684637
 11
4.7342384982
 21
4.937684637
  0
LINE
  5
33B
100
AcDbEntity
  8
0
100
AcDbLine
 62
9
  6
CONTINUOUS
 10
4.5910134817
 20
4.937684637
 11
4.4743897634
 21
4.937684637
  0
LINE
  5
33C
100
AcDbEntity
  8
0
100
AcDbLine
 62
9
  6
CONTINUOUS
 10
4.3326574799
 20
4.937684637
 11
4.2917044825
 21
4.937684637
  0
LINE
  5
33D
100
AcDbEntity
  8
0
100
AcDbLine
 62
7
  6
CONTINUOUS
 10
3.844894756
 20
4.9398945073
 11
4.00955713
 21
4.9398945073
  0
LINE
  5
33E
100
AcDbEntity
  8
0
100
AcDbLine
 62
7
  6
CONTINUOUS
 10
4.0611596142
 20
4.9398945073
 11
4.1708222505
 21
4.9398945073
  0
LINE
  5
33F
100
AcDbEntity
  8
0
100
AcDbLine
 62
7
  6
CONTINUOUS
 10
4.3176780084
 20
4.9398945073
 11
4.4273482285
 21
4.9398945073
  0
LINE
  5
340
100
AcDbEntity
  8
0
100
AcDbLine
 62
7
  6
CONTINUOUS
 10
4.6519818576
 20
4.9398945073
 11
4.7616568225
 21
4.9398945073
  0
LINE
  5
341
100
AcDbEntity
  8
0
100
AcDbLine
 62
7
  6
CONTINUOUS
 10
5.0412906574
 20
4.9398945073
 11
5.1509637039
 21
4.9398945073
  0
LINE
  5
342
100
AcDbEntity
  8
0
100
AcDbLine
 62
7
  6
CONTINUOUS
 10
5.4590676385
 20
4.9398945073
 11
5.5687394262
 21
4.9398945073
  0
LINE
  5
343
100
AcDbEntity
  8
0
100
AcDbLine
 62
7
  6
CONTINUOUS
 10
5.8768544158
 20
4.9398945073
 11
5.9865150397
 21
4.9398945073
  0
LINE
  5
344
100
AcDbEntity
  8
0
100
AcDbLine
 62
7
  6
CONTINUOUS
 10
6.2661643484
 20
4.9398945073
 11
6.3758207884
 21
4.9398945073
  0
LINE
  5
345
100
AcDbEntity
  8
0
100
AcDbLine
 62
7
  6
CONTINUOUS
 10
6.6004708474
 20
4.9398945073
 11
6.7101267325
 21
4.9398945073
  0
LINE
  5
346
100
AcDbEntity
  8
0
100
AcDbLine
 62
7
  6
CONTINUOUS
 10
6.8569912479
 20
4.9398945073
 11
6.9666507042
 21
4.9398945073
  0
LINE
  5
347
100
AcDbEntity
  8
0
100
AcDbLine
 62
7
  6
CONTINUOUS
 10
7.0182434562
 20
4.9398945073
 11
7.1829171524
 21
4.9398945073
  0
LINE
  5
348
100
AcDbEntity
  8
0
100
AcDbLine
 62
9
  6
CONTINUOUS
 10
3.8309752631
 20
4.9456598441
 11
4.0234918076
 21
4.9456598441
  0
LINE
  5
349
100
AcDbEntity
  8
0
100
AcDbLine
 62
9
  6
CONTINUOUS
 10
4.0472334696
 20
4.9456598441
 11
4.1847483951
 21
4.9456598441
  0
LINE
  5
34A
100
AcDbEntity
  8
0
100
AcDbLine
 62
9
  6
CONTINUOUS
 10
4.3037556557
 20
4.9456598441
 11
4.4412705812
 21
4.9456598441
  0
LINE
  5
34B
100
AcDbEntity
  8
0
100
AcDbLine
 62
9
  6
CONTINUOUS
 10
4.6380618773
 20
4.9456598441
 11
4.7755768028
 21
4.9456598441
  0
LINE
  5
34C
100
AcDbEntity
  8
0
100
AcDbLine
 62
9
  6
CONTINUOUS
 10
5.0273697178
 20
4.9456598441
 11
5.1648846434
 21
4.9456598441
  0
LINE
  5
34D
100
AcDbEntity
  8
0
100
AcDbLine
 62
9
  6
CONTINUOUS
 10
5.4451484914
 20
4.9456598441
 11
5.582663417
 21
4.9456598441
  0
LINE
  5
34E
100
AcDbEntity
  8
0
100
AcDbLine
 62
9
  6
CONTINUOUS
 10
5.862927265
 20
4.9456598441
 11
6.0004421906
 21
4.9456598441
  0
LINE
  5
34F
100
AcDbEntity
  8
0
100
AcDbLine
 62
9
  6
CONTINUOUS
 10
6.2522351056
 20
4.9456598441
 11
6.3897500312
 21
4.9456598441
  0
LINE
  5
350
100
AcDbEntity
  8
0
100
AcDbLine
 62
9
  6
CONTINUOUS
 10
6.5865413272
 20
4.9456598441
 11
6.7240562528
 21
4.9456598441
  0
LINE
  5
351
100
AcDbEntity
  8
0
100
AcDbLine
 62
9
  6
CONTINUOUS
 10
6.8430634875
 20
4.94565987
 11
6.9805784647
 21
4.94565987
  0
LINE
  5
352
100
AcDbEntity
  8
0
100
AcDbLine
 62
9
  6
CONTINUOUS
 10
7.0043201008
 20
4.9456598441
 11
7.1968366453
 21
4.9456598441
  0
LINE
  5
353
100
AcDbEntity
  8
0
100
AcDbLine
 62
9
  6
CONTINUOUS
 10
7.204990136
 20
4.9538133348
 11
6.9961666101
 21
4.9538133348
  0
LINE
  5
354
100
AcDbEntity
  8
0
100
AcDbLine
 62
9
  6
CONTINUOUS
 10
6.7322097434
 20
4.9538133348
 11
6.5783878365
 21
4.9538133348
  0
LINE
  5
355
100
AcDbEntity
  8
0
100
AcDbLine
 62
9
  6
CONTINUOUS
 10
6.3979035218
 20
4.9538133348
 11
6.2440816149
 21
4.9538133348
  0
LINE
  5
356
100
AcDbEntity
  8
0
100
AcDbLine
 62
9
  6
CONTINUOUS
 10
6.0085956813
 20
4.9538133348
 11
5.8547737743
 21
4.9538133348
  0
LINE
  5
357
100
AcDbEntity
  8
0
100
AcDbLine
 62
9
  6
CONTINUOUS
 10
5.5908169077
 20
4.9538133348
 11
5.4369950007
 21
4.9538133348
  0
LINE
  5
358
100
AcDbEntity
  8
0
100
AcDbLine
 62
9
  6
CONTINUOUS
 10
5.1730381341
 20
4.9538133348
 11
5.0192162271
 21
4.9538133348
  0
LINE
  5
359
100
AcDbEntity
  8
0
100
AcDbLine
 62
9
  6
CONTINUOUS
 10
4.7837302936
 20
4.953813335
 11
4.6299083864
 21
4.953813335
  0
LINE
  5
35A
100
AcDbEntity
  8
0
100
AcDbLine
 62
9
  6
CONTINUOUS
 10
4.4494240719
 20
4.9538133348
 11
4.295602165
 21
4.9538133348
  0
LINE
  5
35B
100
AcDbEntity
  8
0
100
AcDbLine
 62
9
  6
CONTINUOUS
 10
4.1929018858
 20
4.9538133348
 11
4.0390799789
 21
4.9538133348
  0
LINE
  5
35C
100
AcDbEntity
  8
0
100
AcDbLine
 62
9
  6
CONTINUOUS
 10
4.0316452983
 20
4.9538133348
 11
3.8228217724
 21
4.9538133348
  0
LINE
  5
35D
100
AcDbEntity
  8
0
100
AcDbLine
 62
9
  6
CONTINUOUS
 10
6.9887322783
 20
4.9538136836
 11
6.8349096738
 21
4.9538136836
  0
LINE
  5
35E
100
AcDbEntity
  8
0
100
AcDbLine
 62
9
  6
CONTINUOUS
 10
3.8170555605
 20
4.967733357
 11
4.1986680977
 21
4.967733357
  0
LINE
  5
35F
100
AcDbEntity
  8
0
100
AcDbLine
 62
9
  6
CONTINUOUS
 10
4.2898359531
 20
4.967733357
 11
4.4551902838
 21
4.967733357
  0
LINE
  5
360
100
AcDbEntity
  8
0
100
AcDbLine
 62
9
  6
CONTINUOUS
 10
4.6241421747
 20
4.967733357
 11
4.7894965054
 21
4.967733357
  0
LINE
  5
361
100
AcDbEntity
  8
0
100
AcDbLine
 62
9
  6
CONTINUOUS
 10
5.0134500153
 20
4.967733357
 11
5.178804346
 21
4.967733357
  0
LINE
  5
362
100
AcDbEntity
  8
0
100
AcDbLine
 62
9
  6
CONTINUOUS
 10
5.4312287888
 20
4.967733357
 11
5.5965831196
 21
4.967733357
  0
LINE
  5
363
100
AcDbEntity
  8
0
100
AcDbLine
 62
9
  6
CONTINUOUS
 10
5.8490075624
 20
4.967733357
 11
6.0143618931
 21
4.967733357
  0
LINE
  5
364
100
AcDbEntity
  8
0
100
AcDbLine
 62
9
  6
CONTINUOUS
 10
6.238315403
 20
4.967733357
 11
6.4036697337
 21
4.967733357
  0
LINE
  5
365
100
AcDbEntity
  8
0
100
AcDbLine
 62
9
  6
CONTINUOUS
 10
6.5726216246
 20
4.967733357
 11
6.7379759553
 21
4.967733357
  0
LINE
  5
366
100
AcDbEntity
  8
0
100
AcDbLine
 62
9
  6
CONTINUOUS
 10
6.8291438107
 20
4.967733357
 11
7.2107563479
 21
4.967733357
  0
LINE
  5
367
100
AcDbEntity
  8
0
100
AcDbLine
 62
7
  6
CONTINUOUS
 10
3.8170555605
 20
4.9979768853
 11
3.8109754483
 21
4.9979732184
  0
LINE
  5
368
100
AcDbEntity
  8
0
100
AcDbLine
 62
9
  6
CONTINUOUS
 10
5.5965829601
 20
5.0028905716
 11
5.5681969498
 21
5.0028918832
  0
LINE
  5
369
100
AcDbEntity
  8
0
100
AcDbLine
 62
7
  6
CONTINUOUS
 10
3.7527813243
 20
5.0026531735
 11
7.2786539814
 21
5.0026531735
  0
LINE
  5
36A
100
AcDbEntity
  8
0
100
AcDbLine
 62
9
  6
CONTINUOUS
 10
4.0354351939
 20
5.0028937018
 11
3.7565792984
 21
5.0028953472
  0
LINE
  5
36B
100
AcDbEntity
  8
0
100
AcDbLine
 62
9
  6
CONTINUOUS
 10
5.9887566643
 20
5.0028923797
 11
5.8703996561
 21
5.0028932126
  0
LINE
  5
36C
100
AcDbEntity
  8
0
100
AcDbLine
 62
9
  6
CONTINUOUS
 10
7.2704690987
 20
5.0028934901
 11
7.0918738667
 21
5.002894711
  0
LINE
  5
36D
100
AcDbEntity
  8
0
100
AcDbLine
 62
9
  6
CONTINUOUS
 10
5.5681969498
 20
5.0028918832
 11
5.4546420782
 21
5.0028922452
  0
LINE
  5
36E
100
AcDbEntity
  8
0
100
AcDbLine
 62
9
  6
CONTINUOUS
 10
5.0390554563
 20
5.0028919935
 11
4.0370529862
 21
5.0028937857
  0
LINE
  5
36F
100
AcDbEntity
  8
0
100
AcDbLine
 62
9
  6
CONTINUOUS
 10
7.28226922
 20
5.00289349
 11
7.2704690987
 21
5.0028934901
  0
LINE
  5
370
100
AcDbEntity
  8
0
100
AcDbLine
 62
9
  6
CONTINUOUS
 10
7.0918738667
 20
5.002894711
 11
5.9887566643
 21
5.0028923797
  0
LINE
  5
371
100
AcDbEntity
  8
0
100
AcDbLine
 62
9
  6
CONTINUOUS
 10
5.8490074865
 20
5.002892665
 11
5.5965829601
 21
5.0028905716
  0
LINE
  5
372
100
AcDbEntity
  8
0
100
AcDbLine
 62
9
  6
CONTINUOUS
 10
5.8703996561
 20
5.0028932126
 11
5.8536272045
 21
5.0028928948
  0
LINE
  5
373
100
AcDbEntity
  8
0
100
AcDbLine
 62
9
  6
CONTINUOUS
 10
5.4546420782
 20
5.0028922452
 11
5.4493325311
 21
5.0028920984
  0
LINE
  5
374
100
AcDbEntity
  8
0
100
AcDbLine
 62
9
  6
CONTINUOUS
 10
5.8536272045
 20
5.0028928948
 11
5.8490074865
 21
5.002892665
  0
LINE
  5
375
100
AcDbEntity
  8
0
100
AcDbLine
 62
9
  6
CONTINUOUS
 10
4.0370529862
 20
5.0028937857
 11
4.0354351939
 21
5.0028937018
  0
LINE
  5
376
100
AcDbEntity
  8
0
100
AcDbLine
 62
9
  6
CONTINUOUS
 10
3.7565792983
 20
5.0028953468
 11
3.745540452
 21
5.0028940599
  0
LINE
  5
377
100
AcDbEntity
  8
0
100
AcDbLine
 62
7
  6
CONTINUOUS
 10
7.3930022654
 20
5.0192323101
 11
3.634809643
 21
5.0192323101
  0
LINE
  5
378
100
AcDbEntity
  8
0
100
AcDbLine
 62
9
  6
CONTINUOUS
 10
7.4380928336
 20
5.0215954067
 11
3.5897190748
 21
5.0215954067
  0
LINE
  5
379
100
AcDbEntity
  8
0
100
AcDbLine
 62
9
  6
CONTINUOUS
 10
3.5139059542
 20
5.1014857693
 11
7.5139059542
 21
5.1014857693
  0
LINE
  5
37A
100
AcDbEntity
  8
0
100
AcDbLine
 62
9
  6
CONTINUOUS
 10
5.4493325311
 20
5.0028920984
 11
5.164531812
 21
5.0028892375
  0
LINE
  5
37B
100
AcDbEntity
  8
0
100
AcDbLine
 62
9
  6
CONTINUOUS
 10
5.1788044485
 20
5.0028882764
 11
5.1645318119
 21
5.0028892369
  0
LINE
  5
37C
100
AcDbEntity
  8
0
100
AcDbLine
 62
9
  6
CONTINUOUS
 10
5.164531812
 20
5.0028892375
 11
5.0390554563
 21
5.0028919935
  0
LINE
  5
37D
100
AcDbEntity
  8
0
100
AcDbLine
 62
9
  6
CONTINUOUS
 10
9.0048283638
 20
7.7270246321
 11
9.0048283638
 21
8.4370246321
  0
LINE
  5
37E
100
AcDbEntity
  8
0
100
AcDbLine
 62
7
  6
CONTINUOUS
 10
9.0248283638
 20
7.7470333592
 11
9.0248283638
 21
8.417015905
  0
LINE
  5
37F
100
AcDbEntity
  8
0
100
AcDbLine
 62
7
  6
CONTINUOUS
 10
9.0778283638
 20
8.3945240397
 11
9.0778283638
 21
7.7695252246
  0
LINE
  5
380
100
AcDbEntity
  8
0
100
AcDbLine
 62
7
  6
CONTINUOUS
 10
9.2378283638
 20
8.287019123
 11
9.2378283638
 21
8.3196789863
  0
LINE
  5
381
100
AcDbEntity
  8
0
100
AcDbLine
 62
7
  6
CONTINUOUS
 10
9.2778283638
 20
8.2829759093
 11
9.2778283638
 21
8.3360089179
  0
LINE
  5
382
100
AcDbEntity
  8
0
100
AcDbLine
 62
7
  6
CONTINUOUS
 10
9.3178283638
 20
8.3196789863
 11
9.3178283638
 21
8.287019123
  0
LWPOLYLINE
  5
383
100
AcDbEntity
  8
0
100
AcDbPolyline
 62
7
  6
CONTINUOUS
 90
4
 70
0
 10
6.4543706348
 20
4.8380431083
 10
6.4570495171
 20
4.8413753578
 10
6.4591154404
 20
4.8427582058
 10
6.4598042599
 20
4.8430670552
  0
LINE
  5
384
100
AcDbEntity
  8
0
100
AcDbLine
 62
7
  6
CONTINUOUS
 10
5.5826636947
 20
4.9456601219
 11
5.5908169077
 21
4.9538133348
  0
LINE
  5
385
100
AcDbEntity
  8
0
100
AcDbLine
 62
7
  6
CONTINUOUS
 10
5.5922499612
 20
4.7853700013
 11
5.6050162194
 21
4.7981362595
  0
LINE
  5
386
100
AcDbEntity
  8
0
100
AcDbLine
 62
7
  6
CONTINUOUS
 10
5.753537952
 20
4.9041129536
 11
5.7616914695
 21
4.9122664712
  0
LINE
  5
387
100
AcDbEntity
  8
0
100
AcDbLine
 62
7
  6
CONTINUOUS
 10
5.5749182074
 20
4.6825137251
 11
5.5830714286
 21
4.6906669463
  0
LINE
  5
388
100
AcDbEntity
  8
0
100
AcDbLine
 62
7
  6
CONTINUOUS
 10
5.8105339312
 20
4.7853700013
 11
5.8233001894
 21
4.7981362595
  0
LINE
  5
389
100
AcDbEntity
  8
0
100
AcDbLine
 62
7
  6
CONTINUOUS
 10
6.0004424683
 20
4.9456601219
 11
6.0085956813
 21
4.9538133348
  0
LINE
  5
38A
100
AcDbEntity
  8
0
100
AcDbLine
 62
7
  6
CONTINUOUS
 10
6.1064588137
 20
4.9041129536
 11
6.1146123312
 21
4.9122664712
  0
LINE
  5
38B
100
AcDbEntity
  8
0
100
AcDbLine
 62
7
  6
CONTINUOUS
 10
5.9198220779
 20
4.6825137251
 11
5.9279752975
 21
4.6906669446
  0
LWPOLYLINE
  5
38C
100
AcDbEntity
  8
0
100
AcDbPolyline
 62
7
  6
CONTINUOUS
 90
3
 70
0
 10
4.832705943
 20
4.8214273838
 10
4.8354105903
 20
4.8235258726
 10
4.8369078274
 20
4.8241578585
  0
LINE
  5
38D
100
AcDbEntity
  8
0
100
AcDbLine
 62
9
  6
CONTINUOUS
 10
8.4266194085
 20
8.3508802799
 11
8.4448283638
 21
8.3591527613
  0
LINE
  5
38E
100
AcDbEntity
  8
0
100
AcDbLine
 62
9
  6
CONTINUOUS
 10
8.6219495824
 20
8.3558932376
 11
8.6305383978
 21
8.3588816044
  0
LINE
  5
38F
100
AcDbEntity
  8
0
100
AcDbLine
 62
7
  6
CONTINUOUS
 10
6.4986134104
 20
4.8444681071
 11
6.4986996647
 21
4.8444855488
  0
LINE
  5
390
100
AcDbEntity
  8
0
100
AcDbLine
 62
7
  6
CONTINUOUS
 10
6.7760716578
 20
4.8932799029
 11
6.687134301
 21
4.877940127
  0
LINE
  5
391
100
AcDbEntity
  8
0
100
AcDbLine
 62
9
  6
CONTINUOUS
 10
4.5416967982
 20
4.8329232326
 11
4.5420230519
 21
4.8329743579
  0
LINE
  5
392
100
AcDbEntity
  8
0
100
AcDbLine
 62
7
  6
CONTINUOUS
 10
7.280324857
 20
5.0026531735
 11
7.2822683771
 21
5.0028967992
  0
LINE
  5
393
100
AcDbEntity
  8
0
100
AcDbLine
 62
9
  6
CONTINUOUS
 10
7.5139059542
 20
5.945568604
 11
3.5139059542
 21
5.945568604
  0
LINE
  5
394
100
AcDbEntity
  8
0
100
AcDbLine
 62
9
  6
CONTINUOUS
 10
7.2098590386
 20
8.6357739821
 11
7.2248283638
 21
8.6225105246
  0
LINE
  5
395
100
AcDbEntity
  8
0
100
AcDbLine
 62
7
  6
CONTINUOUS
 10
6.0983574588
 20
4.6825137251
 11
6.10651068
 21
4.6906669463
  0
LINE
  5
396
100
AcDbEntity
  8
0
100
AcDbLine
 62
7
  6
CONTINUOUS
 10
6.3897503089
 20
4.9456601219
 11
6.3979035218
 21
4.9538133348
  0
LINE
  5
397
100
AcDbEntity
  8
0
100
AcDbLine
 62
7
  6
CONTINUOUS
 10
6.4228790019
 20
4.9041129536
 11
6.4310325195
 21
4.9122664712
  0
LINE
  5
398
100
AcDbEntity
  8
0
100
AcDbLine
 62
7
  6
CONTINUOUS
 10
6.3487618068
 20
4.7853700013
 11
6.361528065
 21
4.7981362595
  0
LINE
  5
399
100
AcDbEntity
  8
0
100
AcDbLine
 62
7
  6
CONTINUOUS
 10
6.4367690199
 20
4.7853700013
 11
6.449535278
 21
4.7981362595
  0
LINE
  5
39A
100
AcDbEntity
  8
0
100
AcDbLine
 62
7
  6
CONTINUOUS
 10
6.4731963897
 20
4.7853700013
 11
6.4859626479
 21
4.7981362595
  0
LINE
  5
39B
100
AcDbEntity
  8
0
100
AcDbLine
 62
7
  6
CONTINUOUS
 10
6.6812350037
 20
4.9041129536
 11
6.6893885213
 21
4.9122664712
  0
LINE
  5
39C
100
AcDbEntity
  8
0
100
AcDbLine
 62
7
  6
CONTINUOUS
 10
6.7240565305
 20
4.9456601219
 11
6.7322097434
 21
4.9538133348
  0
LINE
  5
39D
100
AcDbEntity
  8
0
100
AcDbLine
 62
7
  6
CONTINUOUS
 10
6.8639202845
 20
4.9041129536
 11
6.8720738021
 21
4.9122664712
  0
LINE
  5
39E
100
AcDbEntity
  8
0
100
AcDbLine
 62
7
  6
CONTINUOUS
 10
6.9805787166
 20
4.9456601219
 11
6.9887322783
 21
4.9538136836
  0
LINE
  5
39F
100
AcDbEntity
  8
0
100
AcDbLine
 62
7
  6
CONTINUOUS
 10
6.9584851444
 20
4.9041129536
 11
6.966638662
 21
4.9122664712
  0
LINE
  5
3A0
100
AcDbEntity
  8
0
100
AcDbLine
 62
7
  6
CONTINUOUS
 10
9.2778283638
 20
8.3360089179
 11
9.2378283638
 21
8.3196789863
  0
LINE
  5
3A1
100
AcDbEntity
  8
0
100
AcDbLine
 62
7
  6
CONTINUOUS
 10
9.262780269
 20
8.2768325503
 11
9.2778283638
 21
8.2829759093
  0
LINE
  5
3A2
100
AcDbEntity
  8
0
100
AcDbLine
 62
7
  6
CONTINUOUS
 10
9.2778283638
 20
8.2706891914
 11
9.3178283638
 21
8.287019123
  0
LINE
  5
3A3
100
AcDbEntity
  8
0
100
AcDbLine
 62
7
  6
CONTINUOUS
 10
7.4339059542
 20
6.025568604
 11
3.5939059542
 21
6.025568604
  0
LINE
  5
3A4
100
AcDbEntity
  8
0
100
AcDbLine
 62
9
  6
CONTINUOUS
 10
4.4002452208
 20
6.0487717111
 11
6.6275666876
 21
6.0487717111
  0
LINE
  5
3A5
100
AcDbEntity
  8
0
100
AcDbLine
 62
9
  6
CONTINUOUS
 10
7.148386646
 20
8.557443151
 11
7.1648283638
 21
8.5460558811
  0
LINE
  5
3A6
100
AcDbEntity
  8
0
100
AcDbLine
 62
7
  6
CONTINUOUS
 10
10.4467783614
 20
9.8870246321
 11
10.4467783614
 21
10.2070246321
  0
LINE
  5
3A7
100
AcDbEntity
  8
0
100
AcDbLine
 62
7
  6
CONTINUOUS
 10
7.1418353041
 20
4.9456601219
 11
7.149988517
 21
4.9538133348
  0
LINE
  5
3A8
100
AcDbEntity
  8
0
100
AcDbLine
 62
7
  6
CONTINUOUS
 10
7.1968366453
 20
4.9456598441
 11
7.204990136
 21
4.9538133348
  0
LINE
  5
3A9
100
AcDbEntity
  8
0
100
AcDbLine
 62
7
  6
CONTINUOUS
 10
4.8369078274
 20
4.8241578585
 11
4.8371072501
 21
4.8242106993
  0
LINE
  5
3AA
100
AcDbEntity
  8
0
100
AcDbLine
 62
9
  6
CONTINUOUS
 10
6.0472975033
 20
6.6243655262
 11
4.9805144051
 21
6.6243655262
  0
LINE
  5
3AB
100
AcDbEntity
  8
0
100
AcDbLine
 62
7
  6
CONTINUOUS
 10
5.0368536886
 20
6.647568604
 11
5.9909582198
 21
6.647568604
  0
LINE
  5
3AC
100
AcDbEntity
  8
0
100
AcDbLine
 62
9
  6
CONTINUOUS
 10
5.0299059542
 20
6.707568604
 11
5.9979059542
 21
6.707568604
  0
LINE
  5
3AD
100
AcDbEntity
  8
0
100
AcDbLine
 62
9
  6
CONTINUOUS
 10
5.9979059542
 20
6.727568604
 11
5.0299059542
 21
6.727568604
  0
LINE
  5
3AE
100
AcDbEntity
  8
0
100
AcDbLine
 62
9
  6
CONTINUOUS
 10
5.9674636056
 20
6.7994138066
 11
5.0603483028
 21
6.7994138066
  0
LINE
  5
3AF
100
AcDbEntity
  8
0
100
AcDbLine
 62
9
  6
CONTINUOUS
 10
5.075677103
 20
6.8239799085
 11
5.9521348054
 21
6.8239799085
  0
LINE
  5
3B0
100
AcDbEntity
  8
0
100
AcDbLine
 62
7
  6
CONTINUOUS
 10
5.9089059513
 20
6.9570246411
 11
5.5274551208
 21
6.9570246411
  0
LINE
  5
3B1
100
AcDbEntity
  8
0
100
AcDbLine
 62
7
  6
CONTINUOUS
 10
5.5139059542
 20
6.9570245844
 11
5.1189059203
 21
6.9570245278
  0
LINE
  5
3B2
100
AcDbEntity
  8
0
100
AcDbLine
 62
7
  6
CONTINUOUS
 10
5.5274551208
 20
6.9570246411
 11
5.5139059542
 21
6.9570245844
  0
LINE
  5
3B3
100
AcDbEntity
  8
0
100
AcDbLine
 62
9
  6
CONTINUOUS
 10
5.1389059542
 20
7.0017459579
 11
5.8889059542
 21
7.0017459176
  0
LINE
  5
3B4
100
AcDbEntity
  8
0
100
AcDbLine
 62
9
  6
CONTINUOUS
 10
7.243037319
 20
8.3508802799
 11
7.2248283638
 21
8.3591527613
  0
LINE
  5
3B5
100
AcDbEntity
  8
0
100
AcDbLine
 62
7
  6
CONTINUOUS
 10
10.8217783614
 20
10.2170246321
 11
10.8217783614
 21
10.2070246321
  0
LINE
  5
3B6
100
AcDbEntity
  8
0
100
AcDbLine
 62
7
  6
CONTINUOUS
 10
10.8967783614
 20
8.1790246321
 11
10.8967783614
 21
9.8870246321
  0
LWPOLYLINE
  5
3B7
100
AcDbEntity
  8
0
100
AcDbPolyline
 62
7
  6
CONTINUOUS
 90
7
 70
0
 10
18.3422105948
 20
9.7340444875
 10
18.415221765
 20
9.7554394945
 10
18.4797403712
 20
9.7956635909
 10
18.531027752
 20
9.8517115795
 10
18.5654707736
 20
9.919797911
 10
18.58023477
 20
9.9943149624
 10
18.5775980619
 20
10.052740271
  0
LINE
  5
3B8
100
AcDbEntity
  8
0
100
AcDbLine
 62
7
  6
CONTINUOUS
 10
6.4993470492
 20
7.4320246321
 11
6.6873283638
 21
7.4320246321
  0
LINE
  5
3B9
100
AcDbEntity
  8
0
100
AcDbLine
 62
9
  6
CONTINUOUS
 10
5.8889059542
 20
7.4570246321
 11
5.1389059542
 21
7.4570246321
  0
LINE
  5
3BA
100
AcDbEntity
  8
0
100
AcDbLine
 62
7
  6
CONTINUOUS
 10
7.2419687231
 20
7.4970246321
 11
6.7023283638
 21
7.4970246321
  0
LINE
  5
3BB
100
AcDbEntity
  8
0
100
AcDbLine
 62
7
  6
CONTINUOUS
 10
9.2378283638
 20
8.287019123
 11
9.2778283638
 21
8.2706891914
  0
LINE
  5
3BC
100
AcDbEntity
  8
0
100
AcDbLine
 62
9
  6
CONTINUOUS
 10
4.8998246785
 20
7.712435591
 11
4.9997121375
 21
7.7124351174
  0
LINE
  5
3BD
100
AcDbEntity
  8
0
100
AcDbLine
 62
7
  6
CONTINUOUS
 10
8.5899467883
 20
7.7270246321
 11
9.0048283638
 21
7.7270246321
  0
LINE
  5
3BE
100
AcDbEntity
  8
0
100
AcDbLine
 62
7
  6
CONTINUOUS
 10
4.9710702371
 20
7.7570246321
 11
4.9260386786
 21
7.7570246321
  0
LINE
  5
3BF
100
AcDbEntity
  8
0
100
AcDbLine
 62
7
  6
CONTINUOUS
 10
10.0878221402
 20
7.7695246321
 11
9.0778283638
 21
7.7695246321
  0
LINE
  5
3C0
100
AcDbEntity
  8
0
100
AcDbLine
 62
7
  6
CONTINUOUS
 10
6.2743283638
 20
7.8345246321
 11
6.2923283638
 21
7.8345246321
  0
LINE
  5
3C1
100
AcDbEntity
  8
0
100
AcDbLine
 62
7
  6
CONTINUOUS
 10
9.0248283638
 20
7.8928965032
 11
9.0778283638
 21
7.8928965032
  0
LINE
  5
3C2
100
AcDbEntity
  8
0
100
AcDbLine
 62
9
  6
CONTINUOUS
 10
8.6773284689
 20
8.082024632
 11
8.6698283638
 21
8.082024632
  0
LINE
  5
3C3
100
AcDbEntity
  8
0
100
AcDbLine
 62
9
  6
CONTINUOUS
 10
6.9948283638
 20
8.0820246351
 11
6.9998283638
 21
8.0820246351
  0
LINE
  5
3C4
100
AcDbEntity
  8
0
100
AcDbLine
 62
9
  6
CONTINUOUS
 10
7.1648283638
 20
8.0820246321
 11
7.1848283638
 21
8.0820246321
  0
LINE
  5
3C5
100
AcDbEntity
  8
0
100
AcDbLine
 62
9
  6
CONTINUOUS
 10
8.4848283638
 20
8.0820246321
 11
8.5048283638
 21
8.0820246321
  0
LINE
  5
3C6
100
AcDbEntity
  8
0
100
AcDbLine
 62
9
  6
CONTINUOUS
 10
9.6853283633
 20
8.0820246558
 11
9.7753283638
 21
8.0820246558
  0
LINE
  5
3C7
100
AcDbEntity
  8
0
100
AcDbLine
 62
7
  6
CONTINUOUS
 10
9.2778283638
 20
8.2829759093
 11
9.2928764585
 21
8.2768325503
  0
LINE
  5
3C8
100
AcDbEntity
  8
0
100
AcDbLine
 62
7
  6
CONTINUOUS
 10
9.3178283638
 20
8.3196789863
 11
9.2778283638
 21
8.3360089179
  0
LINE
  5
3C9
100
AcDbEntity
  8
0
100
AcDbLine
 62
7
  6
CONTINUOUS
 10
11.9967783614
 20
8.1790246321
 11
11.9967783614
 21
9.8870246321
  0
LINE
  5
3CA
100
AcDbEntity
  8
0
100
AcDbLine
 62
7
  6
CONTINUOUS
 10
12.0717783614
 20
10.2170246321
 11
12.0717783614
 21
10.2070246321
  0
LWPOLYLINE
  5
3CB
100
AcDbEntity
  8
0
100
AcDbPolyline
 62
7
  6
CONTINUOUS
 90
3
 70
0
 10
11.9967783614
 20
8.7768280614
 10
12.0722357522
 20
8.7882172782
 10
12.5794011592
 20
8.8647117694
  0
LINE
  5
3CC
100
AcDbEntity
  8
0
100
AcDbLine
 62
7
  6
CONTINUOUS
 10
4.9034914437
 20
7.7067728428
 11
4.8251196233
 21
7.6949501076
  0
LINE
  5
3CD
100
AcDbEntity
  8
0
100
AcDbLine
 62
7
  6
CONTINUOUS
 10
7.2065264593
 20
8.0541958442
 11
8.4673283638
 21
8.2443933787
  0
LINE
  5
3CE
100
AcDbEntity
  8
0
100
AcDbLine
 62
7
  6
CONTINUOUS
 10
9.0248283638
 20
8.3284947155
 11
9.0778283638
 21
8.3364899995
  0
LINE
  5
3CF
100
AcDbEntity
  8
0
100
AcDbLine
 62
7
  6
CONTINUOUS
 10
9.462534588
 20
8.3945246321
 11
10.8967783614
 21
8.6108866384
  0
LINE
  5
3D0
100
AcDbEntity
  8
0
100
AcDbLine
 62
7
  6
CONTINUOUS
 10
11.9967783614
 20
8.7768264956
 11
12.3584051842
 21
8.8313794987
  0
LINE
  5
3D1
100
AcDbEntity
  8
0
100
AcDbLine
 62
7
  6
CONTINUOUS
 10
12.5794011592
 20
8.8647117694
 11
16.4575789726
 21
9.4497585439
  0
LINE
  5
3D2
100
AcDbEntity
  8
0
100
AcDbLine
 62
7
  6
CONTINUOUS
 10
16.4326053781
 20
9.4459905881
 11
17.0801769727
 21
9.5436746309
  0
LWPOLYLINE
  5
3D3
100
AcDbEntity
  8
0
100
AcDbPolyline
 62
7
  6
CONTINUOUS
 90
8
 70
0
 10
16.8260691113
 20
9.5053448575
 10
17.1647298188
 20
9.5564286299
 10
17.4711066115
 20
9.6026465685
 10
17.7426871845
 20
9.6436206753
 10
17.9768846642
 20
9.6789516653
 10
18.1654278826
 20
9.7073922221
 10
18.2943556338
 20
9.7268453163
 10
18.3422105948
 20
9.7340444875
  0
LINE
  5
3D4
100
AcDbEntity
  8
0
100
AcDbLine
 62
7
  6
CONTINUOUS
 10
10.8967783614
 20
8.1790246321
 11
11.9967783614
 21
8.1790246321
  0
LINE
  5
3D5
100
AcDbEntity
  8
0
100
AcDbLine
 62
7
  6
CONTINUOUS
 10
9.0248283638
 20
8.2711527611
 11
9.0778283638
 21
8.2711527611
  0
LINE
  5
3D6
100
AcDbEntity
  8
0
100
AcDbLine
 62
7
  6
CONTINUOUS
 10
6.2743283638
 20
8.3295246321
 11
6.2923283638
 21
8.3295246321
  0
LINE
  5
3D7
100
AcDbEntity
  8
0
100
AcDbLine
 62
9
  6
CONTINUOUS
 10
8.6305412545
 20
8.3588819961
 11
8.6348283637
 21
8.3588819961
  0
LINE
  5
3D8
100
AcDbEntity
  8
0
100
AcDbLine
 62
9
  6
CONTINUOUS
 10
7.2048283638
 20
8.3591527613
 11
7.2248283638
 21
8.3591527613
  0
LINE
  5
3D9
100
AcDbEntity
  8
0
100
AcDbLine
 62
9
  6
CONTINUOUS
 10
8.4448283638
 20
8.3591527613
 11
8.4648283638
 21
8.3591527613
  0
LINE
  5
3DA
100
AcDbEntity
  8
0
100
AcDbLine
 62
7
  6
CONTINUOUS
 10
10.0878221223
 20
8.3945246321
 11
9.0778283638
 21
8.3945246321
  0
LINE
  5
3DB
100
AcDbEntity
  8
0
100
AcDbLine
 62
7
  6
CONTINUOUS
 10
4.9260386786
 20
8.4070246321
 11
4.9710702371
 21
8.4070246321
  0
LINE
  5
3DC
100
AcDbEntity
  8
0
100
AcDbLine
 62
7
  6
CONTINUOUS
 10
8.9473283746
 20
8.4370246321
 11
9.0048283638
 21
8.4370246321
  0
LINE
  5
3DD
100
AcDbEntity
  8
0
100
AcDbLine
 62
9
  6
CONTINUOUS
 10
4.9997121591
 20
8.4516141732
 11
4.8998246785
 21
8.4516136732
  0
LINE
  5
3DE
100
AcDbEntity
  8
0
100
AcDbLine
 62
9
  6
CONTINUOUS
 10
8.5048283638
 20
8.5460558811
 11
8.4848283638
 21
8.5460558811
  0
LINE
  5
3DF
100
AcDbEntity
  8
0
100
AcDbLine
 62
9
  6
CONTINUOUS
 10
7.1848283638
 20
8.5460558811
 11
7.1648283638
 21
8.5460558811
  0
LINE
  5
3E0
100
AcDbEntity
  8
0
100
AcDbLine
 62
9
  6
CONTINUOUS
 10
8.4848283638
 20
8.5928144508
 11
8.5048283638
 21
8.5928144508
  0
LINE
  5
3E1
100
AcDbEntity
  8
0
100
AcDbLine
 62
9
  6
CONTINUOUS
 10
7.1648283638
 20
8.5943833301
 11
7.0348283638
 21
8.5943833301
  0
LINE
  5
3E2
100
AcDbEntity
  8
0
100
AcDbLine
 62
9
  6
CONTINUOUS
 10
8.4648283638
 20
8.6225105246
 11
8.4448283638
 21
8.6225105246
  0
LINE
  5
3E3
100
AcDbEntity
  8
0
100
AcDbLine
 62
9
  6
CONTINUOUS
 10
7.2248283638
 20
8.6225105246
 11
7.2048283638
 21
8.6225105246
  0
LWPOLYLINE
  5
3E4
100
AcDbEntity
  8
0
100
AcDbPolyline
 62
7
  6
CONTINUOUS
 90
7
 70
0
 10
8.9473283744
 20
8.437023662
 10
8.9345028525
 20
8.4383537533
 10
8.9176810921
 20
8.4445027022
 10
8.9032858506
 20
8.4551777278
 10
8.8925117368
 20
8.4694986731
 10
8.886246772
 20
8.4862773846
 10
8.8848266788
 20
8.4995247004
  0
LINE
  5
3E5
100
AcDbEntity
  8
0
100
AcDbLine
 62
7
  6
CONTINUOUS
 10
12.4467783614
 20
9.8870246321
 11
12.4467783614
 21
10.2070246321
  0
LINE
  5
3E6
100
AcDbEntity
  8
0
100
AcDbLine
 62
9
  6
CONTINUOUS
 10
11.9967783614
 20
9.0599945607
 11
18.5775980619
 21
10.052740271
  0
LINE
  5
3E7
100
AcDbEntity
  8
0
100
AcDbLine
 62
9
  6
CONTINUOUS
 10
7.0348283638
 20
8.6491225073
 11
7.1848283638
 21
8.6491225073
  0
LINE
  5
3E8
100
AcDbEntity
  8
0
100
AcDbLine
 62
9
  6
CONTINUOUS
 10
7.2048283638
 20
8.6595192064
 11
7.2248283638
 21
8.6595192064
  0
LINE
  5
3E9
100
AcDbEntity
  8
0
100
AcDbLine
 62
9
  6
CONTINUOUS
 10
8.4448283638
 20
8.6595192209
 11
8.4648283638
 21
8.6595192209
  0
LINE
  5
3EA
100
AcDbEntity
  8
0
100
AcDbLine
 62
7
  6
CONTINUOUS
 10
6.7223284576
 20
8.6670246321
 11
6.7023283638
 21
8.6670246321
  0
LINE
  5
3EB
100
AcDbEntity
  8
0
100
AcDbLine
 62
7
  6
CONTINUOUS
 10
6.4993470492
 20
8.7320246321
 11
6.6873283638
 21
8.7320246321
  0
LINE
  5
3EC
100
AcDbEntity
  8
0
100
AcDbLine
 62
9
  6
CONTINUOUS
 10
8.5048283638
 20
8.8520246321
 11
8.4848283638
 21
8.8520246321
  0
LINE
  5
3ED
100
AcDbEntity
  8
0
100
AcDbLine
 62
9
  6
CONTINUOUS
 10
8.4648283638
 20
8.8520246321
 11
8.4448283638
 21
8.8520246321
  0
LINE
  5
3EE
100
AcDbEntity
  8
0
100
AcDbLine
 62
9
  6
CONTINUOUS
 10
7.2248283638
 20
8.8520246321
 11
7.2048283638
 21
8.8520246321
  0
LINE
  5
3EF
100
AcDbEntity
  8
0
100
AcDbLine
 62
9
  6
CONTINUOUS
 10
7.1848283638
 20
8.8520246321
 11
7.1648283638
 21
8.8520246321
  0
LINE
  5
3F0
100
AcDbEntity
  8
0
100
AcDbLine
 62
9
  6
CONTINUOUS
 10
8.8848283638
 20
8.8920246321
 11
8.5448283638
 21
8.8920246321
  0
LINE
  5
3F1
100
AcDbEntity
  8
0
100
AcDbLine
 62
9
  6
CONTINUOUS
 10
7.1248283638
 20
8.8920246321
 11
6.7848283638
 21
8.8920246321
  0
LINE
  5
3F2
100
AcDbEntity
  8
0
100
AcDbLine
 62
7
  6
CONTINUOUS
 10
8.8648283638
 20
8.9120246321
 11
8.5248283638
 21
8.9120246321
  0
LINE
  5
3F3
100
AcDbEntity
  8
0
100
AcDbLine
 62
7
  6
CONTINUOUS
 10
7.1448283636
 20
8.9120246321
 11
6.8048283638
 21
8.9120246321
  0
LINE
  5
3F4
100
AcDbEntity
  8
0
100
AcDbLine
 62
9
  6
CONTINUOUS
 10
6.7848283638
 20
8.9320246321
 11
7.1448283639
 21
8.9320246321
  0
LINE
  5
3F5
100
AcDbEntity
  8
0
100
AcDbLine
 62
9
  6
CONTINUOUS
 10
8.5248283636
 20
8.9320246321
 11
8.8848283638
 21
8.9320246321
  0
LINE
  5
3F6
100
AcDbEntity
  8
0
100
AcDbLine
 62
9
  6
CONTINUOUS
 10
8.8848283638
 20
9.0120246321
 11
6.7848283638
 21
9.0120246321
  0
LINE
  5
3F7
100
AcDbEntity
  8
0
100
AcDbLine
 62
7
  6
CONTINUOUS
 10
6.8048288459
 20
9.0320246321
 11
8.8648278816
 21
9.0320246321
  0
LINE
  5
3F8
100
AcDbEntity
  8
0
100
AcDbLine
 62
7
  6
CONTINUOUS
 10
18.2586781617
 20
10.2878163469
 11
18.2108203061
 21
10.2805768105
  0
LINE
  5
3F9
100
AcDbEntity
  8
0
100
AcDbLine
 62
7
  6
CONTINUOUS
 10
16.9966417033
 20
10.0974190802
 11
16.3490720448
 21
9.9997253461
  0
LINE
  5
3FA
100
AcDbEntity
  8
0
100
AcDbLine
 62
7
  6
CONTINUOUS
 10
12.4958304774
 20
9.4184527889
 11
11.9967783614
 21
9.3431551408
  0
LWPOLYLINE
  5
3FB
100
AcDbEntity
  8
0
100
AcDbPolyline
 62
7
  6
CONTINUOUS
 90
3
 70
0
 10
17.3875607634
 20
10.1563924713
 10
17.0811820209
 20
10.1101735314
 10
16.742520598
 20
10.0590802696
  0
LINE
  5
3FC
100
AcDbEntity
  8
0
100
AcDbLine
 62
7
  6
CONTINUOUS
 10
4.9118765115
 20
8.2743738975
 11
4.7415862899
 21
8.2486848656
  0
LINE
  5
3FD
100
AcDbEntity
  8
0
100
AcDbLine
 62
7
  6
CONTINUOUS
 10
6.215430241
 20
8.4710207336
 11
6.3735515549
 21
8.494874032
  0
LINE
  5
3FE
100
AcDbEntity
  8
0
100
AcDbLine
 62
7
  6
CONTINUOUS
 10
7.1848283638
 20
8.6172587209
 11
7.2051579794
 21
8.6203255332
  0
LINE
  5
3FF
100
AcDbEntity
  8
0
100
AcDbLine
 62
7
  6
CONTINUOUS
 10
7.6546073339
 20
8.6881269529
 11
7.8248921661
 21
8.7138151718
  0
LINE
  5
400
100
AcDbEntity
  8
0
100
AcDbLine
 62
7
  6
CONTINUOUS
 10
8.4648283638
 20
8.8103523729
 11
8.4848283638
 21
8.8133694612
  0
LINE
  5
401
100
AcDbEntity
  8
0
100
AcDbLine
 62
7
  6
CONTINUOUS
 10
8.8875295507
 20
8.8741187134
 11
10.8967783614
 21
9.1772227686
  0
LINE
  5
402
100
AcDbEntity
  8
0
100
AcDbLine
 62
7
  6
CONTINUOUS
 10
11.9967783614
 20
9.3431626258
 11
12.2748615342
 21
9.3851127004
  0
LINE
  5
403
100
AcDbEntity
  8
0
100
AcDbLine
 62
7
  6
CONTINUOUS
 10
16.1807861926
 20
9.9743386822
 11
16.3490720341
 21
9.9997253445
  0
LINE
  5
404
100
AcDbEntity
  8
0
100
AcDbLine
 62
7
  6
CONTINUOUS
 10
16.3740289086
 20
10.0034896204
 11
13.5719048248
 21
9.580777408
  0
LINE
  5
405
100
AcDbEntity
  8
0
100
AcDbLine
 62
7
  6
CONTINUOUS
 10
13.5914342708
 20
9.5837233793
 11
12.4958304774
 21
9.4184527889
  0
LINE
  5
406
100
AcDbEntity
  8
0
100
AcDbLine
 62
7
  6
CONTINUOUS
 10
18.2163475768
 20
10.2814129298
 11
17.3875607634
 21
10.1563924713
  0
LINE
  5
407
100
AcDbEntity
  8
0
100
AcDbLine
 62
7
  6
CONTINUOUS
 10
10.4467783614
 20
9.8870246321
 11
12.4467783614
 21
9.8870246321
  0
LINE
  5
408
100
AcDbEntity
  8
0
100
AcDbLine
 62
7
  6
CONTINUOUS
 10
12.4467783614
 20
10.2070246321
 11
10.4467783614
 21
10.2070246321
  0
LINE
  5
409
100
AcDbEntity
  8
0
100
AcDbLine
 62
7
  6
CONTINUOUS
 10
12.0717701024
 20
10.2170246321
 11
10.8217866204
 21
10.2170246321
  0
LWPOLYLINE
  5
40A
100
AcDbEntity
  8
0
100
AcDbPolyline
 62
7
  6
CONTINUOUS
 90
37
 70
0
 10
18.5775980619
 20
10.052740271
 10
18.5753653179
 20
10.0655246749
 10
18.571796717
 20
10.0811392335
 10
18.5673951056
 20
10.0963557518
 10
18.5622114371
 20
10.1111128246
 10
18.5562989989
 20
10.1253629213
 10
18.5497105712
 20
10.1390717589
 10
18.5424959888
 20
10.1522170566
 10
18.5347002025
 20
10.1647868276
 10
18.5263618844
 20
10.1767773685
 10
18.5175125788
 20
10.1881910932
 10
18.5081764115
 20
10.1990342862
 10
18.498403715
 20
10.2092816134
 10
18.488262705
 20
10.2188981147
 10
18.4778038964
 20
10.2278748046
 10
18.4670759453
 20
10.2362079839
 10
18.4561252242
 20
10.2438986014
 10
18.4449955365
 20
10.2509516102
 10
18.4337279592
 20
10.2573753448
 10
18.4223607924
 20
10.2631809399
 10
18.4109295997
 20
10.2683818042
 10
18.399468113
 20
10.2729928589
 10
18.3880201187
 20
10.2770264913
 10
18.3766330768
 20
10.2804969817
 10
18.3653517948
 20
10.2834228657
 10
18.3542188986
 20
10.2858262633
 10
18.3432746915
 20
10.2877324972
 10
18.3325571189
 20
10.2891697141
 10
18.3221091775
 20
10.290167963
 10
18.3119865177
 20
10.2907599093
 10
18.30224395
 20
10.2909831101
 10
18.2929357198
 20
10.2908796461
 10
18.2841521187
 20
10.2904979051
 10
18.2760189405
 20
10.2898974686
 10
18.2687249018
 20
10.289155732
 10
18.2631113015
 20
10.288453037
 10
18.260559188
 20
10.2880954514
  0
ARC
  5
40B
100
AcDbEntity
  8
0
100
AcDbCircle
 62
9
  6
CONTINUOUS
 10
4.4547800203
 20
3.0943532824
 40
1.7555505815
100
AcDbArc
 50
82.3876824811
 51
82.5256594316
  0
ARC
  5
40C
100
AcDbEntity
  8
0
100
AcDbCircle
 62
9
  6
CONTINUOUS
 10
4.4921972839
 20
3.6035061457
 40
1.2339461801
100
AcDbArc
 50
80.9380704965
 51
81.0597620154
  0
ARC
  5
40D
100
AcDbEntity
  8
0
100
AcDbCircle
 62
7
  6
CONTINUOUS
 10
3.8127531338
 20
4.6251813108
 40
0.3728022678
100
AcDbArc
 50
94.069677108
 51
102.1874714621
  0
ARC
  5
40E
100
AcDbEntity
  8
0
100
AcDbCircle
 62
7
  6
CONTINUOUS
 10
3.8127534647
 20
4.6252009709
 40
0.3727826446
100
AcDbArc
 50
94.0699423519
 51
102.1881542434
  0
ARC
  5
40F
100
AcDbEntity
  8
0
100
AcDbCircle
 62
7
  6
CONTINUOUS
 10
3.8125944372
 20
4.6268039298
 40
0.3711724801
100
AcDbArc
 50
90.2600132456
 51
94.0630178572
  0
ARC
  5
410
100
AcDbEntity
  8
0
100
AcDbCircle
 62
7
  6
CONTINUOUS
 10
3.8125947942
 20
4.6268224888
 40
0.371153957
100
AcDbArc
 50
90.1922635134
 51
94.0632758743
  0
ARC
  5
411
100
AcDbEntity
  8
0
100
AcDbCircle
 62
7
  6
CONTINUOUS
 10
3.8125863513
 20
4.6437358377
 40
0.3542410468
100
AcDbArc
 50
89.2769881235
 51
89.9998238927
  0
ARC
  5
412
100
AcDbEntity
  8
0
100
AcDbCircle
 62
7
  6
CONTINUOUS
 10
3.8125868774
 20
4.6437614191
 40
0.354215467
100
AcDbArc
 50
89.2770198414
 51
89.9999092512
  0
ARC
  5
413
100
AcDbEntity
  8
0
100
AcDbCircle
 62
7
  6
CONTINUOUS
 10
3.936283735
 20
4.7159979557
 40
0.2910406946
100
AcDbArc
 50
72.5547036527
 51
72.8900231281
  0
ARC
  5
414
100
AcDbEntity
  8
0
100
AcDbCircle
 62
9
  6
CONTINUOUS
 10
3.7095063069
 20
4.7430900614
 40
0.0137317703
100
AcDbArc
 50
231.4691225602
 51
242.1702989359
  0
ARC
  5
415
100
AcDbEntity
  8
0
100
AcDbCircle
 62
9
  6
CONTINUOUS
 10
3.8268572925
 20
5.1702011926
 40
0.5173450787
100
AcDbArc
 50
326.9352133148
 51
327.3051127485
  0
ARC
  5
416
100
AcDbEntity
  8
0
100
AcDbCircle
 62
7
  6
CONTINUOUS
 10
3.8392019132
 20
5.1722059772
 40
0.5142525689
100
AcDbArc
 50
326.028968188
 51
326.6758966823
  0
ARC
  5
417
100
AcDbEntity
  8
0
100
AcDbCircle
 62
7
  6
CONTINUOUS
 10
3.9039230551
 20
5.1104527149
 40
0.4293702327
100
AcDbArc
 50
242.1130790669
 51
244.2558294622
  0
ARC
  5
418
100
AcDbEntity
  8
0
100
AcDbCircle
 62
9
  6
CONTINUOUS
 10
3.810303604
 20
5.1576075179
 40
0.426798487
100
AcDbArc
 50
322.1925624674
 51
322.544089549
  0
ARC
  5
419
100
AcDbEntity
  8
0
100
AcDbCircle
 62
9
  6
CONTINUOUS
 10
3.8114222409
 20
5.1567397422
 40
0.4253827247
100
AcDbArc
 50
321.8736132394
 51
322.1925453701
  0
ARC
  5
41A
100
AcDbEntity
  8
0
100
AcDbCircle
 62
9
  6
CONTINUOUS
 10
3.8953168741
 20
5.0677387031
 40
0.3851770247
100
AcDbArc
 50
276.4110282727
 51
279.0037944957
  0
ARC
  5
41B
100
AcDbEntity
  8
0
100
AcDbCircle
 62
9
  6
CONTINUOUS
 10
3.8953585156
 20
5.067317376
 40
0.3847536827
100
AcDbArc
 50
271.3738320846
 51
276.4118469152
  0
ARC
  5
41C
100
AcDbEntity
  8
0
100
AcDbCircle
 62
9
  6
CONTINUOUS
 10
3.8953675927
 20
5.0670272699
 40
0.3844634423
100
AcDbArc
 50
270.7201936232
 51
271.3735162892
  0
ARC
  5
41D
100
AcDbEntity
  8
0
100
AcDbCircle
 62
9
  6
CONTINUOUS
 10
3.8953683259
 20
5.0669912623
 40
0.3844274275
100
AcDbArc
 50
270.0115926064
 51
271.3735356248
  0
ARC
  5
41E
100
AcDbEntity
  8
0
100
AcDbCircle
 62
9
  6
CONTINUOUS
 10
3.8953687321
 20
5.0669385118
 40
0.384374677
100
AcDbArc
 50
270.0115587419
 51
270.7201900973
  0
ARC
  5
41F
100
AcDbEntity
  8
0
100
AcDbCircle
 62
7
  6
CONTINUOUS
 10
3.5939059542
 20
5.1014857693
 40
0.08
100
AcDbArc
 50
180.0
 51
266.9999979477
  0
ARC
  5
420
100
AcDbEntity
  8
0
100
AcDbCircle
 62
7
  6
CONTINUOUS
 10
4.0177264708
 20
4.967733357
 40
0.0196850394
100
AcDbArc
 50
314.9999999999
 51
334.5973246504
  0
ARC
  5
421
100
AcDbEntity
  8
0
100
AcDbCircle
 62
7
  6
CONTINUOUS
 10
3.8917422189
 20
4.967733357
 40
0.0196850394
100
AcDbArc
 50
180.0
 51
225.0000000001
  0
ARC
  5
422
100
AcDbEntity
  8
0
100
AcDbCircle
 62
7
  6
CONTINUOUS
 10
3.8998960291
 20
4.9595795467
 40
0.0196850394
100
AcDbArc
 50
225.0011432902
 51
270.0
  0
ARC
  5
423
100
AcDbEntity
  8
0
100
AcDbCircle
 62
7
  6
CONTINUOUS
 10
4.0095726605
 20
4.9595795467
 40
0.0196850394
100
AcDbArc
 50
270.0
 51
314.9988567098
  0
ARC
  5
424
100
AcDbEntity
  8
0
100
AcDbCircle
 62
7
  6
CONTINUOUS
 10
4.0529988064
 20
4.967733357
 40
0.0196850394
100
AcDbArc
 50
180.0
 51
224.9999999997
  0
ARC
  5
425
100
AcDbEntity
  8
0
100
AcDbCircle
 62
7
  6
CONTINUOUS
 10
4.0611526166
 20
4.9595795467
 40
0.0196850394
100
AcDbArc
 50
225.00114329
 51
270.0
  0
ARC
  5
426
100
AcDbEntity
  8
0
100
AcDbCircle
 62
7
  6
CONTINUOUS
 10
3.8448944102
 20
4.9595795467
 40
0.0196850394
100
AcDbArc
 50
225.0011432902
 51
270.001006738
  0
ARC
  5
427
100
AcDbEntity
  8
0
100
AcDbCircle
 62
7
  6
CONTINUOUS
 10
3.8367405999
 20
4.967733357
 40
0.0196850394
100
AcDbArc
 50
180.0
 51
225.0024588144
  0
ARC
  5
428
100
AcDbEntity
  8
0
100
AcDbCircle
 62
7
  6
CONTINUOUS
 10
4.3908459099
 20
4.7342889963
 40
0.2322759998
100
AcDbArc
 50
74.2838736115
 51
74.5026483342
  0
ARC
  5
429
100
AcDbEntity
  8
0
100
AcDbCircle
 62
7
  6
CONTINUOUS
 10
4.1271342966
 20
4.8440820646
 40
0.1641888449
100
AcDbArc
 50
69.7608399031
 51
69.9780853204
  0
ARC
  5
42A
100
AcDbEntity
  8
0
100
AcDbCircle
 62
9
  6
CONTINUOUS
 10
4.5301505912
 20
4.8329738876
 40
0.0118719934
100
AcDbArc
 50
0.0026129954
 51
20.6649644514
  0
ARC
  5
42B
100
AcDbEntity
  8
0
100
AcDbCircle
 62
9
  6
CONTINUOUS
 10
4.5302459734
 20
4.8330228444
 40
0.0117648074
100
AcDbArc
 50
20.6058143979
 51
81.995353124
  0
ARC
  5
42C
100
AcDbEntity
  8
0
100
AcDbCircle
 62
7
  6
CONTINUOUS
 10
4.1789830583
 20
4.967733357
 40
0.0196850394
100
AcDbArc
 50
315.0000000003
 51
360.0
  0
ARC
  5
42D
100
AcDbEntity
  8
0
100
AcDbCircle
 62
7
  6
CONTINUOUS
 10
4.170829248
 20
4.9595795467
 40
0.0196850394
100
AcDbArc
 50
270.0
 51
314.99885671
  0
ARC
  5
42E
100
AcDbEntity
  8
0
100
AcDbCircle
 62
7
  6
CONTINUOUS
 10
4.4355052444
 20
4.967733357
 40
0.0196850394
100
AcDbArc
 50
315.0000000002
 51
360.0
  0
ARC
  5
42F
100
AcDbEntity
  8
0
100
AcDbCircle
 62
7
  6
CONTINUOUS
 10
4.3095209924
 20
4.967733357
 40
0.0196850394
100
AcDbArc
 50
180.0
 51
224.9999999998
  0
ARC
  5
430
100
AcDbEntity
  8
0
100
AcDbCircle
 62
7
  6
CONTINUOUS
 10
4.3176748027
 20
4.9595795467
 40
0.0196850394
100
AcDbArc
 50
225.0011432895
 51
270.0
  0
ARC
  5
431
100
AcDbEntity
  8
0
100
AcDbCircle
 62
7
  6
CONTINUOUS
 10
4.4273514341
 20
4.9595795467
 40
0.0196850394
100
AcDbArc
 50
270.0
 51
314.9988567095
  0
ARC
  5
432
100
AcDbEntity
  8
0
100
AcDbCircle
 62
7
  6
CONTINUOUS
 10
4.0750923785
 20
4.9261861887
 40
0.0196850394
100
AcDbArc
 50
180.0
 51
224.9999999998
  0
ARC
  5
433
100
AcDbEntity
  8
0
100
AcDbCircle
 62
7
  6
CONTINUOUS
 10
4.169300773
 20
4.9180323784
 40
0.0196850394
100
AcDbArc
 50
270.0
 51
282.7092229253
  0
ARC
  5
434
100
AcDbEntity
  8
0
100
AcDbCircle
 62
7
  6
CONTINUOUS
 10
4.0832461888
 20
4.9180323784
 40
0.0196850394
100
AcDbArc
 50
225.0013272051
 51
270.0
  0
ARC
  5
435
100
AcDbEntity
  8
0
100
AcDbCircle
 62
7
  6
CONTINUOUS
 10
4.3523425193
 20
4.9261861887
 40
0.0196850394
100
AcDbArc
 50
180.0
 51
224.9999999999
  0
ARC
  5
436
100
AcDbEntity
  8
0
100
AcDbCircle
 62
7
  6
CONTINUOUS
 10
4.454704724
 20
4.9261861887
 40
0.0196850394
100
AcDbArc
 50
315.0000000001
 51
360.0
  0
ARC
  5
437
100
AcDbEntity
  8
0
100
AcDbCircle
 62
7
  6
CONTINUOUS
 10
4.4465509137
 20
4.9180323784
 40
0.0196850394
100
AcDbArc
 50
270.0
 51
314.998672795
  0
ARC
  5
438
100
AcDbEntity
  8
0
100
AcDbCircle
 62
7
  6
CONTINUOUS
 10
4.3604963296
 20
4.9180323784
 40
0.0196850394
100
AcDbArc
 50
225.0013272058
 51
270.0
  0
ARC
  5
439
100
AcDbEntity
  8
0
100
AcDbCircle
 62
7
  6
CONTINUOUS
 10
4.2638656329
 20
4.9180323784
 40
0.0196850394
100
AcDbArc
 50
270.0
 51
314.9986727946
  0
ARC
  5
43A
100
AcDbEntity
  8
0
100
AcDbCircle
 62
7
  6
CONTINUOUS
 10
4.2720194431
 20
4.9261861887
 40
0.0196850394
100
AcDbArc
 50
315.0000000002
 51
360.0
  0
ARC
  5
43B
100
AcDbEntity
  8
0
100
AcDbCircle
 62
7
  6
CONTINUOUS
 10
4.1696572384
 20
4.9261861887
 40
0.0196850394
100
AcDbArc
 50
180.0
 51
224.9999999998
  0
ARC
  5
43C
100
AcDbEntity
  8
0
100
AcDbCircle
 62
7
  6
CONTINUOUS
 10
4.1778110487
 20
4.9180323784
 40
0.0196850394
100
AcDbArc
 50
225.0013272053
 51
270.0
  0
ARC
  5
43D
100
AcDbEntity
  8
0
100
AcDbCircle
 62
7
  6
CONTINUOUS
 10
4.2531278635
 20
4.9010331628
 40
0.0078740157
100
AcDbArc
 50
200.3751729783
 51
259.8531132105
  0
ARC
  5
43E
100
AcDbEntity
  8
0
100
AcDbCircle
 62
7
  6
CONTINUOUS
 10
4.9511431833
 20
4.6623987588
 40
0.3115871096
100
AcDbArc
 50
88.8102006204
 51
89.9931356118
  0
ARC
  5
43F
100
AcDbEntity
  8
0
100
AcDbCircle
 62
7
  6
CONTINUOUS
 10
4.9634471098
 20
4.6943133908
 40
0.2786790932
100
AcDbArc
 50
79.5767978335
 51
80.6135101857
  0
ARC
  5
440
100
AcDbEntity
  8
0
100
AcDbCircle
 62
7
  6
CONTINUOUS
 10
4.6186890139
 20
4.7357457408
 40
0.2382401306
100
AcDbArc
 50
88.7184356219
 51
89.987966584
  0
ARC
  5
441
100
AcDbEntity
  8
0
100
AcDbCircle
 62
7
  6
CONTINUOUS
 10
4.7865556622
 20
4.7738853306
 40
0.0393700787
100
AcDbArc
 50
20.0
 51
28.762807137
  0
ARC
  5
442
100
AcDbEntity
  8
0
100
AcDbCircle
 62
7
  6
CONTINUOUS
 10
4.9997979281
 20
4.6767481105
 40
0.0196850394
100
AcDbArc
 50
44.999999999
 51
89.9960710504
  0
ARC
  5
443
100
AcDbEntity
  8
0
100
AcDbCircle
 62
7
  6
CONTINUOUS
 10
4.9433738744
 20
4.6964331499
 40
0.0196850394
100
AcDbArc
 50
225.0025651318
 51
270.0
  0
ARC
  5
444
100
AcDbEntity
  8
0
100
AcDbCircle
 62
7
  6
CONTINUOUS
 10
4.9073812145
 20
4.6767481105
 40
0.0196850394
100
AcDbArc
 50
44.9999999999
 51
89.9960818712
  0
ARC
  5
445
100
AcDbEntity
  8
0
100
AcDbCircle
 62
7
  6
CONTINUOUS
 10
4.8704263262
 20
4.7161181893
 40
0.0196850394
100
AcDbArc
 50
200.0000948198
 51
270.0
  0
ARC
  5
446
100
AcDbEntity
  8
0
100
AcDbCircle
 62
7
  6
CONTINUOUS
 10
4.5662741237
 20
4.7937216562
 40
0.0118110236
100
AcDbArc
 50
225.0002531655
 51
270.0
  0
ARC
  5
447
100
AcDbEntity
  8
0
100
AcDbCircle
 62
7
  6
CONTINUOUS
 10
4.7066217667
 20
4.7937216562
 40
0.0118110236
100
AcDbArc
 50
270.0
 51
284.6898599032
  0
ARC
  5
448
100
AcDbEntity
  8
0
100
AcDbCircle
 62
7
  6
CONTINUOUS
 10
4.6140441343
 20
4.7937216562
 40
0.0118110236
100
AcDbArc
 50
225.0002531646
 51
270.0
  0
ARC
  5
449
100
AcDbEntity
  8
0
100
AcDbCircle
 62
7
  6
CONTINUOUS
 10
4.8051013095
 20
4.7937216562
 40
0.0118110236
100
AcDbArc
 50
270.0
 51
314.9997441386
  0
ARC
  5
44A
100
AcDbEntity
  8
0
100
AcDbCircle
 62
7
  6
CONTINUOUS
 10
4.7125236771
 20
4.7937216562
 40
0.0118110236
100
AcDbArc
 50
225.0002558629
 51
270.0
  0
ARC
  5
44B
100
AcDbEntity
  8
0
100
AcDbCircle
 62
9
  6
CONTINUOUS
 10
4.7015823808
 20
4.9046498035
 40
0.0670141117
100
AcDbArc
 50
254.1248809708
 51
254.4790935256
  0
ARC
  5
44C
100
AcDbEntity
  8
0
100
AcDbCircle
 62
7
  6
CONTINUOUS
 10
4.769811466
 20
4.967733357
 40
0.0196850394
100
AcDbArc
 50
315.0000000002
 51
360.0
  0
ARC
  5
44D
100
AcDbEntity
  8
0
100
AcDbCircle
 62
7
  6
CONTINUOUS
 10
4.643827214
 20
4.967733357
 40
0.0196850394
100
AcDbArc
 50
180.0
 51
224.9999999998
  0
ARC
  5
44E
100
AcDbEntity
  8
0
100
AcDbCircle
 62
7
  6
CONTINUOUS
 10
4.6519810243
 20
4.9595795467
 40
0.0196850394
100
AcDbArc
 50
225.0011432897
 51
270.0
  0
ARC
  5
44F
100
AcDbEntity
  8
0
100
AcDbCircle
 62
7
  6
CONTINUOUS
 10
4.7616576557
 20
4.9595795467
 40
0.0196850394
100
AcDbArc
 50
270.0
 51
314.9988567103
  0
ARC
  5
450
100
AcDbEntity
  8
0
100
AcDbCircle
 62
7
  6
CONTINUOUS
 10
4.9271187093
 20
4.9261861887
 40
0.0196850394
100
AcDbArc
 50
180.0
 51
224.9999999996
  0
ARC
  5
451
100
AcDbEntity
  8
0
100
AcDbCircle
 62
7
  6
CONTINUOUS
 10
5.0213271037
 20
4.9180323784
 40
0.0196850394
100
AcDbArc
 50
270.0
 51
314.9986727934
  0
ARC
  5
452
100
AcDbEntity
  8
0
100
AcDbCircle
 62
7
  6
CONTINUOUS
 10
4.9352725196
 20
4.9180323784
 40
0.0196850394
100
AcDbArc
 50
225.0013272065
 51
270.0
  0
ARC
  5
453
100
AcDbEntity
  8
0
100
AcDbCircle
 62
7
  6
CONTINUOUS
 10
4.7049069155
 20
4.9180323784
 40
0.0196850394
100
AcDbArc
 50
270.0
 51
314.9986727883
  0
ARC
  5
454
100
AcDbEntity
  8
0
100
AcDbCircle
 62
7
  6
CONTINUOUS
 10
4.7130607258
 20
4.9261861887
 40
0.0196850394
100
AcDbArc
 50
315.0000000001
 51
360.0
  0
ARC
  5
455
100
AcDbEntity
  8
0
100
AcDbCircle
 62
7
  6
CONTINUOUS
 10
4.6106985211
 20
4.9261861887
 40
0.0196850394
100
AcDbArc
 50
180.0
 51
224.9999999999
  0
ARC
  5
456
100
AcDbEntity
  8
0
100
AcDbCircle
 62
7
  6
CONTINUOUS
 10
4.6188523314
 20
4.9180323784
 40
0.0196850394
100
AcDbArc
 50
225.0013272118
 51
270.0
  0
ARC
  5
457
100
AcDbEntity
  8
0
100
AcDbCircle
 62
7
  6
CONTINUOUS
 10
4.5535078218
 20
4.8064879581
 40
0.0118110236
100
AcDbArc
 50
180.0
 51
225.0000000007
  0
ARC
  5
458
100
AcDbEntity
  8
0
100
AcDbCircle
 62
7
  6
CONTINUOUS
 10
4.6012778323
 20
4.8064879581
 40
0.0118110236
100
AcDbArc
 50
180.0
 51
225.0000000003
  0
ARC
  5
459
100
AcDbEntity
  8
0
100
AcDbCircle
 62
7
  6
CONTINUOUS
 10
4.8178676114
 20
4.8064879581
 40
0.0118110236
100
AcDbArc
 50
315.0
 51
360.0
  0
ARC
  5
45A
100
AcDbEntity
  8
0
100
AcDbCircle
 62
7
  6
CONTINUOUS
 10
4.6997573752
 20
4.8064879581
 40
0.0118110236
100
AcDbArc
 50
180.0
 51
225.0000000001
  0
ARC
  5
45B
100
AcDbEntity
  8
0
100
AcDbCircle
 62
7
  6
CONTINUOUS
 10
5.3219684522
 20
4.6327064479
 40
0.3412794183
100
AcDbArc
 50
89.7139472839
 51
89.9996082307
  0
ARC
  5
45C
100
AcDbEntity
  8
0
100
AcDbCircle
 62
7
  6
CONTINUOUS
 10
5.3450229386
 20
4.6964331499
 40
0.0196850394
100
AcDbArc
 50
225.0025651318
 51
270.0
  0
ARC
  5
45D
100
AcDbEntity
  8
0
100
AcDbCircle
 62
7
  6
CONTINUOUS
 10
5.3090302787
 20
4.6767481105
 40
0.0196850394
100
AcDbArc
 50
44.9999999999
 51
89.9960818715
  0
ARC
  5
45E
100
AcDbEntity
  8
0
100
AcDbCircle
 62
7
  6
CONTINUOUS
 10
5.251766432
 20
4.6964331499
 40
0.0196850394
100
AcDbArc
 50
270.0
 51
314.9974348101
  0
ARC
  5
45F
100
AcDbEntity
  8
0
100
AcDbCircle
 62
7
  6
CONTINUOUS
 10
5.035790588
 20
4.6964331499
 40
0.0196850394
100
AcDbArc
 50
225.0025651903
 51
270.0
  0
ARC
  5
460
100
AcDbEntity
  8
0
100
AcDbCircle
 62
7
  6
CONTINUOUS
 10
5.2877590919
 20
4.6767481105
 40
0.0196850394
100
AcDbArc
 50
90.0039289499
 51
135.000000001
  0
ARC
  5
461
100
AcDbEntity
  8
0
100
AcDbCircle
 62
7
  6
CONTINUOUS
 10
5.3378850993
 20
4.6964331499
 40
0.0196850394
100
AcDbArc
 50
270.0
 51
280.6595944996
  0
ARC
  5
462
100
AcDbEntity
  8
0
100
AcDbCircle
 62
7
  6
CONTINUOUS
 10
5.3642061436
 20
4.7937216562
 40
0.0118110236
100
AcDbArc
 50
270.0
 51
314.9997468354
  0
ARC
  5
463
100
AcDbEntity
  8
0
100
AcDbCircle
 62
7
  6
CONTINUOUS
 10
5.2716285112
 20
4.7937216562
 40
0.0118110236
100
AcDbArc
 50
225.0002531647
 51
270.0
  0
ARC
  5
464
100
AcDbEntity
  8
0
100
AcDbCircle
 62
7
  6
CONTINUOUS
 10
5.4913206739
 20
4.7937216562
 40
0.0118110236
100
AcDbArc
 50
225.0002531647
 51
270.0
  0
ARC
  5
465
100
AcDbEntity
  8
0
100
AcDbCircle
 62
9
  6
CONTINUOUS
 10
5.3806183489
 20
4.8797477351
 40
0.0534306274
100
AcDbArc
 50
282.7411408278
 51
284.4505092156
  0
ARC
  5
466
100
AcDbEntity
  8
0
100
AcDbCircle
 62
7
  6
CONTINUOUS
 10
5.1591193066
 20
4.967733357
 40
0.0196850394
100
AcDbArc
 50
315.0000000002
 51
360.0
  0
ARC
  5
467
100
AcDbEntity
  8
0
100
AcDbCircle
 62
7
  6
CONTINUOUS
 10
5.0331350546
 20
4.967733357
 40
0.0196850394
100
AcDbArc
 50
180.0
 51
224.9999999998
  0
ARC
  5
468
100
AcDbEntity
  8
0
100
AcDbCircle
 62
7
  6
CONTINUOUS
 10
5.0412888649
 20
4.9595795467
 40
0.0196850394
100
AcDbArc
 50
225.0011432896
 51
270.0
  0
ARC
  5
469
100
AcDbEntity
  8
0
100
AcDbCircle
 62
7
  6
CONTINUOUS
 10
5.1509654963
 20
4.9595795467
 40
0.0196850394
100
AcDbArc
 50
270.0
 51
314.9988567095
  0
ARC
  5
46A
100
AcDbEntity
  8
0
100
AcDbCircle
 62
7
  6
CONTINUOUS
 10
5.4509138282
 20
4.967733357
 40
0.0196850394
100
AcDbArc
 50
180.0
 51
224.9999999997
  0
ARC
  5
46B
100
AcDbEntity
  8
0
100
AcDbCircle
 62
7
  6
CONTINUOUS
 10
5.4590676385
 20
4.9595795467
 40
0.0196850394
100
AcDbArc
 50
225.0011432902
 51
270.0
  0
ARC
  5
46C
100
AcDbEntity
  8
0
100
AcDbCircle
 62
7
  6
CONTINUOUS
 10
5.029480914
 20
4.9261861887
 40
0.0196850394
100
AcDbArc
 50
315.0000000004
 51
360.0
  0
ARC
  5
46D
100
AcDbEntity
  8
0
100
AcDbCircle
 62
7
  6
CONTINUOUS
 10
5.3742479654
 20
4.9180323784
 40
0.0196850394
100
AcDbArc
 50
270.0
 51
314.998672795
  0
ARC
  5
46E
100
AcDbEntity
  8
0
100
AcDbCircle
 62
7
  6
CONTINUOUS
 10
5.3824017757
 20
4.9261861887
 40
0.0196850394
100
AcDbArc
 50
315.0000000001
 51
360.0
  0
ARC
  5
46F
100
AcDbEntity
  8
0
100
AcDbCircle
 62
7
  6
CONTINUOUS
 10
5.280039571
 20
4.9261861887
 40
0.0196850394
100
AcDbArc
 50
180.0
 51
224.9999999999
  0
ARC
  5
470
100
AcDbEntity
  8
0
100
AcDbCircle
 62
7
  6
CONTINUOUS
 10
5.2881933813
 20
4.9180323784
 40
0.0196850394
100
AcDbArc
 50
225.0013272053
 51
270.0
  0
ARC
  5
471
100
AcDbEntity
  8
0
100
AcDbCircle
 62
7
  6
CONTINUOUS
 10
5.3769724455
 20
4.8064879581
 40
0.0118110236
100
AcDbArc
 50
315.0000000004
 51
360.0
  0
ARC
  5
472
100
AcDbEntity
  8
0
100
AcDbCircle
 62
7
  6
CONTINUOUS
 10
5.2588622093
 20
4.8064879581
 40
0.0118110236
100
AcDbArc
 50
180.0
 51
224.9999999996
  0
ARC
  5
473
100
AcDbEntity
  8
0
100
AcDbCircle
 62
7
  6
CONTINUOUS
 10
5.478554372
 20
4.8064879581
 40
0.0118110236
100
AcDbArc
 50
180.0
 51
225.0000000004
  0
ARC
  5
474
100
AcDbEntity
  8
0
100
AcDbCircle
 62
9
  6
CONTINUOUS
 10
7.0943871723
 20
-0.2637762807
 40
5.1430675325
100
AcDbArc
 50
96.7688932791
 51
97.0796370255
  0
ARC
  5
475
100
AcDbEntity
  8
0
100
AcDbCircle
 62
7
  6
CONTINUOUS
 10
5.7058432537
 20
4.6322314466
 40
0.3417544196
100
AcDbArc
 50
90.0003572661
 51
90.3847572356
  0
ARC
  5
476
100
AcDbEntity
  8
0
100
AcDbCircle
 62
7
  6
CONTINUOUS
 10
5.6827889698
 20
4.6964331499
 40
0.0196850394
100
AcDbArc
 50
270.0
 51
280.6595944687
  0
ARC
  5
477
100
AcDbEntity
  8
0
100
AcDbCircle
 62
7
  6
CONTINUOUS
 10
5.9059026531
 20
4.6964331499
 40
0.0196850394
100
AcDbArc
 50
270.0
 51
314.9974348101
  0
ARC
  5
478
100
AcDbEntity
  8
0
100
AcDbCircle
 62
7
  6
CONTINUOUS
 10
5.6899268091
 20
4.6964331499
 40
0.0196850394
100
AcDbArc
 50
225.0025651903
 51
270.0
  0
ARC
  5
479
100
AcDbEntity
  8
0
100
AcDbCircle
 62
7
  6
CONTINUOUS
 10
5.9418953131
 20
4.6767481105
 40
0.0196850394
100
AcDbArc
 50
90.0039289499
 51
135.000000001
  0
ARC
  5
47A
100
AcDbEntity
  8
0
100
AcDbCircle
 62
7
  6
CONTINUOUS
 10
5.6539341492
 20
4.6767481105
 40
0.0196850394
100
AcDbArc
 50
44.999999999
 51
89.9960710504
  0
ARC
  5
47B
100
AcDbEntity
  8
0
100
AcDbCircle
 62
7
  6
CONTINUOUS
 10
5.5609987826
 20
4.6964331499
 40
0.0196850394
100
AcDbArc
 50
270.0
 51
314.9974348679
  0
ARC
  5
47C
100
AcDbEntity
  8
0
100
AcDbCircle
 62
7
  6
CONTINUOUS
 10
5.5969914425
 20
4.6767481105
 40
0.0196850394
100
AcDbArc
 50
90.0039181288
 51
135.0000000001
  0
ARC
  5
47D
100
AcDbEntity
  8
0
100
AcDbCircle
 62
7
  6
CONTINUOUS
 10
5.5838983063
 20
4.7937216562
 40
0.0118110236
100
AcDbArc
 50
270.0
 51
314.9997468341
  0
ARC
  5
47E
100
AcDbEntity
  8
0
100
AcDbCircle
 62
7
  6
CONTINUOUS
 10
5.8021822763
 20
4.7937216562
 40
0.0118110236
100
AcDbArc
 50
270.0
 51
314.999746836
  0
ARC
  5
47F
100
AcDbEntity
  8
0
100
AcDbCircle
 62
7
  6
CONTINUOUS
 10
5.7096046439
 20
4.7937216562
 40
0.0118110236
100
AcDbArc
 50
225.0002531659
 51
270.0
  0
ARC
  5
480
100
AcDbEntity
  8
0
100
AcDbCircle
 62
9
  6
CONTINUOUS
 10
5.8136633562
 20
4.8885678843
 40
0.0585440147
100
AcDbArc
 50
286.0765992526
 51
286.8705220385
  0
ARC
  5
481
100
AcDbEntity
  8
0
100
AcDbCircle
 62
9
  6
CONTINUOUS
 10
5.5974297477
 20
4.8840225045
 40
0.0560588685
100
AcDbArc
 50
284.8318839774
 51
286.0923629903
  0
ARC
  5
482
100
AcDbEntity
  8
0
100
AcDbCircle
 62
9
  6
CONTINUOUS
 10
5.8152916377
 20
4.8831593572
 40
0.0528957121
100
AcDbArc
 50
286.8828734209
 51
287.1788174239
  0
ARC
  5
483
100
AcDbEntity
  8
0
100
AcDbCircle
 62
7
  6
CONTINUOUS
 10
5.5768980802
 20
4.967733357
 40
0.0196850394
100
AcDbArc
 50
315.0000000003
 51
360.0
  0
ARC
  5
484
100
AcDbEntity
  8
0
100
AcDbCircle
 62
7
  6
CONTINUOUS
 10
5.5687442699
 20
4.9595795467
 40
0.0196850394
100
AcDbArc
 50
270.0
 51
314.9988567098
  0
ARC
  5
485
100
AcDbEntity
  8
0
100
AcDbCircle
 62
7
  6
CONTINUOUS
 10
5.9946768538
 20
4.967733357
 40
0.0196850394
100
AcDbArc
 50
314.9999999999
 51
360.0
  0
ARC
  5
486
100
AcDbEntity
  8
0
100
AcDbCircle
 62
7
  6
CONTINUOUS
 10
5.8686926018
 20
4.967733357
 40
0.0196850394
100
AcDbArc
 50
180.0
 51
225.0000000001
  0
ARC
  5
487
100
AcDbEntity
  8
0
100
AcDbCircle
 62
7
  6
CONTINUOUS
 10
5.8768464121
 20
4.9595795467
 40
0.0196850394
100
AcDbArc
 50
225.0011432902
 51
270.0
  0
ARC
  5
488
100
AcDbEntity
  8
0
100
AcDbCircle
 62
7
  6
CONTINUOUS
 10
5.9865230435
 20
4.9595795467
 40
0.0196850394
100
AcDbArc
 50
270.0
 51
314.9988567098
  0
ARC
  5
489
100
AcDbEntity
  8
0
100
AcDbCircle
 62
7
  6
CONTINUOUS
 10
5.9983309944
 20
4.9261861887
 40
0.0196850394
100
AcDbArc
 50
180.0
 51
224.9999999998
  0
ARC
  5
48A
100
AcDbEntity
  8
0
100
AcDbCircle
 62
7
  6
CONTINUOUS
 10
6.0064848047
 20
4.9180323784
 40
0.0196850394
100
AcDbArc
 50
225.0013272053
 51
270.0
  0
ARC
  5
48B
100
AcDbEntity
  8
0
100
AcDbCircle
 62
7
  6
CONTINUOUS
 10
5.7396185271
 20
4.9180323784
 40
0.0196850394
100
AcDbArc
 50
270.0
 51
314.9986727949
  0
ARC
  5
48C
100
AcDbEntity
  8
0
100
AcDbCircle
 62
7
  6
CONTINUOUS
 10
5.653563943
 20
4.9180323784
 40
0.0196850394
100
AcDbArc
 50
225.0013272051
 51
270.0
  0
ARC
  5
48D
100
AcDbEntity
  8
0
100
AcDbCircle
 62
7
  6
CONTINUOUS
 10
5.6454101327
 20
4.9261861887
 40
0.0196850394
100
AcDbArc
 50
180.0
 51
224.9999999998
  0
ARC
  5
48E
100
AcDbEntity
  8
0
100
AcDbCircle
 62
7
  6
CONTINUOUS
 10
5.7477723374
 20
4.9261861887
 40
0.0196850394
100
AcDbArc
 50
315.0000000002
 51
360.0
  0
ARC
  5
48F
100
AcDbEntity
  8
0
100
AcDbCircle
 62
7
  6
CONTINUOUS
 10
5.5966646082
 20
4.8064879581
 40
0.0118110236
100
AcDbArc
 50
314.9999999996
 51
360.0
  0
ARC
  5
490
100
AcDbEntity
  8
0
100
AcDbCircle
 62
7
  6
CONTINUOUS
 10
5.8149485782
 20
4.8064879581
 40
0.0118110236
100
AcDbArc
 50
314.9999999994
 51
360.0
  0
ARC
  5
491
100
AcDbEntity
  8
0
100
AcDbCircle
 62
7
  6
CONTINUOUS
 10
5.696838342
 20
4.8064879581
 40
0.0118110236
100
AcDbArc
 50
180.0
 51
225.0000000006
  0
ARC
  5
492
100
AcDbEntity
  8
0
100
AcDbCircle
 62
7
  6
CONTINUOUS
 10
6.0766925974
 20
4.6614937052
 40
0.312492167
100
AcDbArc
 50
90.0112215036
 51
90.8821195163
  0
ARC
  5
493
100
AcDbEntity
  8
0
100
AcDbCircle
 62
7
  6
CONTINUOUS
 10
6.0631102309
 20
4.7015190907
 40
0.2713662439
100
AcDbArc
 50
99.4755185356
 51
100.4351524351
  0
ARC
  5
494
100
AcDbEntity
  8
0
100
AcDbCircle
 62
7
  6
CONTINUOUS
 10
6.4092205942
 20
4.7270183784
 40
0.246967532
100
AcDbArc
 50
90.0342742197
 51
91.2588008815
  0
ARC
  5
495
100
AcDbEntity
  8
0
100
AcDbCircle
 62
7
  6
CONTINUOUS
 10
6.2412562462
 20
4.7738853306
 40
0.0393700787
100
AcDbArc
 50
117.4883173629
 51
160.0
  0
ARC
  5
496
100
AcDbEntity
  8
0
100
AcDbCircle
 62
7
  6
CONTINUOUS
 10
6.084438034
 20
4.6964331499
 40
0.0196850394
100
AcDbArc
 50
270.0
 51
314.9974348682
  0
ARC
  5
497
100
AcDbEntity
  8
0
100
AcDbCircle
 62
7
  6
CONTINUOUS
 10
6.1204306939
 20
4.6767481105
 40
0.0196850394
100
AcDbArc
 50
90.0039181288
 51
135.0000000001
  0
ARC
  5
498
100
AcDbEntity
  8
0
100
AcDbCircle
 62
7
  6
CONTINUOUS
 10
6.1573855822
 20
4.7161181893
 40
0.0196850394
100
AcDbArc
 50
270.0
 51
339.9999051803
  0
ARC
  5
499
100
AcDbEntity
  8
0
100
AcDbCircle
 62
7
  6
CONTINUOUS
 10
6.2383830215
 20
4.7937216562
 40
0.0118110236
100
AcDbArc
 50
270.0
 51
292.4997467748
  0
ARC
  5
49A
100
AcDbEntity
  8
0
100
AcDbCircle
 62
7
  6
CONTINUOUS
 10
6.3404101519
 20
4.7937216562
 40
0.0118110236
100
AcDbArc
 50
270.0
 51
314.9997468355
  0
ARC
  5
49B
100
AcDbEntity
  8
0
100
AcDbCircle
 62
7
  6
CONTINUOUS
 10
6.2478325195
 20
4.7937216562
 40
0.0118110236
100
AcDbArc
 50
225.0002531656
 51
270.0
  0
ARC
  5
49C
100
AcDbEntity
  8
0
100
AcDbCircle
 62
7
  6
CONTINUOUS
 10
6.428417365
 20
4.7937216562
 40
0.0118110236
100
AcDbArc
 50
270.0
 51
314.9997468347
  0
ARC
  5
49D
100
AcDbEntity
  8
0
100
AcDbCircle
 62
7
  6
CONTINUOUS
 10
6.4648447348
 20
4.7937216562
 40
0.0118110236
100
AcDbArc
 50
270.0
 51
314.9997468346
  0
ARC
  5
49E
100
AcDbEntity
  8
0
100
AcDbCircle
 62
7
  6
CONTINUOUS
 10
6.3839846944
 20
4.967733357
 40
0.0196850394
100
AcDbArc
 50
315.0000000003
 51
360.0
  0
ARC
  5
49F
100
AcDbEntity
  8
0
100
AcDbCircle
 62
7
  6
CONTINUOUS
 10
6.2580004424
 20
4.967733357
 40
0.0196850394
100
AcDbArc
 50
180.0
 51
224.9999999997
  0
ARC
  5
4A0
100
AcDbEntity
  8
0
100
AcDbCircle
 62
7
  6
CONTINUOUS
 10
6.2661542527
 20
4.9595795467
 40
0.0196850394
100
AcDbArc
 50
225.00114329
 51
270.0
  0
ARC
  5
4A1
100
AcDbEntity
  8
0
100
AcDbCircle
 62
7
  6
CONTINUOUS
 10
6.3758308841
 20
4.9595795467
 40
0.0196850394
100
AcDbArc
 50
270.0
 51
314.99885671
  0
ARC
  5
4A2
100
AcDbEntity
  8
0
100
AcDbCircle
 62
7
  6
CONTINUOUS
 10
6.3147511826
 20
4.9261861887
 40
0.0196850394
100
AcDbArc
 50
180.0
 51
224.9999999999
  0
ARC
  5
4A3
100
AcDbEntity
  8
0
100
AcDbCircle
 62
7
  6
CONTINUOUS
 10
6.4171133873
 20
4.9261861887
 40
0.0196850394
100
AcDbArc
 50
315.0000000001
 51
360.0
  0
ARC
  5
4A4
100
AcDbEntity
  8
0
100
AcDbCircle
 62
7
  6
CONTINUOUS
 10
6.408959577
 20
4.9180323784
 40
0.0196850394
100
AcDbArc
 50
270.0
 51
314.998672795
  0
ARC
  5
4A5
100
AcDbEntity
  8
0
100
AcDbCircle
 62
7
  6
CONTINUOUS
 10
6.3229049929
 20
4.9180323784
 40
0.0196850394
100
AcDbArc
 50
225.0013272058
 51
270.0
  0
ARC
  5
4A6
100
AcDbEntity
  8
0
100
AcDbCircle
 62
7
  6
CONTINUOUS
 10
6.0925393888
 20
4.9180323784
 40
0.0196850394
100
AcDbArc
 50
270.0
 51
314.9986727946
  0
ARC
  5
4A7
100
AcDbEntity
  8
0
100
AcDbCircle
 62
7
  6
CONTINUOUS
 10
6.1006931991
 20
4.9261861887
 40
0.0196850394
100
AcDbArc
 50
315.0000000002
 51
360.0
  0
ARC
  5
4A8
100
AcDbEntity
  8
0
100
AcDbCircle
 62
7
  6
CONTINUOUS
 10
6.3531764538
 20
4.8064879581
 40
0.0118110236
100
AcDbArc
 50
314.9999999998
 51
360.0
  0
ARC
  5
4A9
100
AcDbEntity
  8
0
100
AcDbCircle
 62
7
  6
CONTINUOUS
 10
6.2350662176
 20
4.8064879581
 40
0.0118110236
100
AcDbArc
 50
180.0
 51
225.0000000002
  0
ARC
  5
4AA
100
AcDbEntity
  8
0
100
AcDbCircle
 62
7
  6
CONTINUOUS
 10
6.4411836669
 20
4.8064879581
 40
0.0118110236
100
AcDbArc
 50
314.9999999998
 51
360.0
  0
ARC
  5
4AB
100
AcDbEntity
  8
0
100
AcDbCircle
 62
7
  6
CONTINUOUS
 10
6.4776110367
 20
4.8064879581
 40
0.0118110236
100
AcDbArc
 50
315.0000000005
 51
360.0
  0
ARC
  5
4AC
100
AcDbEntity
  8
0
100
AcDbCircle
 62
9
  6
CONTINUOUS
 10
6.6544461597
 20
2.5887995721
 40
2.2649535624
100
AcDbArc
 50
97.1880215873
 51
97.3165989558
  0
ARC
  5
4AD
100
AcDbEntity
  8
0
100
AcDbCircle
 62
7
  6
CONTINUOUS
 10
6.6348296063
 20
4.7419634882
 40
0.2243095539
100
AcDbArc
 50
105.5086731636
 51
105.9119768456
  0
ARC
  5
4AE
100
AcDbEntity
  8
0
100
AcDbCircle
 62
9
  6
CONTINUOUS
 10
6.501222958
 20
4.8329657797
 40
0.0118680643
100
AcDbArc
 50
159.2858967566
 51
164.9315695889
  0
ARC
  5
4AF
100
AcDbEntity
  8
0
100
AcDbCircle
 62
9
  6
CONTINUOUS
 10
6.5011705108
 20
4.8329811268
 40
0.0118150243
100
AcDbArc
 50
176.2091034958
 51
180.0328207076
  0
ARC
  5
4B0
100
AcDbEntity
  8
0
100
AcDbCircle
 62
9
  6
CONTINUOUS
 10
6.5011680945
 20
4.8329790371
 40
0.0118116509
100
AcDbArc
 50
132.6354792333
 51
155.5624792122
  0
ARC
  5
4B1
100
AcDbEntity
  8
0
100
AcDbCircle
 62
9
  6
CONTINUOUS
 10
6.5011368571
 20
4.8329785125
 40
0.0117816181
100
AcDbArc
 50
164.8825056589
 51
176.1855970092
  0
ARC
  5
4B2
100
AcDbEntity
  8
0
100
AcDbCircle
 62
9
  6
CONTINUOUS
 10
6.5011400383
 20
4.8330109506
 40
0.0117691695
100
AcDbArc
 50
121.1355907506
 51
132.6402287809
  0
ARC
  5
4B3
100
AcDbEntity
  8
0
100
AcDbCircle
 62
9
  6
CONTINUOUS
 10
6.5011412682
 20
4.8330225435
 40
0.0117598848
100
AcDbArc
 50
114.8433712622
 51
121.1699249461
  0
ARC
  5
4B4
100
AcDbEntity
  8
0
100
AcDbCircle
 62
9
  6
CONTINUOUS
 10
6.5011427821
 20
4.8330293099
 40
0.0117543813
100
AcDbArc
 50
97.8830174272
 51
114.8639251277
  0
ARC
  5
4B5
100
AcDbEntity
  8
0
100
AcDbCircle
 62
9
  6
CONTINUOUS
 10
6.5010882662
 20
4.8330126921
 40
0.0117254868
100
AcDbArc
 50
155.5613660508
 51
159.267517256
  0
ARC
  5
4B6
100
AcDbEntity
  8
0
100
AcDbCircle
 62
7
  6
CONTINUOUS
 10
6.7746840449
 20
4.9010331628
 40
0.0078740157
100
AcDbArc
 50
280.1468867895
 51
339.6248379632
  0
ARC
  5
4B7
100
AcDbEntity
  8
0
100
AcDbCircle
 62
7
  6
CONTINUOUS
 10
6.718290916
 20
4.967733357
 40
0.0196850394
100
AcDbArc
 50
315.0000000002
 51
360.0
  0
ARC
  5
4B8
100
AcDbEntity
  8
0
100
AcDbCircle
 62
7
  6
CONTINUOUS
 10
6.592306664
 20
4.967733357
 40
0.0196850394
100
AcDbArc
 50
180.0
 51
224.9999999998
  0
ARC
  5
4B9
100
AcDbEntity
  8
0
100
AcDbCircle
 62
7
  6
CONTINUOUS
 10
6.6004604743
 20
4.9595795467
 40
0.0196850394
100
AcDbArc
 50
225.0011432895
 51
270.0
  0
ARC
  5
4BA
100
AcDbEntity
  8
0
100
AcDbCircle
 62
7
  6
CONTINUOUS
 10
6.7101371057
 20
4.9595795467
 40
0.0196850394
100
AcDbArc
 50
270.0
 51
314.9988567094
  0
ARC
  5
4BB
100
AcDbEntity
  8
0
100
AcDbCircle
 62
7
  6
CONTINUOUS
 10
6.6673155789
 20
4.9180323784
 40
0.0196850394
100
AcDbArc
 50
270.0
 51
314.9986727883
  0
ARC
  5
4BC
100
AcDbEntity
  8
0
100
AcDbCircle
 62
7
  6
CONTINUOUS
 10
6.6754693891
 20
4.9261861887
 40
0.0196850394
100
AcDbArc
 50
315.0000000001
 51
360.0
  0
ARC
  5
4BD
100
AcDbEntity
  8
0
100
AcDbCircle
 62
7
  6
CONTINUOUS
 10
6.5731071844
 20
4.9261861887
 40
0.0196850394
100
AcDbArc
 50
180.0
 51
224.9999999999
  0
ARC
  5
4BE
100
AcDbEntity
  8
0
100
AcDbCircle
 62
7
  6
CONTINUOUS
 10
6.5812609947
 20
4.9180323784
 40
0.0196850394
100
AcDbArc
 50
225.0013272118
 51
270.0
  0
ARC
  5
4BF
100
AcDbEntity
  8
0
100
AcDbCircle
 62
7
  6
CONTINUOUS
 10
6.9666592918
 20
4.9595795467
 40
0.0196850394
100
AcDbArc
 50
270.0
 51
314.9989630351
  0
ARC
  5
4C0
100
AcDbEntity
  8
0
100
AcDbCircle
 62
7
  6
CONTINUOUS
 10
6.8569826604
 20
4.9595795467
 40
0.0196850394
100
AcDbArc
 50
225.0010369649
 51
270.0
  0
ARC
  5
4C1
100
AcDbEntity
  8
0
100
AcDbCircle
 62
7
  6
CONTINUOUS
 10
6.8488288501
 20
4.967733357
 40
0.0196850394
100
AcDbArc
 50
180.0
 51
224.9999999998
  0
ARC
  5
4C2
100
AcDbEntity
  8
0
100
AcDbCircle
 62
7
  6
CONTINUOUS
 10
6.8585111354
 20
4.9180323784
 40
0.0196850394
100
AcDbArc
 50
257.2907770745
 51
270.0
  0
ARC
  5
4C3
100
AcDbEntity
  8
0
100
AcDbCircle
 62
7
  6
CONTINUOUS
 10
6.9527195299
 20
4.9261861887
 40
0.0196850394
100
AcDbArc
 50
315.0000000001
 51
360.0
  0
ARC
  5
4C4
100
AcDbEntity
  8
0
100
AcDbCircle
 62
7
  6
CONTINUOUS
 10
6.9445657196
 20
4.9180323784
 40
0.0196850394
100
AcDbArc
 50
270.0
 51
314.998672795
  0
ARC
  5
4C5
100
AcDbEntity
  8
0
100
AcDbCircle
 62
7
  6
CONTINUOUS
 10
6.7639462755
 20
4.9180323784
 40
0.0196850394
100
AcDbArc
 50
225.0013272065
 51
270.0
  0
ARC
  5
4C6
100
AcDbEntity
  8
0
100
AcDbCircle
 62
7
  6
CONTINUOUS
 10
6.8500008597
 20
4.9180323784
 40
0.0196850394
100
AcDbArc
 50
270.0
 51
314.9986727934
  0
ARC
  5
4C7
100
AcDbEntity
  8
0
100
AcDbCircle
 62
7
  6
CONTINUOUS
 10
6.85815467
 20
4.9261861887
 40
0.0196850394
100
AcDbArc
 50
315.0000000004
 51
360.0
  0
ARC
  5
4C8
100
AcDbEntity
  8
0
100
AcDbCircle
 62
7
  6
CONTINUOUS
 10
6.7557924653
 20
4.9261861887
 40
0.0196850394
100
AcDbArc
 50
180.0
 51
224.9999999996
  0
ARC
  5
4C9
100
AcDbEntity
  8
0
100
AcDbCircle
 62
7
  6
CONTINUOUS
 10
7.0861359008
 20
4.7332699381
 40
0.2729490054
100
AcDbArc
 50
107.100846988
 51
107.500653292
  0
ARC
  5
4CA
100
AcDbEntity
  8
0
100
AcDbCircle
 62
7
  6
CONTINUOUS
 10
7.4339059542
 20
5.1014857693
 40
0.08
100
AcDbArc
 50
273.0000020523
 51
360.0
  0
ARC
  5
4CB
100
AcDbEntity
  8
0
100
AcDbCircle
 62
7
  6
CONTINUOUS
 10
7.1829174983
 20
4.9595795467
 40
0.0196850394
100
AcDbArc
 50
269.998993262
 51
314.9988567098
  0
ARC
  5
4CC
100
AcDbEntity
  8
0
100
AcDbCircle
 62
7
  6
CONTINUOUS
 10
7.1910713085
 20
4.967733357
 40
0.0196850394
100
AcDbArc
 50
314.9975411856
 51
360.0
  0
ARC
  5
4CD
100
AcDbEntity
  8
0
100
AcDbCircle
 62
7
  6
CONTINUOUS
 10
6.974813102
 20
4.967733357
 40
0.0196850394
100
AcDbArc
 50
315.0000000002
 51
360.0
  0
ARC
  5
4CE
100
AcDbEntity
  8
0
100
AcDbCircle
 62
7
  6
CONTINUOUS
 10
7.1360696896
 20
4.967733357
 40
0.0196850394
100
AcDbArc
 50
315.0000000002
 51
360.0
  0
ARC
  5
4CF
100
AcDbEntity
  8
0
100
AcDbCircle
 62
7
  6
CONTINUOUS
 10
7.0100854376
 20
4.967733357
 40
0.0196850394
100
AcDbArc
 50
205.4025424871
 51
224.9999999998
  0
ARC
  5
4D0
100
AcDbEntity
  8
0
100
AcDbCircle
 62
7
  6
CONTINUOUS
 10
7.0182392479
 20
4.9595795467
 40
0.0196850394
100
AcDbArc
 50
225.0011432896
 51
270.0
  0
ARC
  5
4D1
100
AcDbEntity
  8
0
100
AcDbCircle
 62
7
  6
CONTINUOUS
 10
7.1279158793
 20
4.9595795467
 40
0.0196850394
100
AcDbArc
 50
270.0
 51
314.9988567095
  0
ARC
  5
4D2
100
AcDbEntity
  8
0
100
AcDbCircle
 62
7
  6
CONTINUOUS
 10
5.3913091343
 20
7.102195535
 40
1.135
100
AcDbArc
 50
17.9909143882
 51
24.9569771166
  0
ARC
  5
4D3
100
AcDbEntity
  8
0
100
AcDbCircle
 62
7
  6
CONTINUOUS
 10
4.7726033018
 20
7.9701958537
 40
0.28
100
AcDbArc
 50
98.5786367717
 51
278.5786367717
  0
ARC
  5
4D4
100
AcDbEntity
  8
0
100
AcDbCircle
 62
7
  6
CONTINUOUS
 10
5.1299059542
 20
6.727568604
 40
0.1
100
AcDbArc
 50
134.0731757116
 51
180.0
  0
ARC
  5
4D5
100
AcDbEntity
  8
0
100
AcDbCircle
 62
7
  6
CONTINUOUS
 10
3.5939059542
 20
5.945568604
 40
0.08
100
AcDbArc
 50
90.0
 51
180.0
  0
ARC
  5
4D6
100
AcDbEntity
  8
0
100
AcDbCircle
 62
7
  6
CONTINUOUS
 10
4.3439059542
 20
6.105568604
 40
0.08
100
AcDbArc
 50
270.0
 51
314.7682446277
  0
ARC
  5
4D7
100
AcDbEntity
  8
0
100
AcDbCircle
 62
7
  6
CONTINUOUS
 10
5.0368536421
 20
6.567568604
 40
0.08
100
AcDbArc
 50
89.9999666467
 51
134.7682147276
  0
ARC
  5
4D8
100
AcDbEntity
  8
0
100
AcDbCircle
 62
7
  6
CONTINUOUS
 10
5.0789059542
 20
7.0017459176
 40
0.06
100
AcDbArc
 50
311.8102714498
 51
360.0
  0
ARC
  5
4D9
100
AcDbEntity
  8
0
100
AcDbCircle
 62
7
  6
CONTINUOUS
 10
5.018613712
 20
6.8425209281
 40
0.06
100
AcDbArc
 50
314.0731757112
 51
341.9999999995
  0
ARC
  5
4DA
100
AcDbEntity
  8
0
100
AcDbCircle
 62
7
  6
CONTINUOUS
 10
5.0899059542
 20
6.707568604
 40
0.06
100
AcDbArc
 50
180.0
 51
270.0
  0
ARC
  5
4DB
100
AcDbEntity
  8
0
100
AcDbCircle
 62
7
  6
CONTINUOUS
 10
4.9260384131
 20
7.7270246321
 40
0.03
100
AcDbArc
 50
90.0
 51
209.0977698531
  0
ARC
  5
4DC
100
AcDbEntity
  8
0
100
AcDbCircle
 62
7
  6
CONTINUOUS
 10
4.9260384131
 20
8.4370246321
 40
0.03
100
AcDbArc
 50
150.902230147
 51
270.0
  0
ARC
  5
4DD
100
AcDbEntity
  8
0
100
AcDbCircle
 62
7
  6
CONTINUOUS
 10
5.3913091343
 20
9.0618537293
 40
1.135
100
AcDbArc
 50
335.0430228834
 51
342.0090856118
  0
ARC
  5
4DE
100
AcDbEntity
  8
0
100
AcDbCircle
 62
7
  6
CONTINUOUS
 10
5.5139059542
 20
7.232731484
 40
2.5590551181
100
AcDbArc
 50
264.5049555658
 51
265.9886462846
  0
ARC
  5
4DF
100
AcDbEntity
  8
0
100
AcDbCircle
 62
7
  6
CONTINUOUS
 10
5.5139059542
 20
7.232731484
 40
2.5590551181
100
AcDbArc
 50
267.3528405073
 51
273.7405671051
  0
ARC
  5
4E0
100
AcDbEntity
  8
0
100
AcDbCircle
 62
7
  6
CONTINUOUS
 10
6.0168802958
 20
7.393332482
 40
0.445
100
AcDbArc
 50
24.9569771166
 51
36.9881745755
  0
ARC
  5
4E1
100
AcDbEntity
  8
0
100
AcDbCircle
 62
7
  6
CONTINUOUS
 10
5.8979059542
 20
6.727568604
 40
0.1
100
AcDbArc
 50
0.0
 51
45.9268242884
  0
ARC
  5
4E2
100
AcDbEntity
  8
0
100
AcDbCircle
 62
7
  6
CONTINUOUS
 10
5.9909582663
 20
6.567568604
 40
0.08
100
AcDbArc
 50
45.2317852724
 51
90.0000333533
  0
ARC
  5
4E3
100
AcDbEntity
  8
0
100
AcDbCircle
 62
7
  6
CONTINUOUS
 10
6.0091981964
 20
6.8425209281
 40
0.06
100
AcDbArc
 50
198.0000000005
 51
225.9268242888
  0
ARC
  5
4E4
100
AcDbEntity
  8
0
100
AcDbCircle
 62
7
  6
CONTINUOUS
 10
5.9489059542
 20
7.0017459176
 40
0.06
100
AcDbArc
 50
180.0
 51
228.1897285506
  0
ARC
  5
4E5
100
AcDbEntity
  8
0
100
AcDbCircle
 62
7
  6
CONTINUOUS
 10
5.9379059542
 20
6.707568604
 40
0.06
100
AcDbArc
 50
270.0
 51
360.0
  0
ARC
  5
4E6
100
AcDbEntity
  8
0
100
AcDbCircle
 62
7
  6
CONTINUOUS
 10
5.5639059542
 20
8.0820246321
 40
0.76
100
AcDbArc
 50
20.8095735777
 51
150.902230147
  0
ARC
  5
4E7
100
AcDbEntity
  8
0
100
AcDbCircle
 62
7
  6
CONTINUOUS
 10
5.5639059542
 20
8.0820246321
 40
0.76
100
AcDbArc
 50
209.097769853
 51
235.9123582166
  0
ARC
  5
4E8
100
AcDbEntity
  8
0
100
AcDbCircle
 62
7
  6
CONTINUOUS
 10
5.5639059542
 20
8.0820246321
 40
0.76
100
AcDbArc
 50
295.367489054
 51
339.1904264223
  0
ARC
  5
4E9
100
AcDbEntity
  8
0
100
AcDbCircle
 62
7
  6
CONTINUOUS
 10
5.5139059542
 20
8.0820246321
 40
0.635
100
AcDbArc
 50
306.3469686567
 51
233.6530313433
  0
ARC
  5
4EA
100
AcDbEntity
  8
0
100
AcDbCircle
 62
9
  6
CONTINUOUS
 10
5.5139059542
 20
8.0820246321
 40
0.595
100
AcDbArc
 50
309.2952412839
 51
230.7088924639
  0
ARC
  5
4EB
100
AcDbEntity
  8
0
100
AcDbCircle
 62
9
  6
CONTINUOUS
 10
5.5639059542
 20
8.0820246321
 40
0.5878559417
100
AcDbArc
 50
337.0858472358
 51
23.2452202835
  0
ARC
  5
4EC
100
AcDbEntity
  8
0
100
AcDbCircle
 62
9
  6
CONTINUOUS
 10
5.5139059542
 20
8.0820246321
 40
0.580618532
100
AcDbArc
 50
310.4589933101
 51
229.5498721844
  0
ARC
  5
4ED
100
AcDbEntity
  8
0
100
AcDbCircle
 62
9
  6
CONTINUOUS
 10
5.5139059542
 20
8.0820246321
 40
0.5339897743
100
AcDbArc
 50
314.8821753819
 51
225.1793641955
  0
ARC
  5
4EE
100
AcDbEntity
  8
0
100
AcDbCircle
 62
7
  6
CONTINUOUS
 10
5.5139059542
 20
8.0820246321
 40
0.3900431149
100
AcDbArc
 50
344.7994138529
 51
195.2053897471
  0
ARC
  5
4EF
100
AcDbEntity
  8
0
100
AcDbCircle
 62
7
  6
CONTINUOUS
 10
5.5139059542
 20
8.0820246321
 40
0.375
100
AcDbArc
 50
0.0
 51
180.0
  0
ARC
  5
4F0
100
AcDbEntity
  8
0
100
AcDbCircle
 62
7
  6
CONTINUOUS
 10
6.2323086022
 20
7.5755532786
 40
0.162
100
AcDbArc
 50
46.2526210594
 51
62.0401368612
  0
ARC
  5
4F1
100
AcDbEntity
  8
0
100
AcDbCircle
 62
7
  6
CONTINUOUS
 10
6.3223283638
 20
7.7451423188
 40
0.03
100
AcDbArc
 50
180.0
 51
242.0401199031
  0
ARC
  5
4F2
100
AcDbEntity
  8
0
100
AcDbCircle
 62
7
  6
CONTINUOUS
 10
6.0168802958
 20
8.7707167823
 40
0.445
100
AcDbArc
 50
323.0118254245
 51
335.0430228834
  0
ARC
  5
4F3
100
AcDbEntity
  8
0
100
AcDbCircle
 62
7
  6
CONTINUOUS
 10
6.2323086022
 20
8.5884959856
 40
0.162
100
AcDbArc
 50
297.9598631388
 51
313.7473789406
  0
ARC
  5
4F4
100
AcDbEntity
  8
0
100
AcDbCircle
 62
7
  6
CONTINUOUS
 10
6.3223283638
 20
8.4189069455
 40
0.03
100
AcDbArc
 50
117.9598800969
 51
180.0
  0
ARC
  5
4F5
100
AcDbEntity
  8
0
100
AcDbCircle
 62
7
  6
CONTINUOUS
 10
7.4339059542
 20
5.945568604
 40
0.08
100
AcDbArc
 50
0.0
 51
90.0
  0
ARC
  5
4F6
100
AcDbEntity
  8
0
100
AcDbCircle
 62
7
  6
CONTINUOUS
 10
6.6839059542
 20
6.105568604
 40
0.08
100
AcDbArc
 50
225.2317553723
 51
270.0
  0
ARC
  5
4F7
100
AcDbEntity
  8
0
100
AcDbCircle
 62
9
  6
CONTINUOUS
 10
7.1448283638
 20
8.8520246321
 40
0.08
100
AcDbArc
 50
0.0000001443
 51
89.9999999095
  0
ARC
  5
4F8
100
AcDbEntity
  8
0
100
AcDbCircle
 62
7
  6
CONTINUOUS
 10
7.1448283638
 20
8.8520246321
 40
0.06
100
AcDbArc
 50
0.0
 51
90.0
  0
ARC
  5
4F9
100
AcDbEntity
  8
0
100
AcDbCircle
 62
7
  6
CONTINUOUS
 10
7.1248283638
 20
8.8520246321
 40
0.06
100
AcDbArc
 50
0.0
 51
89.9999999921
  0
ARC
  5
4FA
100
AcDbEntity
  8
0
100
AcDbCircle
 62
9
  6
CONTINUOUS
 10
7.1248283638
 20
8.8520246321
 40
0.04
100
AcDbArc
 50
0.0
 51
90.0
  0
ARC
  5
4FB
100
AcDbEntity
  8
0
100
AcDbCircle
 62
7
  6
CONTINUOUS
 10
7.2757785207
 20
8.4426086521
 40
0.03275
100
AcDbArc
 50
269.7740785823
 51
327.1782103757
  0
ARC
  5
4FC
100
AcDbEntity
  8
0
100
AcDbCircle
 62
7
  6
CONTINUOUS
 10
6.4993470492
 20
8.7020246321
 40
0.03
100
AcDbArc
 50
90.0
 51
162.0090856118
  0
ARC
  5
4FD
100
AcDbEntity
  8
0
100
AcDbCircle
 62
7
  6
CONTINUOUS
 10
6.4993470492
 20
7.4620246321
 40
0.03
100
AcDbArc
 50
197.9909143882
 51
270.0
  0
ARC
  5
4FE
100
AcDbEntity
  8
0
100
AcDbCircle
 62
7
  6
CONTINUOUS
 10
7.1823283638
 20
8.2662195018
 40
0.02
100
AcDbArc
 50
0.0
 51
82.7277133363
  0
ARC
  5
4FF
100
AcDbEntity
  8
0
100
AcDbCircle
 62
7
  6
CONTINUOUS
 10
6.8048283638
 20
8.9320246321
 40
0.02
100
AcDbArc
 50
180.0
 51
270.0
  0
ARC
  5
500
100
AcDbEntity
  8
0
100
AcDbCircle
 62
7
  6
CONTINUOUS
 10
7.2248283638
 20
8.6225105246
 40
0.02
100
AcDbArc
 50
138.4576944947
 51
180.0000000003
  0
ARC
  5
501
100
AcDbEntity
  8
0
100
AcDbCircle
 62
7
  6
CONTINUOUS
 10
7.2248283638
 20
8.3591527613
 40
0.02
100
AcDbArc
 50
180.0000000499
 51
335.5673023205
  0
ARC
  5
502
100
AcDbEntity
  8
0
100
AcDbCircle
 62
7
  6
CONTINUOUS
 10
7.1648283638
 20
8.5460558811
 40
0.02
100
AcDbArc
 50
0.0
 51
145.2941477124
  0
ARC
  5
503
100
AcDbEntity
  8
0
100
AcDbCircle
 62
7
  6
CONTINUOUS
 10
6.8048283638
 20
8.8920246321
 40
0.02
100
AcDbArc
 50
90.0
 51
180.0
  0
ARC
  5
504
100
AcDbEntity
  8
0
100
AcDbCircle
 62
7
  6
CONTINUOUS
 10
6.6873283638
 20
8.7170246321
 40
0.015
100
AcDbArc
 50
0.0
 51
90.0
  0
ARC
  5
505
100
AcDbEntity
  8
0
100
AcDbCircle
 62
7
  6
CONTINUOUS
 10
6.6873283638
 20
7.4470246321
 40
0.015
100
AcDbArc
 50
270.0
 51
360.0
  0
ARC
  5
506
100
AcDbEntity
  8
0
100
AcDbCircle
 62
7
  6
CONTINUOUS
 10
5.5139059542
 20
11.9455706347
 40
7.1691060898
100
AcDbArc
 50
260.6768182412
 51
262.1369697736
  0
ARC
  5
507
100
AcDbEntity
  8
0
100
AcDbCircle
 62
7
  6
CONTINUOUS
 10
5.5139059542
 20
11.9455706347
 40
7.1691060898
100
AcDbArc
 50
277.8955430007
 51
279.3231817588
  0
ARC
  5
508
100
AcDbEntity
  8
0
100
AcDbCircle
 62
7
  6
CONTINUOUS
 10
5.5139059539
 20
11.9456059455
 40
7.1643816812
100
AcDbArc
 50
284.2898330323
 51
284.8055270574
  0
ARC
  5
509
100
AcDbEntity
  8
0
100
AcDbCircle
 62
7
  6
CONTINUOUS
 10
5.5139059539
 20
11.9456059455
 40
7.1643816812
100
AcDbArc
 50
255.1944729426
 51
255.7101669717
  0
ARC
  5
50A
100
AcDbEntity
  8
0
100
AcDbCircle
 62
7
  6
CONTINUOUS
 10
6.8048283638
 20
9.0120246321
 40
0.02
100
AcDbArc
 50
90.0
 51
180.0
  0
ARC
  5
50B
100
AcDbEntity
  8
0
100
AcDbCircle
 62
9
  6
CONTINUOUS
 10
7.8348283638
 20
8.0820246321
 40
0.8425
100
AcDbArc
 50
19.1846387988
 51
37.3209145299
  0
ARC
  5
50C
100
AcDbEntity
  8
0
100
AcDbCircle
 62
9
  6
CONTINUOUS
 10
7.8348283638
 20
8.0820246321
 40
0.84
100
AcDbArc
 50
43.4320282878
 51
136.5679717013
  0
ARC
  5
50D
100
AcDbEntity
  8
0
100
AcDbCircle
 62
7
  6
CONTINUOUS
 10
7.8348283638
 20
8.0820246321
 40
0.835
100
AcDbArc
 50
41.5423055053
 51
138.4576944947
  0
ARC
  5
50E
100
AcDbEntity
  8
0
100
AcDbCircle
 62
7
  6
CONTINUOUS
 10
7.8348283638
 20
8.0820246321
 40
0.835
100
AcDbArc
 50
145.2941477133
 51
34.7058522863
  0
ARC
  5
50F
100
AcDbEntity
  8
0
100
AcDbCircle
 62
9
  6
CONTINUOUS
 10
7.8348283638
 20
8.0820246321
 40
0.815
100
AcDbArc
 50
41.5423055053
 51
138.4576944947
  0
ARC
  5
510
100
AcDbEntity
  8
0
100
AcDbCircle
 62
9
  6
CONTINUOUS
 10
7.8348283638
 20
8.0820246321
 40
0.815
100
AcDbArc
 50
145.2941477124
 51
34.7058522876
  0
ARC
  5
511
100
AcDbEntity
  8
0
100
AcDbCircle
 62
9
  6
CONTINUOUS
 10
7.8348283638
 20
8.0820246321
 40
0.67
100
AcDbArc
 50
24.4326976795
 51
155.5673023205
  0
ARC
  5
512
100
AcDbEntity
  8
0
100
AcDbCircle
 62
9
  6
CONTINUOUS
 10
7.8348283638
 20
8.0820246321
 40
0.67
100
AcDbArc
 50
180.0
 51
360.0
  0
ARC
  5
513
100
AcDbEntity
  8
0
100
AcDbCircle
 62
7
  6
CONTINUOUS
 10
7.8348283638
 20
8.0820246321
 40
0.65
100
AcDbArc
 50
24.4326976794
 51
155.5673023206
  0
ARC
  5
514
100
AcDbEntity
  8
0
100
AcDbCircle
 62
7
  6
CONTINUOUS
 10
7.8348283638
 20
8.0820246321
 40
0.65
100
AcDbArc
 50
180.0
 51
360.0
  0
ARC
  5
515
100
AcDbEntity
  8
0
100
AcDbCircle
 62
7
  6
CONTINUOUS
 10
7.8348283638
 20
8.0820246321
 40
0.6325
100
AcDbArc
 50
32.8217896251
 51
147.1782103749
  0
ARC
  5
516
100
AcDbEntity
  8
0
100
AcDbCircle
 62
7
  6
CONTINUOUS
 10
7.8348283638
 20
8.0820246321
 40
0.6325
100
AcDbArc
 50
180.0
 51
360.0
  0
ARC
  5
517
100
AcDbEntity
  8
0
100
AcDbCircle
 62
7
  6
CONTINUOUS
 10
8.4873283638
 20
8.2662195018
 40
0.02
100
AcDbArc
 50
97.2723223419
 51
180.0
  0
ARC
  5
518
100
AcDbEntity
  8
0
100
AcDbCircle
 62
7
  6
CONTINUOUS
 10
8.4448283638
 20
8.3591527613
 40
0.02
100
AcDbArc
 50
204.4326976795
 51
359.999999975
  0
ARC
  5
519
100
AcDbEntity
  8
0
100
AcDbCircle
 62
7
  6
CONTINUOUS
 10
9.0048283638
 20
7.7470246321
 40
0.02
100
AcDbArc
 50
270.0
 51
360.0
  0
ARC
  5
51A
100
AcDbEntity
  8
0
100
AcDbCircle
 62
7
  6
CONTINUOUS
 10
9.2778070876
 20
8.3501235089
 40
0.1072302578
100
AcDbArc
 50
271.1298175954
 51
278.2444332153
  0
ARC
  5
51B
100
AcDbEntity
  8
0
100
AcDbCircle
 62
7
  6
CONTINUOUS
 10
9.27780972
 20
8.3499558754
 40
0.1070626049
100
AcDbArc
 50
270.0515204406
 51
271.1301779802
  0
ARC
  5
51C
100
AcDbEntity
  8
0
100
AcDbCircle
 62
7
  6
CONTINUOUS
 10
9.2778310097
 20
8.3496858939
 40
0.1067935064
100
AcDbArc
 50
261.6000117785
 51
266.4484574356
  0
ARC
  5
51D
100
AcDbEntity
  8
0
100
AcDbCircle
 62
7
  6
CONTINUOUS
 10
9.2778082735
 20
8.3494889775
 40
0.1065957086
100
AcDbArc
 50
267.8440056196
 51
270.0525236266
  0
ARC
  5
51E
100
AcDbEntity
  8
0
100
AcDbCircle
 62
7
  6
CONTINUOUS
 10
9.2777879262
 20
8.349393062
 40
0.1064975222
100
AcDbArc
 50
260.1047051945
 51
261.5999276459
  0
ARC
  5
51F
100
AcDbEntity
  8
0
100
AcDbCircle
 62
7
  6
CONTINUOUS
 10
9.277803412
 20
8.3492687455
 40
0.1063754496
100
AcDbArc
 50
266.4493751457
 51
267.8421596915
  0
ARC
  5
520
100
AcDbEntity
  8
0
100
AcDbCircle
 62
7
  6
CONTINUOUS
 10
9.2780678379
 20
8.3482737735
 40
0.1053622484
100
AcDbArc
 50
278.2483431043
 51
284.4014987944
  0
ARC
  5
521
100
AcDbEntity
  8
0
100
AcDbCircle
 62
7
  6
CONTINUOUS
 10
9.2775214551
 20
8.3480050074
 40
0.1050843272
100
AcDbArc
 50
255.1386051143
 51
260.1177757177
  0
ARC
  5
522
100
AcDbEntity
  8
0
100
AcDbCircle
 62
7
  6
CONTINUOUS
 10
9.2783952436
 20
8.346963993
 40
0.1040121951
100
AcDbArc
 50
284.4062608259
 51
289.030838176
  0
ARC
  5
523
100
AcDbEntity
  8
0
100
AcDbCircle
 62
7
  6
CONTINUOUS
 10
9.2715416276
 20
8.3465722432
 40
0.1024462235
100
AcDbArc
 50
264.1256285736
 51
273.5182350602
  0
ARC
  5
524
100
AcDbEntity
  8
0
100
AcDbCircle
 62
7
  6
CONTINUOUS
 10
9.281374341
 20
8.261085157
 40
0.0908021405
100
AcDbArc
 50
61.7104785406
 51
62.6475148966
  0
ARC
  5
525
100
AcDbEntity
  8
0
100
AcDbCircle
 62
7
  6
CONTINUOUS
 10
9.2777535479
 20
8.2566767054
 40
0.0905122167
100
AcDbArc
 50
89.9526406638
 51
100.5568366344
  0
ARC
  5
526
100
AcDbEntity
  8
0
100
AcDbCircle
 62
7
  6
CONTINUOUS
 10
9.2823068672
 20
8.2628163718
 40
0.0888357455
100
AcDbArc
 50
60.6585847433
 51
61.7109167051
  0
ARC
  5
527
100
AcDbEntity
  8
0
100
AcDbCircle
 62
7
  6
CONTINUOUS
 10
9.2835926875
 20
8.2650993472
 40
0.0862155727
100
AcDbArc
 50
58.7250980558
 51
60.6600350039
  0
ARC
  5
528
100
AcDbEntity
  8
0
100
AcDbCircle
 62
7
  6
CONTINUOUS
 10
9.2869098957
 20
8.3308820734
 40
0.0857329952
100
AcDbArc
 50
304.6557195822
 51
308.0820672918
  0
ARC
  5
529
100
AcDbEntity
  8
0
100
AcDbCircle
 62
7
  6
CONTINUOUS
 10
9.2888884455
 20
8.3282987381
 40
0.0824792384
100
AcDbArc
 50
308.107076772
 51
308.5457151391
  0
ARC
  5
52A
100
AcDbEntity
  8
0
100
AcDbCircle
 62
7
  6
CONTINUOUS
 10
9.2856504103
 20
8.2685028729
 40
0.0822383702
100
AcDbArc
 50
56.262731886
 51
58.7193746079
  0
ARC
  5
52B
100
AcDbEntity
  8
0
100
AcDbCircle
 62
7
  6
CONTINUOUS
 10
9.2649050008
 20
8.3260414836
 40
0.079552153
100
AcDbArc
 50
228.8810442808
 51
230.4241353481
  0
ARC
  5
52C
100
AcDbEntity
  8
0
100
AcDbCircle
 62
7
  6
CONTINUOUS
 10
9.2634215386
 20
8.3243506151
 40
0.0773027833
100
AcDbArc
 50
227.19714233
 51
228.885197572
  0
ARC
  5
52D
100
AcDbEntity
  8
0
100
AcDbCircle
 62
7
  6
CONTINUOUS
 10
9.2618917453
 20
8.3227062903
 40
0.0750568882
100
AcDbArc
 50
225.5832659889
 51
227.2010513203
  0
ARC
  5
52E
100
AcDbEntity
  8
0
100
AcDbCircle
 62
7
  6
CONTINUOUS
 10
9.2604015845
 20
8.3211906587
 40
0.0729313989
100
AcDbArc
 50
224.1650962069
 51
225.5861150281
  0
ARC
  5
52F
100
AcDbEntity
  8
0
100
AcDbCircle
 62
7
  6
CONTINUOUS
 10
9.2511112005
 20
8.2641325068
 40
0.0720571531
100
AcDbArc
 50
108.4742256197
 51
112.9493321232
  0
ARC
  5
530
100
AcDbEntity
  8
0
100
AcDbCircle
 62
7
  6
CONTINUOUS
 10
9.2949249789
 20
8.3113477841
 40
0.0638630059
100
AcDbArc
 50
312.1154768391
 51
314.1328127037
  0
ARC
  5
531
100
AcDbEntity
  8
0
100
AcDbCircle
 62
7
  6
CONTINUOUS
 10
9.3033811968
 20
8.3140884115
 40
0.0621330413
100
AcDbArc
 50
320.9613584387
 51
324.8415289042
  0
ARC
  5
532
100
AcDbEntity
  8
0
100
AcDbCircle
 62
7
  6
CONTINUOUS
 10
9.2966169026
 20
8.3096182827
 40
0.0614435688
100
AcDbArc
 50
314.1234437484
 51
316.5109476488
  0
ARC
  5
533
100
AcDbEntity
  8
0
100
AcDbCircle
 62
7
  6
CONTINUOUS
 10
9.2876877543
 20
8.2862387886
 40
0.0589012453
100
AcDbArc
 50
56.5770968209
 51
56.7294178405
  0
ARC
  5
534
100
AcDbEntity
  8
0
100
AcDbCircle
 62
7
  6
CONTINUOUS
 10
9.307321304
 20
8.3017346687
 40
0.0480980613
100
AcDbArc
 50
331.4277795685
 51
334.1965651212
  0
ARC
  5
535
100
AcDbEntity
  8
0
100
AcDbCircle
 62
7
  6
CONTINUOUS
 10
9.3083117654
 20
8.3012539043
 40
0.0469970867
100
AcDbArc
 50
334.1986323627
 51
335.5982864772
  0
ARC
  5
536
100
AcDbEntity
  8
0
100
AcDbCircle
 62
7
  6
CONTINUOUS
 10
9.3026707106
 20
8.2986758321
 40
0.0433068777
100
AcDbArc
 50
330.8712659871
 51
337.4552199066
  0
ARC
  5
537
100
AcDbEntity
  8
0
100
AcDbCircle
 62
7
  6
CONTINUOUS
 10
9.3040149504
 20
8.2981026468
 40
0.0418456045
100
AcDbArc
 50
337.4743804295
 51
338.1968161952
  0
ARC
  5
538
100
AcDbEntity
  8
0
100
AcDbCircle
 62
7
  6
CONTINUOUS
 10
9.3042995886
 20
8.2979891004
 40
0.0415391545
100
AcDbArc
 50
338.196407529
 51
338.8999407174
  0
ARC
  5
539
100
AcDbEntity
  8
0
100
AcDbCircle
 62
7
  6
CONTINUOUS
 10
9.3049139682
 20
8.2977565498
 40
0.0408822497
100
AcDbArc
 50
338.8940313266
 51
341.1167389246
  0
ARC
  5
53A
100
AcDbEntity
  8
0
100
AcDbCircle
 62
7
  6
CONTINUOUS
 10
9.2474076241
 20
8.3032968443
 40
0.0315814255
100
AcDbArc
 50
166.2167052567
 51
176.1469042257
  0
ARC
  5
53B
100
AcDbEntity
  8
0
100
AcDbCircle
 62
9
  6
CONTINUOUS
 10
8.5248283638
 20
8.8520246321
 40
0.08
100
AcDbArc
 50
90.0000000906
 51
179.9999998557
  0
ARC
  5
53C
100
AcDbEntity
  8
0
100
AcDbCircle
 62
7
  6
CONTINUOUS
 10
8.5248283638
 20
8.8520246321
 40
0.06
100
AcDbArc
 50
90.0
 51
180.0000000257
  0
ARC
  5
53D
100
AcDbEntity
  8
0
100
AcDbCircle
 62
7
  6
CONTINUOUS
 10
8.5448283638
 20
8.8520246321
 40
0.06
100
AcDbArc
 50
90.0000000079
 51
180.0
  0
ARC
  5
53E
100
AcDbEntity
  8
0
100
AcDbCircle
 62
9
  6
CONTINUOUS
 10
8.5448283638
 20
8.8520246321
 40
0.04
100
AcDbArc
 50
90.0
 51
180.0
  0
ARC
  5
53F
100
AcDbEntity
  8
0
100
AcDbCircle
 62
7
  6
CONTINUOUS
 10
8.3938782068
 20
8.4426086521
 40
0.03275
100
AcDbArc
 50
212.8217896245
 51
270.2327478803
  0
ARC
  5
540
100
AcDbEntity
  8
0
100
AcDbCircle
 62
7
  6
CONTINUOUS
 10
8.8648283638
 20
8.9320246321
 40
0.02
100
AcDbArc
 50
270.0
 51
360.0
  0
ARC
  5
541
100
AcDbEntity
  8
0
100
AcDbCircle
 62
7
  6
CONTINUOUS
 10
8.8648283638
 20
9.0120246321
 40
0.02
100
AcDbArc
 50
0.0
 51
90.0
  0
ARC
  5
542
100
AcDbEntity
  8
0
100
AcDbCircle
 62
7
  6
CONTINUOUS
 10
8.4448283638
 20
8.6225105246
 40
0.02
100
AcDbArc
 50
0.0
 51
41.5423055053
  0
ARC
  5
543
100
AcDbEntity
  8
0
100
AcDbCircle
 62
7
  6
CONTINUOUS
 10
8.5048283638
 20
8.5460558811
 40
0.02
100
AcDbArc
 50
34.7058522876
 51
180.0
  0
ARC
  5
544
100
AcDbEntity
  8
0
100
AcDbCircle
 62
7
  6
CONTINUOUS
 10
9.0048283638
 20
8.4170246321
 40
0.02
100
AcDbArc
 50
0.0
 51
90.0
  0
ARC
  5
545
100
AcDbEntity
  8
0
100
AcDbCircle
 62
7
  6
CONTINUOUS
 10
8.8648283638
 20
8.8920246321
 40
0.02
100
AcDbArc
 50
0.0
 51
90.0
  0
ARC
  5
546
100
AcDbEntity
  8
0
100
AcDbCircle
 62
9
  6
CONTINUOUS
 10
7.7344524726
 20
8.6951809959
 40
0.0049351113
100
AcDbArc
 50
89.6516638871
 51
98.5430934281
  0
CIRCLE
  5
547
100
AcDbEntity
  8
0
100
AcDbCircle
 62
7
  6
CONTINUOUS
 10
10.0878283638
 20
8.0820246321
 40
0.3125
  0
CIRCLE
  5
548
100
AcDbEntity
  8
0
100
AcDbCircle
 62
7
  6
CONTINUOUS
 10
10.0878283638
 20
8.0820246321
 40
0.2925
  0
ARC
  5
549
100
AcDbEntity
  8
0
100
AcDbCircle
 62
7
  6
CONTINUOUS
 10
11.4467783614
 20
8.9770246321
 40
0.555
100
AcDbArc
 50
172.7582990785
 51
187.2417009215
  0
ARC
  5
54A
100
AcDbEntity
  8
0
100
AcDbCircle
 62
7
  6
CONTINUOUS
 10
11.4467783614
 20
8.9770246321
 40
0.555
100
AcDbArc
 50
352.7582990785
 51
7.2417009215
  0
SPLINE
  5
54B
100
AcDbEntity
  8
0
100
AcDbSpline
 62
7
  6
CONTINUOUS
 70
0
 71
3
 72
23
 73
19
 74
0
 42
0.0000001
 43
0.0000001
 44
0.0000000001
 40
0.0
 40
0.0
 40
0.0
 40
0.0
 40
0.0713243881
 40
0.1411923852
 40
0.2095071224
 40
0.2762686209
 40
0.3415166697
 40
0.4053149975
 40
0.4677583127
 40
0.5289845578
 40
0.5891626256
 40
0.6484928799
 40
0.707197888
 40
0.7655202188
 40
0.8237114905
 40
0.8820260377
 40
0.940710995
 40
1.0
 40
1.0
 40
1.0
 40
1.0
 10
9.3205162469
 20
8.3359092579
 30
0.0
 10
9.3217631483
 20
8.3351609138
 30
0.0
 10
9.3241852225
 20
8.3336005705
 30
0.0
 10
9.3276171572
 20
8.3310519257
 30
0.0
 10
9.3307930649
 20
8.3283308889
 30
0.0
 10
9.3336963968
 20
8.3254527547
 30
0.0
 10
9.3363125032
 20
8.3224317199
 30
0.0
 10
9.3386289929
 20
8.3192835887
 30
0.0
 10
9.3406336345
 20
8.3160238253
 30
0.0
 10
9.3423173838
 20
8.3126694099
 30
0.0
 10
9.3436715751
 20
8.3092368337
 30
0.0
 10
9.3446907541
 20
8.3057436395
 30
0.0
 10
9.3453696987
 20
8.3022070799
 30
0.0
 10
9.3457065978
 20
8.2986449721
 30
0.0
 10
9.3456998687
 20
8.2950749535
 30
0.0
 10
9.3453515669
 20
8.2915145286
 30
0.0
 10
9.3446639721
 20
8.2879814475
 30
0.0
 10
9.343987123
 20
8.2856691717
 30
0.0
 10
9.3435959332
 20
8.2845253774
 30
0.0
  0
SPLINE
  5
54C
100
AcDbEntity
  8
0
100
AcDbSpline
 62
7
  6
CONTINUOUS
 70
0
 71
3
 72
23
 73
19
 74
0
 42
0.0000001
 43
0.0000001
 44
0.0000000001
 40
0.0
 40
0.0
 40
0.0
 40
0.0
 40
0.0540400168
 40
0.1092458452
 40
0.1656987195
 40
0.2234469962
 40
0.2825091652
 40
0.3428727206
 40
0.4044997257
 40
0.4673266673
 40
0.5312708408
 40
0.5962320694
 40
0.6620941622
 40
0.72872313
 40
0.7959775474
 40
0.8637201606
 40
0.9317969182
 40
1.0
 40
1.0
 40
1.0
 40
1.0
 10
9.3405004901
 20
8.2775951908
 30
0.0
 10
9.3398543825
 20
8.2764328909
 30
0.0
 10
9.3384438556
 20
8.2741397942
 30
0.0
 10
9.3360235227
 20
8.2708530633
 30
0.0
 10
9.3332901722
 20
8.2676998813
 30
0.0
 10
9.3302600302
 20
8.2646949634
 30
0.0
 10
9.3269492928
 20
8.2618526742
 30
0.0
 10
9.3233764257
 20
8.2591854914
 30
0.0
 10
9.3195601081
 20
8.2567060575
 30
0.0
 10
9.3155207923
 20
8.2544249023
 30
0.0
 10
9.3112791028
 20
8.2523526775
 30
0.0
 10
9.3068571542
 20
8.2504975044
 30
0.0
 10
9.302277277
 20
8.2488675554
 30
0.0
 10
9.2975628507
 20
8.2474686476
 30
0.0
 10
9.2927369926
 20
8.2463066618
 30
0.0
 10
9.2878231584
 20
8.245385757
 30
0.0
 10
9.2828462961
 20
8.2447099701
 30
0.0
 10
9.2795035208
 20
8.2444223056
 30
0.0
 10
9.2778283638
 20
8.2443190938
 30
0.0
  0
SPLINE
  5
54D
100
AcDbEntity
  8
0
100
AcDbSpline
 62
7
  6
CONTINUOUS
 70
0
 71
3
 72
15
 73
11
 74
0
 42
0.0000001
 43
0.0000001
 44
0.0000000001
 40
0.0
 40
0.0
 40
0.0
 40
0.0
 40
0.1169038796
 40
0.2369077199
 40
0.3596048191
 40
0.4846862581
 40
0.6117370564
 40
0.7402959152
 40
0.8699143318
 40
1.0
 40
1.0
 40
1.0
 40
1.0
 10
9.3205162469
 20
8.3359092579
 30
0.0
 10
9.3190324167
 20
8.3368210184
 30
0.0
 10
9.3159484813
 20
8.3385460859
 30
0.0
 10
9.3110836146
 20
8.3408004545
 30
0.0
 10
9.3059539781
 20
8.3427389916
 30
0.0
 10
9.3006016603
 20
8.3443458646
 30
0.0
 10
9.2950686324
 20
8.3456093677
 30
0.0
 10
9.2893981542
 20
8.346519007
 30
0.0
 10
9.2836363443
 20
8.3470673322
 30
0.0
 10
9.2797663066
 20
8.3471896751
 30
0.0
 10
9.2778283638
 20
8.3471896751
 30
0.0
  0
SPLINE
  5
54E
100
AcDbEntity
  8
0
100
AcDbSpline
 62
7
  6
CONTINUOUS
 70
0
 71
3
 72
15
 73
11
 74
0
 42
0.0000001
 43
0.0000001
 44
0.0000000001
 40
0.0
 40
0.0
 40
0.0
 40
0.0
 40
0.1324758619
 40
0.2633582711
 40
0.3923286178
 40
0.5191017788
 40
0.6434278809
 40
0.7651241115
 40
0.8840433397
 40
1.0
 40
1.0
 40
1.0
 40
1.0
 10
9.2611707151
 20
8.345656967
 30
0.0
 10
9.2596159484
 20
8.345365929
 30
0.0
 10
9.2565401119
 20
8.3447033709
 30
0.0
 10
9.2520202666
 20
8.3434635806
 30
0.0
 10
9.2476429507
 20
8.3419891593
 30
0.0
 10
9.2434325688
 20
8.340288751
 30
0.0
 10
9.239412338
 20
8.3383713058
 30
0.0
 10
9.2356040076
 20
8.336247345
 30
0.0
 10
9.2320297381
 20
8.333928419
 30
0.0
 10
9.2297869896
 20
8.332239924
 30
0.0
 10
9.2287127555
 20
8.3313664548
 30
0.0
  0
SPLINE
  5
54F
100
AcDbEntity
  8
0
100
AcDbSpline
 62
7
  6
CONTINUOUS
 70
0
 71
3
 72
14
 73
10
 74
0
 42
0.0000001
 43
0.0000001
 44
0.0000000001
 40
0.0
 40
0.0
 40
0.0
 40
0.0
 40
0.128412931
 40
0.2565206451
 40
0.5102590322
 40
0.6353636097
 40
0.7588612736
 40
0.8805048035
 40
1.0
 40
1.0
 40
1.0
 40
1.0
 10
9.2778283638
 20
8.3471896751
 30
0.0
 10
9.2798154626
 20
8.3471896751
 30
0.0
 10
9.2837858619
 20
8.347087539
 30
0.0
 10
9.2916605827
 20
8.3464785413
 30
0.0
 10
9.2994288628
 20
8.3452667039
 30
0.0
 10
9.3069908277
 20
8.3434536083
 30
0.0
 10
9.3124836178
 20
8.3418133675
 30
0.0
 10
9.3177931835
 20
8.3398953922
 30
0.0
 10
9.3212253271
 20
8.3384244526
 30
0.0
 10
9.3229018465
 20
8.3376444105
 30
0.0
  0
SPLINE
  5
550
100
AcDbEntity
  8
0
100
AcDbSpline
 62
7
  6
CONTINUOUS
 70
0
 71
3
 72
15
 73
11
 74
0
 42
0.0000001
 43
0.0000001
 44
0.0000000001
 40
0.0
 40
0.0
 40
0.0
 40
0.0
 40
0.1305455825
 40
0.2605799214
 40
0.3894517752
 40
0.5166693719
 40
0.6417456374
 40
0.7642290165
 40
0.8837456999
 40
1.0
 40
1.0
 40
1.0
 40
1.0
 10
9.2778283638
 20
8.3471896751
 30
0.0
 10
9.2797586563
 20
8.3471896751
 30
0.0
 10
9.2836128937
 20
8.3470622532
 30
0.0
 10
9.2893471721
 20
8.3464913625
 30
0.0
 10
9.294982007
 20
8.3455446968
 30
0.0
 10
9.300467433
 20
8.3442308042
 30
0.0
 10
9.3057565745
 20
8.3425613663
 30
0.0
 10
9.3108034674
 20
8.340550046
 30
0.0
 10
9.3155638795
 20
8.3382146053
 30
0.0
 10
9.318563384
 20
8.3364285006
 30
0.0
 10
9.3200006011
 20
8.3354854801
 30
0.0
  0
SPLINE
  5
551
100
AcDbEntity
  8
0
100
AcDbSpline
 62
7
  6
CONTINUOUS
 70
0
 71
3
 72
24
 73
20
 74
0
 42
0.0000001
 43
0.0000001
 44
0.0000000001
 40
0.0
 40
0.0
 40
0.0
 40
0.0
 40
0.0711802833
 40
0.1409006949
 40
0.2091495759
 40
0.2759397874
 40
0.3413067468
 40
0.4053091007
 40
0.4680330378
 40
0.5295867028
 40
0.5901051551
 40
0.6497447693
 40
0.7086826313
 40
0.7379554227
 40
0.7671268003
 40
0.8252571179
 40
0.8833021308
 40
0.9414783995
 40
1.0
 40
1.0
 40
1.0
 40
1.0
 10
9.3201314093
 20
8.3353994024
 30
0.0
 10
9.3210468491
 20
8.3347952551
 30
0.0
 10
9.3228259804
 20
8.3335483717
 30
0.0
 10
9.3253536729
 20
8.3315460826
 30
0.0
 10
9.327703785
 20
8.3294377238
 30
0.0
 10
9.3298674396
 20
8.3272312923
 30
0.0
 10
9.3318366768
 20
8.3249350572
 30
0.0
 10
9.3336036269
 20
8.3225572012
 30
0.0
 10
9.3351620801
 20
8.3201069432
 30
0.0
 10
9.3365055635
 20
8.3175930648
 30
0.0
 10
9.3376291681
 20
8.3150251304
 30
0.0
 10
9.3385285165
 20
8.3124128756
 30
0.0
 10
9.3390891785
 20
8.3102016818
 30
0.0
 10
9.3394213376
 20
8.3084232045
 30
0.0
 10
9.3396755507
 20
8.3066444976
 30
0.0
 10
9.3398489642
 20
8.3044085328
 30
0.0
 10
9.3398242371
 20
8.3017187174
 30
0.0
 10
9.33956648
 20
8.299035221
 30
0.0
 10
9.3392410392
 20
8.2972640985
 30
0.0
 10
9.3390409749
 20
8.296384806
 30
0.0
  0
SPLINE
  5
552
100
AcDbEntity
  8
0
100
AcDbSpline
 62
7
  6
CONTINUOUS
 70
0
 71
3
 72
29
 73
25
 74
0
 42
0.0000001
 43
0.0000001
 44
0.0000000001
 40
0.0
 40
0.0
 40
0.0
 40
0.0
 40
0.0256130674
 40
0.0514418488
 40
0.1038851003
 40
0.1305928895
 40
0.1576598825
 40
0.1851121483
 40
0.2129720106
 40
0.2699688009
 40
0.3287667668
 40
0.3588627983
 40
0.389417856
 40
0.4204276328
 40
0.4518851289
 40
0.4837790927
 40
0.5160955211
 40
0.5819184423
 40
0.6492069587
 40
0.7177686635
 40
0.7873755283
 40
0.8577916982
 40
0.9287753077
 40
1.0
 40
1.0
 40
1.0
 40
1.0
 10
9.3390409749
 20
8.296384806
 30
0.0
 10
9.3388956899
 20
8.2957462713
 30
0.0
 10
9.3385646642
 20
8.2944723516
 30
0.0
 10
9.3377433961
 20
8.2919452409
 30
0.0
 10
9.3366878481
 20
8.2894696946
 30
0.0
 10
9.3354165603
 20
8.2870688315
 30
0.0
 10
9.3343449392
 20
8.2852886482
 30
0.0
 10
9.3331635401
 20
8.2835437997
 30
0.0
 10
9.3314321469
 20
8.2812517155
 30
0.0
 10
9.328997841
 20
8.2784930109
 30
0.0
 10
9.3262732795
 20
8.2759375545
 30
0.0
 10
9.3239119472
 20
8.2739996092
 30
0.0
 10
9.322037556
 20
8.2725917106
 30
0.0
 10
9.3200773779
 20
8.2712436491
 30
0.0
 10
9.3180350604
 20
8.2699581731
 30
0.0
 10
9.315914684
 20
8.2687375801
 30
0.0
 10
9.3129712719
 20
8.2671904144
 30
0.0
 10
9.3091184348
 20
8.2654355093
 30
0.0
 10
9.3042819035
 20
8.2636364933
 30
0.0
 10
9.2992407651
 20
8.2621456399
 30
0.0
 10
9.2940343264
 20
8.2609737915
 30
0.0
 10
9.2887020719
 20
8.2601302253
 30
0.0
 10
9.2832862625
 20
8.2596219107
 30
0.0
 10
9.2796493796
 20
8.2595084342
 30
0.0
 10
9.2778283638
 20
8.2595084342
 30
0.0
  0
SPLINE
  5
553
100
AcDbEntity
  8
0
100
AcDbSpline
 62
7
  6
CONTINUOUS
 70
0
 71
3
 72
23
 73
19
 74
0
 42
0.0000001
 43
0.0000001
 44
0.0000000001
 40
0.0
 40
0.0
 40
0.0
 40
0.0
 40
0.0692592821
 40
0.1383637431
 40
0.2070644235
 40
0.2751791389
 40
0.3425431076
 40
0.4089880218
 40
0.4743558337
 40
0.538512211
 40
0.6013416308
 40
0.6627528579
 40
0.7226787709
 40
0.7810850915
 40
0.8379679093
 40
0.8933614326
 40
0.9473351663
 40
1.0
 40
1.0
 40
1.0
 40
1.0
 10
9.2778283638
 20
8.2595084342
 30
0.0
 10
9.2762747376
 20
8.2595084342
 30
0.0
 10
9.2731703315
 20
8.2595911522
 30
0.0
 10
9.2685381347
 20
8.2599615379
 30
0.0
 10
9.2639578506
 20
8.2605772692
 30
0.0
 10
9.2594562172
 20
8.2614341508
 30
0.0
 10
9.2550582252
 20
8.2625278509
 30
0.0
 10
9.2507882924
 20
8.2638516292
 30
0.0
 10
9.2466707945
 20
8.2653988477
 30
0.0
 10
9.2427287278
 20
8.2671601516
 30
0.0
 10
9.2389845273
 20
8.2691263654
 30
0.0
 10
9.2354589585
 20
8.2712858801
 30
0.0
 10
9.232172323
 20
8.2736273548
 30
0.0
 10
9.2291427708
 20
8.2761371343
 30
0.0
 10
9.2263879971
 20
8.2788018849
 30
0.0
 10
9.2239231076
 20
8.2816063256
 30
0.0
 10
9.2217630965
 20
8.2845350526
 30
0.0
 10
9.2205196404
 20
8.2865833052
 30
0.0
 10
9.2199554916
 20
8.2876212805
 30
0.0
  0
SPLINE
  5
554
100
AcDbEntity
  8
0
100
AcDbSpline
 62
7
  6
CONTINUOUS
 70
0
 71
3
 72
15
 73
11
 74
0
 42
0.0000001
 43
0.0000001
 44
0.0000000001
 40
0.0
 40
0.0
 40
0.0
 40
0.0
 40
0.1293561071
 40
0.2569270387
 40
0.3829537958
 40
0.507704576
 40
0.631471372
 40
0.7545610455
 40
0.8772948696
 40
1.0
 40
1.0
 40
1.0
 40
1.0
 10
9.2199554916
 20
8.2876212805
 30
0.0
 10
9.2195745885
 20
8.2883221027
 30
0.0
 10
9.2188626827
 20
8.2897389381
 30
0.0
 10
9.2179449369
 20
8.2919165712
 30
0.0
 10
9.2171877515
 20
8.2941252894
 30
0.0
 10
9.2165935523
 20
8.2963590846
 30
0.0
 10
9.2161635458
 20
8.2986118157
 30
0.0
 10
9.2158992051
 20
8.3008774888
 30
0.0
 10
9.2158014069
 20
8.3031497682
 30
0.0
 10
9.215847145
 20
8.3046641187
 30
0.0
 10
9.2158975846
 20
8.3054190697
 30
0.0
  0
SPLINE
  5
555
100
AcDbEntity
  8
0
100
AcDbSpline
 62
7
  6
CONTINUOUS
 70
0
 71
3
 72
24
 73
20
 74
0
 42
0.0000001
 43
0.0000001
 44
0.0000000001
 40
0.0
 40
0.0
 40
0.0
 40
0.0
 40
0.0530629544
 40
0.0798993085
 40
0.1069679451
 40
0.1618804997
 40
0.2179813484
 40
0.2465255329
 40
0.2754132089
 40
0.3342515286
 40
0.39457073
 40
0.4564032511
 40
0.5197477958
 40
0.5845764287
 40
0.6508325067
 40
0.7184365837
 40
0.8572153504
 40
0.9281888028
 40
1.0
 40
1.0
 40
1.0
 40
1.0
 10
9.2167356242
 20
8.3108211285
 30
0.0
 10
9.2169853763
 20
8.3118422494
 30
0.0
 10
9.2174368617
 20
8.3133626792
 30
0.0
 10
9.2181821124
 20
8.3153469896
 30
0.0
 10
9.2190329375
 20
8.317328532
 30
0.0
 10
9.220283825
 20
8.3197656867
 30
0.0
 10
9.2217586723
 20
8.3221083928
 30
0.0
 10
9.223073401
 20
8.3239339561
 30
0.0
 10
9.2244950442
 20
8.3257470271
 30
0.0
 10
9.2264425944
 20
8.3279442917
 30
0.0
 10
9.2290194406
 20
8.3304420662
 30
0.0
 10
9.2318382242
 20
8.332804555
 30
0.0
 10
9.2348843743
 20
8.3350206693
 30
0.0
 10
9.2381431227
 20
8.3370790691
 30
0.0
 10
9.2415981811
 20
8.3389702203
 30
0.0
 10
9.2464855025
 20
8.3412754589
 30
0.0
 10
9.251653372
 20
8.3431823614
 30
0.0
 10
9.2570263881
 20
8.3446868085
 30
0.0
 10
9.2597883207
 20
8.3453053265
 30
0.0
 10
9.2611841166
 20
8.3455803782
 30
0.0
  0
SPLINE
  5
556
100
AcDbEntity
  8
0
100
AcDbSpline
 62
7
  6
CONTINUOUS
 70
0
 71
3
 72
10
 73
6
 74
0
 42
0.0000001
 43
0.0000001
 44
0.0000000001
 40
0.0
 40
0.0
 40
0.0
 40
0.0
 40
0.2480031519
 40
0.6230956118
 40
1.0
 40
1.0
 40
1.0
 40
1.0
 10
9.2611841166
 20
8.3455803782
 30
0.0
 10
9.2625422674
 20
8.3458480116
 30
0.0
 10
9.2659718193
 20
8.3464352112
 30
0.0
 10
9.2715256971
 20
8.347038463
 30
0.0
 10
9.2757246117
 20
8.3471896751
 30
0.0
 10
9.2778283638
 20
8.3471896751
 30
0.0
  0
SPLINE
  5
557
100
AcDbEntity
  8
0
100
AcDbSpline
 62
7
  6
CONTINUOUS
 70
0
 71
3
 72
15
 73
11
 74
0
 42
0.0000001
 43
0.0000001
 44
0.0000000001
 40
0.0
 40
0.0
 40
0.0
 40
0.0
 40
0.1083050284
 40
0.2217621421
 40
0.3402413129
 40
0.4635998488
 40
0.5916019205
 40
0.723915898
 40
0.860176818
 40
1.0
 40
1.0
 40
1.0
 40
1.0
 10
9.2287127555
 20
8.3313664548
 30
0.0
 10
9.2296576594
 20
8.3322565166
 30
0.0
 10
9.2316872351
 20
8.3339802601
 30
0.0
 10
9.2350260496
 20
8.3363299819
 30
0.0
 10
9.2387039931
 20
8.338485407
 30
0.0
 10
9.2426914878
 20
8.3404306322
 30
0.0
 10
9.246959592
 20
8.3421518542
 30
0.0
 10
9.2514781879
 20
8.3436371179
 30
0.0
 10
9.2562166286
 20
8.344875941
 30
0.0
 10
9.2594636349
 20
8.3455245012
 30
0.0
 10
9.2611154795
 20
8.3458071879
 30
0.0
  0
SPLINE
  5
558
100
AcDbEntity
  8
0
100
AcDbSpline
 62
7
  6
CONTINUOUS
 70
0
 71
3
 72
10
 73
6
 74
0
 42
0.0000001
 43
0.0000001
 44
0.0000000001
 40
0.0
 40
0.0
 40
0.0
 40
0.0
 40
0.4932134522
 40
0.7452090414
 40
1.0
 40
1.0
 40
1.0
 40
1.0
 10
9.2611154795
 20
8.3458071879
 30
0.0
 10
9.2638357518
 20
8.3462727187
 30
0.0
 10
9.2679804645
 20
8.3467896533
 30
0.0
 10
9.2735664275
 20
8.3471324741
 30
0.0
 10
9.2764026587
 20
8.3471896751
 30
0.0
 10
9.2778283638
 20
8.3471896751
 30
0.0
  0
SPLINE
  5
559
100
AcDbEntity
  8
0
100
AcDbSpline
 62
7
  6
CONTINUOUS
 70
0
 71
3
 72
17
 73
13
 74
0
 42
0.0000001
 43
0.0000001
 44
0.0000000001
 40
0.0
 40
0.0
 40
0.0
 40
0.0
 40
0.1354773919
 40
0.2683936272
 40
0.3337838126
 40
0.3984006444
 40
0.462214282
 40
0.5252117219
 40
0.6487105977
 40
0.7689314606
 40
0.8859602033
 40
1.0
 40
1.0
 40
1.0
 40
1.0
 10
9.305716249
 20
8.2470846568
 30
0.0
 10
9.30753531
 20
8.2478043056
 30
0.0
 10
9.3110896606
 20
8.2493588206
 30
0.0
 10
9.3153536667
 20
8.2516162666
 30
0.0
 10
9.3185982123
 20
8.2535893924
 30
0.0
 10
9.3209288422
 20
8.2551403394
 30
0.0
 10
9.3231638075
 20
8.2567683347
 30
0.0
 10
9.325991053
 20
8.2590215484
 30
0.0
 10
9.32927041
 20
8.2620078733
 30
0.0
 10
9.3327862019
 20
8.2658621498
 30
0.0
 10
9.3358263813
 20
8.2699328144
 30
0.0
 10
9.3375367006
 20
8.2728067106
 30
0.0
 10
9.3382972957
 20
8.2742672185
 30
0.0
  0
SPLINE
  5
55A
100
AcDbEntity
  8
0
100
AcDbSpline
 62
7
  6
CONTINUOUS
 70
0
 71
3
 72
14
 73
10
 74
0
 42
0.0000001
 43
0.0000001
 44
0.0000000001
 40
0.0
 40
0.0
 40
0.0
 40
0.0
 40
0.1236434495
 40
0.2484290425
 40
0.3739404407
 40
0.4998117192
 40
0.6256831181
 40
0.7512181177
 40
1.0
 40
1.0
 40
1.0
 40
1.0
 10
9.2778283638
 20
8.3471896751
 30
0.0
 10
9.2797404763
 20
8.3471896751
 30
0.0
 10
9.2835831055
 20
8.3470859704
 30
0.0
 10
9.2893502001
 20
8.3466265197
 30
0.0
 10
9.2951200411
 20
8.345864192
 30
0.0
 10
9.3008593599
 20
8.3448028721
 30
0.0
 10
9.3065373093
 20
8.3434481647
 30
0.0
 10
9.3139609963
 20
8.3412669736
 30
0.0
 10
9.3193845922
 20
8.3392035713
 30
0.0
 10
9.3229018465
 20
8.3376444105
 30
0.0
  0
LINE
  5
55B
100
AcDbEntity
  8
0
100
AcDbLine
 62
7
  6
CONTINUOUS
 10
9.3332645056
 20
8.3397500967
 11
9.3310830402
 21
8.3425759038
  0
SPLINE
  5
55C
100
AcDbEntity
  8
0
100
AcDbSpline
 62
7
  6
CONTINUOUS
 70
0
 71
3
 72
9
 73
5
 74
0
 42
0.0000001
 43
0.0000001
 44
0.0000000001
 40
0.0
 40
0.0
 40
0.0
 40
0.0
 40
0.4941092454
 40
1.0
 40
1.0
 40
1.0
 40
1.0
 10
9.3550073675
 20
8.2974652217
 30
0.0
 10
9.3548593644
 20
8.2948052361
 30
0.0
 10
9.3540369344
 20
8.2894397202
 30
0.0
 10
9.3522374428
 20
8.2843219271
 30
0.0
 10
9.3511106637
 20
8.2818379196
 30
0.0
  0
SPLINE
  5
55D
100
AcDbEntity
  8
0
100
AcDbSpline
 62
7
  6
CONTINUOUS
 70
0
 71
3
 72
9
 73
5
 74
0
 42
0.0000001
 43
0.0000001
 44
0.0000000001
 40
0.0
 40
0.0
 40
0.0
 40
0.0
 40
0.491221191
 40
1.0
 40
1.0
 40
1.0
 40
1.0
 10
9.3495617412
 20
8.2787309957
 30
0.0
 10
9.3484524709
 20
8.2766930745
 30
0.0
 10
9.3458976209
 20
8.272700726
 30
0.0
 10
9.3428483614
 20
8.2690754881
 30
0.0
 10
9.3411945733
 20
8.2673318378
 30
0.0
  0
SPLINE
  5
55E
100
AcDbEntity
  8
0
100
AcDbSpline
 62
7
  6
CONTINUOUS
 70
0
 71
3
 72
15
 73
11
 74
0
 42
0.0000001
 43
0.0000001
 44
0.0000000001
 40
0.0
 40
0.0
 40
0.0
 40
0.0
 40
0.1370640563
 40
0.2701517926
 40
0.399118489
 40
0.5241661342
 40
0.6459436868
 40
0.7653096497
 40
0.8830804407
 40
1.0
 40
1.0
 40
1.0
 40
1.0
 10
9.3332645056
 20
8.3397500967
 30
0.0
 10
9.3350434301
 20
8.338358132
 30
0.0
 10
9.338423966
 20
8.3354485257
 30
0.0
 10
9.3429660508
 20
8.3306759913
 30
0.0
 10
9.3468567013
 20
8.3256038194
 30
0.0
 10
9.3500457474
 20
8.3202782045
 30
0.0
 10
9.3524979982
 20
8.3147465185
 30
0.0
 10
9.3541743926
 20
8.3090556568
 30
0.0
 10
9.3550585797
 20
8.3032709631
 30
0.0
 10
9.3551144109
 20
8.2993890596
 30
0.0
 10
9.3550073675
 20
8.2974652217
 30
0.0
  0
SPLINE
  5
55F
100
AcDbEntity
  8
0
100
AcDbSpline
 62
7
  6
CONTINUOUS
 70
0
 71
3
 72
11
 73
7
 74
0
 42
0.0000001
 43
0.0000001
 44
0.0000000001
 40
0.0
 40
0.0
 40
0.0
 40
0.0
 40
0.2313378258
 40
0.4773000969
 40
0.7349517432
 40
1.0
 40
1.0
 40
1.0
 40
1.0
 10
9.3310830402
 20
8.3425759038
 30
0.0
 10
9.3276587882
 20
8.3442300916
 30
0.0
 10
9.3203376981
 20
8.3471236943
 30
0.0
 10
9.3086477931
 20
8.3502547268
 30
0.0
 10
9.2961602139
 20
8.3523010782
 30
0.0
 10
9.2875802961
 20
8.3529417777
 30
0.0
 10
9.2832260431
 20
8.3530971749
 30
0.0
  0
SPLINE
  5
560
100
AcDbEntity
  8
0
100
AcDbSpline
 62
9
  6
CONTINUOUS
 70
0
 71
3
 72
24
 73
20
 74
0
 42
0.0000001
 43
0.0000001
 44
0.0000000001
 40
0.0
 40
0.0
 40
0.0
 40
0.0
 40
0.1147874814
 40
0.1724227024
 40
0.2303242319
 40
0.3472773698
 40
0.4667114006
 40
0.527828822
 40
0.5901319332
 40
0.6538741797
 40
0.7193260605
 40
0.7527885476
 40
0.7867627467
 40
0.8212551069
 40
0.856252297
 40
0.8917144972
 40
0.9275687436
 40
0.9637090666
 40
1.0
 40
1.0
 40
1.0
 40
1.0
 10
10.0878283638
 20
7.7695246321
 30
0.0
 10
10.0662672034
 20
7.7695251117
 30
0.0
 10
10.0338311259
 20
7.7715455816
 30
0.0
 10
9.9910808411
 20
7.7783276424
 30
0.0
 10
9.948457842
 20
7.7879596776
 30
0.0
 10
9.8958660638
 20
7.8055719778
 30
0.0
 10
9.8458365872
 20
7.8310312384
 30
0.0
 10
9.8080577174
 20
7.8566902289
 30
0.0
 10
9.7808734623
 20
7.8790714686
 30
0.0
 10
9.7555138907
 20
7.9046727303
 30
0.0
 10
9.7365370617
 20
7.9287190244
 30
0.0
 10
9.7229597398
 20
7.949682297
 30
0.0
 10
9.7136313687
 20
7.966419443
 30
0.0
 10
9.705370748
 20
7.9840288016
 30
0.0
 10
9.6983237458
 20
8.0024598794
 30
0.0
 10
9.6926413801
 20
8.0216251705
 30
0.0
 10
9.6884628317
 20
8.0413951224
 30
0.0
 10
9.6859033017
 20
8.061595817
 30
0.0
 10
9.6853287614
 20
8.0752079076
 30
0.0
 10
9.6853283638
 20
8.0820246321
 30
0.0
  0
SPLINE
  5
561
100
AcDbEntity
  8
0
100
AcDbSpline
 62
7
  6
CONTINUOUS
 70
0
 71
3
 72
12
 73
8
 74
0
 42
0.0000001
 43
0.0000001
 44
0.0000000001
 40
0.0
 40
0.0
 40
0.0
 40
0.0
 40
0.2391242829
 40
0.4837765889
 40
0.6090998302
 40
0.7367769435
 40
1.0
 40
1.0
 40
1.0
 40
1.0
 10
9.196124577
 20
8.3049178114
 30
0.0
 10
9.1963648616
 20
8.307307739
 30
0.0
 10
9.1972793577
 20
8.3121087346
 30
0.0
 10
9.1994243494
 20
8.3178685584
 30
0.0
 10
9.2017155272
 20
8.3223165972
 30
0.0
 10
9.2044468359
 20
8.3267293907
 30
0.0
 10
9.2068809516
 20
8.3298308043
 30
0.0
 10
9.2086362674
 20
8.3318081372
 30
0.0
  0
SPLINE
  5
562
100
AcDbEntity
  8
0
100
AcDbSpline
 62
9
  6
CONTINUOUS
 70
0
 71
3
 72
24
 73
20
 74
0
 42
0.0000001
 43
0.0000001
 44
0.0000000001
 40
0.0
 40
0.0
 40
0.0
 40
0.0
 40
0.1147882662
 40
0.172423357
 40
0.230324787
 40
0.3472777383
 40
0.4667117086
 40
0.5278290633
 40
0.5901321692
 40
0.653874413
 40
0.7193263195
 40
0.7527887803
 40
0.7867629439
 40
0.8212552866
 40
0.8562524682
 40
0.8917146569
 40
0.9275688412
 40
0.9637090994
 40
1.0
 40
1.0
 40
1.0
 40
1.0
 10
10.0878247136
 20
8.394524632
 30
0.0
 10
10.0662635453
 20
8.394523872
 30
0.0
 10
10.0338275662
 20
8.3925033634
 30
0.0
 10
9.9910775044
 20
8.3857209866
 30
0.0
 10
9.9484549194
 20
8.3760887583
 30
0.0
 10
9.89586369
 20
8.3584761776
 30
0.0
 10
9.8458346733
 20
8.3330169407
 30
0.0
 10
9.8080562556
 20
8.3073578571
 30
0.0
 10
9.7808722484
 20
8.2849766949
 30
0.0
 10
9.7555129951
 20
8.2593754532
 30
0.0
 10
9.7365362097
 20
8.235329369
 30
0.0
 10
9.7229592392
 20
8.2143660635
 30
0.0
 10
9.7136310925
 20
8.1976289568
 30
0.0
 10
9.7053704899
 20
8.1800197464
 30
0.0
 10
9.6983234517
 20
8.1615888228
 30
0.0
 10
9.6926412387
 20
8.1424236345
 30
0.0
 10
9.688462791
 20
8.1226538238
 30
0.0
 10
9.6859032846
 20
8.1024532923
 30
0.0
 10
9.6853287184
 20
8.0888413063
 30
0.0
 10
9.6853283638
 20
8.0820246321
 30
0.0
  0
SPLINE
  5
563
100
AcDbEntity
  8
0
100
AcDbSpline
 62
7
  6
CONTINUOUS
 70
0
 71
3
 72
14
 73
10
 74
0
 42
0.0000001
 43
0.0000001
 44
0.0000000001
 40
0.0
 40
0.0
 40
0.0
 40
0.0
 40
0.1089972684
 40
0.2207925634
 40
0.3367045913
 40
0.4576376862
 40
0.7162677234
 40
0.8551127633
 40
1.0
 40
1.0
 40
1.0
 40
1.0
 10
9.196124577
 20
8.3049178114
 30
0.0
 10
9.1963516175
 20
8.3070385462
 30
0.0
 10
9.1972096202
 20
8.3113003802
 30
0.0
 10
9.1995985433
 20
8.3174700967
 30
0.0
 10
9.2030363876
 20
8.3233935927
 30
0.0
 10
9.2090675587
 20
8.3310181702
 30
0.0
 10
9.2169237886
 20
8.3376322555
 30
0.0
 10
9.2260949855
 20
8.3429963699
 30
0.0
 10
9.231165918
 20
8.3452873113
 30
0.0
 10
9.2338011008
 20
8.3463331923
 30
0.0
  0
SPLINE
  5
564
100
AcDbEntity
  8
0
100
AcDbSpline
 62
7
  6
CONTINUOUS
 70
0
 71
3
 72
9
 73
5
 74
0
 42
0.0000001
 43
0.0000001
 44
0.0000000001
 40
0.0
 40
0.0
 40
0.0
 40
0.0
 40
0.2550971466
 40
1.0
 40
1.0
 40
1.0
 40
1.0
 10
9.2230148949
 20
8.3304863381
 30
0.0
 10
9.2224247568
 20
8.3302358984
 30
0.0
 10
9.2201252597
 20
8.3292218733
 30
0.0
 10
9.2178826436
 20
8.3280778774
 30
0.0
 10
9.2162562595
 20
8.3271509145
 30
0.0
  0
SPLINE
  5
565
100
AcDbEntity
  8
0
100
AcDbSpline
 62
7
  6
CONTINUOUS
 70
0
 71
3
 72
11
 73
7
 74
0
 42
0.0000001
 43
0.0000001
 44
0.0000000001
 40
0.0
 40
0.0
 40
0.0
 40
0.0
 40
0.2751095485
 40
0.5319081531
 40
0.7725349536
 40
1.0
 40
1.0
 40
1.0
 40
1.0
 10
9.2162562595
 20
8.3271509145
 30
0.0
 10
9.2138192844
 20
8.3257619526
 30
0.0
 10
9.2092852185
 20
8.3227426096
 30
0.0
 10
9.2034802148
 20
8.3173643689
 30
0.0
 10
9.1990074308
 20
8.3114296325
 30
0.0
 10
9.1969084101
 20
8.3071005645
 30
0.0
 10
9.196124577
 20
8.3049178114
 30
0.0
  0
SPLINE
  5
566
100
AcDbEntity
  8
0
100
AcDbSpline
 62
7
  6
CONTINUOUS
 70
0
 71
3
 72
11
 73
7
 74
0
 42
0.0000001
 43
0.0000001
 44
0.0000000001
 40
0.0
 40
0.0
 40
0.0
 40
0.0
 40
0.2570384194
 40
0.5110858051
 40
0.7595058703
 40
1.0
 40
1.0
 40
1.0
 40
1.0
 10
9.2832260431
 20
8.3530971749
 30
0.0
 10
9.2789387343
 20
8.3530432703
 30
0.0
 10
9.270415234
 20
8.3526871643
 30
0.0
 10
9.2578013197
 20
8.3514267602
 30
0.0
 10
9.2455648653
 20
8.3494036241
 30
0.0
 10
9.2376298755
 20
8.3474755312
 30
0.0
 10
9.2337757603
 20
8.3463622854
 30
0.0
  0
SPLINE
  5
567
100
AcDbEntity
  8
0
100
AcDbSpline
 62
7
  6
CONTINUOUS
 70
0
 71
3
 72
11
 73
7
 74
0
 42
0.0000001
 43
0.0000001
 44
0.0000000001
 40
0.0
 40
0.0
 40
0.0
 40
0.0
 40
0.2680899151
 40
0.5238201435
 40
0.7675822037
 40
1.0
 40
1.0
 40
1.0
 40
1.0
 10
9.2337757603
 20
8.3463622854
 30
0.0
 10
9.2313052894
 20
8.3455068176
 30
0.0
 10
9.2265466486
 20
8.3436277451
 30
0.0
 10
9.2198591442
 20
8.3402387819
 30
0.0
 10
9.2138510303
 20
8.33636051
 30
0.0
 10
9.2102682284
 20
8.333380976
 30
0.0
 10
9.2086362674
 20
8.3318081372
 30
0.0
  0
SPLINE
  5
568
100
AcDbEntity
  8
0
100
AcDbSpline
 62
7
  6
CONTINUOUS
 70
0
 71
3
 72
17
 73
13
 74
0
 42
0.0000001
 43
0.0000001
 44
0.0000000001
 40
0.0
 40
0.0
 40
0.0
 40
0.0
 40
0.1310380959
 40
0.256800823
 40
0.3180639059
 40
0.3784994303
 40
0.4978511721
 40
0.5575269613
 40
0.6176146036
 40
0.7400327196
 40
0.8670771108
 40
1.0
 40
1.0
 40
1.0
 40
1.0
 10
9.2086362674
 20
8.3318081372
 30
0.0
 10
9.2068328759
 20
8.3304421708
 30
0.0
 10
9.2034604138
 20
8.3275407411
 30
0.0
 10
9.1998491911
 20
8.3233714409
 30
0.0
 10
9.197484698
 20
8.3198065887
 30
0.0
 10
9.1955034042
 20
8.3161419444
 30
0.0
 10
9.1940514401
 20
8.3122392682
 30
0.0
 10
9.1931913896
 20
8.3081960045
 30
0.0
 10
9.1927269174
 20
8.30403459
 30
0.0
 10
9.1929117975
 20
8.2986593218
 30
0.0
 10
9.1943209631
 20
8.2921782494
 30
0.0
 10
9.1959884869
 20
8.2879886713
 30
0.0
 10
9.1969837642
 20
8.2859208707
 30
0.0
  0
SPLINE
  5
569
100
AcDbEntity
  8
0
100
AcDbSpline
 62
7
  6
CONTINUOUS
 70
0
 71
3
 72
9
 73
5
 74
0
 42
0.0000001
 43
0.0000001
 44
0.0000000001
 40
0.0
 40
0.0
 40
0.0
 40
0.0
 40
0.2455841131
 40
1.0
 40
1.0
 40
1.0
 40
1.0
 10
9.1969837642
 20
8.2859208707
 30
0.0
 10
9.1972575351
 20
8.2853520809
 30
0.0
 10
9.1984170601
 20
8.2830577045
 30
0.0
 10
9.199749179
 20
8.2808514898
 30
0.0
 10
9.2008338063
 20
8.2792440522
 30
0.0
  0
SPLINE
  5
56A
100
AcDbEntity
  8
0
100
AcDbSpline
 62
7
  6
CONTINUOUS
 70
0
 71
3
 72
9
 73
5
 74
0
 42
0.0000001
 43
0.0000001
 44
0.0000000001
 40
0.0
 40
0.0
 40
0.0
 40
0.0
 40
0.2445413342
 40
1.0
 40
1.0
 40
1.0
 40
1.0
 10
9.2008338063
 20
8.2792440522
 30
0.0
 10
9.2013564446
 20
8.2784694926
 30
0.0
 10
9.2035706289
 20
8.2753543318
 30
0.0
 10
9.206074201
 20
8.2724480221
 30
0.0
 10
9.2080853265
 20
8.2703772934
 30
0.0
  0
SPLINE
  5
56B
100
AcDbEntity
  8
0
100
AcDbSpline
 62
7
  6
CONTINUOUS
 70
0
 71
3
 72
11
 73
7
 74
0
 42
0.0000001
 43
0.0000001
 44
0.0000000001
 40
0.0
 40
0.0
 40
0.0
 40
0.0
 40
0.2415699066
 40
0.4897524309
 40
0.7429907281
 40
1.0
 40
1.0
 40
1.0
 40
1.0
 10
9.2142223749
 20
8.2647241412
 30
0.0
 10
9.2167656895
 20
8.2626215208
 30
0.0
 10
9.2221861461
 20
8.2586700861
 30
0.0
 10
9.2310168182
 20
8.2536287671
 30
0.0
 10
9.2405246355
 20
8.2494674622
 30
0.0
 10
9.2471759598
 20
8.2473366308
 30
0.0
 10
9.2505692583
 20
8.2464358442
 30
0.0
  0
SPLINE
  5
56C
100
AcDbEntity
  8
0
100
AcDbSpline
 62
7
  6
CONTINUOUS
 70
0
 71
3
 72
9
 73
5
 74
0
 42
0.0000001
 43
0.0000001
 44
0.0000000001
 40
0.0
 40
0.0
 40
0.0
 40
0.0
 40
0.2547323796
 40
1.0
 40
1.0
 40
1.0
 40
1.0
 10
9.3123112294
 20
8.2486367707
 30
0.0
 10
9.3144119309
 20
8.2493618755
 30
0.0
 10
9.3225630844
 20
8.252474692
 30
0.0
 10
9.3303136644
 20
8.2566615324
 30
0.0
 10
9.3356614463
 20
8.2603595041
 30
0.0
  0
SPLINE
  5
56D
100
AcDbEntity
  8
0
100
AcDbSpline
 62
7
  6
CONTINUOUS
 70
0
 71
3
 72
9
 73
5
 74
0
 42
0.0000001
 43
0.0000001
 44
0.0000000001
 40
0.0
 40
0.0
 40
0.0
 40
0.0
 40
0.256399087
 40
1.0
 40
1.0
 40
1.0
 40
1.0
 10
9.3402844646
 20
8.2637908007
 30
0.0
 10
9.3413500816
 20
8.2646398287
 30
0.0
 10
9.3454225924
 20
8.2680535216
 30
0.0
 10
9.3491532118
 20
8.2718844629
 30
0.0
 10
9.351641257
 20
8.2749542651
 30
0.0
  0
SPLINE
  5
56E
100
AcDbEntity
  8
0
100
AcDbSpline
 62
7
  6
CONTINUOUS
 70
0
 71
3
 72
11
 73
7
 74
0
 42
0.0000001
 43
0.0000001
 44
0.0000000001
 40
0.0
 40
0.0
 40
0.0
 40
0.0
 40
0.2549629818
 40
0.5079862074
 40
0.7569749975
 40
1.0
 40
1.0
 40
1.0
 40
1.0
 10
9.2832248598
 20
8.3530850277
 30
0.0
 10
9.286753044
 20
8.3527603001
 30
0.0
 10
9.2937567451
 20
8.3517873866
 30
0.0
 10
9.3040140367
 20
8.3493898973
 30
0.0
 10
9.3138454614
 20
8.3460962508
 30
0.0
 10
9.3200950233
 20
8.3432871031
 30
0.0
 10
9.3230945984
 20
8.3417353203
 30
0.0
  0
SPLINE
  5
56F
100
AcDbEntity
  8
0
100
AcDbSpline
 62
7
  6
CONTINUOUS
 70
0
 71
3
 72
9
 73
5
 74
0
 42
0.0000001
 43
0.0000001
 44
0.0000000001
 40
0.0
 40
0.0
 40
0.0
 40
0.0
 40
0.5149070331
 40
1.0
 40
1.0
 40
1.0
 40
1.0
 10
9.331324405
 20
8.3368917297
 30
0.0
 10
9.3354237782
 20
8.3341528172
 30
0.0
 10
9.342920884
 20
8.3280919821
 30
0.0
 10
9.3490520641
 20
8.3206264601
 30
0.0
 10
9.3515596148
 20
8.3167168054
 30
0.0
  0
SPLINE
  5
570
100
AcDbEntity
  8
0
100
AcDbSpline
 62
7
  6
CONTINUOUS
 70
0
 71
3
 72
9
 73
5
 74
0
 42
0.0000001
 43
0.0000001
 44
0.0000000001
 40
0.0
 40
0.0
 40
0.0
 40
0.0
 40
0.2606711258
 40
1.0
 40
1.0
 40
1.0
 40
1.0
 10
9.3541788408
 20
8.2783097282
 30
0.0
 10
9.3550105076
 20
8.2794924494
 30
0.0
 10
9.3580320199
 20
8.2841423617
 30
0.0
 10
9.3603492283
 20
8.2892786787
 30
0.0
 10
9.3614496022
 20
8.2932290996
 30
0.0
  0
SPLINE
  5
571
100
AcDbEntity
  8
0
100
AcDbSpline
 62
7
  6
CONTINUOUS
 70
0
 71
3
 72
15
 73
11
 74
0
 42
0.0000001
 43
0.0000001
 44
0.0000000001
 40
0.0
 40
0.0
 40
0.0
 40
0.0
 40
0.1231267197
 40
0.2416303841
 40
0.3580938493
 40
0.4756501754
 40
0.5970185741
 40
0.7243554296
 40
0.8587018366
 40
1.0
 40
1.0
 40
1.0
 40
1.0
 10
9.3614496022
 20
8.2932290996
 30
0.0
 10
9.3621087641
 20
8.2955955382
 30
0.0
 10
9.362975826
 20
8.3003748429
 30
0.0
 10
9.3627763316
 20
8.3075713373
 30
0.0
 10
9.3610040311
 20
8.3144387004
 30
0.0
 10
9.3577739104
 20
8.3208086838
 30
0.0
 10
9.3532130086
 20
8.3265721639
 30
0.0
 10
9.3474922737
 20
8.3316873603
 30
0.0
 10
9.3407684632
 20
8.3361362817
 30
0.0
 10
9.3358428132
 20
8.3386101482
 30
0.0
 10
9.3332645056
 20
8.3397500967
 30
0.0
  0
SPLINE
  5
572
100
AcDbEntity
  8
0
100
AcDbSpline
 62
7
  6
CONTINUOUS
 70
0
 71
3
 72
13
 73
9
 74
0
 42
0.0000001
 43
0.0000001
 44
0.0000000001
 40
0.0
 40
0.0
 40
0.0
 40
0.0
 40
0.2922613194
 40
0.5637532668
 40
0.687883327
 40
0.8026318554
 40
0.9069695918
 40
1.0
 40
1.0
 40
1.0
 40
1.0
 10
5.7058411227
 20
4.9739858662
 30
0.0
 10
5.7106680191
 20
4.9739858662
 30
0.0
 10
5.7199799736
 20
4.973790544
 30
0.0
 10
5.7313209961
 20
4.9730339831
 30
0.0
 10
5.7397006601
 20
4.9721114349
 30
0.0
 10
5.7453131961
 20
4.9713085039
 30
0.0
 10
5.7503858791
 20
4.9703847799
 30
0.0
 10
5.7535643011
 20
4.9696531963
 30
0.0
 10
5.755049903
 20
4.969261151
 30
0.0
  0
SPLINE
  5
573
100
AcDbEntity
  8
0
100
AcDbSpline
 62
7
  6
CONTINUOUS
 70
0
 71
3
 72
15
 73
11
 74
0
 42
0.0000001
 43
0.0000001
 44
0.0000000001
 40
0.0
 40
0.0
 40
0.0
 40
0.0
 40
0.1938829291
 40
0.3668117484
 40
0.5186127296
 40
0.6494193352
 40
0.7600324932
 40
0.8524382113
 40
0.9303218176
 40
1.0
 40
1.0
 40
1.0
 40
1.0
 10
5.755049903
 20
4.969261151
 30
0.0
 10
5.7560063907
 20
4.9690087371
 30
0.0
 10
5.7578065475
 20
4.9684937048
 30
0.0
 10
5.7603096347
 20
4.9676310356
 30
0.0
 10
5.762453294
 20
4.9667270263
 30
0.0
 10
5.7642290057
 20
4.9657857562
 30
0.0
 10
5.7656312507
 20
4.9648090594
 30
0.0
 10
5.7666585376
 20
4.9637959025
 30
0.0
 10
5.767304773
 20
4.9627360379
 30
0.0
 10
5.7674574044
 20
4.961977687
 30
0.0
 10
5.7674570925
 20
4.9616221739
 30
0.0
  0
SPLINE
  5
574
100
AcDbEntity
  8
0
100
AcDbSpline
 62
7
  6
CONTINUOUS
 70
0
 71
3
 72
9
 73
5
 74
0
 42
0.0000001
 43
0.0000001
 44
0.0000000001
 40
0.0
 40
0.0
 40
0.0
 40
0.0
 40
0.5342875577
 40
1.0
 40
1.0
 40
1.0
 40
1.0
 10
6.8574945311
 20
5.0026432782
 30
0.0
 10
6.8549150484
 20
5.0018620942
 30
0.0
 10
6.8501037751
 20
5.0003442836
 30
0.0
 10
6.8453397565
 20
4.9986818709
 30
0.0
 10
6.8431395636
 20
4.997858373
 30
0.0
  0
SPLINE
  5
575
100
AcDbEntity
  8
0
100
AcDbSpline
 62
7
  6
CONTINUOUS
 70
0
 71
3
 72
17
 73
13
 74
0
 42
0.0000001
 43
0.0000001
 44
0.0000000001
 40
0.0
 40
0.0
 40
0.0
 40
0.0
 40
0.2061288879
 40
0.3897894718
 40
0.5501514981
 40
0.6865066558
 40
0.7984941048
 40
0.8454573332
 40
0.8865444417
 40
0.9219918072
 40
0.9522151311
 40
1.0
 40
1.0
 40
1.0
 40
1.0
 10
6.8431395636
 20
4.997858373
 30
0.0
 10
6.8420722202
 20
4.9974588829
 30
0.0
 10
6.8400621112
 20
4.9966809941
 30
0.0
 10
6.8372581259
 20
4.9955009099
 30
0.0
 10
6.8348496371
 20
4.9943792762
 30
0.0
 10
6.8328516004
 20
4.9933216163
 30
0.0
 10
6.8314650879
 20
4.9924543738
 30
0.0
 10
6.8305827235
 20
4.9917860879
 30
0.0
 10
6.8300699726
 20
4.9913345074
 30
0.0
 10
6.8296661352
 20
4.9909008115
 30
0.0
 10
6.8293025784
 20
4.9903919096
 30
0.0
 10
6.8291436994
 20
4.9899643928
 30
0.0
 10
6.829143694
 20
4.9897001975
 30
0.0
  0
LINE
  5
576
100
AcDbEntity
  8
0
100
AcDbLine
 62
7
  6
CONTINUOUS
 10
5.849008607
 20
5.0013606532
 11
5.8492023437
 21
5.0026459819
  0
SPLINE
  5
577
100
AcDbEntity
  8
0
100
AcDbSpline
 62
7
  6
CONTINUOUS
 70
0
 71
3
 72
13
 73
9
 74
0
 42
0.0000001
 43
0.0000001
 44
0.0000000001
 40
0.0
 40
0.0
 40
0.0
 40
0.0
 40
0.0912119759
 40
0.1879427515
 40
0.2930671585
 40
0.4087181824
 40
0.6768720806
 40
1.0
 40
1.0
 40
1.0
 40
1.0
 10
6.2383162583
 20
4.9967276718
 30
0.0
 10
6.2383161199
 20
4.9969602936
 30
0.0
 10
6.2383666896
 20
4.9974407617
 30
0.0
 10
6.2385858327
 20
4.9981591976
 30
0.0
 10
6.2389464231
 20
4.9988876433
 30
0.0
 10
6.2396471974
 20
4.9999226757
 30
0.0
 10
6.240904245
 20
5.0012309691
 30
0.0
 10
6.2420970818
 20
5.0021589026
 30
0.0
 10
6.2427704918
 20
5.0026339171
 30
0.0
  0
SPLINE
  5
578
100
AcDbEntity
  8
0
100
AcDbSpline
 62
7
  6
CONTINUOUS
 70
0
 71
3
 72
16
 73
12
 74
0
 42
0.0000001
 43
0.0000001
 44
0.0000000001
 40
0.0
 40
0.0
 40
0.0
 40
0.0
 40
0.0604278865
 40
0.0952922045
 40
0.1342357589
 40
0.2261015876
 40
0.3384185179
 40
0.4720844236
 40
0.6272229932
 40
0.8034048272
 40
1.0
 40
1.0
 40
1.0
 40
1.0
 10
6.5726226739
 20
4.9927556787
 30
0.0
 10
6.5726220878
 20
4.9931122247
 30
0.0
 10
6.5727621265
 20
4.9936768385
 30
0.0
 10
6.5731346137
 20
4.9943763532
 30
0.0
 10
6.5737053376
 20
4.9951736578
 30
0.0
 10
6.5747258287
 20
4.9961929403
 30
0.0
 10
6.5763109409
 20
4.9974067286
 30
0.0
 10
6.5783161167
 20
4.9986689143
 30
0.0
 10
6.5807311332
 20
4.999973767
 30
0.0
 10
6.58354379
 20
5.0013146398
 30
0.0
 10
6.5855661335
 20
5.0021809184
 30
0.0
 10
6.5866394519
 20
5.002620859
 30
0.0
  0
SPLINE
  5
579
100
AcDbEntity
  8
0
100
AcDbSpline
 62
7
  6
CONTINUOUS
 70
0
 71
3
 72
16
 73
12
 74
0
 42
0.0000001
 43
0.0000001
 44
0.0000000001
 40
0.0
 40
0.0
 40
0.0
 40
0.0
 40
0.0326569394
 40
0.066163428
 40
0.1402944359
 40
0.2300833135
 40
0.3396034374
 40
0.4709433553
 40
0.6248511139
 40
0.8013116568
 40
1.0
 40
1.0
 40
1.0
 40
1.0
 10
4.9074340165
 20
4.9652053572
 30
0.0
 10
4.9074338714
 20
4.9653724068
 30
0.0
 10
4.9074690946
 20
4.9657119628
 30
0.0
 10
4.9076911039
 20
4.9663992806
 30
0.0
 10
4.9082784581
 20
4.9672456028
 30
0.0
 10
4.9093570811
 20
4.9681503513
 30
0.0
 10
4.9108256673
 20
4.9690012381
 30
0.0
 10
4.9126854002
 20
4.969796564
 30
0.0
 10
4.9149307152
 20
4.9705358895
 30
0.0
 10
4.9175518322
 20
4.9712150271
 30
0.0
 10
4.9194322079
 20
4.9716018973
 30
0.0
 10
4.9204315065
 20
4.9717872786
 30
0.0
  0
SPLINE
  5
57A
100
AcDbEntity
  8
0
100
AcDbSpline
 62
7
  6
CONTINUOUS
 70
0
 71
3
 72
11
 73
7
 74
0
 42
0.0000001
 43
0.0000001
 44
0.0000000001
 40
0.0
 40
0.0
 40
0.0
 40
0.0
 40
0.2060584878
 40
0.4443702875
 40
0.7109991533
 40
1.0
 40
1.0
 40
1.0
 40
1.0
 10
4.9204315065
 20
4.9717872786
 30
0.0
 10
4.9225158622
 20
4.9721739504
 30
0.0
 10
4.9270440379
 20
4.9728294413
 30
0.0
 10
4.9343304534
 20
4.9734964498
 30
0.0
 10
4.9424905216
 20
4.973900012
 30
0.0
 10
4.9482072885
 20
4.9739858662
 30
0.0
 10
4.9511805133
 20
4.9739858662
 30
0.0
  0
SPLINE
  5
57B
100
AcDbEntity
  8
0
100
AcDbSpline
 62
7
  6
CONTINUOUS
 70
0
 71
3
 72
11
 73
7
 74
0
 42
0.0000001
 43
0.0000001
 44
0.0000000001
 40
0.0
 40
0.0
 40
0.0
 40
0.0
 40
0.2885076622
 40
0.5549217022
 40
0.7933781846
 40
1.0
 40
1.0
 40
1.0
 40
1.0
 10
6.0766313951
 20
4.9739858662
 30
0.0
 10
6.079580541
 20
4.9739858662
 30
0.0
 10
6.0852534578
 20
4.9739013031
 30
0.0
 10
6.0933556512
 20
4.9735041755
 30
0.0
 10
6.1006010206
 20
4.9728479301
 30
0.0
 10
6.1051083349
 20
4.9722031597
 30
0.0
 10
6.1071859432
 20
4.9718229985
 30
0.0
  0
SPLINE
  5
57C
100
AcDbEntity
  8
0
100
AcDbSpline
 62
7
  6
CONTINUOUS
 70
0
 71
3
 72
16
 73
12
 74
0
 42
0.0000001
 43
0.0000001
 44
0.0000000001
 40
0.0
 40
0.0
 40
0.0
 40
0.0
 40
0.1989288818
 40
0.3756121375
 40
0.5296916078
 40
0.6611177809
 40
0.7706286869
 40
0.8602922221
 40
0.9341696315
 40
0.9675136273
 40
1.0
 40
1.0
 40
1.0
 40
1.0
 10
6.1071859432
 20
4.9718229985
 30
0.0
 10
6.1081997435
 20
4.971637493
 30
0.0
 10
6.1101075661
 20
4.971249963
 30
0.0
 10
6.1127673503
 20
4.9705685551
 30
0.0
 10
6.1150461111
 20
4.9698259708
 30
0.0
 10
6.1169336596
 20
4.9690265542
 30
0.0
 10
6.1184243892
 20
4.9681710674
 30
0.0
 10
6.1195195334
 20
4.9672612084
 30
0.0
 10
6.1201167107
 20
4.9664088646
 30
0.0
 10
6.120342239
 20
4.9657160838
 30
0.0
 10
6.1203780373
 20
4.9653738964
 30
0.0
 10
6.1203779187
 20
4.9652055875
 30
0.0
  0
SPLINE
  5
57D
100
AcDbEntity
  8
0
100
AcDbSpline
 62
7
  6
CONTINUOUS
 70
0
 71
3
 72
15
 73
11
 74
0
 42
0.0000001
 43
0.0000001
 44
0.0000000001
 40
0.0
 40
0.0
 40
0.0
 40
0.0
 40
0.1446870914
 40
0.2889591088
 40
0.4297416837
 40
0.5645244252
 40
0.6909618176
 40
0.806904425
 40
0.9104046012
 40
1.0
 40
1.0
 40
1.0
 40
1.0
 10
5.3236723037
 20
4.9739816129
 30
0.0
 10
5.3269301538
 20
4.97396537
 30
0.0
 10
5.3334363734
 20
4.9738412518
 30
0.0
 10
5.3431036289
 20
4.9733947392
 30
0.0
 10
5.352532331
 20
4.9726941723
 30
0.0
 10
5.3615370433
 20
4.9717577521
 30
0.0
 10
5.3699523358
 20
4.9706030965
 30
0.0
 10
5.3776257552
 20
4.969257931
 30
0.0
 10
5.3844206238
 20
4.967746436
 30
0.0
 10
5.3886081429
 20
4.966561051
 30
0.0
 10
5.3905238422
 20
4.9659285901
 30
0.0
  0
SPLINE
  5
57E
100
AcDbEntity
  8
0
100
AcDbSpline
 62
7
  6
CONTINUOUS
 70
0
 71
3
 72
15
 73
11
 74
0
 42
0.0000001
 43
0.0000001
 44
0.0000000001
 40
0.0
 40
0.0
 40
0.0
 40
0.0
 40
0.1915598663
 40
0.3629761965
 40
0.5140850661
 40
0.6450014523
 40
0.756409392
 40
0.8501007255
 40
0.9294058687
 40
1.0
 40
1.0
 40
1.0
 40
1.0
 10
5.3905238422
 20
4.9659285901
 30
0.0
 10
5.3914161152
 20
4.9656340095
 30
0.0
 10
5.3930957466
 20
4.9650409661
 30
0.0
 10
5.3954274871
 20
4.9640771522
 30
0.0
 10
5.3974245113
 20
4.9630932115
 30
0.0
 10
5.3990790528
 20
4.9620937561
 30
0.0
 10
5.4003855495
 20
4.961080788
 30
0.0
 10
5.4013416061
 20
4.9600532371
 30
0.0
 10
5.4019417494
 20
4.9590035617
 30
0.0
 10
5.4020866908
 20
4.9582641669
 30
0.0
 10
5.4020868053
 20
4.9579178873
 30
0.0
  0
SPLINE
  5
57F
100
AcDbEntity
  8
0
100
AcDbSpline
 62
7
  6
CONTINUOUS
 70
0
 71
3
 72
12
 73
8
 74
0
 42
0.0000001
 43
0.0000001
 44
0.0000000001
 40
0.0
 40
0.0
 40
0.0
 40
0.0
 40
0.2663769331
 40
0.5352260219
 40
0.7861208484
 40
0.8987813454
 40
1.0
 40
1.0
 40
1.0
 40
1.0
 10
4.1988192576
 20
4.9690155221
 30
0.0
 10
4.2054020249
 20
4.9679612793
 30
0.0
 10
4.2186040762
 20
4.9656871219
 30
0.0
 10
4.2379209652
 20
4.96194806
 30
0.0
 10
4.2533965675
 20
4.9586218011
 30
0.0
 10
4.2647152163
 20
4.955938701
 30
0.0
 10
4.269903262
 20
4.9546194289
 30
0.0
 10
4.2723513207
 20
4.9539681396
 30
0.0
  0
SPLINE
  5
580
100
AcDbEntity
  8
0
100
AcDbSpline
 62
7
  6
CONTINUOUS
 70
0
 71
3
 72
14
 73
10
 74
0
 42
0.0000001
 43
0.0000001
 44
0.0000000001
 40
0.0
 40
0.0
 40
0.0
 40
0.0
 40
0.3491819851
 40
0.5008265106
 40
0.6360270401
 40
0.7540083341
 40
0.8542464552
 40
0.9363321635
 40
1.0
 40
1.0
 40
1.0
 40
1.0
 10
4.2723513207
 20
4.9539681396
 30
0.0
 10
4.2745282401
 20
4.9533889852
 30
0.0
 10
4.2776430052
 20
4.9525285159
 30
0.0
 10
4.2815713402
 20
4.951343083
 30
0.0
 10
4.2840569911
 20
4.9505410607
 30
0.0
 10
4.2862091175
 20
4.9497875644
 30
0.0
 10
4.2880163713
 20
4.9490879224
 30
0.0
 10
4.289468522
 20
4.9484470092
 30
0.0
 10
4.2903021989
 20
4.9480078651
 30
0.0
 10
4.2906507194
 20
4.9477905272
 30
0.0
  0
SPLINE
  5
581
100
AcDbEntity
  8
0
100
AcDbSpline
 62
7
  6
CONTINUOUS
 70
0
 71
3
 72
11
 73
7
 74
0
 42
0.0000001
 43
0.0000001
 44
0.0000000001
 40
0.0
 40
0.0
 40
0.0
 40
0.0
 40
0.3512603248
 40
0.6287922437
 40
0.8395401491
 40
1.0
 40
1.0
 40
1.0
 40
1.0
 10
4.2906507194
 20
4.9477905272
 30
0.0
 10
4.290808624
 20
4.9476920577
 30
0.0
 10
4.2910856363
 20
4.9475060371
 30
0.0
 10
4.2914240017
 20
4.9472149541
 30
0.0
 10
4.2916408648
 20
4.9469447381
 30
0.0
 10
4.2917043593
 20
4.9467494279
 30
0.0
 10
4.2917044488
 20
4.9466644191
 30
0.0
  0
SPLINE
  5
582
100
AcDbEntity
  8
0
100
AcDbSpline
 62
7
  6
CONTINUOUS
 70
0
 71
3
 72
9
 73
5
 74
0
 42
0.0000001
 43
0.0000001
 44
0.0000000001
 40
0.0
 40
0.0
 40
0.0
 40
0.0
 40
0.5325373741
 40
1.0
 40
1.0
 40
1.0
 40
1.0
 10
6.4090728587
 20
4.9739858662
 30
0.0
 10
6.41143039
 20
4.9739858662
 30
0.0
 10
6.4158577643
 20
4.9739148082
 30
0.0
 10
6.4202796164
 20
4.9736620509
 30
0.0
 10
6.4223412059
 20
4.9734818876
 30
0.0
  0
SPLINE
  5
583
100
AcDbEntity
  8
0
100
AcDbSpline
 62
7
  6
CONTINUOUS
 70
0
 71
3
 72
17
 73
13
 74
0
 42
0.0000001
 43
0.0000001
 44
0.0000000001
 40
0.0
 40
0.0
 40
0.0
 40
0.0
 40
0.207064847
 40
0.3899499927
 40
0.5481205481
 40
0.6813001629
 40
0.7899262791
 40
0.8757017309
 40
0.9112251366
 40
0.942870085
 40
0.9719089515
 40
1.0
 40
1.0
 40
1.0
 40
1.0
 10
6.4223412059
 20
4.9734818876
 30
0.0
 10
6.4234473742
 20
4.973385219
 30
0.0
 10
6.4255278373
 20
4.9731687627
 30
0.0
 10
6.4284366137
 20
4.9727381529
 30
0.0
 10
6.4309291472
 20
4.9722259944
 30
0.0
 10
6.4329947084
 20
4.9716356887
 30
0.0
 10
6.4346244707
 20
4.970971298
 30
0.0
 10
6.4356850683
 20
4.9703193184
 30
0.0
 10
6.436275968
 20
4.9697455524
 30
0.0
 10
6.4365765051
 20
4.9693216979
 30
0.0
 10
6.4367586149
 20
4.9688768296
 30
0.0
 10
6.4367980223
 20
4.9685688654
 30
0.0
 10
6.4367978752
 20
4.9684182274
 30
0.0
  0
SPLINE
  5
584
100
AcDbEntity
  8
0
100
AcDbSpline
 62
7
  6
CONTINUOUS
 70
0
 71
3
 72
11
 73
7
 74
0
 42
0.0000001
 43
0.0000001
 44
0.0000000001
 40
0.0
 40
0.0
 40
0.0
 40
0.0
 40
0.2510262293
 40
0.5070822157
 40
0.7594859896
 40
1.0
 40
1.0
 40
1.0
 40
1.0
 10
4.9576131102
 20
4.973918689
 30
0.0
 10
4.9619244033
 20
4.9738305274
 30
0.0
 10
4.9706306101
 20
4.9734865459
 30
0.0
 10
4.9836441279
 20
4.9725244483
 30
0.0
 10
4.9964381567
 20
4.9711425492
 30
0.0
 10
5.0048215706
 20
4.9699353135
 30
0.0
 10
5.0088978102
 20
4.969261151
 30
0.0
  0
SPLINE
  5
585
100
AcDbEntity
  8
0
100
AcDbSpline
 62
7
  6
CONTINUOUS
 70
0
 71
3
 72
17
 73
13
 74
0
 42
0.0000001
 43
0.0000001
 44
0.0000000001
 40
0.0
 40
0.0
 40
0.0
 40
0.0
 40
0.0285539183
 40
0.058010192
 40
0.0899913849
 40
0.1257564849
 40
0.2117511343
 40
0.3203171998
 40
0.4532386917
 40
0.6110249216
 40
0.7934446256
 40
1.0
 40
1.0
 40
1.0
 40
1.0
 10
4.591013882
 20
4.9684191227
 30
0.0
 10
4.5910137444
 20
4.9685666078
 30
0.0
 10
4.5910514247
 20
4.9688677491
 30
0.0
 10
4.591225693
 20
4.9693033833
 30
0.0
 10
4.5915134606
 20
4.9697190698
 30
0.0
 10
4.5920786406
 20
4.970281644
 30
0.0
 10
4.5930943412
 20
4.9709231909
 30
0.0
 10
4.5946571236
 20
4.9715791048
 30
0.0
 10
4.5966380945
 20
4.9721643917
 30
0.0
 10
4.5990294341
 20
4.9726752224
 30
0.0
 10
4.6018212867
 20
4.9731084645
 30
0.0
 10
4.6038188267
 20
4.97332917
 30
0.0
 10
4.6048810751
 20
4.9734285687
 30
0.0
  0
SPLINE
  5
586
100
AcDbEntity
  8
0
100
AcDbSpline
 62
7
  6
CONTINUOUS
 70
0
 71
3
 72
9
 73
5
 74
0
 42
0.0000001
 43
0.0000001
 44
0.0000000001
 40
0.0
 40
0.0
 40
0.0
 40
0.0
 40
0.4652513186
 40
1.0
 40
1.0
 40
1.0
 40
1.0
 10
4.6048810751
 20
4.9734285687
 30
0.0
 10
4.6070231586
 20
4.9736290117
 30
0.0
 10
4.6116415378
 20
4.9739081643
 30
0.0
 10
4.616266235
 20
4.9739858662
 30
0.0
 10
4.6187390497
 20
4.9739858662
 30
0.0
  0
SPLINE
  5
587
100
AcDbEntity
  8
0
100
AcDbSpline
 62
7
  6
CONTINUOUS
 70
0
 71
3
 72
19
 73
15
 74
0
 42
0.0000001
 43
0.0000001
 44
0.0000000001
 40
0.0
 40
0.0
 40
0.0
 40
0.0
 40
0.2080846467
 40
0.394475112
 40
0.557571589
 40
0.6959686978
 40
0.7556282124
 40
0.8088242851
 40
0.8555246263
 40
0.8957590665
 40
0.9296901343
 40
0.9577299612
 40
0.9806709304
 40
1.0
 40
1.0
 40
1.0
 40
1.0
 10
4.4537628335
 20
4.9578814846
 30
0.0
 10
4.4553083416
 20
4.9574465519
 30
0.0
 10
4.4582296901
 20
4.9565911013
 30
0.0
 10
4.4623254826
 20
4.9552726398
 30
0.0
 10
4.4658687608
 20
4.9539991784
 30
0.0
 10
4.4684480412
 20
4.9529401485
 30
0.0
 10
4.470201789
 20
4.9521129582
 30
0.0
 10
4.4712929991
 20
4.9515420382
 30
0.0
 10
4.4722239385
 20
4.9509908818
 30
0.0
 10
4.4729922286
 20
4.9504604979
 30
0.0
 10
4.4735966078
 20
4.9499513771
 30
0.0
 10
4.4740372595
 20
4.9494625888
 30
0.0
 10
4.4743152567
 20
4.948990801
 30
0.0
 10
4.4743878361
 20
4.9486640024
 30
0.0
 10
4.4743881302
 20
4.9485148633
 30
0.0
  0
SPLINE
  5
588
100
AcDbEntity
  8
0
100
AcDbSpline
 62
7
  6
CONTINUOUS
 70
0
 71
3
 72
15
 73
11
 74
0
 42
0.0000001
 43
0.0000001
 44
0.0000000001
 40
0.0
 40
0.0
 40
0.0
 40
0.0
 40
0.0702028496
 40
0.1484769408
 40
0.2410828815
 40
0.3517226567
 40
0.4824096471
 40
0.6339587245
 40
0.8065358279
 40
1.0
 40
1.0
 40
1.0
 40
1.0
 10
5.2603545861
 20
4.961622295
 30
0.0
 10
5.2603544477
 20
4.9619732718
 30
0.0
 10
5.2605033237
 20
4.9627207807
 30
0.0
 10
5.2611328943
 20
4.963767792
 30
0.0
 10
5.2621348996
 20
4.9647696368
 30
0.0
 10
5.2635030747
 20
4.9657359606
 30
0.0
 10
5.2652359268
 20
4.9666679804
 30
0.0
 10
5.2673281229
 20
4.9675641121
 30
0.0
 10
5.2697716724
 20
4.96842018
 30
0.0
 10
5.2715295434
 20
4.9689319025
 30
0.0
 10
5.2724636468
 20
4.9691828227
 30
0.0
  0
SPLINE
  5
589
100
AcDbEntity
  8
0
100
AcDbSpline
 62
7
  6
CONTINUOUS
 70
0
 71
3
 72
13
 73
9
 74
0
 42
0.0000001
 43
0.0000001
 44
0.0000000001
 40
0.0
 40
0.0
 40
0.0
 40
0.0
 40
0.0924907214
 40
0.1964714635
 40
0.3110432031
 40
0.4351635588
 40
0.7070258308
 40
1.0
 40
1.0
 40
1.0
 40
1.0
 10
5.2724636468
 20
4.9691828227
 30
0.0
 10
5.2739480792
 20
4.9695815729
 30
0.0
 10
5.2771293551
 20
4.9703251843
 30
0.0
 10
5.2822139554
 20
4.971263193
 30
0.0
 10
5.2878512048
 20
4.9720790132
 30
0.0
 10
5.2962849908
 20
4.9730176117
 30
0.0
 10
5.3077140522
 20
4.9737874309
 30
0.0
 10
5.3171019977
 20
4.9739858662
 30
0.0
 10
5.3219707857
 20
4.9739858662
 30
0.0
  0
SPLINE
  5
58A
100
AcDbEntity
  8
0
100
AcDbSpline
 62
7
  6
CONTINUOUS
 70
0
 71
3
 72
11
 73
7
 74
0
 42
0.0000001
 43
0.0000001
 44
0.0000000001
 40
0.0
 40
0.0
 40
0.0
 40
0.0
 40
0.2405312915
 40
0.493471978
 40
0.749824464
 40
1.0
 40
1.0
 40
1.0
 40
1.0
 10
6.0184362459
 20
4.9691828227
 30
0.0
 10
6.0226830134
 20
4.9698925031
 30
0.0
 10
6.0314283735
 20
4.9711564314
 30
0.0
 10
6.0447770753
 20
4.9725855189
 30
0.0
 10
6.0583399552
 20
4.9735572268
 30
0.0
 10
6.0674039244
 20
4.9738801607
 30
0.0
 10
6.0718816924
 20
4.9739488374
 30
0.0
  0
SPLINE
  5
58B
100
AcDbEntity
  8
0
100
AcDbSpline
 62
7
  6
CONTINUOUS
 70
0
 71
3
 72
19
 73
15
 74
0
 42
0.0000001
 43
0.0000001
 44
0.0000000001
 40
0.0
 40
0.0
 40
0.0
 40
0.0
 40
0.0195786486
 40
0.0427113388
 40
0.0708773601
 40
0.1048779763
 40
0.1451302023
 40
0.1918007035
 40
0.2449327117
 40
0.3045064579
 40
0.4427131472
 40
0.6056399137
 40
0.7919175783
 40
1.0
 40
1.0
 40
1.0
 40
1.0
 10
6.5534237257
 20
4.9485155093
 30
0.0
 10
6.5534239559
 20
4.9486617151
 30
0.0
 10
6.5534933004
 20
4.9489813914
 30
0.0
 10
6.5537606402
 20
4.949443923
 30
0.0
 10
6.5541851311
 20
4.9499226986
 30
0.0
 10
6.5547676042
 20
4.9504208558
 30
0.0
 10
6.5555081126
 20
4.9509393767
 30
0.0
 10
6.5564053769
 20
4.9514779751
 30
0.0
 10
6.5574572588
 20
4.9520357008
 30
0.0
 10
6.5591482519
 20
4.9528437428
 30
0.0
 10
6.5616368954
 20
4.9538786343
 30
0.0
 10
6.5650577671
 20
4.955124097
 30
0.0
 10
6.5690148961
 20
4.9564146504
 30
0.0
 10
6.5718385117
 20
4.9572523487
 30
0.0
 10
6.5733328427
 20
4.957678402
 30
0.0
  0
LINE
  5
58C
100
AcDbEntity
  8
0
100
AcDbLine
 62
7
  6
CONTINUOUS
 10
5.1786099144
 20
5.0026460057
 11
5.1788036148
 21
5.001361833
  0
SPLINE
  5
58D
100
AcDbEntity
  8
0
100
AcDbSpline
 62
7
  6
CONTINUOUS
 70
0
 71
3
 72
13
 73
9
 74
0
 42
0.0000001
 43
0.0000001
 44
0.0000000001
 40
0.0
 40
0.0
 40
0.0
 40
0.0
 40
0.3230480168
 40
0.5911187175
 40
0.7067504021
 40
0.8118878805
 40
0.9086830308
 40
1.0
 40
1.0
 40
1.0
 40
1.0
 10
4.7850448216
 20
5.0026323546
 30
0.0
 10
4.7857177882
 20
5.0021576984
 30
0.0
 10
4.7869098737
 20
5.0012305791
 30
0.0
 10
4.7881660976
 20
4.9999232177
 30
0.0
 10
4.7888661812
 20
4.9988886459
 30
0.0
 10
4.7892262822
 20
4.9981601842
 30
0.0
 10
4.7894450448
 20
4.9974414988
 30
0.0
 10
4.7894955229
 20
4.9969608146
 30
0.0
 10
4.7894953845
 20
4.9967280282
 30
0.0
  0
SPLINE
  5
58E
100
AcDbEntity
  8
0
100
AcDbSpline
 62
7
  6
CONTINUOUS
 70
0
 71
3
 72
16
 73
12
 74
0
 42
0.0000001
 43
0.0000001
 44
0.0000000001
 40
0.0
 40
0.0
 40
0.0
 40
0.0
 40
0.1965850165
 40
0.372745805
 40
0.5278656315
 40
0.6615384348
 40
0.7738999385
 40
0.8658156016
 40
0.9047728901
 40
0.9396354267
 40
1.0
 40
1.0
 40
1.0
 40
1.0
 10
4.4411463408
 20
5.0026323546
 30
0.0
 10
4.4422216014
 20
5.0021921106
 30
0.0
 10
4.4442475986
 20
5.001325335
 30
0.0
 10
4.4470653763
 20
4.9999835775
 30
0.0
 10
4.4494847776
 20
4.9986774022
 30
0.0
 10
4.4514935376
 20
4.9974129512
 30
0.0
 10
4.4530815965
 20
4.996196425
 30
0.0
 10
4.4541041286
 20
4.9951748371
 30
0.0
 10
4.4546761225
 20
4.9943759443
 30
0.0
 10
4.4550492714
 20
4.993675618
 30
0.0
 10
4.4551897466
 20
4.9931104847
 30
0.0
 10
4.4551891883
 20
4.9927537067
 30
0.0
  0
LINE
  5
58F
100
AcDbEntity
  8
0
100
AcDbLine
 62
7
  6
CONTINUOUS
 10
4.1703546548
 20
5.0026323546
 11
4.183349197
 21
4.9983476205
  0
SPLINE
  5
590
100
AcDbEntity
  8
0
100
AcDbSpline
 62
7
  6
CONTINUOUS
 70
0
 71
3
 72
17
 73
13
 74
0
 42
0.0000001
 43
0.0000001
 44
0.0000000001
 40
0.0
 40
0.0
 40
0.0
 40
0.0
 40
0.2064924669
 40
0.3905705809
 40
0.5513135521
 40
0.6879168163
 40
0.7999604651
 40
0.8468642398
 40
0.8878232876
 40
0.9230660815
 40
0.9530028849
 40
1.0
 40
1.0
 40
1.0
 40
1.0
 10
4.1839337122
 20
4.998133365
 30
0.0
 10
4.1850555991
 20
4.9977197008
 30
0.0
 10
4.1871691268
 20
4.9969138454
 30
0.0
 10
4.1901186871
 20
4.9956911474
 30
0.0
 10
4.1926538299
 20
4.994529349
 30
0.0
 10
4.1947578776
 20
4.9934349331
 30
0.0
 10
4.196219271
 20
4.992539069
 30
0.0
 10
4.1971500977
 20
4.9918493562
 30
0.0
 10
4.1976907555
 20
4.9913840825
 30
0.0
 10
4.1981166976
 20
4.99093753
 30
0.0
 10
4.1984994486
 20
4.9904153773
 30
0.0
 10
4.198668253
 20
4.9899743654
 30
0.0
 10
4.1986681638
 20
4.9897022226
 30
0.0
  0
SPLINE
  5
591
100
AcDbEntity
  8
0
100
AcDbSpline
 62
7
  6
CONTINUOUS
 70
0
 71
3
 72
10
 73
6
 74
0
 42
0.0000001
 43
0.0000001
 44
0.0000000001
 40
0.0
 40
0.0
 40
0.0
 40
0.0
 40
0.5494708469
 40
0.7889664534
 40
1.0
 40
1.0
 40
1.0
 40
1.0
 10
3.9911237696
 20
5.0026323546
 30
0.0
 10
3.9967923847
 20
5.0011913667
 30
0.0
 10
4.0049166184
 20
4.9990606548
 30
0.0
 10
4.0151646977
 20
4.9961816438
 30
0.0
 10
4.0197629478
 20
4.9948186882
 30
0.0
 10
4.0219098725
 20
4.9941577129
 30
0.0
  0
SPLINE
  5
592
100
AcDbEntity
  8
0
100
AcDbSpline
 62
7
  6
CONTINUOUS
 70
0
 71
3
 72
10
 73
6
 74
0
 42
0.0000001
 43
0.0000001
 44
0.0000000001
 40
0.0
 40
0.0
 40
0.0
 40
0.0
 40
0.5672503839
 40
0.801074318
 40
1.0
 40
1.0
 40
1.0
 40
1.0
 10
4.0235363071
 20
4.9936518312
 30
0.0
 10
4.0254286081
 20
4.9930569384
 30
0.0
 10
4.0280929033
 20
4.992189583
 30
0.0
 10
4.0313845663
 20
4.9910086862
 30
0.0
 10
4.0327957428
 20
4.9904614094
 30
0.0
 10
4.0334391277
 20
4.9901969425
 30
0.0
  0
SPLINE
  5
593
100
AcDbEntity
  8
0
100
AcDbSpline
 62
7
  6
CONTINUOUS
 70
0
 71
3
 72
16
 73
12
 74
0
 42
0.0000001
 43
0.0000001
 44
0.0000000001
 40
0.0
 40
0.0
 40
0.0
 40
0.0
 40
0.0712879302
 40
0.1510950708
 40
0.2450439256
 40
0.3564916436
 40
0.4194187236
 40
0.487292426
 40
0.6380632488
 40
0.8090065224
 40
1.0
 40
1.0
 40
1.0
 40
1.0
 10
5.6257251607
 20
4.9579177203
 30
0.0
 10
5.6257253348
 20
4.9582579848
 30
0.0
 10
5.6258646425
 20
4.9589831542
 30
0.0
 10
5.626443588
 20
4.9600152402
 30
0.0
 10
5.6273676109
 20
4.9610260956
 30
0.0
 10
5.6283763119
 20
4.9618218997
 30
0.0
 10
5.6293415539
 20
4.9624590679
 30
0.0
 10
5.6305001084
 20
4.9631413511
 30
0.0
 10
5.6321641986
 20
4.9639758161
 30
0.0
 10
5.6344206965
 20
4.9649261221
 30
0.0
 10
5.6360468707
 20
4.9655115988
 30
0.0
 10
5.6369108073
 20
4.9658026061
 30
0.0
  0
SPLINE
  5
594
100
AcDbEntity
  8
0
100
AcDbSpline
 62
7
  6
CONTINUOUS
 70
0
 71
3
 72
15
 73
11
 74
0
 42
0.0000001
 43
0.0000001
 44
0.0000000001
 40
0.0
 40
0.0
 40
0.0
 40
0.0
 40
0.0889351465
 40
0.1919440276
 40
0.3075833626
 40
0.4339187173
 40
0.5688044037
 40
0.7098817849
 40
0.8546329936
 40
1.0
 40
1.0
 40
1.0
 40
1.0
 10
5.6369108073
 20
4.9658026061
 30
0.0
 10
5.6388031353
 20
4.9664400155
 30
0.0
 10
5.6429481845
 20
4.9676351797
 30
0.0
 10
5.6496862601
 20
4.9691598422
 30
0.0
 10
5.6573142414
 20
4.9705186167
 30
0.0
 10
5.6656961209
 20
4.9716878264
 30
0.0
 10
5.6746797591
 20
4.9726402656
 30
0.0
 10
5.6840997774
 20
4.9733577434
 30
0.0
 10
5.6937711644
 20
4.9738212354
 30
0.0
 10
5.7002845472
 20
4.9739563005
 30
0.0
 10
5.7035482941
 20
4.9739781605
 30
0.0
  0
SPLINE
  5
595
100
AcDbEntity
  8
0
100
AcDbSpline
 62
7
  6
CONTINUOUS
 70
0
 71
3
 72
10
 73
6
 74
0
 42
0.0000001
 43
0.0000001
 44
0.0000000001
 40
0.0
 40
0.0
 40
0.0
 40
0.0
 40
0.3703751084
 40
0.6488329567
 40
1.0
 40
1.0
 40
1.0
 40
1.0
 10
6.7361073184
 20
4.9466642726
 30
0.0
 10
6.7361074996
 20
4.9468501269
 30
0.0
 10
6.7363156622
 20
4.9471502399
 30
0.0
 10
6.7366864256
 20
4.9474741735
 30
0.0
 10
6.7369488603
 20
4.9476557771
 30
0.0
 10
6.7370974094
 20
4.9477505672
 30
0.0
  0
SPLINE
  5
596
100
AcDbEntity
  8
0
100
AcDbSpline
 62
7
  6
CONTINUOUS
 70
0
 71
3
 72
14
 73
10
 74
0
 42
0.0000001
 43
0.0000001
 44
0.0000000001
 40
0.0
 40
0.0
 40
0.0
 40
0.0
 40
0.0634260481
 40
0.1452666442
 40
0.2452979598
 40
0.3631449447
 40
0.4983109725
 40
0.6500549907
 40
1.0
 40
1.0
 40
1.0
 40
1.0
 10
6.7370974094
 20
4.9477505672
 30
0.0
 10
6.7374285876
 20
4.9479618941
 30
0.0
 10
6.7382229404
 20
4.9483887603
 30
0.0
 10
6.7396093917
 20
4.9490111147
 30
0.0
 10
6.7413378693
 20
4.9496901738
 30
0.0
 10
6.7433990489
 20
4.9504212319
 30
0.0
 10
6.7457825649
 20
4.9511992337
 30
0.0
 10
6.749555775
 20
4.9523501043
 30
0.0
 10
6.7525493707
 20
4.9531853787
 30
0.0
 10
6.7546426255
 20
4.9537480035
 30
0.0
  0
SPLINE
  5
597
100
AcDbEntity
  8
0
100
AcDbSpline
 62
7
  6
CONTINUOUS
 70
0
 71
3
 72
13
 73
9
 74
0
 42
0.0000001
 43
0.0000001
 44
0.0000000001
 40
0.0
 40
0.0
 40
0.0
 40
0.0
 40
0.1001696177
 40
0.2122111016
 40
0.3339298026
 40
0.4629149487
 40
0.7325585074
 40
1.0
 40
1.0
 40
1.0
 40
1.0
 10
6.7546426255
 20
4.9537480035
 30
0.0
 10
6.7570903404
 20
4.9544059
 30
0.0
 10
6.76229192
 20
4.9557401157
 30
0.0
 10
6.7705106244
 20
4.9577023504
 30
0.0
 10
6.7794681488
 20
4.959705703
 30
0.0
 10
6.7923512907
 20
4.9624229547
 30
0.0
 10
6.8088979854
 20
4.9656310204
 30
0.0
 10
6.8222910112
 20
4.967942982
 30
0.0
 10
6.8289728692
 20
4.9690134473
 30
0.0
  0
SPLINE
  5
598
100
AcDbEntity
  8
0
100
AcDbSpline
 62
7
  6
CONTINUOUS
 70
0
 71
3
 72
10
 73
6
 74
0
 42
0.0000001
 43
0.0000001
 44
0.0000000001
 40
0.0
 40
0.0
 40
0.0
 40
0.0
 40
0.199320171
 40
0.433261014
 40
1.0
 40
1.0
 40
1.0
 40
1.0
 10
6.994350243
 20
4.9901858562
 30
0.0
 10
6.9949821189
 20
4.9904461543
 30
0.0
 10
6.9963667324
 20
4.9909850126
 30
0.0
 10
6.9995925103
 20
4.9921473451
 30
0.0
 10
7.0022024308
 20
4.9930006669
 30
0.0
 10
7.0040555837
 20
4.9935850953
 30
0.0
  0
SPLINE
  5
599
100
AcDbEntity
  8
0
100
AcDbSpline
 62
7
  6
CONTINUOUS
 70
0
 71
3
 72
10
 73
6
 74
0
 42
0.0000001
 43
0.0000001
 44
0.0000000001
 40
0.0
 40
0.0
 40
0.0
 40
0.0
 40
0.2109264455
 40
0.4503882118
 40
1.0
 40
1.0
 40
1.0
 40
1.0
 10
7.0058740299
 20
4.9941515043
 30
0.0
 10
7.008022437
 20
4.9948128317
 30
0.0
 10
7.0126251051
 20
4.9961756235
 30
0.0
 10
7.0228860961
 20
4.9990552533
 30
0.0
 10
7.0310206063
 20
5.0011904334
 30
0.0
 10
7.0366972876
 20
5.0026339171
 30
0.0
  0
LINE
  5
59A
100
AcDbEntity
  8
0
100
AcDbLine
 62
9
  6
CONTINUOUS
 10
8.4448282363
 20
8.6595192028
 11
8.4463254548
 21
8.6489626954
  0
LINE
  5
59B
100
AcDbEntity
  8
0
100
AcDbLine
 62
9
  6
CONTINUOUS
 10
7.2233313475
 20
8.6489634617
 11
7.2248284597
 21
8.6595192071
  0
SPLINE
  5
59C
100
AcDbEntity
  8
0
100
AcDbSpline
 62
9
  6
CONTINUOUS
 70
0
 71
3
 72
17
 73
13
 74
0
 42
0.0000001
 43
0.0000001
 44
0.0000000001
 40
0.0
 40
0.0
 40
0.0
 40
0.0
 40
0.0175353797
 40
0.037203131
 40
0.0613210378
 40
0.0911855187
 40
0.1705099614
 40
0.2779102328
 40
0.4143342799
 40
0.5802164811
 40
0.7755889943
 40
1.0
 40
1.0
 40
1.0
 40
1.0
 10
4.5894672715
 20
4.8323703941
 30
0.0
 10
4.589467347
 20
4.8323951122
 30
0.0
 10
4.5894797171
 20
4.8324481179
 30
0.0
 10
4.5895330328
 20
4.8325182996
 30
0.0
 10
4.5896165546
 20
4.8325812637
 30
0.0
 10
4.589784793
 20
4.8326663591
 30
0.0
 10
4.5900794018
 20
4.8327530045
 30
0.0
 10
4.5905278137
 20
4.8328338529
 30
0.0
 10
4.5911023215
 20
4.8328970149
 30
0.0
 10
4.5918025096
 20
4.8329421816
 30
0.0
 10
4.592627772
 20
4.8329686851
 30
0.0
 10
4.5932195307
 20
4.8329736079
 30
0.0
 10
4.5935358652
 20
4.8329735036
 30
0.0
  0
SPLINE
  5
59D
100
AcDbEntity
  8
0
100
AcDbSpline
 62
9
  6
CONTINUOUS
 70
0
 71
3
 72
23
 73
19
 74
0
 42
0.0000001
 43
0.0000001
 44
0.0000000001
 40
0.0
 40
0.0
 40
0.0
 40
0.0
 40
0.2017014698
 40
0.3888134311
 40
0.4753706618
 40
0.5565219829
 40
0.6317584956
 40
0.7006405924
 40
0.7627655189
 40
0.8178215472
 40
0.8655622258
 40
0.9058483285
 40
0.9387244903
 40
0.9644856536
 40
0.9749772985
 40
0.9841416378
 40
0.9923220868
 40
1.0
 40
1.0
 40
1.0
 40
1.0
 10
5.7748317367
 20
4.8329743505
 30
0.0
 10
5.778440597
 20
4.8329743557
 30
0.0
 10
5.7853976294
 20
4.8328900431
 30
0.0
 10
5.7938977095
 20
4.8325511413
 30
0.0
 10
5.8002328598
 20
4.8321351698
 30
0.0
 10
5.8045644419
 20
4.8317682497
 30
0.0
 10
5.8085726233
 20
4.8313407752
 30
0.0
 10
5.812231295
 20
4.8308563218
 30
0.0
 10
5.8155171776
 20
4.8303180843
 30
0.0
 10
5.8184098479
 20
4.8297305127
 30
0.0
 10
5.820891793
 20
4.8290982471
 30
0.0
 10
5.8229505499
 20
4.8284255218
 30
0.0
 10
5.8245756558
 20
4.8277184307
 30
0.0
 10
5.8256356344
 20
4.8270622546
 30
0.0
 10
5.8262298459
 20
4.8265037027
 30
0.0
 10
5.8265311757
 20
4.8261031445
 30
0.0
 10
5.8267166936
 20
4.8256908455
 30
0.0
 10
5.8267593521
 20
4.8254057761
 30
0.0
 10
5.8267597577
 20
4.8252684028
 30
0.0
  0
SPLINE
  5
59E
100
AcDbEntity
  8
0
100
AcDbSpline
 62
9
  6
CONTINUOUS
 70
0
 71
3
 72
16
 73
12
 74
0
 42
0.0000001
 43
0.0000001
 44
0.0000000001
 40
0.0
 40
0.0
 40
0.0
 40
0.0
 40
0.1904966612
 40
0.3671826061
 40
0.5228214242
 40
0.6538942622
 40
0.7612987481
 40
0.8560019523
 40
0.8985881635
 40
0.9369516537
 40
1.0
 40
1.0
 40
1.0
 40
1.0
 10
5.7748317369
 20
4.8329743505
 30
0.0
 10
5.7748316379
 20
4.8337552948
 30
0.0
 10
5.7748714219
 20
4.8352608893
 30
0.0
 10
5.7750418233
 20
4.8373984531
 30
0.0
 10
5.7753005086
 20
4.8392815907
 30
0.0
 10
5.7756209385
 20
4.8408665008
 30
0.0
 10
5.775990515
 20
4.8421828133
 30
0.0
 10
5.7763530748
 20
4.8431207071
 30
0.0
 10
5.7766908632
 20
4.84375882
 30
0.0
 10
5.7770185995
 20
4.8442477027
 30
0.0
 10
5.7773242656
 20
4.8445532824
 30
0.0
 10
5.7775536419
 20
4.8446724128
 30
0.0
  0
LINE
  5
59F
100
AcDbEntity
  8
0
100
AcDbLine
 62
9
  6
CONTINUOUS
 10
5.6810394503
 20
4.8272741875
 11
5.6775944295
 21
4.8281773074
  0
SPLINE
  5
5A0
100
AcDbEntity
  8
0
100
AcDbSpline
 62
9
  6
CONTINUOUS
 70
0
 71
3
 72
34
 73
30
 74
0
 42
0.0000001
 43
0.0000001
 44
0.0000000001
 40
0.0
 40
0.0
 40
0.0
 40
0.0
 40
0.0157068908
 40
0.0284538783
 40
0.0384518402
 40
0.0425497888
 40
0.0461538035
 40
0.0493944273
 40
0.0524521862
 40
0.0555435951
 40
0.0588821202
 40
0.0626424741
 40
0.0669510815
 40
0.0775066177
 40
0.0909052855
 40
0.1072570591
 40
0.1265849075
 40
0.1488521967
 40
0.1739780673
 40
0.2018679614
 40
0.265514152
 40
0.3388722938
 40
0.4208151832
 40
0.5097702503
 40
0.6040746163
 40
0.702047602
 40
0.8019383614
 40
0.9019174306
 40
1.0
 40
1.0
 40
1.0
 40
1.0
 10
5.6775944295
 20
4.8281773074
 30
0.0
 10
5.6770319754
 20
4.8283553137
 30
0.0
 10
5.676022039
 20
4.8287100166
 30
0.0
 10
5.6747112691
 20
4.8293214017
 30
0.0
 10
5.6738638032
 20
4.8298825011
 30
0.0
 10
5.6733921787
 20
4.8303544222
 30
0.0
 10
5.6731533812
 20
4.8306920093
 30
0.0
 10
5.6730078142
 20
4.8310382267
 30
0.0
 10
5.6729603865
 20
4.8313922944
 30
0.0
 10
5.6730139056
 20
4.8317490924
 30
0.0
 10
5.6731659415
 20
4.8321040525
 30
0.0
 10
5.6734129541
 20
4.8324569811
 30
0.0
 10
5.6739015121
 20
4.8329607139
 30
0.0
 10
5.674775391
 20
4.8335762104
 30
0.0
 10
5.6761203838
 20
4.8342749277
 30
0.0
 10
5.6778274272
 20
4.8349760408
 30
0.0
 10
5.679889383
 20
4.8356755059
 30
0.0
 10
5.6822980538
 20
4.8363698476
 30
0.0
 10
5.6850416058
 20
4.837056124
 30
0.0
 10
5.6893215722
 20
4.8379975663
 30
0.0
 10
5.6954164704
 20
4.8391086327
 30
0.0
 10
5.7035532294
 20
4.8403084078
 30
0.0
 10
5.7126636134
 20
4.8413972247
 30
0.0
 10
5.7225786761
 20
4.8423596122
 30
0.0
 10
5.733110714
 20
4.8431765029
 30
0.0
 10
5.7440653723
 20
4.8438334054
 30
0.0
 10
5.7552425133
 20
4.8443150718
 30
0.0
 10
5.7664304173
 20
4.844602646
 30
0.0
 10
5.7738697063
 20
4.8446692919
 30
0.0
 10
5.7775536809
 20
4.8446711283
 30
0.0
  0
SPLINE
  5
5A1
100
AcDbEntity
  8
0
100
AcDbSpline
 62
9
  6
CONTINUOUS
 70
0
 71
3
 72
20
 73
16
 74
0
 42
0.0000001
 43
0.0000001
 44
0.0000000001
 40
0.0
 40
0.0
 40
0.0
 40
0.0
 40
0.0436581718
 40
0.0957166127
 40
0.1551344681
 40
0.2207723167
 40
0.3655840106
 40
0.5191040169
 40
0.6698324925
 40
0.7406390129
 40
0.8066406231
 40
0.8666171277
 40
0.9194636865
 40
0.9641950568
 40
1.0
 40
1.0
 40
1.0
 40
1.0
 10
6.3639581781
 20
4.8446711284
 30
0.0
 10
6.3618018416
 20
4.8446706829
 30
0.0
 10
6.3570743252
 20
4.8445835944
 30
0.0
 10
6.3494178929
 20
4.8442752802
 30
0.0
 10
6.3406837952
 20
4.8437775902
 30
0.0
 10
6.3273871927
 20
4.8428431352
 30
0.0
 10
6.3094770961
 20
4.8412784141
 30
0.0
 10
6.287418268
 20
4.8389571545
 30
0.0
 10
6.2690300447
 20
4.8367050138
 30
0.0
 10
6.2549601318
 20
4.8347722958
 30
0.0
 10
6.2453458527
 20
4.8333446471
 30
0.0
 10
6.2366262857
 20
4.8319358082
 30
0.0
 10
6.2289640823
 20
4.8305736654
 30
0.0
 10
6.2225031001
 20
4.8292845231
 30
0.0
 10
6.2186254845
 20
4.8283912715
 30
0.0
 10
6.2169142227
 20
4.8279451595
 30
0.0
  0
SPLINE
  5
5A2
100
AcDbEntity
  8
0
100
AcDbSpline
 62
9
  6
CONTINUOUS
 70
0
 71
3
 72
25
 73
21
 74
0
 42
0.0000001
 43
0.0000001
 44
0.0000000001
 40
0.0
 40
0.0
 40
0.0
 40
0.0
 40
0.2179303744
 40
0.3068648273
 40
0.3822817786
 40
0.4441483954
 40
0.4926277433
 40
0.5283851925
 40
0.5420360087
 40
0.5534327261
 40
0.5634088825
 40
0.5731756831
 40
0.5840207596
 40
0.5969175706
 40
0.6309094638
 40
0.6775294073
 40
0.7375402806
 40
0.8112440505
 40
0.8987605244
 40
1.0
 40
1.0
 40
1.0
 40
1.0
 10
6.2169142227
 20
4.8279451595
 30
0.0
 10
6.2159960161
 20
4.8277057905
 30
0.0
 10
6.2147076464
 20
4.8273491407
 30
0.0
 10
6.2131254783
 20
4.8268309793
 30
0.0
 10
6.2122023289
 20
4.8264868422
 30
0.0
 10
6.2114607267
 20
4.8261615324
 30
0.0
 10
6.2109025268
 20
4.8258557746
 30
0.0
 10
6.2105577585
 20
4.8255981464
 30
0.0
 10
6.2103875631
 20
4.8253935061
 30
0.0
 10
6.2103175957
 20
4.8252559693
 30
0.0
 10
6.2102969419
 20
4.8251188748
 30
0.0
 10
6.2103302411
 20
4.8249865141
 30
0.0
 10
6.210413917
 20
4.8248642593
 30
0.0
 10
6.2106046785
 20
4.8246979226
 30
0.0
 10
6.2109753836
 20
4.8245178653
 30
0.0
 10
6.2115607267
 20
4.8243374931
 30
0.0
 10
6.2123305753
 20
4.8241773238
 30
0.0
 10
6.213283982
 20
4.824038276
 30
0.0
 10
6.2144210886
 20
4.8239215718
 30
0.0
 10
6.2152409819
 20
4.8238632467
 30
0.0
 10
6.2156809984
 20
4.8238368323
 30
0.0
  0
SPLINE
  5
5A3
100
AcDbEntity
  8
0
100
AcDbSpline
 62
9
  6
CONTINUOUS
 70
0
 71
3
 72
19
 73
15
 74
0
 42
0.0000001
 43
0.0000001
 44
0.0000000001
 40
0.0
 40
0.0
 40
0.0
 40
0.0
 40
0.017268373
 40
0.0368883473
 40
0.0612086315
 40
0.0915202245
 40
0.1284624251
 40
0.1723305921
 40
0.2232658642
 40
0.2813291178
 40
0.4188608656
 40
0.5847991429
 40
0.7787883719
 40
1.0
 40
1.0
 40
1.0
 40
1.0
 10
4.6879495241
 20
4.8312285922
 30
0.0
 10
4.6879497033
 20
4.8312989704
 30
0.0
 10
4.6879865973
 20
4.8314508936
 30
0.0
 10
4.6881437089
 20
4.8316509822
 30
0.0
 10
4.6883895296
 20
4.8318311358
 30
0.0
 10
4.6887251446
 20
4.8319971098
 30
0.0
 10
4.6891519472
 20
4.8321504864
 30
0.0
 10
4.6896704333
 20
4.8322915681
 30
0.0
 10
4.6902803022
 20
4.8324201519
 30
0.0
 10
4.6912718835
 20
4.8325838181
 30
0.0
 10
4.6927373171
 20
4.8327458668
 30
0.0
 10
4.6947606995
 20
4.8328795885
 30
0.0
 10
4.6971281883
 20
4.8329587542
 30
0.0
 10
4.698820445
 20
4.8329736835
 30
0.0
 10
4.6997220087
 20
4.8329735035
 30
0.0
  0
LINE
  5
5A4
100
AcDbEntity
  8
0
100
AcDbLine
 62
9
  6
CONTINUOUS
 10
6.3706778928
 20
4.8409281587
 11
6.3732669035
 21
4.8417878395
  0
SPLINE
  5
5A5
100
AcDbEntity
  8
0
100
AcDbSpline
 62
9
  6
CONTINUOUS
 70
0
 71
3
 72
25
 73
21
 74
0
 42
0.0000001
 43
0.0000001
 44
0.0000000001
 40
0.0
 40
0.0
 40
0.0
 40
0.0
 40
0.05920963
 40
0.1064580456
 40
0.1422123764
 40
0.1561215629
 40
0.1677237289
 40
0.1775235605
 40
0.1863449761
 40
0.205192576
 40
0.2172796202
 40
0.2317784996
 40
0.2689618488
 40
0.3179583355
 40
0.3792832464
 40
0.4532159788
 40
0.5396580179
 40
0.6381149704
 40
0.748038508
 40
1.0
 40
1.0
 40
1.0
 40
1.0
 10
6.3732669035
 20
4.8417878395
 30
0.0
 10
6.3735314184
 20
4.8418911418
 30
0.0
 10
6.3740031432
 20
4.8420878875
 30
0.0
 10
6.3746111853
 20
4.8423976945
 30
0.0
 10
6.3750001531
 20
4.8426573314
 30
0.0
 10
6.375211483
 20
4.8428628047
 30
0.0
 10
6.3753119774
 20
4.8430005408
 30
0.0
 10
6.3753673123
 20
4.8431366196
 30
0.0
 10
6.3753758291
 20
4.843320772
 30
0.0
 10
6.3752661495
 20
4.8434950506
 30
0.0
 10
6.3750961054
 20
4.8436304143
 30
0.0
 10
6.3748300657
 20
4.8437841432
 30
0.0
 10
6.3743743009
 20
4.8439504968
 30
0.0
 10
6.3736865731
 20
4.8441185171
 30
0.0
 10
6.3728144328
 20
4.8442649274
 30
0.0
 10
6.3717581786
 20
4.8443890382
 30
0.0
 10
6.3705207386
 20
4.8444901724
 30
0.0
 10
6.3691088529
 20
4.8445690761
 30
0.0
 10
6.3669023598
 20
4.8446483501
 30
0.0
 10
6.3651665895
 20
4.8446685478
 30
0.0
 10
6.3639581781
 20
4.8446711284
 30
0.0
  0
SPLINE
  5
5A6
100
AcDbEntity
  8
0
100
AcDbSpline
 62
9
  6
CONTINUOUS
 70
0
 71
3
 72
24
 73
20
 74
0
 42
0.0000001
 43
0.0000001
 44
0.0000000001
 40
0.0
 40
0.0
 40
0.0
 40
0.0
 40
0.1913270701
 40
0.3744852487
 40
0.4609081681
 40
0.5428680976
 40
0.6196173282
 40
0.6904340147
 40
0.7547559623
 40
0.8121082168
 40
0.8620429822
 40
0.904212909
 40
0.9385414471
 40
0.9528134832
 40
0.9652201876
 40
0.9758689508
 40
0.9849535096
 40
0.9928187407
 40
1.0
 40
1.0
 40
1.0
 40
1.0
 10
5.5394645722
 20
4.8329744791
 30
0.0
 10
5.5440021929
 20
4.8329746062
 30
0.0
 10
5.5528841767
 20
4.8328481649
 30
0.0
 10
5.5638068651
 20
4.8323705423
 30
0.0
 10
5.5721244239
 20
4.8317906543
 30
0.0
 10
5.5779159305
 20
4.831279033
 30
0.0
 10
5.5833277416
 20
4.8306877446
 30
0.0
 10
5.5883091406
 20
4.8300210349
 30
0.0
 10
5.5928156563
 20
4.829286485
 30
0.0
 10
5.5968084043
 20
4.8284926553
 30
0.0
 10
5.6002527746
 20
4.8276482556
 30
0.0
 10
5.6031184256
 20
4.8267593586
 30
0.0
 10
5.6051185352
 20
4.8259494155
 30
0.0
 10
5.6063955883
 20
4.8252662141
 30
0.0
 10
5.6071367566
 20
4.8247792432
 30
0.0
 10
5.6077210218
 20
4.8242859188
 30
0.0
 10
5.6081470394
 20
4.8237835145
 30
0.0
 10
5.6084110558
 20
4.8232685428
 30
0.0
 10
5.608473202
 20
4.8229098804
 30
0.0
 10
5.608473789
 20
4.8227395666
 30
0.0
  0
SPLINE
  5
5A7
100
AcDbEntity
  8
0
100
AcDbSpline
 62
9
  6
CONTINUOUS
 70
0
 71
3
 72
15
 73
11
 74
0
 42
0.0000001
 43
0.0000001
 44
0.0000000001
 40
0.0
 40
0.0
 40
0.0
 40
0.0
 40
0.3851292423
 40
0.5471007023
 40
0.6820094838
 40
0.7905277326
 40
0.8829646505
 40
0.955796052
 40
0.9819718164
 40
1.0
 40
1.0
 40
1.0
 40
1.0
 10
5.5394645779
 20
4.8329743592
 30
0.0
 10
5.5394645576
 20
4.8344769944
 30
0.0
 10
5.5394746845
 20
4.8366116137
 30
0.0
 10
5.5395103151
 20
4.8392723469
 30
0.0
 10
5.5395416362
 20
4.8408537575
 30
0.0
 10
5.5395773454
 20
4.8421637348
 30
0.0
 10
5.5396180367
 20
4.8432311257
 30
0.0
 10
5.5396576746
 20
4.8439772399
 30
0.0
 10
5.5396971582
 20
4.8444320907
 30
0.0
 10
5.5397181445
 20
4.8446034927
 30
0.0
 10
5.5397311772
 20
4.8446726142
 30
0.0
  0
SPLINE
  5
5A8
100
AcDbEntity
  8
0
100
AcDbSpline
 62
9
  6
CONTINUOUS
 70
0
 71
3
 72
24
 73
20
 74
0
 42
0.0000001
 43
0.0000001
 44
0.0000000001
 40
0.0
 40
0.0
 40
0.0
 40
0.0
 40
0.0075691138
 40
0.0156712123
 40
0.0247981265
 40
0.0353003547
 40
0.0474071751
 40
0.061249837
 40
0.0943879125
 40
0.1349948116
 40
0.183086961
 40
0.2385636236
 40
0.3011297813
 40
0.3703700943
 40
0.4458481744
 40
0.527114325
 40
0.6136463888
 40
0.8000407071
 40
1.0
 40
1.0
 40
1.0
 40
1.0
 10
5.247053915
 20
4.8247370393
 30
0.0
 10
5.2470544023
 20
4.8248817774
 30
0.0
 10
5.2471005565
 20
4.8251828611
 30
0.0
 10
5.2473006137
 20
4.8256180723
 30
0.0
 10
5.2476257712
 20
4.826041285
 30
0.0
 10
5.2480734371
 20
4.8264541872
 30
0.0
 10
5.2486431313
 20
4.826858289
 30
0.0
 10
5.2496248579
 20
4.8274202725
 30
0.0
 10
5.2511688987
 20
4.8280812499
 30
0.0
 10
5.2533868849
 20
4.8287996542
 30
0.0
 10
5.2560609791
 20
4.8294771556
 30
0.0
 10
5.2591756846
 20
4.8301070481
 30
0.0
 10
5.2627107125
 20
4.8306850105
 30
0.0
 10
5.2666404354
 20
4.8312070092
 30
0.0
 10
5.2709374512
 20
4.8316685704
 30
0.0
 10
5.2755728421
 20
4.8320651917
 30
0.0
 10
5.2823312721
 20
4.8325139469
 30
0.0
 10
5.2913680018
 20
4.832882225
 30
0.0
 10
5.2987563827
 20
4.8329739356
 30
0.0
 10
5.3025800667
 20
4.8329735036
 30
0.0
  0
SPLINE
  5
5A9
100
AcDbEntity
  8
0
100
AcDbSpline
 62
9
  6
CONTINUOUS
 70
0
 71
3
 72
25
 73
21
 74
0
 42
0.0000001
 43
0.0000001
 44
0.0000000001
 40
0.0
 40
0.0
 40
0.0
 40
0.0
 40
0.0070824479
 40
0.0149118072
 40
0.0240180936
 40
0.0347346286
 40
0.0472592884
 40
0.0617055896
 40
0.078123796
 40
0.0965308646
 40
0.1392896649
 40
0.1898297741
 40
0.2477884545
 40
0.3127116356
 40
0.3840266173
 40
0.4610930189
 40
0.5431862374
 40
0.6295238297
 40
0.8115379187
 40
1.0
 40
1.0
 40
1.0
 40
1.0
 10
5.4667429466
 20
4.8221969706
 30
0.0
 10
5.4667447931
 20
4.8223738436
 30
0.0
 10
5.4668153561
 20
4.8227476034
 30
0.0
 10
5.4671028596
 20
4.8232816595
 30
0.0
 10
5.4675611202
 20
4.8238039198
 30
0.0
 10
5.4681871939
 20
4.8243184117
 30
0.0
 10
5.46898101
 20
4.8248271167
 30
0.0
 10
5.4699422227
 20
4.8253297003
 30
0.0
 10
5.4710691146
 20
4.8258258056
 30
0.0
 10
5.4728820576
 20
4.826511679
 30
0.0
 10
5.4755534066
 20
4.827325535
 30
0.0
 10
5.4792256093
 20
4.82821707
 30
0.0
 10
5.4834758438
 20
4.8290563105
 30
0.0
 10
5.4882639379
 20
4.829833426
 30
0.0
 10
5.493544636
 20
4.8305404491
 30
0.0
 10
5.4992666976
 20
4.8311692876
 30
0.0
 10
5.5053741368
 20
4.8317134576
 30
0.0
 10
5.5141051824
 20
4.8323287649
 30
0.0
 10
5.5255046782
 20
4.8328384929
 30
0.0
 10
5.5347577622
 20
4.8329743696
 30
0.0
 10
5.539464562
 20
4.8329743619
 30
0.0
  0
SPLINE
  5
5AA
100
AcDbEntity
  8
0
100
AcDbSpline
 62
9
  6
CONTINUOUS
 70
0
 71
3
 72
25
 73
21
 74
0
 42
0.0000001
 43
0.0000001
 44
0.0000000001
 40
0.0
 40
0.0
 40
0.0
 40
0.0
 40
0.17831291
 40
0.3563358239
 40
0.4425142765
 40
0.5253759393
 40
0.603873391
 40
0.6771026449
 40
0.7442350481
 40
0.8044630877
 40
0.8571502776
 40
0.9018288288
 40
0.9210429568
 40
0.9381227393
 40
0.953072551
 40
0.9659382227
 40
0.9768093162
 40
0.985855356
 40
0.9933953049
 40
1.0
 40
1.0
 40
1.0
 40
1.0
 10
5.3025788971
 20
4.8329744793
 30
0.0
 10
5.3078462498
 20
4.8329746303
 30
0.0
 10
5.3183729916
 20
4.8327935892
 30
0.0
 10
5.3314315946
 20
4.8321536297
 30
0.0
 10
5.341655807
 20
4.8313901272
 30
0.0
 10
5.3489372652
 20
4.830715034
 30
0.0
 10
5.3558238136
 20
4.829938153
 30
0.0
 10
5.3622310628
 20
4.8290707559
 30
0.0
 10
5.3680813934
 20
4.8281258529
 30
0.0
 10
5.3733041437
 20
4.8271145631
 30
0.0
 10
5.3778373325
 20
4.8260497936
 30
0.0
 10
5.3811476964
 20
4.8250908464
 30
0.0
 10
5.3834024946
 20
4.8242905051
 30
0.0
 10
5.384803635
 20
4.8237156754
 30
0.0
 10
5.3859983875
 20
4.8231375762
 30
0.0
 10
5.3869851425
 20
4.8225579193
 30
0.0
 10
5.387763627
 20
4.821977494
 30
0.0
 10
5.3883338666
 20
4.821394228
 30
0.0
 10
5.3886942348
 20
4.8208018337
 30
0.0
 10
5.3887833827
 20
4.8203819732
 30
0.0
 10
5.3887839244
 20
4.8201868717
 30
0.0
  0
SPLINE
  5
5AB
100
AcDbEntity
  8
0
100
AcDbSpline
 62
9
  6
CONTINUOUS
 70
0
 71
3
 72
16
 73
12
 74
0
 42
0.0000001
 43
0.0000001
 44
0.0000000001
 40
0.0
 40
0.0
 40
0.0
 40
0.0
 40
0.3725940471
 40
0.5301389835
 40
0.6623199586
 40
0.7699638814
 40
0.8638269068
 40
0.9053798907
 40
0.9421469596
 40
0.9736609068
 40
1.0
 40
1.0
 40
1.0
 40
1.0
 10
5.3025789171
 20
4.8329743588
 30
0.0
 10
5.3025790732
 20
4.8344783556
 30
0.0
 10
5.3024947167
 20
4.8366204941
 30
0.0
 10
5.3021997567
 20
4.8392784219
 30
0.0
 10
5.3019405387
 20
4.840862325
 30
0.0
 10
5.3016420494
 20
4.8421765136
 30
0.0
 10
5.3013489306
 20
4.8431150476
 30
0.0
 10
5.3010753285
 20
4.8437546487
 30
0.0
 10
5.3008636593
 20
4.8441453023
 30
0.0
 10
5.3006388339
 20
4.8444555695
 30
0.0
 10
5.3004639932
 20
4.8446152104
 30
0.0
 10
5.3003745025
 20
4.8446726142
 30
0.0
  0
LINE
  5
5AC
100
AcDbEntity
  8
0
100
AcDbLine
 62
9
  6
CONTINUOUS
 10
5.2434924607
 20
4.8318863864
 11
5.2407281041
 21
4.8327831601
  0
SPLINE
  5
5AD
100
AcDbEntity
  8
0
100
AcDbSpline
 62
9
  6
CONTINUOUS
 70
0
 71
3
 72
28
 73
24
 74
0
 42
0.0000001
 43
0.0000001
 44
0.0000000001
 40
0.0
 40
0.0
 40
0.0
 40
0.0
 40
0.0206416144
 40
0.0384674859
 40
0.0535442522
 40
0.066006079
 40
0.0761215892
 40
0.084435616
 40
0.091915161
 40
0.099825311
 40
0.1092473426
 40
0.1208371102
 40
0.1349412026
 40
0.1517428358
 40
0.1713428862
 40
0.1937984881
 40
0.247237037
 40
0.3116090161
 40
0.3862473314
 40
0.470354841
 40
0.5630716545
 40
0.7706689367
 40
1.0
 40
1.0
 40
1.0
 40
1.0
 10
5.2407281041
 20
4.8327831601
 30
0.0
 10
5.2402575574
 20
4.8329551086
 30
0.0
 10
5.2393876688
 20
4.8332956425
 30
0.0
 10
5.238209043
 20
4.833845693
 30
0.0
 10
5.2372533249
 20
4.834395981
 30
0.0
 10
5.2365199005
 20
4.8349466283
 30
0.0
 10
5.2360072613
 20
4.8355016305
 30
0.0
 10
5.235719754
 20
4.8360755159
 30
0.0
 10
5.2356909547
 20
4.836669033
 30
0.0
 10
5.2359288783
 20
4.8372391102
 30
0.0
 10
5.2363954323
 20
4.8377734103
 30
0.0
 10
5.2370790853
 20
4.8382887456
 30
0.0
 10
5.2379825288
 20
4.838790843
 30
0.0
 10
5.2391076539
 20
4.8392806828
 30
0.0
 10
5.2404552393
 20
4.8397572762
 30
0.0
 10
5.2426798161
 20
4.8404106188
 30
0.0
 10
5.2460047361
 20
4.8411557233
 30
0.0
 10
5.2506107099
 20
4.8419380177
 30
0.0
 10
5.2559815549
 20
4.8426380971
 30
0.0
 10
5.262054699
 20
4.8432485959
 30
0.0
 10
5.2713583998
 20
4.8439589529
 30
0.0
 10
5.2842034376
 20
4.8445338229
 30
0.0
 10
5.2948084991
 20
4.8446683849
 30
0.0
 10
5.300374448
 20
4.8446711283
 30
0.0
  0
SPLINE
  5
5AE
100
AcDbEntity
  8
0
100
AcDbSpline
 62
9
  6
CONTINUOUS
 70
0
 71
3
 72
13
 73
9
 74
0
 42
0.0000001
 43
0.0000001
 44
0.0000000001
 40
0.0
 40
0.0
 40
0.0
 40
0.0
 40
0.087362479
 40
0.1800647189
 40
0.2818452778
 40
0.3955057775
 40
0.6654681322
 40
1.0
 40
1.0
 40
1.0
 40
1.0
 10
5.6850278507
 20
4.8196480058
 30
0.0
 10
5.6850281323
 20
4.8197633457
 30
0.0
 10
5.6850578153
 20
4.8200017821
 30
0.0
 10
5.6851852377
 20
4.8203540234
 30
0.0
 10
5.6853933983
 20
4.8207058376
 30
0.0
 10
5.6858004858
 20
4.8212032317
 30
0.0
 10
5.6865311359
 20
4.8218181008
 30
0.0
 10
5.6872117525
 20
4.8222378583
 30
0.0
 10
5.6875977565
 20
4.8224524955
 30
0.0
  0
SPLINE
  5
5AF
100
AcDbEntity
  8
0
100
AcDbSpline
 62
9
  6
CONTINUOUS
 70
0
 71
3
 72
18
 73
14
 74
0
 42
0.0000001
 43
0.0000001
 44
0.0000000001
 40
0.0
 40
0.0
 40
0.0
 40
0.0
 40
0.0272141228
 40
0.061010114
 40
0.1012367412
 40
0.1476597475
 40
0.1999681514
 40
0.2576914174
 40
0.3873025861
 40
0.531948664
 40
0.6861562871
 40
0.8441672082
 40
1.0
 40
1.0
 40
1.0
 40
1.0
 10
5.6875977565
 20
4.8224524955
 30
0.0
 10
5.6882978259
 20
4.8228417684
 30
0.0
 10
5.689936863
 20
4.8235877555
 30
0.0
 10
5.6927468128
 20
4.8245840346
 30
0.0
 10
5.6961550419
 20
4.8255665369
 30
0.0
 10
5.7001324693
 20
4.8265238259
 30
0.0
 10
5.7046453441
 20
4.8274446197
 30
0.0
 10
5.7115940418
 20
4.8286608271
 30
0.0
 10
5.7212768225
 20
4.8299978892
 30
0.0
 10
5.7338251147
 20
4.8312775426
 30
0.0
 10
5.7472401466
 20
4.8322368711
 30
0.0
 10
5.7610055052
 20
4.8328323711
 30
0.0
 10
5.770243625
 20
4.8329740289
 30
0.0
 10
5.7748303956
 20
4.8329735037
 30
0.0
  0
SPLINE
  5
5B0
100
AcDbEntity
  8
0
100
AcDbSpline
 62
9
  6
CONTINUOUS
 70
0
 71
3
 72
32
 73
28
 74
0
 42
0.0000001
 43
0.0000001
 44
0.0000000001
 40
0.0
 40
0.0
 40
0.0
 40
0.0
 40
0.0531351088
 40
0.1164102125
 40
0.1882578699
 40
0.2667815881
 40
0.3499568696
 40
0.4356650589
 40
0.5217231246
 40
0.6059884398
 40
0.6863756102
 40
0.7608802334
 40
0.8277117304
 40
0.8577090482
 40
0.8851812757
 40
0.9099747471
 40
0.9319384309
 40
0.9509264257
 40
0.966832229
 40
0.9736135164
 40
0.9796083531
 40
0.9848167771
 40
0.9892445208
 40
0.9929079409
 40
0.995845082
 40
0.9981447042
 40
1.0
 40
1.0
 40
1.0
 40
1.0
 10
4.6997174923
 20
4.83297448
 30
0.0
 10
4.7020583347
 20
4.8329746
 30
0.0
 10
4.7071866478
 20
4.8328571131
 30
0.0
 10
4.71547052
 20
4.8324442119
 30
0.0
 10
4.7248597789
 20
4.831780472
 30
0.0
 10
4.7351099531
 20
4.8308855451
 30
0.0
 10
4.7459534745
 20
4.8297797159
 30
0.0
 10
4.7571111339
 20
4.828492748
 30
0.0
 10
4.7682991537
 20
4.8270578327
 30
0.0
 10
4.7792355289
 20
4.8255108208
 30
0.0
 10
4.7896469383
 20
4.8238931112
 30
0.0
 10
4.7992748923
 20
4.8222430968
 30
0.0
 10
4.8066907203
 20
4.8208332421
 30
0.0
 10
4.8120505904
 20
4.8197106339
 30
0.0
 10
4.8155868703
 20
4.8189171585
 30
0.0
 10
4.8187652044
 20
4.818146964
 30
0.0
 10
4.821565346
 20
4.8174053914
 30
0.0
 10
4.8239683192
 20
4.8166971598
 30
0.0
 10
4.8257094015
 20
4.8161120535
 30
0.0
 10
4.8268884324
 20
4.8156570615
 30
0.0
 10
4.8276170524
 20
4.8153453058
 30
0.0
 10
4.8282372179
 20
4.8150452432
 30
0.0
 10
4.8287480778
 20
4.814757327
 30
0.0
 10
4.8291495457
 20
4.8144820836
 30
0.0
 10
4.8294418583
 20
4.8142182702
 30
0.0
 10
4.8296278146
 20
4.8139628867
 30
0.0
 10
4.8296774566
 20
4.8137795329
 30
0.0
 10
4.8296771675
 20
4.8136977992
 30
0.0
  0
SPLINE
  5
5B1
100
AcDbEntity
  8
0
100
AcDbSpline
 62
9
  6
CONTINUOUS
 70
0
 71
3
 72
13
 73
9
 74
0
 42
0.0000001
 43
0.0000001
 44
0.0000000001
 40
0.0
 40
0.0
 40
0.0
 40
0.0
 40
0.2922037569
 40
0.5437675921
 40
0.6527621143
 40
0.7634674658
 40
0.8795815465
 40
1.0
 40
1.0
 40
1.0
 40
1.0
 10
4.6997175036
 20
4.8329743588
 30
0.0
 10
4.6997181166
 20
4.8344973555
 30
0.0
 10
4.6992594506
 20
4.8373550946
 30
0.0
 10
4.6976584708
 20
4.8404261643
 30
0.0
 10
4.6960181859
 20
4.8422667478
 30
0.0
 10
4.6946468023
 20
4.8433689556
 30
0.0
 10
4.6930408051
 20
4.8442277381
 30
0.0
 10
4.6918435971
 20
4.8445695361
 30
0.0
 10
4.6912244855
 20
4.844672613
 30
0.0
  0
SPLINE
  5
5B2
100
AcDbEntity
  8
0
100
AcDbSpline
 62
9
  6
CONTINUOUS
 70
0
 71
3
 72
28
 73
24
 74
0
 42
0.0000001
 43
0.0000001
 44
0.0000000001
 40
0.0
 40
0.0
 40
0.0
 40
0.0
 40
0.0845188109
 40
0.1556244808
 40
0.2133168986
 40
0.2577461282
 40
0.2751543303
 40
0.289552422
 40
0.3012475755
 40
0.3108125805
 40
0.3192667269
 40
0.3280277876
 40
0.3383897467
 40
0.3511703978
 40
0.3668139549
 40
0.3855643071
 40
0.4328848085
 40
0.4937900171
 40
0.5685761392
 40
0.6572538495
 40
0.7592231413
 40
0.8737300529
 40
1.0
 40
1.0
 40
1.0
 40
1.0
 10
4.6832512367
 20
4.8401915975
 30
0.0
 10
4.6826928364
 20
4.8403504429
 30
0.0
 10
4.6816684823
 20
4.8406566745
 30
0.0
 10
4.6802812596
 20
4.8411305436
 30
0.0
 10
4.6791781534
 20
4.8415777546
 30
0.0
 10
4.6784435291
 20
4.8419498807
 30
0.0
 10
4.6780091522
 20
4.8422437093
 30
0.0
 10
4.6777818984
 20
4.8424391982
 30
0.0
 10
4.6776248438
 20
4.8426292694
 30
0.0
 10
4.6775384885
 20
4.8428183144
 30
0.0
 10
4.6775329246
 20
4.8430081227
 30
0.0
 10
4.6776128496
 20
4.8431856709
 30
0.0
 10
4.6777662921
 20
4.843345788
 30
0.0
 10
4.6779888558
 20
4.843494552
 30
0.0
 10
4.6782819449
 20
4.8436344985
 30
0.0
 10
4.6788105739
 20
4.8438250329
 30
0.0
 10
4.6796607544
 20
4.8440288047
 30
0.0
 10
4.6809025951
 20
4.8442269343
 30
0.0
 10
4.6824357728
 20
4.8443896069
 30
0.0
 10
4.6842549086
 20
4.8445153841
 30
0.0
 10
4.6863492654
 20
4.8446049964
 30
0.0
 10
4.6887030649
 20
4.8446587104
 30
0.0
 10
4.6903569689
 20
4.8446703684
 30
0.0
 10
4.6912243081
 20
4.8446711283
 30
0.0
  0
SPLINE
  5
5B3
100
AcDbEntity
  8
0
100
AcDbSpline
 62
9
  6
CONTINUOUS
 70
0
 71
3
 72
30
 73
26
 74
0
 42
0.0000001
 43
0.0000001
 44
0.0000000001
 40
0.0
 40
0.0
 40
0.0
 40
0.0
 40
0.0038929456
 40
0.0067978601
 40
0.0104668457
 40
0.0149361739
 40
0.0202196471
 40
0.0263214314
 40
0.0332406642
 40
0.0495081355
 40
0.0689358648
 40
0.0914096087
 40
0.1167929407
 40
0.1756012455
 40
0.2438517695
 40
0.3197838471
 40
0.4014389579
 40
0.4867150928
 40
0.5734051224
 40
0.6592466963
 40
0.7419775776
 40
0.8193942551
 40
0.8894170078
 40
0.9501597909
 40
1.0
 40
1.0
 40
1.0
 40
1.0
 10
6.2232548143
 20
4.8134060205
 30
0.0
 10
6.2232549258
 20
4.8135799754
 30
0.0
 10
6.2234515199
 20
4.8138605158
 30
0.0
 10
6.2238073142
 20
4.8141510813
 30
0.0
 10
6.2242266262
 20
4.8144185598
 30
0.0
 10
6.2247575941
 20
4.8146961144
 30
0.0
 10
6.2254036525
 20
4.8149883912
 30
0.0
 10
6.2261628058
 20
4.8152930506
 30
0.0
 10
6.2273930316
 20
4.8157402184
 30
0.0
 10
6.2292081876
 20
4.8163179137
 30
0.0
 10
6.2317105526
 20
4.8170220678
 30
0.0
 10
6.2346245775
 20
4.8177634704
 30
0.0
 10
6.2392659101
 20
4.8188487302
 30
0.0
 10
6.2459348412
 20
4.8202410452
 30
0.0
 10
6.2548517296
 20
4.8219061242
 30
0.0
 10
6.2648019461
 20
4.8235912754
 30
0.0
 10
6.2755267038
 20
4.8252520068
 30
0.0
 10
6.2867475966
 20
4.8268440472
 30
0.0
 10
6.2981723043
 20
4.8283252622
 30
0.0
 10
6.309500979
 20
4.8296563072
 30
0.0
 10
6.3204334129
 20
4.8308016712
 30
0.0
 10
6.3306768156
 20
4.8317306489
 30
0.0
 10
6.3399544533
 20
4.8324191334
 30
0.0
 10
6.3480137897
 20
4.8328493688
 30
0.0
 10
6.3529549844
 20
4.8329743665
 30
0.0
 10
6.3551820778
 20
4.8329743595
 30
0.0
  0
SPLINE
  5
5B4
100
AcDbEntity
  8
0
100
AcDbSpline
 62
9
  6
CONTINUOUS
 70
0
 71
3
 72
16
 73
12
 74
0
 42
0.0000001
 43
0.0000001
 44
0.0000000001
 40
0.0
 40
0.0
 40
0.0
 40
0.0
 40
0.029149388
 40
0.0651532976
 40
0.107653667
 40
0.1562796456
 40
0.2698955006
 40
0.4014645847
 40
0.5459049674
 40
0.6976351206
 40
1.0
 40
1.0
 40
1.0
 40
1.0
 10
4.5935307584
 20
4.8329744793
 30
0.0
 10
4.5944157452
 20
4.8329745535
 30
0.0
 10
4.5963937583
 20
4.832928307
 30
0.0
 10
4.5996584599
 20
4.8327696668
 30
0.0
 10
4.6035098493
 20
4.8325134003
 30
0.0
 10
4.6097061524
 20
4.8320166836
 30
0.0
 10
4.6185856269
 20
4.8311594854
 30
0.0
 10
4.6303429944
 20
4.8298557954
 30
0.0
 10
4.6432332495
 20
4.8282766213
 30
0.0
 10
4.6612473507
 20
4.825886923
 30
0.0
 10
4.674889292
 20
4.8238877085
 30
0.0
 10
4.6839576754
 20
4.8224610783
 30
0.0
  0
SPLINE
  5
5B5
100
AcDbEntity
  8
0
100
AcDbSpline
 62
9
  6
CONTINUOUS
 70
0
 71
3
 72
13
 73
9
 74
0
 42
0.0000001
 43
0.0000001
 44
0.0000000001
 40
0.0
 40
0.0
 40
0.0
 40
0.0
 40
0.2791114628
 40
0.5257232784
 40
0.6356771153
 40
0.7496117132
 40
0.8715076395
 40
1.0
 40
1.0
 40
1.0
 40
1.0
 10
4.5935307652
 20
4.8329743588
 30
0.0
 10
4.5935314611
 20
4.834502971
 30
0.0
 10
4.5929954233
 20
4.8374116722
 30
0.0
 10
4.5911732254
 20
4.8404599255
 30
0.0
 10
4.5893347991
 20
4.8422786732
 30
0.0
 10
4.5877819244
 20
4.8433788568
 30
0.0
 10
4.5859668995
 20
4.8442333316
 30
0.0
 10
4.584626293
 20
4.8445700751
 30
0.0
 10
4.5839300882
 20
4.8446726142
 30
0.0
  0
LINE
  5
5B6
100
AcDbEntity
  8
0
100
AcDbLine
 62
9
  6
CONTINUOUS
 10
4.5853241121
 20
4.8420087246
 11
4.5826325554
 21
4.8426579236
  0
SPLINE
  5
5B7
100
AcDbEntity
  8
0
100
AcDbSpline
 62
9
  6
CONTINUOUS
 70
0
 71
3
 72
24
 73
20
 74
0
 42
0.0000001
 43
0.0000001
 44
0.0000000001
 40
0.0
 40
0.0
 40
0.0
 40
0.0
 40
0.1026928028
 40
0.1915704431
 40
0.266566537
 40
0.3276672459
 40
0.374966664
 40
0.408853216
 40
0.4211767878
 40
0.4309410388
 40
0.4390816386
 40
0.4471509228
 40
0.4567598621
 40
0.4689412492
 40
0.502859482
 40
0.5508119608
 40
0.6130304528
 40
0.7795078872
 40
1.0
 40
1.0
 40
1.0
 40
1.0
 10
4.5826325554
 20
4.8426579236
 30
0.0
 10
4.5823450124
 20
4.8427336259
 30
0.0
 10
4.5818098276
 20
4.8428795409
 30
0.0
 10
4.5810701945
 20
4.8431005971
 30
0.0
 10
4.5804525107
 20
4.8433076484
 30
0.0
 10
4.5799569371
 20
4.843499894
 30
0.0
 10
4.5795850317
 20
4.8436769667
 30
0.0
 10
4.5793541103
 20
4.8438227494
 30
0.0
 10
4.5792394053
 20
4.8439383692
 30
0.0
 10
4.5791930072
 20
4.8440140979
 30
0.0
 10
4.5791805326
 20
4.8440910947
 30
0.0
 10
4.5792077896
 20
4.8441638099
 30
0.0
 10
4.5792688683
 20
4.8442270516
 30
0.0
 10
4.5794064036
 20
4.8443129451
 30
0.0
 10
4.5796672747
 20
4.8443996251
 30
0.0
 10
4.5800760231
 20
4.8444824373
 30
0.0
 10
4.5808715194
 20
4.8445829638
 30
0.0
 10
4.5821709972
 20
4.8446546663
 30
0.0
 10
4.5832914686
 20
4.8446701996
 30
0.0
 10
4.5839298905
 20
4.8446711283
 30
0.0
  0
LINE
  5
5B8
100
AcDbEntity
  8
0
100
AcDbLine
 62
9
  6
CONTINUOUS
 10
6.3649056849
 20
4.8229026082
 11
6.3661438295
 21
4.8230912481
  0
SPLINE
  5
5B9
100
AcDbEntity
  8
0
100
AcDbSpline
 62
9
  6
CONTINUOUS
 70
0
 71
3
 72
16
 73
12
 74
0
 42
0.0000001
 43
0.0000001
 44
0.0000000001
 40
0.0
 40
0.0
 40
0.0
 40
0.0
 40
0.3163485199
 40
0.4706888952
 40
0.6151937598
 40
0.7447100228
 40
0.8545456421
 40
0.9007832306
 40
0.9406900392
 40
0.9738749474
 40
1.0
 40
1.0
 40
1.0
 40
1.0
 10
6.3661438295
 20
4.8230912481
 30
0.0
 10
6.3749576405
 20
4.8244305699
 30
0.0
 10
6.388087602
 20
4.8263196372
 30
0.0
 10
6.4052751653
 20
4.8285897927
 30
0.0
 10
6.4172561503
 20
4.8300679243
 30
0.0
 10
6.4280053688
 20
4.8312823826
 30
0.0
 10
6.4360141108
 20
4.8320825084
 30
0.0
 10
6.4415176895
 20
4.8325452404
 30
0.0
 10
6.4448722401
 20
4.8327830484
 30
0.0
 10
6.4476644916
 20
4.8329303867
 30
0.0
 10
6.4493358204
 20
4.8329737903
 30
0.0
 10
6.4500720481
 20
4.8329735036
 30
0.0
  0
SPLINE
  5
5BA
100
AcDbEntity
  8
0
100
AcDbSpline
 62
9
  6
CONTINUOUS
 70
0
 71
3
 72
18
 73
14
 74
0
 42
0.0000001
 43
0.0000001
 44
0.0000000001
 40
0.0
 40
0.0
 40
0.0
 40
0.0
 40
0.0144113819
 40
0.0361157882
 40
0.0650326711
 40
0.1010420441
 40
0.1439835397
 40
0.1936747533
 40
0.3123699361
 40
0.455023204
 40
0.6191315056
 40
0.8018382322
 40
1.0
 40
1.0
 40
1.0
 40
1.0
 10
4.5420225845
 20
4.832974429
 30
0.0
 10
4.5422209381
 20
4.8329744324
 30
0.0
 10
4.5427177503
 20
4.8329488745
 30
0.0
 10
4.5436100053
 20
4.8328790468
 30
0.0
 10
4.5447970003
 20
4.8327649793
 30
0.0
 10
4.5462733203
 20
4.8326079733
 30
0.0
 10
4.5480325866
 20
4.8324078766
 30
0.0
 10
4.5509208224
 20
4.8320638391
 30
0.0
 10
4.5551685833
 20
4.8315306948
 30
0.0
 10
4.5609750592
 20
4.830771781
 30
0.0
 10
4.5676517609
 20
4.8298732059
 30
0.0
 10
4.5750826188
 20
4.8288505982
 30
0.0
 10
4.5802740454
 20
4.828123076
 30
0.0
 10
4.5829746896
 20
4.8277417385
 30
0.0
  0
LINE
  5
5BB
100
AcDbEntity
  8
0
100
AcDbLine
 62
9
  6
CONTINUOUS
 10
4.5829746896
 20
4.8277417385
 11
4.5885092802
 21
4.8269563379
  0
LINE
  5
5BC
100
AcDbEntity
  8
0
100
AcDbLine
 62
9
  6
CONTINUOUS
 10
4.5885092802
 20
4.8269563379
 11
4.5892849417
 21
4.8268456661
  0
LINE
  5
5BD
100
AcDbEntity
  8
0
100
AcDbLine
 62
9
  6
CONTINUOUS
 10
6.4531016887
 20
4.8279772292
 11
6.4537870161
 21
4.8280763439
  0
SPLINE
  5
5BE
100
AcDbEntity
  8
0
100
AcDbSpline
 62
9
  6
CONTINUOUS
 70
0
 71
3
 72
20
 73
16
 74
0
 42
0.0000001
 43
0.0000001
 44
0.0000000001
 40
0.0
 40
0.0
 40
0.0
 40
0.0
 40
0.2086890032
 40
0.3986304043
 40
0.5668116599
 40
0.7106175826
 40
0.7725682524
 40
0.8275006162
 40
0.8752320521
 40
0.9155903726
 40
0.9484036421
 40
0.9735005025
 40
0.9907161406
 40
0.9963456758
 40
1.0
 40
1.0
 40
1.0
 40
1.0
 10
6.4537870161
 20
4.8280763439
 30
0.0
 10
6.4562586772
 20
4.8284336902
 30
0.0
 10
6.4609802904
 20
4.8291139799
 30
0.0
 10
6.4676951079
 20
4.8300731559
 30
0.0
 10
6.4736425533
 20
4.8309135652
 30
0.0
 10
6.4780746156
 20
4.8315311206
 30
0.0
 10
6.481165356
 20
4.831954763
 30
0.0
 10
6.4831175186
 20
4.8322187029
 30
0.0
 10
6.484814147
 20
4.832444105
 30
0.0
 10
6.4862489716
 20
4.8326300963
 30
0.0
 10
6.4874158467
 20
4.832776271
 30
0.0
 10
6.4883086684
 20
4.8328813424
 30
0.0
 10
6.488879238
 20
4.8329424491
 30
0.0
 10
6.489195303
 20
4.8329677323
 30
0.0
 10
6.489306343
 20
4.8329736161
 30
0.0
 10
6.4893500738
 20
4.8329735036
 30
0.0
  0
SPLINE
  5
5BF
100
AcDbEntity
  8
0
100
AcDbSpline
 62
9
  6
CONTINUOUS
 70
0
 71
3
 72
26
 73
22
 74
0
 42
0.0000001
 43
0.0000001
 44
0.0000000001
 40
0.0
 40
0.0
 40
0.0
 40
0.0
 40
0.1108302549
 40
0.2074622688
 40
0.2900633467
 40
0.3589734935
 40
0.4146545305
 40
0.4578291464
 40
0.4751327536
 40
0.4899030287
 40
0.5136581109
 40
0.5245627195
 40
0.5361889994
 40
0.5494815992
 40
0.5650968643
 40
0.6047670424
 40
0.6570944914
 40
0.7226799364
 40
0.8016980148
 40
0.8941605261
 40
1.0
 40
1.0
 40
1.0
 40
1.0
 10
4.8366937695
 20
4.8239038752
 30
0.0
 10
4.8371394723
 20
4.8239339001
 30
0.0
 10
4.8379732371
 20
4.8239990745
 30
0.0
 10
4.8391357173
 20
4.8241258604
 30
0.0
 10
4.8401251745
 20
4.8242738971
 30
0.0
 10
4.8409439006
 20
4.8244418817
 30
0.0
 10
4.8415943398
 20
4.8246291585
 30
0.0
 10
4.8420283003
 20
4.8248107596
 30
0.0
 10
4.842285804
 20
4.8249732836
 30
0.0
 10
4.8424570629
 20
4.8251187302
 30
0.0
 10
4.8425716147
 20
4.8252960692
 30
0.0
 10
4.842581701
 20
4.825486081
 30
0.0
 10
4.8425428093
 20
4.8256272056
 30
0.0
 10
4.8424604609
 20
4.8257697999
 30
0.0
 10
4.8422795571
 20
4.8259802498
 30
0.0
 10
4.8419323008
 20
4.8262459503
 30
0.0
 10
4.841379429
 20
4.8265597021
 30
0.0
 10
4.8406571131
 20
4.8268908496
 30
0.0
 10
4.8397667157
 20
4.8272383418
 30
0.0
 10
4.8387092034
 20
4.8276011788
 30
0.0
 10
4.8379453276
 20
4.8278367893
 30
0.0
 10
4.8375362592
 20
4.8279578189
 30
0.0
  0
SPLINE
  5
5C0
100
AcDbEntity
  8
0
100
AcDbSpline
 62
9
  6
CONTINUOUS
 70
0
 71
3
 72
21
 73
17
 74
0
 42
0.0000001
 43
0.0000001
 44
0.0000000001
 40
0.0
 40
0.0
 40
0.0
 40
0.0
 40
0.0151305091
 40
0.0326420717
 40
0.0744104341
 40
0.1245124671
 40
0.1821579253
 40
0.2463192481
 40
0.3157617359
 40
0.4652712317
 40
0.6197417612
 40
0.7676033535
 40
0.83558062
 40
0.8977494735
 40
0.9527813118
 40
1.0
 40
1.0
 40
1.0
 40
1.0
 10
4.8375362592
 20
4.8279578189
 30
0.0
 10
4.8368229868
 20
4.8281688524
 30
0.0
 10
4.8352751913
 20
4.8285937396
 30
0.0
 10
4.8317232336
 20
4.8294696691
 30
0.0
 10
4.8264642074
 20
4.8305968909
 30
0.0
 10
4.8192405802
 20
4.831958433
 30
0.0
 10
4.8109065877
 20
4.8333641848
 30
0.0
 10
4.8016128156
 20
4.834788961
 30
0.0
 10
4.7878297235
 20
4.8367258558
 30
0.0
 10
4.7696094166
 20
4.8389811161
 30
0.0
 10
4.747516343
 20
4.841298493
 30
0.0
 10
4.7293762826
 20
4.842851585
 30
0.0
 10
4.7157404529
 20
4.8437818299
 30
0.0
 10
4.7066501377
 20
4.8442804308
 30
0.0
 10
4.6985723111
 20
4.8445833565
 30
0.0
 10
4.6935456386
 20
4.8446665561
 30
0.0
 10
4.6912243081
 20
4.8446711283
 30
0.0
  0
LINE
  5
5C1
100
AcDbEntity
  8
0
100
AcDbLine
 62
9
  6
CONTINUOUS
 10
6.4977400461
 20
4.8443263123
 11
6.4993424613
 21
4.8445919429
  0
LINE
  5
5C2
100
AcDbEntity
  8
0
100
AcDbLine
 62
9
  6
CONTINUOUS
 10
6.4993424613
 20
4.8445919429
 11
6.4995888886
 21
4.8446577663
  0
SPLINE
  5
5C3
100
AcDbEntity
  8
0
100
AcDbSpline
 62
9
  6
CONTINUOUS
 70
0
 71
3
 72
9
 73
5
 74
0
 42
0.0000001
 43
0.0000001
 44
0.0000000001
 40
0.0
 40
0.0
 40
0.0
 40
0.0
 40
0.2082936304
 40
1.0
 40
1.0
 40
1.0
 40
1.0
 10
6.4995661933
 20
4.8446688114
 30
0.0
 10
6.4995637525
 20
4.8446691082
 30
0.0
 10
6.4995520073
 20
4.8446703087
 30
0.0
 10
6.4995402045
 20
4.8446708453
 30
0.0
 10
6.4995308632
 20
4.8446711283
 30
0.0
  0
SPLINE
  5
5C4
100
AcDbEntity
  8
0
100
AcDbSpline
 62
9
  6
CONTINUOUS
 70
0
 71
3
 72
31
 73
27
 74
0
 42
0.0000001
 43
0.0000001
 44
0.0000000001
 40
0.0
 40
0.0
 40
0.0
 40
0.0
 40
0.0251043365
 40
0.0472805219
 40
0.0665320932
 40
0.0828951429
 40
0.0964681971
 40
0.1074869655
 40
0.116431208
 40
0.1241942637
 40
0.1320991443
 40
0.1414184273
 40
0.152949822
 40
0.1671021725
 40
0.1840802413
 40
0.2039876553
 40
0.2268575116
 40
0.2526740656
 40
0.3129939399
 40
0.3845323005
 40
0.4665650929
 40
0.5582524723
 40
0.6586177572
 40
0.7665818221
 40
0.8808915455
 40
1.0
 40
1.0
 40
1.0
 40
1.0
 10
5.8309146432
 20
4.8326234486
 30
0.0
 10
5.8314803768
 20
4.8327983556
 30
0.0
 10
5.832540464
 20
4.8331458348
 30
0.0
 10
5.834008917
 20
4.8337012559
 30
0.0
 10
5.8352547303
 20
4.8342570352
 30
0.0
 10
5.8362756021
 20
4.8348116066
 30
0.0
 10
5.8370709158
 20
4.8353649929
 30
0.0
 10
5.8376416116
 20
4.8359196757
 30
0.0
 10
5.8379886422
 20
4.8364869751
 30
0.0
 10
5.8380819966
 20
4.8370795138
 30
0.0
 10
5.8378940373
 20
4.8376574767
 30
0.0
 10
5.8374618608
 20
4.8381923006
 30
0.0
 10
5.8368078494
 20
4.8387031308
 30
0.0
 10
5.8359290854
 20
4.8391985928
 30
0.0
 10
5.8348242782
 20
4.8396803791
 30
0.0
 10
5.8334933904
 20
4.8401473418
 30
0.0
 10
5.831938896
 20
4.840598322
 30
0.0
 10
5.8294405331
 20
4.8412085576
 30
0.0
 10
5.825783819
 20
4.8418999761
 30
0.0
 10
5.8207878817
 20
4.8426107035
 30
0.0
 10
5.8150350523
 20
4.8432296966
 30
0.0
 10
5.8085901421
 20
4.8437473859
 30
0.0
 10
5.8015248031
 20
4.8441571346
 30
0.0
 10
5.7939198557
 20
4.8444536489
 30
0.0
 10
5.7858690826
 20
4.8446324587
 30
0.0
 10
5.7803631796
 20
4.8446712692
 30
0.0
 10
5.7775536809
 20
4.8446711283
 30
0.0
  0
SPLINE
  5
5C5
100
AcDbEntity
  8
0
100
AcDbSpline
 62
9
  6
CONTINUOUS
 70
0
 71
3
 72
35
 73
31
 74
0
 42
0.0000001
 43
0.0000001
 44
0.0000000001
 40
0.0
 40
0.0
 40
0.0
 40
0.0
 40
0.0194360689
 40
0.0357837547
 40
0.0491226543
 40
0.0596264903
 40
0.0639332479
 40
0.0677130683
 40
0.0711002281
 40
0.0742836744
 40
0.0774931122
 40
0.0809572948
 40
0.084862045
 40
0.0893339032
 40
0.1002590002
 40
0.114095313
 40
0.1309686999
 40
0.1508989057
 40
0.1738487943
 40
0.1997586927
 40
0.2285491086
 40
0.26010692
 40
0.3310227782
 40
0.4113536334
 40
0.4996481545
 40
0.5942896934
 40
0.6935135396
 40
0.7954914549
 40
0.898336075
 40
1.0
 40
1.0
 40
1.0
 40
1.0
 10
5.3939516226
 20
4.8280074629
 30
0.0
 10
5.3946464822
 20
4.8281873321
 30
0.0
 10
5.3959184928
 20
4.8285481553
 30
0.0
 10
5.3976285443
 20
4.8291602911
 30
0.0
 10
5.3989735126
 20
4.8297928637
 30
0.0
 10
5.3998476284
 20
4.8303701545
 30
0.0
 10
5.4003372847
 20
4.8308547576
 30
0.0
 10
5.4005859511
 20
4.8312009722
 30
0.0
 10
5.4007384282
 20
4.831555555
 30
0.0
 10
5.4007894553
 20
4.8319179031
 30
0.0
 10
5.4007357524
 20
4.8322826741
 30
0.0
 10
5.4005797186
 20
4.8326447428
 30
0.0
 10
5.4003257232
 20
4.8330036227
 30
0.0
 10
5.3998255156
 20
4.8335145124
 30
0.0
 10
5.398935188
 20
4.8341379734
 30
0.0
 10
5.3975669195
 20
4.8348434311
 30
0.0
 10
5.3958324394
 20
4.8355481453
 30
0.0
 10
5.3937390368
 20
4.8362488607
 30
0.0
 10
5.3912943526
 20
4.8369422433
 30
0.0
 10
5.3885086106
 20
4.8376244306
 30
0.0
 10
5.3853934477
 20
4.8382917409
 30
0.0
 10
5.3806300857
 20
4.8391929893
 30
0.0
 10
5.3739593218
 20
4.8402403071
 30
0.0
 10
5.3651817629
 20
4.8413471859
 30
0.0
 10
5.3555078793
 20
4.8423248364
 30
0.0
 10
5.3451202595
 20
4.8431539526
 30
0.0
 10
5.3342147288
 20
4.8438207093
 30
0.0
 10
5.3229964813
 20
4.8443086367
 30
0.0
 10
5.3116812759
 20
4.8445981289
 30
0.0
 10
5.3041288333
 20
4.8446668403
 30
0.0
 10
5.300374448
 20
4.8446711283
 30
0.0
  0
SPLINE
  5
5C6
100
AcDbEntity
  8
0
100
AcDbSpline
 62
9
  6
CONTINUOUS
 70
0
 71
3
 72
24
 73
20
 74
0
 42
0.0000001
 43
0.0000001
 44
0.0000000001
 40
0.0
 40
0.0
 40
0.0
 40
0.0
 40
0.0649281628
 40
0.1172146142
 40
0.1568379827
 40
0.1839506243
 40
0.1930557001
 40
0.1995956238
 40
0.2045729416
 40
0.2099828539
 40
0.2175067039
 40
0.2278583427
 40
0.2580142639
 40
0.3014724421
 40
0.3586161494
 40
0.429690799
 40
0.5148917227
 40
0.7283484305
 40
1.0
 40
1.0
 40
1.0
 40
1.0
 10
4.5318839989
 20
4.8446711283
 30
0.0
 10
4.5318450535
 20
4.8446706881
 30
0.0
 10
4.5317747663
 20
4.8446691278
 30
0.0
 10
4.5316807418
 20
4.8446638891
 30
0.0
 10
4.5316098898
 20
4.8446558123
 30
0.0
 10
4.5315649496
 20
4.8446466324
 30
0.0
 10
4.5315414191
 20
4.8446363348
 30
0.0
 10
4.5315312283
 20
4.8446287965
 30
0.0
 10
4.53152725
 20
4.8446185731
 30
0.0
 10
4.5315317267
 20
4.8446080137
 30
0.0
 10
4.5315417434
 20
4.8445981883
 30
0.0
 10
4.5315656927
 20
4.8445819573
 30
0.0
 10
4.5316118332
 20
4.8445612254
 30
0.0
 10
4.5316856715
 20
4.8445348159
 30
0.0
 10
4.5317843631
 20
4.8445052085
 30
0.0
 10
4.5319080697
 20
4.8444722396
 30
0.0
 10
4.5321236166
 20
4.8444199181
 30
0.0
 10
4.5324580116
 20
4.8443475101
 30
0.0
 10
4.5327434884
 20
4.8442910536
 30
0.0
 10
4.5329035164
 20
4.8442603161
 30
0.0
  0
LINE
  5
5C7
100
AcDbEntity
  8
0
100
AcDbLine
 62
9
  6
CONTINUOUS
 10
6.4557338641
 20
4.8394875359
 11
6.4605103054
 21
4.8400794933
  0
LINE
  5
5C8
100
AcDbEntity
  8
0
100
AcDbLine
 62
9
  6
CONTINUOUS
 10
6.4882002617
 20
4.8434422454
 11
6.4995308632
 21
4.8446711283
  0
LINE
  5
5C9
100
AcDbEntity
  8
0
100
AcDbLine
 62
9
  6
CONTINUOUS
 10
4.5875088897
 20
4.8384816896
 11
4.582503212
 21
4.8390926415
  0
LINE
  5
5CA
100
AcDbEntity
  8
0
100
AcDbLine
 62
9
  6
CONTINUOUS
 10
4.582503212
 20
4.8390926415
 11
4.5435138475
 21
4.8436208064
  0
LINE
  5
5CB
100
AcDbEntity
  8
0
100
AcDbLine
 62
9
  6
CONTINUOUS
 10
4.5435138475
 20
4.8436208064
 11
4.5318839989
 21
4.8446711283
  0
SPLINE
  5
5CC
100
AcDbEntity
  8
0
100
AcDbSpline
 62
9
  6
CONTINUOUS
 70
0
 71
3
 72
17
 73
13
 74
0
 42
0.0000001
 43
0.0000001
 44
0.0000000001
 40
0.0
 40
0.0
 40
0.0
 40
0.0
 40
0.2243992094
 40
0.4195580169
 40
0.5854234659
 40
0.7220527813
 40
0.8297160433
 40
0.8729228416
 40
0.9092960993
 40
0.9392200332
 40
0.9633886861
 40
1.0
 40
1.0
 40
1.0
 40
1.0
 10
6.4500768518
 20
4.8329742633
 30
0.0
 10
6.4503036027
 20
4.8329742666
 30
0.0
 10
6.4507275805
 20
4.8329706058
 30
0.0
 10
6.4513188857
 20
4.8329513483
 30
0.0
 10
6.4518208583
 20
4.8329190046
 30
0.0
 10
6.4522329451
 20
4.8328736437
 30
0.0
 10
6.4525194668
 20
4.832822801
 30
0.0
 10
6.4527020161
 20
4.8327724087
 30
0.0
 10
6.4528060509
 20
4.8327343919
 30
0.0
 10
6.4528878433
 20
4.8326924122
 30
0.0
 10
6.4529615763
 20
4.8326384519
 30
0.0
 10
6.4529948941
 20
4.8325780427
 30
0.0
 10
6.4529949867
 20
4.8325410478
 30
0.0
  0
SPLINE
  5
5CD
100
AcDbEntity
  8
0
100
AcDbSpline
 62
9
  6
CONTINUOUS
 70
0
 71
3
 72
26
 73
22
 74
0
 42
0.0000001
 43
0.0000001
 44
0.0000000001
 40
0.0
 40
0.0
 40
0.0
 40
0.0
 40
0.1173262232
 40
0.2192457487
 40
0.3056693701
 40
0.3765450493
 40
0.4319006185
 40
0.4538261008
 40
0.4719985288
 40
0.4865625813
 40
0.4978358952
 40
0.5065401411
 40
0.5140623953
 40
0.5323724589
 40
0.5617092272
 40
0.6037593896
 40
0.6585613703
 40
0.7257445116
 40
0.8048832813
 40
0.8961502418
 40
1.0
 40
1.0
 40
1.0
 40
1.0
 10
6.4598428881
 20
4.8446711283
 30
0.0
 10
6.4601122399
 20
4.8446732396
 30
0.0
 10
6.460615621
 20
4.8446735528
 30
0.0
 10
6.4613173014
 20
4.8446600393
 30
0.0
 10
6.4619119215
 20
4.8446328424
 30
0.0
 10
6.4623985269
 20
4.8445920811
 30
0.0
 10
6.4627357929
 20
4.8445448193
 30
0.0
 10
6.4629497947
 20
4.8444969607
 30
0.0
 10
6.4630700456
 20
4.8444605976
 30
0.0
 10
6.4631633582
 20
4.8444209372
 30
0.0
 10
6.4632302518
 20
4.8443774759
 30
0.0
 10
6.4632723275
 20
4.8443280203
 30
0.0
 10
6.4632876555
 20
4.8442459085
 30
0.0
 10
6.4632059089
 20
4.844132848
 30
0.0
 10
6.4630381137
 20
4.8440184597
 30
0.0
 10
6.4627783645
 20
4.8438854256
 30
0.0
 10
6.4624300462
 20
4.843743256
 30
0.0
 10
6.4619944885
 20
4.8435889829
 30
0.0
 10
6.4614744118
 20
4.8434245008
 30
0.0
 10
6.4608693519
 20
4.84325001
 30
0.0
 10
6.4604364527
 20
4.8431347648
 30
0.0
 10
6.4602055844
 20
4.8430752315
 30
0.0
  0
SPLINE
  5
5CE
100
AcDbEntity
  8
0
100
AcDbSpline
 62
9
  6
CONTINUOUS
 70
0
 71
3
 72
13
 73
9
 74
0
 42
0.0000001
 43
0.0000001
 44
0.0000000001
 40
0.0
 40
0.0
 40
0.0
 40
0.0
 40
0.2772334368
 40
0.5231622427
 40
0.6332658192
 40
0.7476690284
 40
0.870382421
 40
1.0
 40
1.0
 40
1.0
 40
1.0
 10
6.4500768518
 20
4.8329742633
 30
0.0
 10
6.4500761458
 20
4.8345037729
 30
0.0
 10
6.4506242715
 20
4.8374203816
 30
0.0
 10
6.4524793357
 20
4.8404646435
 30
0.0
 10
6.4543469576
 20
4.842280185
 30
0.0
 10
6.4559268239
 20
4.8433800222
 30
0.0
 10
6.457772938
 20
4.8442338761
 30
0.0
 10
6.4591349917
 20
4.8445699535
 30
0.0
 10
6.4598427213
 20
4.8446724019
 30
0.0
  0
SPLINE
  5
5CF
100
AcDbEntity
  8
0
100
AcDbSpline
 62
9
  6
CONTINUOUS
 70
0
 71
3
 72
13
 73
9
 74
0
 42
0.0000001
 43
0.0000001
 44
0.0000000001
 40
0.0
 40
0.0
 40
0.0
 40
0.0
 40
0.2937849657
 40
0.5732722404
 40
0.7002907037
 40
0.8153179242
 40
0.9160300785
 40
1.0
 40
1.0
 40
1.0
 40
1.0
 10
6.3710419957
 20
4.8359525975
 30
0.0
 10
6.3789376586
 20
4.8369484562
 30
0.0
 10
6.394354534
 20
4.838814587
 30
0.0
 10
6.4132094904
 20
4.8409036567
 30
0.0
 10
6.4272657469
 20
4.8423225046
 30
0.0
 10
6.4365104
 20
4.843186533
 30
0.0
 10
6.4446005786
 20
4.84386762
 30
0.0
 10
6.4495908215
 20
4.8442254668
 30
0.0
 10
6.4518613011
 20
4.8443627457
 30
0.0
  0
LINE
  5
5D0
100
AcDbEntity
  8
0
100
AcDbLine
 62
9
  6
CONTINUOUS
 10
6.4518613011
 20
4.8443627457
 11
6.4598428881
 21
4.8446711283
  0
LINE
  5
5D1
100
AcDbEntity
  8
0
100
AcDbLine
 62
9
  6
CONTINUOUS
 10
4.6831458476
 20
4.8349873316
 11
4.682095505
 21
4.8351248343
  0
SPLINE
  5
5D2
100
AcDbEntity
  8
0
100
AcDbSpline
 62
9
  6
CONTINUOUS
 70
0
 71
3
 72
13
 73
9
 74
0
 42
0.0000001
 43
0.0000001
 44
0.0000000001
 40
0.0
 40
0.0
 40
0.0
 40
0.0
 40
0.2820485561
 40
0.5593768917
 40
0.688180426
 40
0.8063325132
 40
0.9111871289
 40
1.0
 40
1.0
 40
1.0
 40
1.0
 10
4.682095505
 20
4.8351248343
 30
0.0
 10
4.6737881151
 20
4.8362099068
 30
0.0
 10
4.6572978062
 20
4.8382513302
 30
0.0
 10
4.6369813213
 20
4.8405159196
 30
0.0
 10
4.6214857424
 20
4.8420712458
 30
0.0
 10
4.6110792829
 20
4.8430276186
 30
0.0
 10
4.6018477137
 20
4.843782823
 30
0.0
 10
4.5961081678
 20
4.8441765217
 30
0.0
 10
4.5934743803
 20
4.8443271684
 30
0.0
  0
LINE
  5
5D3
100
AcDbEntity
  8
0
100
AcDbLine
 62
9
  6
CONTINUOUS
 10
4.5934743803
 20
4.8443271684
 11
4.5839298905
 21
4.8446711283
  0
SPLINE
  5
5D4
100
AcDbEntity
  8
0
100
AcDbSpline
 62
9
  6
CONTINUOUS
 70
0
 71
3
 72
35
 73
31
 74
0
 42
0.0000001
 43
0.0000001
 44
0.0000000001
 40
0.0
 40
0.0
 40
0.0
 40
0.0
 40
0.2163991526
 40
0.3209728346
 40
0.4209302247
 40
0.5148015121
 40
0.6012019325
 40
0.6788422886
 40
0.7466557883
 40
0.7765796209
 40
0.8037305548
 40
0.8280391628
 40
0.8494466703
 40
0.8679235659
 40
0.8834987335
 40
0.8962626834
 40
0.9064261249
 40
0.9106788934
 40
0.9145029703
 40
0.9180427509
 40
0.921478532
 40
0.925006473
 40
0.9288083945
 40
0.9330307872
 40
0.937781335
 40
0.9431348896
 40
0.9491397419
 40
0.9632120887
 40
0.980147752
 40
1.0
 40
1.0
 40
1.0
 40
1.0
 10
5.5397311852
 20
4.8446711284
 30
0.0
 10
5.5329317693
 20
4.844670155
 30
0.0
 10
5.5228454833
 20
4.8445147451
 30
0.0
 10
5.5096298067
 20
4.8439825568
 30
0.0
 10
5.5002689565
 20
4.8434394242
 30
0.0
 10
5.4914898554
 20
4.8427566707
 30
0.0
 10
5.4834257285
 20
4.841947325
 30
0.0
 10
5.4761986056
 20
4.8410232011
 30
0.0
 10
5.4707575442
 20
4.8401404937
 30
0.0
 10
5.4669089103
 20
4.8393726378
 30
0.0
 10
5.464415816
 20
4.8388021587
 30
0.0
 10
5.4622021713
 20
4.8382154831
 30
0.0
 10
5.4602757799
 20
4.8376149322
 30
0.0
 10
5.4586431215
 20
4.8370027174
 30
0.0
 10
5.4573072477
 20
4.8363813549
 30
0.0
 10
5.4562704676
 20
4.8357532713
 30
0.0
 10
5.4556167811
 20
4.8351908996
 30
0.0
 10
5.4552719503
 20
4.8347301534
 30
0.0
 10
5.4551074098
 20
4.8344017078
 30
0.0
 10
5.4550232434
 20
4.8340698318
 30
0.0
 10
5.4550218752
 20
4.8337364147
 30
0.0
 10
5.455103346
 20
4.8334049276
 30
0.0
 10
5.4552653376
 20
4.8330774348
 30
0.0
 10
5.4555056815
 20
4.8327538342
 30
0.0
 10
5.4558234763
 20
4.8324333628
 30
0.0
 10
5.4562184102
 20
4.8321154713
 30
0.0
 10
5.456883366
 20
4.8316709512
 30
0.0
 10
5.4579174127
 20
4.8311321618
 30
0.0
 10
5.4593970249
 20
4.8305252567
 30
0.0
 10
5.4604938616
 20
4.8301579352
 30
0.0
 10
5.4610897478
 20
4.829973515
 30
0.0
  0
LINE
  5
5D5
100
AcDbEntity
  8
0
100
AcDbLine
 62
9
  6
CONTINUOUS
 10
5.4610897478
 20
4.829973515
 11
5.4632580309
 21
4.8293608992
  0
SPLINE
  5
5D6
100
AcDbEntity
  8
0
100
AcDbSpline
 62
9
  6
CONTINUOUS
 70
0
 71
3
 72
31
 73
27
 74
0
 42
0.0000001
 43
0.0000001
 44
0.0000000001
 40
0.0
 40
0.0
 40
0.0
 40
0.0
 40
0.0220158798
 40
0.0411027714
 40
0.0572537421
 40
0.07052027
 40
0.0810916525
 40
0.0894584862
 40
0.0931193026
 40
0.0966460983
 40
0.1002364413
 40
0.1040779308
 40
0.1083240842
 40
0.113086904
 40
0.1244356719
 40
0.1385092751
 40
0.1554747
 40
0.1753991156
 40
0.1982812584
 40
0.2527782565
 40
0.3185033252
 40
0.3946033713
 40
0.4800505882
 40
0.5735669377
 40
0.7793798431
 40
1.0
 40
1.0
 40
1.0
 40
1.0
 10
5.6129685142
 20
4.8301602406
 30
0.0
 10
5.6136100717
 20
4.8303457114
 30
0.0
 10
5.6148013199
 20
4.8307155624
 30
0.0
 10
5.6164304539
 20
4.8313206338
 30
0.0
 10
5.617769738
 20
4.8319339679
 30
0.0
 10
5.6188157165
 20
4.8325554471
 30
0.0
 10
5.619568561
 20
4.8331862279
 30
0.0
 10
5.6199688666
 20
4.8337617544
 30
0.0
 10
5.6201010284
 20
4.8342189811
 30
0.0
 10
5.6201147131
 20
4.8345489154
 30
0.0
 10
5.6200469396
 20
4.8348775107
 30
0.0
 10
5.6198996733
 20
4.8352023692
 30
0.0
 10
5.6196754117
 20
4.8355233415
 30
0.0
 10
5.6192501982
 20
4.8359735085
 30
0.0
 10
5.6185083757
 20
4.8365205547
 30
0.0
 10
5.6173755799
 20
4.8371330423
 30
0.0
 10
5.6159501158
 20
4.8377361187
 30
0.0
 10
5.6142351737
 20
4.8383275341
 30
0.0
 10
5.611398347
 20
4.8391462007
 30
0.0
 10
5.607158192
 20
4.8400923781
 30
0.0
 10
5.6012864273
 20
4.8410942878
 30
0.0
 10
5.594450786
 20
4.8420002201
 30
0.0
 10
5.5867536099
 20
4.8427933351
 30
0.0
 10
5.5751175049
 20
4.8437160888
 30
0.0
 10
5.5593597036
 20
4.8444773425
 30
0.0
 10
5.5464234653
 20
4.8446636102
 30
0.0
 10
5.5397311852
 20
4.8446711284
 30
0.0
  0
SPLINE
  5
5D7
100
AcDbEntity
  8
0
100
AcDbSpline
 62
9
  6
CONTINUOUS
 70
0
 71
3
 72
19
 73
15
 74
0
 42
0.0000001
 43
0.0000001
 44
0.0000000001
 40
0.0
 40
0.0
 40
0.0
 40
0.0
 40
0.2217949457
 40
0.4159815496
 40
0.5820335841
 40
0.7195215003
 40
0.7774814993
 40
0.8282496738
 40
0.8718888456
 40
0.9085947542
 40
0.9387389611
 40
0.9629930767
 40
0.9826377304
 40
1.0
 40
1.0
 40
1.0
 40
1.0
 10
6.3551824253
 20
4.8329744791
 30
0.0
 10
6.3559353072
 20
4.8329745206
 30
0.0
 10
6.3573474149
 20
4.8329617196
 30
0.0
 10
6.3593222965
 20
4.8328956594
 30
0.0
 10
6.3610084846
 20
4.8327848293
 30
0.0
 10
6.3622289828
 20
4.8326504166
 30
0.0
 10
6.3630538076
 20
4.8325142536
 30
0.0
 10
6.3635600392
 20
4.8324071759
 30
0.0
 10
6.3639895956
 20
4.8322894018
 30
0.0
 10
6.3643426072
 20
4.8321610935
 30
0.0
 10
6.3646200204
 20
4.8320221729
 30
0.0
 10
6.3648233627
 20
4.8318713984
 30
0.0
 10
6.3649533183
 20
4.8317038447
 30
0.0
 10
6.364983722
 20
4.8315768876
 30
0.0
 10
6.3649838538
 20
4.8315179516
 30
0.0
  0
SPLINE
  5
5D8
100
AcDbEntity
  8
0
100
AcDbSpline
 62
9
  6
CONTINUOUS
 70
0
 71
3
 72
13
 73
9
 74
0
 42
0.0000001
 43
0.0000001
 44
0.0000000001
 40
0.0
 40
0.0
 40
0.0
 40
0.0
 40
0.2887839439
 40
0.5390200849
 40
0.6482498958
 40
0.7597934563
 40
0.8774324775
 40
1.0
 40
1.0
 40
1.0
 40
1.0
 10
6.3551824283
 20
4.8329743586
 30
0.0
 10
6.3551817928
 20
4.8344987247
 30
0.0
 10
6.3556595946
 20
4.837369085
 30
0.0
 10
6.3573170777
 20
4.8404349962
 30
0.0
 10
6.3590083066
 20
4.84226997
 30
0.0
 10
6.3604260848
 20
4.8433717137
 30
0.0
 10
6.3620855298
 20
4.8442293443
 30
0.0
 10
6.3633192565
 20
4.8445696931
 30
0.0
 10
6.363957999
 20
4.8446726142
 30
0.0
  0
LINE
  5
5D9
100
AcDbEntity
  8
0
100
AcDbLine
 62
7
  6
CONTINUOUS
 10
3.863686699
 20
4.9398945073
 11
3.8637732902
 21
4.9185204192
  0
SPLINE
  5
5DA
100
AcDbEntity
  8
0
100
AcDbSpline
 62
7
  6
CONTINUOUS
 70
0
 71
3
 72
11
 73
7
 74
0
 42
0.0000001
 43
0.0000001
 44
0.0000000001
 40
0.0
 40
0.0
 40
0.0
 40
0.0
 40
0.2519148709
 40
0.502224629
 40
0.7514269423
 40
1.0
 40
1.0
 40
1.0
 40
1.0
 10
3.717424534
 20
4.7237007056
 30
0.0
 10
3.7313547292
 20
4.7169838697
 30
0.0
 10
3.7598780657
 20
4.7050879502
 30
0.0
 10
3.8042517244
 20
4.6921416834
 30
0.0
 10
3.8496002007
 20
4.684310101
 30
0.0
 10
3.8801869184
 20
4.6825618277
 30
0.0
 10
3.8954467651
 20
4.6825633905
 30
0.0
  0
SPLINE
  5
5DB
100
AcDbEntity
  8
0
100
AcDbSpline
 62
7
  6
CONTINUOUS
 70
0
 71
3
 72
17
 73
13
 74
0
 42
0.0000001
 43
0.0000001
 44
0.0000000001
 40
0.0
 40
0.0
 40
0.0
 40
0.0
 40
0.1295673961
 40
0.2575659547
 40
0.3840706142
 40
0.4468167567
 40
0.5092308834
 40
0.633096455
 40
0.755966881
 40
0.8171583919
 40
0.8782232199
 40
1.0
 40
1.0
 40
1.0
 40
1.0
 10
4.265681967
 20
4.884855167
 30
0.0
 10
4.2552850056
 20
4.8694243753
 30
0.0
 10
4.2329215535
 20
4.8398492965
 30
0.0
 10
4.1948416806
 20
4.7997952174
 30
0.0
 10
4.1597415666
 20
4.7705676505
 30
0.0
 10
4.1299863328
 20
4.7500211565
 30
0.0
 10
4.0993600011
 20
4.7315202216
 30
0.0
 10
4.0593012227
 20
4.7121006262
 30
0.0
 10
4.0172707919
 20
4.6979510688
 30
0.0
 10
3.9829591028
 20
4.6899847312
 30
0.0
 10
3.9483626766
 20
4.6842902815
 30
0.0
 10
3.9220640378
 20
4.682562042
 30
0.0
 10
3.9045761993
 20
4.682563446
 30
0.0
  0
SPLINE
  5
5DC
100
AcDbEntity
  8
0
100
AcDbSpline
 62
9
  6
CONTINUOUS
 70
0
 71
3
 72
23
 73
19
 74
0
 42
0.0000001
 43
0.0000001
 44
0.0000000001
 40
0.0
 40
0.0
 40
0.0
 40
0.0
 40
0.0592867691
 40
0.1200497502
 40
0.1821463985
 40
0.2455126867
 40
0.3100060114
 40
0.3753219279
 40
0.4410880736
 40
0.5069039423
 40
0.5723650514
 40
0.6370982605
 40
0.700785853
 40
0.7631978061
 40
0.8242147128
 40
0.8839152819
 40
0.9424777003
 40
1.0
 40
1.0
 40
1.0
 40
1.0
 10
3.7009356767
 20
4.789516829
 30
0.0
 10
3.6979703834
 20
4.7910860043
 30
0.0
 10
3.6922356383
 20
4.7947977702
 30
0.0
 10
3.6845742252
 20
4.8017553175
 30
0.0
 10
3.6779618624
 20
4.8100152439
 30
0.0
 10
3.6725530934
 20
4.8193492604
 30
0.0
 10
3.6684852806
 20
4.8295351954
 30
0.0
 10
3.6658380889
 20
4.8403176174
 30
0.0
 10
3.6646967364
 20
4.8514359994
 30
0.0
 10
3.6650687297
 20
4.862614655
 30
0.0
 10
3.6669629113
 20
4.8735791797
 30
0.0
 10
3.6703166222
 20
4.8840637571
 30
0.0
 10
3.6750688989
 20
4.8938032734
 30
0.0
 10
3.6810852206
 20
4.9025659199
 30
0.0
 10
3.6882378154
 20
4.9101245899
 30
0.0
 10
3.6963481282
 20
4.9162988517
 30
0.0
 10
3.705216855
 20
4.9209071316
 30
0.0
 10
3.7115229181
 20
4.9228890557
 30
0.0
 10
3.7147047145
 20
4.9235756899
 30
0.0
  0
SPLINE
  5
5DD
100
AcDbEntity
  8
0
100
AcDbSpline
 62
9
  6
CONTINUOUS
 70
0
 71
3
 72
11
 73
7
 74
0
 42
0.0000001
 43
0.0000001
 44
0.0000000001
 40
0.0
 40
0.0
 40
0.0
 40
0.0
 40
0.2498664488
 40
0.4992234679
 40
0.7489731127
 40
1.0
 40
1.0
 40
1.0
 40
1.0
 10
3.7147047145
 20
4.9235756899
 30
0.0
 10
3.7269640459
 20
4.9262216138
 30
0.0
 10
3.7518085752
 20
4.9300125478
 30
0.0
 10
3.7894800077
 20
4.9310657903
 30
0.0
 10
3.8270508907
 20
4.9274538742
 30
0.0
 10
3.851660089
 20
4.9219883975
 30
0.0
 10
3.8637732902
 20
4.9185204192
 30
0.0
  0
SPLINE
  5
5DE
100
AcDbEntity
  8
0
100
AcDbSpline
 62
9
  6
CONTINUOUS
 70
0
 71
3
 72
17
 73
13
 74
0
 42
0.0000001
 43
0.0000001
 44
0.0000000001
 40
0.0
 40
0.0
 40
0.0
 40
0.0
 40
0.1315774512
 40
0.2609880766
 40
0.3882697624
 40
0.4511659546
 40
0.5135727015
 40
0.6369805223
 40
0.7588776753
 40
0.8194387974
 40
0.8798023257
 40
1.0
 40
1.0
 40
1.0
 40
1.0
 10
4.2604205014
 20
4.8879444402
 30
0.0
 10
4.2501983168
 20
4.8722426131
 30
0.0
 10
4.2282006087
 20
4.8421751888
 30
0.0
 10
4.1906442414
 20
4.8014461212
 30
0.0
 10
4.1560043853
 20
4.7717492688
 30
0.0
 10
4.1266662077
 20
4.750909027
 30
0.0
 10
4.0965685997
 20
4.7322073067
 30
0.0
 10
4.0572504326
 20
4.7125892897
 30
0.0
 10
4.0159808173
 20
4.6982647358
 30
0.0
 10
3.9823355293
 20
4.6901923644
 30
0.0
 10
3.9484737277
 20
4.6844071578
 30
0.0
 10
3.9227251044
 20
4.6826074769
 30
0.0
 10
3.9056095206
 20
4.6825632835
 30
0.0
  0
SPLINE
  5
5DF
100
AcDbEntity
  8
0
100
AcDbSpline
 62
9
  6
CONTINUOUS
 70
0
 71
3
 72
17
 73
13
 74
0
 42
0.0000001
 43
0.0000001
 44
0.0000000001
 40
0.0
 40
0.0
 40
0.0
 40
0.0
 40
0.0400731604
 40
0.0819175301
 40
0.1262091254
 40
0.1734779407
 40
0.2781714024
 40
0.3973810873
 40
0.5308766456
 40
0.6773812077
 40
0.8348507466
 40
1.0
 40
1.0
 40
1.0
 40
1.0
 10
3.7009522886
 20
4.7323480742
 30
0.0
 10
3.7003225392
 20
4.73284882
 30
0.0
 10
3.6991216248
 20
4.7339853679
 30
0.0
 10
3.6975713009
 20
4.7360008228
 30
0.0
 10
3.6962481402
 20
4.7383388603
 30
0.0
 10
3.6947461524
 20
4.7419908823
 30
0.0
 10
3.6935357601
 20
4.7473372775
 30
0.0
 10
3.6930970242
 20
4.7545213054
 30
0.0
 10
3.6936378479
 20
4.7625365386
 30
0.0
 10
3.6951371612
 20
4.7712043296
 30
0.0
 10
3.6975675949
 20
4.7803150495
 30
0.0
 10
3.6997211593
 20
4.7864315025
 30
0.0
 10
3.7009351926
 20
4.7895170399
 30
0.0
  0
LINE
  5
5E0
100
AcDbEntity
  8
0
100
AcDbLine
 62
7
  6
CONTINUOUS
 10
3.8636866995
 20
4.9398945073
 11
3.8637732918
 21
4.9185200218
  0
SPLINE
  5
5E1
100
AcDbEntity
  8
0
100
AcDbSpline
 62
7
  6
CONTINUOUS
 70
0
 71
3
 72
11
 73
7
 74
0
 42
0.0000001
 43
0.0000001
 44
0.0000000001
 40
0.0
 40
0.0
 40
0.0
 40
0.0
 40
0.2519148717
 40
0.5022246294
 40
0.7514269422
 40
1.0
 40
1.0
 40
1.0
 40
1.0
 10
3.7174245423
 20
4.7237007254
 30
0.0
 10
3.7313547498
 20
4.7169838827
 30
0.0
 10
3.7598781122
 20
4.7050879525
 30
0.0
 10
3.8042518126
 20
4.6921416793
 30
0.0
 10
3.8496003318
 20
4.6843101006
 30
0.0
 10
3.8801870778
 20
4.6825618368
 30
0.0
 10
3.8954469382
 20
4.6825634061
 30
0.0
  0
SPLINE
  5
5E2
100
AcDbEntity
  8
0
100
AcDbSpline
 62
7
  6
CONTINUOUS
 70
0
 71
3
 72
17
 73
13
 74
0
 42
0.0000001
 43
0.0000001
 44
0.0000000001
 40
0.0
 40
0.0
 40
0.0
 40
0.0
 40
0.1295673948
 40
0.2575659526
 40
0.3840706121
 40
0.4468167546
 40
0.5092308816
 40
0.6330964538
 40
0.7559668804
 40
0.8171583915
 40
0.8782232196
 40
1.0
 40
1.0
 40
1.0
 40
1.0
 10
4.2656819509
 20
4.8848551775
 30
0.0
 10
4.2552849944
 20
4.8694243917
 30
0.0
 10
4.2329215529
 20
4.8398493235
 30
0.0
 10
4.1948416989
 20
4.7997952569
 30
0.0
 10
4.1597416027
 20
4.7705676971
 30
0.0
 10
4.1299863839
 20
4.7500212064
 30
0.0
 10
4.0993600674
 20
4.7315202733
 30
0.0
 10
4.0593013089
 20
4.712100677
 30
0.0
 10
4.0172708981
 20
4.6979511143
 30
0.0
 10
3.9829592247
 20
4.6899847698
 30
0.0
 10
3.9483628139
 20
4.6842903115
 30
0.0
 10
3.9220641861
 20
4.6825620637
 30
0.0
 10
3.9045763544
 20
4.6825634612
 30
0.0
  0
SPLINE
  5
5E3
100
AcDbEntity
  8
0
100
AcDbSpline
 62
7
  6
CONTINUOUS
 70
0
 71
3
 72
28
 73
24
 74
0
 42
0.0000001
 43
0.0000001
 44
0.0000000001
 40
0.0
 40
0.0
 40
0.0
 40
0.0
 40
0.061441365
 40
0.0922519735
 40
0.1230999276
 40
0.1849046455
 40
0.2469758638
 40
0.2781521453
 40
0.3094071143
 40
0.3721119328
 40
0.4351085529
 40
0.4667163245
 40
0.4983668137
 40
0.5616984789
 40
0.6250182303
 40
0.6566551472
 40
0.6882445341
 40
0.7511956817
 40
0.8138419968
 40
0.8761646858
 40
0.9072409619
 40
0.9382565034
 40
1.0
 40
1.0
 40
1.0
 40
1.0
 10
3.7340507958
 20
4.9895835584
 30
0.0
 10
3.7273813205
 20
4.9881443556
 30
0.0
 10
3.717526975
 20
4.9851198746
 30
0.0
 10
3.7050492003
 20
4.9795093937
 30
0.0
 10
3.693042533
 20
4.9728600268
 30
0.0
 10
3.6790783262
 20
4.9627121974
 30
0.0
 10
3.6668904463
 20
4.9504432079
 30
0.0
 10
3.6583387841
 20
4.9395645481
 30
0.0
 10
3.6506056411
 20
4.9280043912
 30
0.0
 10
3.642582775
 20
4.912453116
 30
0.0
 10
3.6369168472
 20
4.8958594977
 30
0.0
 10
3.6338406014
 20
4.8821700419
 30
0.0
 10
3.6317437275
 20
4.8682589488
 30
0.0
 10
3.6309938056
 20
4.8506327812
 30
0.0
 10
3.63273966
 20
4.8330787211
 30
0.0
 10
3.6356208328
 20
4.8193135936
 30
0.0
 10
3.6394659937
 20
4.8058290374
 30
0.0
 10
3.6460699359
 20
4.7895979912
 30
0.0
 10
3.6567243062
 20
4.7715681757
 30
0.0
 10
3.6677415609
 20
4.7580960977
 30
0.0
 10
3.6776857961
 20
4.7484856881
 30
0.0
 10
3.6883085241
 20
4.7397368087
 30
0.0
 10
3.6970336749
 20
4.7341507514
 30
0.0
 10
3.7030939833
 20
4.7309437536
 30
0.0
  0
SPLINE
  5
5E4
100
AcDbEntity
  8
0
100
AcDbSpline
 62
9
  6
CONTINUOUS
 70
0
 71
3
 72
21
 73
17
 74
0
 42
0.0000001
 43
0.0000001
 44
0.0000000001
 40
0.0
 40
0.0
 40
0.0
 40
0.0
 40
0.1308720875
 40
0.2588216463
 40
0.3218526328
 40
0.3842989296
 40
0.446245609
 40
0.5077923342
 40
0.5690511521
 40
0.6301417166
 40
0.6911866409
 40
0.7523074112
 40
0.8136362831
 40
0.8753080037
 40
0.9374199999
 40
1.0
 40
1.0
 40
1.0
 40
1.0
 10
4.1460498894
 20
4.8941092046
 30
0.0
 10
4.1326425769
 20
4.8770264854
 30
0.0
 10
4.1034862378
 20
4.8452147674
 30
0.0
 10
4.0613140775
 20
4.8120287844
 30
0.0
 10
4.0251917696
 20
4.7904120985
 30
0.0
 10
3.9971911237
 20
4.776786176
 30
0.0
 10
3.9683350696
 20
4.7657534045
 30
0.0
 10
3.938798502
 20
4.7573916608
 30
0.0
 10
3.9087693133
 20
4.7517430971
 30
0.0
 10
3.8784333417
 20
4.7488563965
 30
0.0
 10
3.8479835953
 20
4.7487382192
 30
0.0
 10
3.8176099789
 20
4.7513948944
 30
0.0
 10
3.7875000326
 20
4.7568095065
 30
0.0
 10
3.7578392833
 20
4.7649498662
 30
0.0
 10
3.7288270592
 20
4.7757625783
 30
0.0
 10
3.7101138207
 20
4.7846600536
 30
0.0
 10
3.7009356538
 20
4.7895168429
 30
0.0
  0
SPLINE
  5
5E5
100
AcDbEntity
  8
0
100
AcDbSpline
 62
9
  6
CONTINUOUS
 70
0
 71
3
 72
23
 73
19
 74
0
 42
0.0000001
 43
0.0000001
 44
0.0000000001
 40
0.0
 40
0.0
 40
0.0
 40
0.0
 40
0.0592867204
 40
0.1200496403
 40
0.1821462129
 40
0.2455124105
 40
0.3100056409
 40
0.3753214722
 40
0.4410875493
 40
0.5069033804
 40
0.5723644901
 40
0.637097737
 40
0.7007854022
 40
0.7631974802
 40
0.8242145378
 40
0.8839152324
 40
0.942477732
 40
1.0
 40
1.0
 40
1.0
 40
1.0
 10
3.7009356538
 20
4.7895168429
 30
0.0
 10
3.6979703915
 20
4.7910860003
 30
0.0
 10
3.6922357065
 20
4.7947977236
 30
0.0
 10
3.6845743669
 20
4.8017551834
 30
0.0
 10
3.6779620496
 20
4.8100149949
 30
0.0
 10
3.6725532948
 20
4.8193488791
 30
0.0
 10
3.6684854638
 20
4.8295346733
 30
0.0
 10
3.6658382188
 20
4.8403169546
 30
0.0
 10
3.6646967778
 20
4.8514352054
 30
0.0
 10
3.665068649
 20
4.8626137482
 30
0.0
 10
3.6669626774
 20
4.8735781874
 30
0.0
 10
3.6703162096
 20
4.884062714
 30
0.0
 10
3.6750682909
 20
4.8938022207
 30
0.0
 10
3.6810844014
 20
4.9025649069
 30
0.0
 10
3.6882367706
 20
4.9101236787
 30
0.0
 10
3.6963468736
 20
4.9162980841
 30
0.0
 10
3.7052154251
 20
4.9209065165
 30
0.0
 10
3.7115214199
 20
4.9228884802
 30
0.0
 10
3.7147031855
 20
4.9235750968
 30
0.0
  0
SPLINE
  5
5E6
100
AcDbEntity
  8
0
100
AcDbSpline
 62
9
  6
CONTINUOUS
 70
0
 71
3
 72
11
 73
7
 74
0
 42
0.0000001
 43
0.0000001
 44
0.0000000001
 40
0.0
 40
0.0
 40
0.0
 40
0.0
 40
0.2498664019
 40
0.4992235292
 40
0.7489729704
 40
1.0
 40
1.0
 40
1.0
 40
1.0
 10
3.7147031855
 20
4.9235750968
 30
0.0
 10
3.7269626188
 20
4.926221201
 30
0.0
 10
3.7518073945
 20
4.930012433
 30
0.0
 10
3.7894792424
 20
4.9310659061
 30
0.0
 10
3.8270505559
 20
4.9274539274
 30
0.0
 10
3.8516599895
 20
4.9219881838
 30
0.0
 10
3.8637732918
 20
4.9185200218
 30
0.0
  0
SPLINE
  5
5E7
100
AcDbEntity
  8
0
100
AcDbSpline
 62
9
  6
CONTINUOUS
 70
0
 71
3
 72
17
 73
13
 74
0
 42
0.0000001
 43
0.0000001
 44
0.0000000001
 40
0.0
 40
0.0
 40
0.0
 40
0.0
 40
0.1315774362
 40
0.2609880511
 40
0.388269733
 40
0.4511659261
 40
0.5135726749
 40
0.6369805032
 40
0.7588776583
 40
0.819438776
 40
0.8798023023
 40
1.0
 40
1.0
 40
1.0
 40
1.0
 10
4.2604204855
 20
4.8879444158
 30
0.0
 10
4.2501983342
 20
4.8722426421
 30
0.0
 10
4.2282007038
 20
4.8421753162
 30
0.0
 10
4.1906444835
 20
4.8014463643
 30
0.0
 10
4.1560047691
 20
4.7717495784
 30
0.0
 10
4.1266667144
 20
4.7509093659
 30
0.0
 10
4.0965692312
 20
4.7322076602
 30
0.0
 10
4.0572512277
 20
4.712589633
 30
0.0
 10
4.0159817802
 20
4.698265029
 30
0.0
 10
3.9823366246
 20
4.6901925904
 30
0.0
 10
3.9484749477
 20
4.6844073012
 30
0.0
 10
3.9227264116
 20
4.6826075428
 30
0.0
 10
3.9056108802
 20
4.6825632871
 30
0.0
  0
LINE
  5
5E8
100
AcDbEntity
  8
0
100
AcDbLine
 62
9
  6
CONTINUOUS
 10
3.9056108802
 20
4.6825632871
 11
3.9046236069
 21
4.6825620102
  0
SPLINE
  5
5E9
100
AcDbEntity
  8
0
100
AcDbSpline
 62
9
  6
CONTINUOUS
 70
0
 71
3
 72
16
 73
12
 74
0
 42
0.0000001
 43
0.0000001
 44
0.0000000001
 40
0.0
 40
0.0
 40
0.0
 40
0.0
 40
0.1202372318
 40
0.2413294077
 40
0.3636102319
 40
0.4873531963
 40
0.6127640007
 40
0.7399581527
 40
0.8042693916
 40
0.8690529358
 40
1.0
 40
1.0
 40
1.0
 40
1.0
 10
3.9555970304
 20
4.6873078381
 30
0.0
 10
3.9703216364
 20
4.6896409025
 30
0.0
 10
3.9996307562
 20
4.6960447127
 30
0.0
 10
4.0423803583
 20
4.7106512459
 30
0.0
 10
4.0836171993
 20
4.7301487847
 30
0.0
 10
4.122922461
 20
4.7543241845
 30
0.0
 10
4.159893817
 20
4.7829348311
 30
0.0
 10
4.1883603104
 20
4.8101298698
 30
0.0
 10
4.209619827
 20
4.8337641027
 30
0.0
 10
4.2299708856
 20
4.8587853976
 30
0.0
 10
4.2438764361
 20
4.8787366422
 30
0.0
 10
4.2525181335
 20
4.8924820291
 30
0.0
  0
SPLINE
  5
5EA
100
AcDbEntity
  8
0
100
AcDbSpline
 62
9
  6
CONTINUOUS
 70
0
 71
3
 72
19
 73
15
 74
0
 42
0.0000001
 43
0.0000001
 44
0.0000000001
 40
0.0
 40
0.0
 40
0.0
 40
0.0
 40
0.0410766959
 40
0.0832415864
 40
0.1273940458
 40
0.1742935213
 40
0.2244934224
 40
0.2783662074
 40
0.3361050042
 40
0.3976989076
 40
0.5318367026
 40
0.6790614838
 40
0.836538695
 40
1.0
 40
1.0
 40
1.0
 40
1.0
 10
3.734050614
 20
4.9895807933
 30
0.0
 10
3.7330574726
 20
4.9893654074
 30
0.0
 10
3.7310814534
 20
4.9887378699
 30
0.0
 10
3.7282864364
 20
4.9872477636
 30
0.0
 10
3.7256729502
 20
4.9852157563
 30
0.0
 10
3.7232642825
 20
4.9826678605
 30
0.0
 10
3.7210732584
 20
4.9796313379
 30
0.0
 10
3.719116292
 20
4.9761302753
 30
0.0
 10
3.717408465
 20
4.9721934107
 30
0.0
 10
3.715419223
 20
4.9662396624
 30
0.0
 10
3.7136896528
 20
4.9579018037
 30
0.0
 10
3.7128071183
 20
4.9470590596
 30
0.0
 10
3.7130958685
 20
4.9354615708
 30
0.0
 10
3.7140422769
 20
4.9275649836
 30
0.0
 10
3.7147049058
 20
4.9235756424
 30
0.0
  0
SPLINE
  5
5EB
100
AcDbEntity
  8
0
100
AcDbSpline
 62
9
  6
CONTINUOUS
 70
0
 71
3
 72
15
 73
11
 74
0
 42
0.0000001
 43
0.0000001
 44
0.0000000001
 40
0.0
 40
0.0
 40
0.0
 40
0.0
 40
0.1327152388
 40
0.2646720482
 40
0.3950498678
 40
0.5231201425
 40
0.6481985666
 40
0.7696783672
 40
0.8871060946
 40
1.0
 40
1.0
 40
1.0
 40
1.0
 10
8.6773284004
 20
8.0820246321
 30
0.0
 10
8.6773283734
 20
8.0912681086
 30
0.0
 10
8.676903034
 20
8.109704851
 30
0.0
 10
8.6750338824
 20
8.1371649028
 30
0.0
 10
8.671968321
 20
8.1641920837
 30
0.0
 10
8.6677910944
 20
8.1905841174
 30
0.0
 10
8.6626099163
 20
8.2161650702
 30
0.0
 10
8.6565357114
 20
8.2407852227
 30
0.0
 10
8.6497297712
 20
8.2643296272
 30
0.0
 10
8.6446983184
 20
8.2795662631
 30
0.0
 10
8.6420963433
 20
8.2869862076
 30
0.0
  0
LINE
  5
5EC
100
AcDbEntity
  8
0
100
AcDbLine
 62
9
  6
CONTINUOUS
 10
8.5083165719
 20
8.5655416128
 11
8.5048282842
 21
8.5928144515
  0
SPLINE
  5
5ED
100
AcDbEntity
  8
0
100
AcDbSpline
 62
9
  6
CONTINUOUS
 70
0
 71
3
 72
36
 73
32
 74
0
 42
0.0000001
 43
0.0000001
 44
0.0000000001
 40
0.0
 40
0.0
 40
0.0
 40
0.0
 40
0.0000932705
 40
0.0003677152
 40
0.0008230766
 40
0.0014590968
 40
0.002275518
 40
0.0032720825
 40
0.0058046103
 40
0.0090543548
 40
0.0130142713
 40
0.0176732423
 40
0.0230200241
 40
0.0357320872
 40
0.0510597547
 40
0.0688947161
 40
0.0891132786
 40
0.1115916159
 40
0.1362038516
 40
0.1628213455
 40
0.1913160782
 40
0.2534441934
 40
0.3216733947
 40
0.3951572343
 40
0.4731719048
 40
0.5550465492
 40
0.6401282632
 40
0.7277958108
 40
0.8174333951
 40
0.9084232136
 40
1.0
 40
1.0
 40
1.0
 40
1.0
 10
6.722329777
 20
8.6670233164
 30
0.0
 10
6.7223385638
 20
8.6670184451
 30
0.0
 10
6.7223758327
 20
8.6670045468
 30
0.0
 10
6.722456178
 20
8.6669672537
 30
0.0
 10
6.7225915957
 20
8.6669095861
 30
0.0
 10
6.7227798062
 20
8.6668271447
 30
0.0
 10
6.7230218207
 20
8.6667221544
 30
0.0
 10
6.7234510893
 20
8.6665355459
 30
0.0
 10
6.7241209235
 20
8.6662448571
 30
0.0
 10
6.7250836512
 20
8.6658272873
 30
0.0
 10
6.7262569074
 20
8.6653194733
 30
0.0
 10
6.727638182
 20
8.6647236003
 30
0.0
 10
6.7298865012
 20
8.6637575811
 30
0.0
 10
6.7331944163
 20
8.6623466324
 30
0.0
 10
6.7377468403
 20
8.6604248528
 30
0.0
 10
6.7430543902
 20
8.6582129292
 30
0.0
 10
6.7490868272
 20
8.6557383357
 30
0.0
 10
6.7558117136
 20
8.6530285782
 30
0.0
 10
6.7631965148
 20
8.6501128032
 30
0.0
 10
6.771208748
 20
8.6470221118
 30
0.0
 10
6.7830301666
 20
8.6425791951
 30
0.0
 10
6.7991340132
 20
8.6367920142
 30
0.0
 10
6.8199589936
 20
8.629826681
 30
0.0
 10
6.8425928254
 20
8.6228962796
 30
0.0
 10
6.8668387032
 20
8.6162434377
 30
0.0
 10
6.8925075996
 20
8.6101056875
 30
0.0
 10
6.919403415
 20
8.604699616
 30
0.0
 10
6.9473216381
 20
8.6002462182
 30
0.0
 10
6.9760373663
 20
8.5969077024
 30
0.0
 10
7.0052958907
 20
8.5948535827
 30
0.0
 10
7.024964108
 20
8.5943834392
 30
0.0
 10
7.0348283641
 20
8.5943833301
 30
0.0
  0
SPLINE
  5
5EE
100
AcDbEntity
  8
0
100
AcDbSpline
 62
9
  6
CONTINUOUS
 70
0
 71
3
 72
15
 73
11
 74
0
 42
0.0000001
 43
0.0000001
 44
0.0000000001
 40
0.0
 40
0.0
 40
0.0
 40
0.0
 40
0.1134530904
 40
0.2312763536
 40
0.3530014737
 40
0.4781197811
 40
0.606022023
 40
0.7361105987
 40
0.867691708
 40
1.0
 40
1.0
 40
1.0
 40
1.0
 10
8.6436565986
 20
7.8815216524
 30
0.0
 10
8.6461612856
 20
7.8888275643
 30
0.0
 10
8.650995219
 20
7.9038155859
 30
0.0
 10
8.6575164623
 20
7.9269502254
 30
0.0
 10
8.6633123071
 20
7.9510958258
 30
0.0
 10
8.668251645
 20
7.976131233
 30
0.0
 10
8.6722355228
 20
8.001913248
 30
0.0
 10
8.67514636
 20
8.0282818029
 30
0.0
 10
8.6769237413
 20
8.055051
 30
0.0
 10
8.6773282506
 20
8.073017734
 30
0.0
 10
8.6773282685
 20
8.0820246321
 30
0.0
  0
SPLINE
  5
5EF
100
AcDbEntity
  8
0
100
AcDbSpline
 62
9
  6
CONTINUOUS
 70
0
 71
3
 72
14
 73
10
 74
0
 42
0.0000001
 43
0.0000001
 44
0.0000000001
 40
0.0
 40
0.0
 40
0.0
 40
0.0
 40
0.2431198108
 40
0.3668920902
 40
0.4919422294
 40
0.6180418504
 40
0.7449495128
 40
0.8723791634
 40
1.0
 40
1.0
 40
1.0
 40
1.0
 10
7.0281091246
 20
8.2942883443
 30
0.0
 10
7.0227852789
 20
8.2776387067
 30
0.0
 10
7.0156680266
 20
8.2522047481
 30
0.0
 10
7.0080712124
 20
8.2176538062
 30
0.0
 10
7.0033075827
 20
8.1911140145
 30
0.0
 10
6.9995483658
 20
8.1641863979
 30
0.0
 10
6.9968366856
 20
8.1369607406
 30
0.0
 10
6.9951982928
 20
8.1095404044
 30
0.0
 10
6.9948299919
 20
8.0912004557
 30
0.0
 10
6.9948298154
 20
8.0820246321
 30
0.0
  0
SPLINE
  5
5F0
100
AcDbEntity
  8
0
100
AcDbSpline
 62
9
  6
CONTINUOUS
 70
0
 71
3
 72
13
 73
9
 74
0
 42
0.0000001
 43
0.0000001
 44
0.0000000001
 40
0.0
 40
0.0
 40
0.0
 40
0.0
 40
0.25513087
 40
0.3820728192
 40
0.5082058952
 40
0.6332478726
 40
0.7570015741
 40
1.0
 40
1.0
 40
1.0
 40
1.0
 10
6.9948283836
 20
8.0820246321
 30
0.0
 10
6.9948284633
 20
8.0634395204
 30
0.0
 10
6.9959705716
 20
8.0355906862
 30
0.0
 10
6.9996899615
 20
7.9987512817
 30
0.0
 10
7.0035381243
 20
7.9714694909
 30
0.0
 10
7.0084269902
 20
7.9445910766
 30
0.0
 10
7.0162182866
 20
7.9096172722
 30
0.0
 10
7.0235104325
 20
7.8838811575
 30
0.0
 10
7.0289682728
 20
7.867042254
 30
0.0
  0
SPLINE
  5
5F1
100
AcDbEntity
  8
0
100
AcDbSpline
 62
9
  6
CONTINUOUS
 70
0
 71
3
 72
15
 73
11
 74
0
 42
0.0000001
 43
0.0000001
 44
0.0000000001
 40
0.0
 40
0.0
 40
0.0
 40
0.0
 40
0.1165384439
 40
0.2348372276
 40
0.3553731042
 40
0.4788276775
 40
0.6055020621
 40
0.7352077101
 40
0.8672848077
 40
1.0
 40
1.0
 40
1.0
 40
1.0
 10
7.1848283638
 20
8.5768667935
 30
0.0
 10
7.1848283638
 20
8.5780107788
 30
0.0
 10
7.1845626223
 20
8.5803233088
 30
0.0
 10
7.1834126691
 20
8.5836449781
 30
0.0
 10
7.1815357716
 20
8.5866975014
 30
0.0
 10
7.1790256458
 20
8.5893646683
 30
0.0
 10
7.175973736
 20
8.5915452373
 30
0.0
 10
7.1724991018
 20
8.5931671085
 30
0.0
 10
7.1687354415
 20
8.5941558743
 30
0.0
 10
7.1661311461
 20
8.5943833301
 30
0.0
 10
7.1648283638
 20
8.5943833301
 30
0.0
  0
SPLINE
  5
5F2
100
AcDbEntity
  8
0
100
AcDbSpline
 62
9
  6
CONTINUOUS
 70
0
 71
3
 72
30
 73
26
 74
0
 42
0.0000001
 43
0.0000001
 44
0.0000000001
 40
0.0
 40
0.0
 40
0.0
 40
0.0
 40
0.0921396622
 40
0.1836632521
 40
0.2737965173
 40
0.3618975599
 40
0.5294075431
 40
0.6076250888
 40
0.6811908434
 40
0.7493144509
 40
0.811162007
 40
0.8658506082
 40
0.8902130975
 40
0.9124239027
 40
0.9323622435
 40
0.9499197607
 40
0.9649908678
 40
0.9774695063
 40
0.9872596982
 40
0.9911290513
 40
0.994307301
 40
0.9967889868
 40
0.9985686445
 40
0.9996408061
 40
1.0
 40
1.0
 40
1.0
 40
1.0
 10
7.0348283638
 20
8.6491226229
 30
0.0
 10
7.0266613856
 20
8.6491228356
 30
0.0
 10
7.0103771856
 20
8.6496830266
 30
0.0
 10
6.9862136907
 20
8.6521068313
 30
0.0
 10
6.9626102185
 20
8.656026345
 30
0.0
 10
6.9327135341
 20
8.6628237626
 30
0.0
 10
6.9044260504
 20
8.6716941612
 30
0.0
 10
6.8780269151
 20
8.6819055715
 30
0.0
 10
6.8601174234
 20
8.6896099664
 30
0.0
 10
6.8437789003
 20
8.6972661178
 30
0.0
 10
6.8291513959
 20
8.7046140437
 30
0.0
 10
6.8181186107
 20
8.7104682018
 30
0.0
 10
6.8102517413
 20
8.7147895938
 30
0.0
 10
6.8051081291
 20
8.7176704903
 30
0.0
 10
6.8005089315
 20
8.720288759
 30
0.0
 10
6.7964744189
 20
8.7226195847
 30
0.0
 10
6.7930236782
 20
8.7246389651
 30
0.0
 10
6.7901748704
 20
8.7263237326
 30
0.0
 10
6.7881840389
 20
8.7275087247
 30
0.0
 10
6.7869031326
 20
8.7282746801
 30
0.0
 10
6.7861789074
 20
8.7287093402
 30
0.0
 10
6.785613615
 20
8.7290488657
 30
0.0
 10
6.7852094137
 20
8.7292940636
 30
0.0
 10
6.7849648998
 20
8.7294396978
 30
0.0
 10
6.7848574665
 20
8.7295072634
 30
0.0
 10
6.7848298262
 20
8.7295230643
 30
0.0
  0
SPLINE
  5
5F3
100
AcDbEntity
  8
0
100
AcDbSpline
 62
9
  6
CONTINUOUS
 70
0
 71
3
 72
37
 73
33
 74
0
 42
0.0000001
 43
0.0000001
 44
0.0000000001
 40
0.0
 40
0.0
 40
0.0
 40
0.0
 40
0.0001052721
 40
0.0004190488
 40
0.0009399925
 40
0.0016667661
 40
0.0025980323
 40
0.003732454
 40
0.0066054162
 40
0.010274959
 40
0.0147303906
 40
0.0199610215
 40
0.0259561646
 40
0.0327030705
 40
0.0401807378
 40
0.0572361492
 40
0.0769381537
 40
0.0991027819
 40
0.1235475962
 40
0.1500954635
 40
0.1785711524
 40
0.2088002534
 40
0.2738744803
 40
0.3441950015
 40
0.4187499907
 40
0.4966990462
 40
0.5773027225
 40
0.6599014789
 40
0.743955403
 40
0.8288817529
 40
0.9143816115
 40
1.0
 40
1.0
 40
1.0
 40
1.0
 10
8.8848266787
 20
8.4995227209
 30
0.0
 10
8.8848201425
 20
8.4995147706
 30
0.0
 10
8.8847879781
 20
8.4994888716
 30
0.0
 10
8.8847232071
 20
8.4994238855
 30
0.0
 10
8.8846106024
 20
8.4993206191
 30
0.0
 10
8.8844557162
 20
8.4991744248
 30
0.0
 10
8.8842562098
 20
8.4989880289
 30
0.0
 10
8.883903696
 20
8.4986580912
 30
0.0
 10
8.8833551211
 20
8.4981458354
 30
0.0
 10
8.8825686794
 20
8.4974125919
 30
0.0
 10
8.8816127624
 20
8.4965231018
 30
0.0
 10
8.8804894115
 20
8.4954797829
 30
0.0
 10
8.8792007489
 20
8.4942852524
 30
0.0
 10
8.8777496414
 20
8.4929428113
 30
0.0
 10
8.8755019775
 20
8.4908690741
 30
0.0
 10
8.8723159865
 20
8.4879445174
 30
0.0
 10
8.8680565353
 20
8.4840660537
 30
0.0
 10
8.863242792
 20
8.4797233789
 30
0.0
 10
8.8579073797
 20
8.4749598898
 30
0.0
 10
8.8520796258
 20
8.469821595
 30
0.0
 10
8.8457884939
 20
8.4643540269
 30
0.0
 10
8.8365912153
 20
8.4564889028
 30
0.0
 10
8.824141112
 20
8.446133471
 30
0.0
 10
8.8080583336
 20
8.4333757076
 30
0.0
 10
8.7906090513
 20
8.4203266364
 30
0.0
 10
8.771855612
 20
8.4073651942
 30
0.0
 10
8.7518535824
 20
8.3948632157
 30
0.0
 10
8.730598547
 20
8.3833099858
 30
0.0
 10
8.7081371132
 20
8.3732158815
 30
0.0
 10
8.68451439
 20
8.365246553
 30
0.0
 10
8.6599478475
 20
8.3601231467
 30
0.0
 10
8.6431990573
 20
8.3588822994
 30
0.0
 10
8.6348283637
 20
8.3588821335
 30
0.0
  0
SPLINE
  5
5F4
100
AcDbEntity
  8
0
100
AcDbSpline
 62
9
  6
CONTINUOUS
 70
0
 71
3
 72
56
 73
52
 74
0
 42
0.0000001
 43
0.0000001
 44
0.0000000001
 40
0.0
 40
0.0
 40
0.0
 40
0.0
 40
0.0000066099
 40
0.0000264397
 40
0.0000594895
 40
0.0001057593
 40
0.000165249
 40
0.0002379588
 40
0.0004230381
 40
0.0006609975
 40
0.0009518355
 40
0.0012954916
 40
0.0016918266
 40
0.0026419537
 40
0.0038010579
 40
0.0051679805
 40
0.0067415626
 40
0.0085206211
 40
0.0105034705
 40
0.0126879573
 40
0.0150719102
 40
0.0204295304
 40
0.0265583956
 40
0.0334371665
 40
0.0410432521
 40
0.049353743
 40
0.0583437836
 40
0.0679878047
 40
0.0782602685
 40
0.1005892391
 40
0.1251295505
 40
0.1516875411
 40
0.1800776728
 40
0.2101329399
 40
0.2416968683
 40
0.2746291372
 40
0.3087985324
 40
0.3440938392
 40
0.4176597376
 40
0.4946183343
 40
0.5744048602
 40
0.6152095077
 40
0.6565457638
 40
0.6983622492
 40
0.7406115558
 40
0.783238008
 40
0.8261866338
 40
0.8693983395
 40
0.9128169302
 40
0.9563785891
 40
1.0
 40
1.0
 40
1.0
 40
1.0
 10
8.9473281939
 20
8.4370245097
 30
0.0
 10
8.9473279392
 20
8.4370252121
 30
0.0
 10
8.9473245028
 20
8.437020921
 30
0.0
 10
8.9473197133
 20
8.4370199072
 30
0.0
 10
8.9473097537
 20
8.4370124109
 30
0.0
 10
8.9472967387
 20
8.4370046427
 30
0.0
 10
8.9472796323
 20
8.4369935601
 30
0.0
 10
8.9472494156
 20
8.4369744293
 30
0.0
 10
8.9472021108
 20
8.4369442691
 30
0.0
 10
8.9471340426
 20
8.436900987
 30
0.0
 10
8.9470508357
 20
8.4368480352
 30
0.0
 10
8.9469525297
 20
8.436785492
 30
0.0
 10
8.9467913407
 20
8.436682949
 30
0.0
 10
8.9465523617
 20
8.4365309677
 30
0.0
 10
8.9462207591
 20
8.4363201879
 30
0.0
 10
8.9458296179
 20
8.4360717079
 30
0.0
 10
8.9453792456
 20
8.4357857803
 30
0.0
 10
8.9448700025
 20
8.4354626871
 30
0.0
 10
8.9443023307
 20
8.4351027916
 30
0.0
 10
8.9436767556
 20
8.4347065339
 30
0.0
 10
8.942728666
 20
8.4341065645
 30
0.0
 10
8.9414032141
 20
8.4332691527
 30
0.0
 10
8.9396470967
 20
8.4321621824
 30
0.0
 10
8.9376744212
 20
8.4309221567
 30
0.0
 10
8.9354910074
 20
8.4295540218
 30
0.0
 10
8.9331030222
 20
8.4280629242
 30
0.0
 10
8.930516835
 20
8.4264543282
 30
0.0
 10
8.9277390568
 20
8.4247338814
 30
0.0
 10
8.9236743755
 20
8.4222277812
 30
0.0
 10
8.9181647787
 20
8.4188569323
 30
0.0
 10
8.911062389
 20
8.4145624357
 30
0.0
 10
8.9033461671
 20
8.4099592982
 30
0.0
 10
8.8950619813
 20
8.4050918335
 30
0.0
 10
8.8862509184
 20
8.4000046502
 30
0.0
 10
8.8769498234
 20
8.3947401057
 30
0.0
 10
8.8671921865
 20
8.389339038
 30
0.0
 10
8.8570073582
 20
8.3838399605
 30
0.0
 10
8.8426911656
 20
8.3763274887
 30
0.0
 10
8.8238974149
 20
8.3669417946
 30
0.0
 10
8.8002433196
 20
8.3560577718
 30
0.0
 10
8.7795942711
 20
8.3475370862
 30
0.0
 10
8.7624321868
 20
8.3411703487
 30
0.0
 10
8.7491692383
 20
8.336646545
 30
0.0
 10
8.7356218971
 20
8.3324686486
 30
0.0
 10
8.7218049784
 20
8.3286941529
 30
0.0
 10
8.7077402912
 20
8.3253726987
 30
0.0
 10
8.6934544256
 20
8.3225559738
 30
0.0
 10
8.6789772483
 20
8.3203054757
 30
0.0
 10
8.6643478319
 20
8.3186684603
 30
0.0
 10
8.6496150869
 20
8.3176649544
 30
0.0
 10
8.6397590468
 20
8.3174360779
 30
0.0
 10
8.6348283582
 20
8.3174362828
 30
0.0
  0
SPLINE
  5
5F5
100
AcDbEntity
  8
0
100
AcDbSpline
 62
9
  6
CONTINUOUS
 70
0
 71
3
 72
17
 73
13
 74
0
 42
0.0000001
 43
0.0000001
 44
0.0000000001
 40
0.0
 40
0.0
 40
0.0
 40
0.0
 40
0.1247729347
 40
0.187243113
 40
0.2497219489
 40
0.3745793293
 40
0.4995091655
 40
0.6244941344
 40
0.7495457659
 40
0.8122209957
 40
0.8749487058
 40
1.0
 40
1.0
 40
1.0
 40
1.0
 10
4.7415862899
 20
8.2486848656
 30
0.0
 10
4.7235501505
 20
8.2459640343
 30
0.0
 10
4.6967950094
 20
8.2391686261
 30
0.0
 10
4.6630694047
 20
8.2250839769
 30
0.0
 10
4.6308790566
 20
8.2077268566
 30
0.0
 10
4.5940496659
 20
8.1802181236
 30
0.0
 10
4.5572100735
 20
8.1391974264
 30
0.0
 10
4.5290196332
 20
8.0917834786
 30
0.0
 10
4.5136839562
 20
8.0483804383
 30
0.0
 10
4.5066587701
 20
8.0123931352
 30
0.0
 10
4.5032098239
 20
7.9759010113
 30
0.0
 10
4.5046186487
 20
7.9482569273
 30
0.0
 10
4.50734555
 20
7.9301805506
 30
0.0
  0
SPLINE
  5
5F6
100
AcDbEntity
  8
0
100
AcDbSpline
 62
9
  6
CONTINUOUS
 70
0
 71
3
 72
23
 73
19
 74
0
 42
0.0000001
 43
0.0000001
 44
0.0000000001
 40
0.0
 40
0.0
 40
0.0
 40
0.0
 40
0.006613837
 40
0.0142611616
 40
0.0233870326
 40
0.0342454875
 40
0.0469781869
 40
0.0616648449
 40
0.0970127839
 40
0.1402557784
 40
0.1911465487
 40
0.2493575453
 40
0.3143872498
 40
0.3856366271
 40
0.4624920532
 40
0.6302757556
 40
0.8118623143
 40
1.0
 40
1.0
 40
1.0
 40
1.0
 10
7.734482476
 20
8.700116016
 30
0.0
 10
7.7351137867
 20
8.7001124215
 30
0.0
 10
7.7364778106
 20
8.6998402066
 30
0.0
 10
7.7384659917
 20
8.6987822497
 30
0.0
 10
7.7405122622
 20
8.6970988994
 30
0.0
 10
7.7426280947
 20
8.6947924279
 30
0.0
 10
7.7448188624
 20
8.6918626659
 30
0.0
 10
7.7480374505
 20
8.6868041988
 30
0.0
 10
7.7521346002
 20
8.6788824278
 30
0.0
 10
7.7570376921
 20
8.6675315786
 30
0.0
 10
7.7621300375
 20
8.653904873
 30
0.0
 10
7.7673566908
 20
8.6381234033
 30
0.0
 10
7.7726690567
 20
8.6203324057
 30
0.0
 10
7.7780173222
 20
8.600701564
 30
0.0
 10
7.7853369107
 20
8.5714486747
 30
0.0
 10
7.7941236755
 20
8.5317152599
 30
0.0
 10
7.8037353436
 20
8.4813103098
 30
0.0
 10
7.8094439499
 20
8.4464784697
 30
0.0
 10
7.8121227747
 20
8.4287207876
 30
0.0
  0
SPLINE
  5
5F7
100
AcDbEntity
  8
0
100
AcDbSpline
 62
9
  6
CONTINUOUS
 70
0
 71
3
 72
17
 73
13
 74
0
 42
0.0000001
 43
0.0000001
 44
0.0000000001
 40
0.0
 40
0.0
 40
0.0
 40
0.0
 40
0.1250512942
 40
0.1877790043
 40
0.2504542341
 40
0.3755058656
 40
0.5004908345
 40
0.6254206707
 40
0.7502780511
 40
0.812756887
 40
0.8752270653
 40
1.0
 40
1.0
 40
1.0
 40
1.0
 10
4.50734555
 20
7.9301805506
 30
0.0
 10
4.5100724512
 20
7.9121041738
 30
0.0
 10
4.5168812042
 20
7.8852746928
 30
0.0
 10
4.5309416835
 20
7.8514239431
 30
0.0
 10
4.5482703351
 20
7.8191105239
 30
0.0
 10
4.5757272592
 20
7.7821629364
 30
0.0
 10
4.6166500917
 20
7.745175031
 30
0.0
 10
4.6639511963
 20
7.7168473295
 30
0.0
 10
4.7072565831
 20
7.7014272815
 30
0.0
 10
4.7431346902
 20
7.6943385882
 30
0.0
 10
4.7795143681
 20
7.6908296305
 30
0.0
 10
4.8070834838
 20
7.6922292763
 30
0.0
 10
4.8251196233
 20
7.6949501076
 30
0.0
  0
SPLINE
  5
5F8
100
AcDbEntity
  8
0
100
AcDbSpline
 62
9
  6
CONTINUOUS
 70
0
 71
3
 72
23
 73
19
 74
0
 42
0.0000001
 43
0.0000001
 44
0.0000000001
 40
0.0
 40
0.0
 40
0.0
 40
0.0
 40
0.1903240143
 40
0.3738242382
 40
0.460599547
 40
0.5430114185
 40
0.6203055643
 40
0.6917928742
 40
0.7568377728
 40
0.8148216461
 40
0.8652493228
 40
0.8875271653
 40
0.9077999011
 40
0.9260404391
 40
0.9422325372
 40
0.9563894983
 40
0.9685674365
 40
1.0
 40
1.0
 40
1.0
 40
1.0
 10
7.8121227747
 20
8.4287207876
 30
0.0
 10
7.8148368048
 20
8.4107297324
 30
0.0
 10
7.8197116484
 20
8.3753223883
 30
0.0
 10
7.824571274
 20
8.3315526217
 30
0.0
 10
7.8275194853
 20
8.2979642314
 30
0.0
 10
7.8291935132
 20
8.2744594191
 30
0.0
 10
7.830354526
 20
8.2523868358
 30
0.0
 10
7.8309936374
 20
8.2319536895
 30
0.0
 10
7.8311108045
 20
8.2133562466
 30
0.0
 10
7.8307026543
 20
8.196776179
 30
0.0
 10
7.8299020427
 20
8.1843031762
 30
0.0
 10
7.828961869
 20
8.1754628336
 30
0.0
 10
7.8281600325
 20
8.1697067278
 30
0.0
 10
7.8272319017
 20
8.164554799
 30
0.0
 10
7.8261883799
 20
8.1600372534
 30
0.0
 10
7.8250022262
 20
8.1561093298
 30
0.0
 10
7.8230524085
 20
8.1511075129
 30
0.0
 10
7.8202239542
 20
8.1467748212
 30
0.0
 10
7.8172526792
 20
8.1463265912
 30
0.0
  0
ENDSEC
  0
SECTION
  2
OBJECTS
  0
DICTIONARY
  5
C
100
AcDbDictionary
280
0
281
1
  3
ACAD_GROUP
350
D
  3
ACAD_MLINESTYLE
350
17
  3
ACAD_LAYOUT
350
1A
  3
ACAD_PLOTSETTINGS
350
19
  3
ACAD_PLOTSTYLENAME
350
E
  0
DICTIONARY
  5
D
102
{ACAD_REACTORS
330
C
102
}
100
AcDbDictionary
280
0
281
1
  0
ACDBDICTIONARYWDFLT
  5
E
102
{ACAD_REACTORS
330
C
102
}
100
AcDbDictionary
281
1
  3
Normal
350
F
100
AcDbDictionaryWithDefault
340
F
  0
DICTIONARY
  5
17
102
{ACAD_REACTORS
330
C
102
}
100
AcDbDictionary
280
0
281
1
  3
Standard
350
18
  0
DICTIONARY
  5
19
102
{ACAD_REACTORS
330
C
102
}
100
AcDbDictionary
281
1
  0
DICTIONARY
  5
1A
102
{ACAD_REACTORS
330
C
102
}
100
AcDbDictionary
281
1
  3
Model
350
5F9
  3
Layout1
350
5FA
  0
ACDBPLACEHOLDER
  5
F
102
{ACAD_REACTORS
330
E
102
}
  0
MLINESTYLE
  5
18
102
{ACAD_REACTORS
330
17
102
}
100
AcDbMlineStyle
  2
STANDARD
 70
0
  3

 62
256
 51
90.0
 52
90.0
 71
2
 49
0.5
 62
256
  6
BYLAYER
 49
-0.5
 62
256
  6
BYLAYER
  0
LAYOUT
  5
5F9
102
{ACAD_REACTORS
330
1A
102
}
100
AcDbPlotSettings
  1

  2
none_device
  4
ANSI_C_(22.00_x_17.00_Inches)
  6

 40
0.0
 41
0.0
 42
0.0
 43
0.0
 44
558.8
 45
431.8
 46
0.0
 47
0.0
 48
0.0
 49
0.0
140
0.0
141
0.0
142
1.0
143
1.0
 70
1024
 72
0
 73
0
 74
0
  7

 75
0
147
1.0
148
0.0
149
0.0
100
AcDbLayout
  1
Model
 70
0
 71
0
 10
0.0
 20
0.0
 11
22.0
 21
17.0
 12
0.0
 22
0.0
 32
0.0
 14
0.0
 24
0.0
 34
0.0
 15
0.0
 25
0.0
 35
0.0
146
0.0
 13
0.0
 23
0.0
 33
0.0
 16
1.0
 26
0.0
 36
0.0
 17
0.0
 27
1.0
 37
0.0
 76
0
330
202
345
0
346
0
  0
LAYOUT
  5
5FA
102
{ACAD_REACTORS
330
1A
102
}
100
AcDbPlotSettings
  1

  2
none_device
  4
ANSI_C_(22.00_x_17.00_Inches)
  6

 40
0.0
 41
0.0
 42
0.0
 43
0.0
 44
558.8
 45
431.8
 46
0.0
 47
0.0
 48
0.0
 49
0.0
140
0.0
141
0.0
142
1.0
143
1.0
 70
0
 72
0
 73
0
 74
0
  7

 75
0
147
1.0
148
0.0
149
0.0
100
AcDbLayout
  1
Layout1
 70
0
 71
1
 10
0.0
 20
0.0
 11
22.0
 21
17.0
 12
0.0
 22
0.0
 32
0.0
 14
0.0
 24
0.0
 34
0.0
 15
0.0
 25
0.0
 35
0.0
146
0.0
 13
0.0
 23
0.0
 33
0.0
 16
1.0
 26
0.0
 36
0.0
 17
0.0
 27
1.0
 37
0.0
 76
0
330
203
345
0
346
0
  0
ENDSEC
  0
EOF
