ISO-10303-21;
HEADER;
FILE_DESCRIPTION((''),'2;1');
FILE_NAME('990-1650','2021-10-28T13:42:48',('jinson.thomas'),(''),
'CREO PARAMETRIC BY PTC INC, 2018400','CREO PARAMETRIC BY PTC INC, 2018400','');
FILE_SCHEMA(('CONFIG_CONTROL_DESIGN'));
ENDSEC;
DATA;
#2=CARTESIAN_POINT('',(0.E0,0.E0,-2.E-2));
#3=DIRECTION('',(0.E0,0.E0,1.E0));
#4=DIRECTION('',(0.E0,-1.E0,0.E0));
#5=AXIS2_PLACEMENT_3D('',#2,#3,#4);
#7=CARTESIAN_POINT('',(0.E0,0.E0,-2.6E-1));
#8=DIRECTION('',(0.E0,0.E0,-1.E0));
#9=DIRECTION('',(0.E0,1.E0,0.E0));
#10=AXIS2_PLACEMENT_3D('',#7,#8,#9);
#12=CARTESIAN_POINT('',(0.E0,-8.55E-1,-2.E-2));
#13=DIRECTION('',(1.E0,0.E0,0.E0));
#14=DIRECTION('',(0.E0,0.E0,1.E0));
#15=AXIS2_PLACEMENT_3D('',#12,#13,#14);
#17=CARTESIAN_POINT('',(0.E0,0.E0,0.E0));
#18=DIRECTION('',(0.E0,0.E0,1.E0));
#19=DIRECTION('',(0.E0,1.E0,0.E0));
#20=AXIS2_PLACEMENT_3D('',#17,#18,#19);
#22=CARTESIAN_POINT('',(0.E0,0.E0,0.E0));
#23=DIRECTION('',(0.E0,0.E0,1.E0));
#24=DIRECTION('',(0.E0,-1.E0,0.E0));
#25=AXIS2_PLACEMENT_3D('',#22,#23,#24);
#27=CARTESIAN_POINT('',(0.E0,0.E0,0.E0));
#28=DIRECTION('',(0.E0,0.E0,1.E0));
#29=DIRECTION('',(1.E0,0.E0,0.E0));
#30=AXIS2_PLACEMENT_3D('',#27,#28,#29);
#32=CARTESIAN_POINT('',(0.E0,0.E0,0.E0));
#33=DIRECTION('',(0.E0,0.E0,1.E0));
#34=DIRECTION('',(-1.E0,0.E0,0.E0));
#35=AXIS2_PLACEMENT_3D('',#32,#33,#34);
#37=CARTESIAN_POINT('',(0.E0,8.55E-1,-2.E-2));
#38=DIRECTION('',(-1.E0,0.E0,0.E0));
#39=DIRECTION('',(0.E0,0.E0,1.E0));
#40=AXIS2_PLACEMENT_3D('',#37,#38,#39);
#42=CARTESIAN_POINT('',(0.E0,0.E0,-2.E-2));
#43=DIRECTION('',(0.E0,0.E0,1.E0));
#44=DIRECTION('',(0.E0,1.E0,0.E0));
#45=AXIS2_PLACEMENT_3D('',#42,#43,#44);
#47=DIRECTION('',(-9.653391100766E-14,0.E0,1.E0));
#48=VECTOR('',#47,2.4E-1);
#49=CARTESIAN_POINT('',(0.E0,-8.75E-1,-2.6E-1));
#50=LINE('',#49,#48);
#51=CARTESIAN_POINT('',(0.E0,0.E0,-2.6E-1));
#52=DIRECTION('',(0.E0,0.E0,1.E0));
#53=DIRECTION('',(0.E0,1.E0,0.E0));
#54=AXIS2_PLACEMENT_3D('',#51,#52,#53);
#56=DIRECTION('',(9.810641692920E-14,0.E0,1.E0));
#57=VECTOR('',#56,2.4E-1);
#58=CARTESIAN_POINT('',(0.E0,8.75E-1,-2.6E-1));
#59=LINE('',#58,#57);
#60=CARTESIAN_POINT('',(0.E0,0.E0,1.9685E0));
#61=DIRECTION('',(0.E0,0.E0,1.E0));
#62=DIRECTION('',(1.E0,0.E0,0.E0));
#63=AXIS2_PLACEMENT_3D('',#60,#61,#62);
#65=DIRECTION('',(0.E0,0.E0,1.E0));
#66=VECTOR('',#65,1.9685E0);
#67=CARTESIAN_POINT('',(3.545E-1,0.E0,0.E0));
#68=LINE('',#67,#66);
#69=CARTESIAN_POINT('',(0.E0,1.97E-1,1.9685E0));
#70=DIRECTION('',(0.E0,0.E0,-1.E0));
#71=DIRECTION('',(1.E0,0.E0,0.E0));
#72=AXIS2_PLACEMENT_3D('',#69,#70,#71);
#74=CARTESIAN_POINT('',(0.E0,1.97E-1,1.9685E0));
#75=DIRECTION('',(0.E0,0.E0,-1.E0));
#76=DIRECTION('',(-1.E0,0.E0,0.E0));
#77=AXIS2_PLACEMENT_3D('',#74,#75,#76);
#79=CARTESIAN_POINT('',(0.E0,1.97E-1,1.9685E0));
#80=DIRECTION('',(0.E0,0.E0,-1.E0));
#81=DIRECTION('',(-3.610749963302E-1,-9.325367805214E-1,0.E0));
#82=AXIS2_PLACEMENT_3D('',#79,#80,#81);
#84=CARTESIAN_POINT('',(0.E0,0.E0,1.9685E0));
#85=DIRECTION('',(0.E0,0.E0,1.E0));
#86=DIRECTION('',(5.408485840658E-1,-8.411199730800E-1,0.E0));
#87=AXIS2_PLACEMENT_3D('',#84,#85,#86);
#89=DIRECTION('',(0.E0,0.E0,1.E0));
#90=VECTOR('',#89,1.9685E0);
#91=CARTESIAN_POINT('',(-3.545E-1,0.E0,0.E0));
#92=LINE('',#91,#90);
#93=CARTESIAN_POINT('',(0.E0,0.E0,1.9685E0));
#94=DIRECTION('',(0.E0,0.E0,1.E0));
#95=DIRECTION('',(-1.E0,0.E0,0.E0));
#96=AXIS2_PLACEMENT_3D('',#93,#94,#95);
#98=CARTESIAN_POINT('',(0.E0,1.97E-1,1.9685E0));
#99=DIRECTION('',(0.E0,0.E0,-1.E0));
#100=DIRECTION('',(3.610749963302E-1,-9.325367805214E-1,0.E0));
#101=AXIS2_PLACEMENT_3D('',#98,#99,#100);
#103=CARTESIAN_POINT('',(0.E0,0.E0,1.9685E0));
#104=DIRECTION('',(0.E0,0.E0,1.E0));
#105=DIRECTION('',(-5.408485840658E-1,-8.411199730800E-1,0.E0));
#106=AXIS2_PLACEMENT_3D('',#103,#104,#105);
#108=CARTESIAN_POINT('',(5.31E-1,1.97E-1,1.9885E0));
#109=DIRECTION('',(0.E0,-1.E0,0.E0));
#110=DIRECTION('',(0.E0,0.E0,-1.E0));
#111=AXIS2_PLACEMENT_3D('',#108,#109,#110);
#113=CARTESIAN_POINT('',(-5.31E-1,1.97E-1,1.9885E0));
#114=DIRECTION('',(0.E0,1.E0,0.E0));
#115=DIRECTION('',(0.E0,0.E0,-1.E0));
#116=AXIS2_PLACEMENT_3D('',#113,#114,#115);
#118=CARTESIAN_POINT('',(0.E0,1.97E-1,1.9885E0));
#119=DIRECTION('',(0.E0,0.E0,-1.E0));
#120=DIRECTION('',(-1.E0,0.E0,0.E0));
#121=AXIS2_PLACEMENT_3D('',#118,#119,#120);
#123=CARTESIAN_POINT('',(0.E0,1.97E-1,2.1085E0));
#124=DIRECTION('',(0.E0,0.E0,1.E0));
#125=DIRECTION('',(1.E0,0.E0,0.E0));
#126=AXIS2_PLACEMENT_3D('',#123,#124,#125);
#128=DIRECTION('',(0.E0,0.E0,-1.E0));
#129=VECTOR('',#128,1.2E-1);
#130=CARTESIAN_POINT('',(-5.51E-1,1.97E-1,2.1085E0));
#131=LINE('',#130,#129);
#132=CARTESIAN_POINT('',(0.E0,1.97E-1,1.9885E0));
#133=DIRECTION('',(0.E0,0.E0,-1.E0));
#134=DIRECTION('',(1.E0,0.E0,0.E0));
#135=AXIS2_PLACEMENT_3D('',#132,#133,#134);
#137=CARTESIAN_POINT('',(0.E0,1.97E-1,2.1085E0));
#138=DIRECTION('',(0.E0,0.E0,1.E0));
#139=DIRECTION('',(-1.E0,0.E0,0.E0));
#140=AXIS2_PLACEMENT_3D('',#137,#138,#139);
#142=DIRECTION('',(0.E0,0.E0,-1.E0));
#143=VECTOR('',#142,1.2E-1);
#144=CARTESIAN_POINT('',(5.51E-1,1.97E-1,2.1085E0));
#145=LINE('',#144,#143);
#146=CARTESIAN_POINT('',(-5.31E-1,1.97E-1,2.1085E0));
#147=DIRECTION('',(0.E0,-1.E0,0.E0));
#148=DIRECTION('',(0.E0,0.E0,1.E0));
#149=AXIS2_PLACEMENT_3D('',#146,#147,#148);
#151=CARTESIAN_POINT('',(0.E0,1.97E-1,2.1285E0));
#152=DIRECTION('',(0.E0,0.E0,1.E0));
#153=DIRECTION('',(1.E0,0.E0,0.E0));
#154=AXIS2_PLACEMENT_3D('',#151,#152,#153);
#156=CARTESIAN_POINT('',(0.E0,1.97E-1,2.1285E0));
#157=DIRECTION('',(0.E0,0.E0,1.E0));
#158=DIRECTION('',(-1.E0,0.E0,0.E0));
#159=AXIS2_PLACEMENT_3D('',#156,#157,#158);
#161=CARTESIAN_POINT('',(5.31E-1,1.97E-1,2.1085E0));
#162=DIRECTION('',(0.E0,1.E0,0.E0));
#163=DIRECTION('',(0.E0,0.E0,1.E0));
#164=AXIS2_PLACEMENT_3D('',#161,#162,#163);
#166=CARTESIAN_POINT('',(0.E0,8.75E-1,-2.6E-1));
#167=CARTESIAN_POINT('',(0.E0,-8.75E-1,-2.6E-1));
#168=VERTEX_POINT('',#166);
#169=VERTEX_POINT('',#167);
#170=CARTESIAN_POINT('',(0.E0,8.55E-1,0.E0));
#171=CARTESIAN_POINT('',(0.E0,-8.55E-1,0.E0));
#172=VERTEX_POINT('',#170);
#173=VERTEX_POINT('',#171);
#174=CARTESIAN_POINT('',(0.E0,8.75E-1,-2.E-2));
#175=CARTESIAN_POINT('',(0.E0,-8.75E-1,-2.E-2));
#176=VERTEX_POINT('',#174);
#177=VERTEX_POINT('',#175);
#178=CARTESIAN_POINT('',(3.545E-1,0.E0,0.E0));
#179=CARTESIAN_POINT('',(-3.545E-1,0.E0,0.E0));
#180=VERTEX_POINT('',#178);
#181=VERTEX_POINT('',#179);
#182=CARTESIAN_POINT('',(-5.31E-1,1.97E-1,1.9685E0));
#183=CARTESIAN_POINT('',(5.31E-1,1.97E-1,1.9685E0));
#184=VERTEX_POINT('',#182);
#185=VERTEX_POINT('',#183);
#186=CARTESIAN_POINT('',(-5.51E-1,1.97E-1,1.9885E0));
#187=CARTESIAN_POINT('',(5.51E-1,1.97E-1,1.9885E0));
#188=VERTEX_POINT('',#186);
#189=VERTEX_POINT('',#187);
#190=CARTESIAN_POINT('',(5.31E-1,1.97E-1,2.1285E0));
#191=CARTESIAN_POINT('',(-5.31E-1,1.97E-1,2.1285E0));
#192=VERTEX_POINT('',#190);
#193=VERTEX_POINT('',#191);
#194=CARTESIAN_POINT('',(5.51E-1,1.97E-1,2.1085E0));
#195=CARTESIAN_POINT('',(-5.51E-1,1.97E-1,2.1085E0));
#196=VERTEX_POINT('',#194);
#197=VERTEX_POINT('',#195);
#198=CARTESIAN_POINT('',(1.917308230513E-1,-2.981770304569E-1,1.9685E0));
#199=CARTESIAN_POINT('',(-1.917308230513E-1,-2.981770304569E-1,1.9685E0));
#200=VERTEX_POINT('',#198);
#201=VERTEX_POINT('',#199);
#202=CARTESIAN_POINT('',(3.545E-1,0.E0,1.9685E0));
#203=CARTESIAN_POINT('',(-3.545E-1,0.E0,1.9685E0));
#204=VERTEX_POINT('',#202);
#205=VERTEX_POINT('',#203);
#206=CARTESIAN_POINT('',(0.E0,0.E0,-2.6E-1));
#207=DIRECTION('',(0.E0,0.E0,-1.E0));
#208=DIRECTION('',(0.E0,-1.E0,0.E0));
#209=AXIS2_PLACEMENT_3D('',#206,#207,#208);
#210=PLANE('',#209);
#212=ORIENTED_EDGE('',*,*,#211,.F.);
#214=ORIENTED_EDGE('',*,*,#213,.T.);
#215=EDGE_LOOP('',(#212,#214));
#216=FACE_OUTER_BOUND('',#215,.F.);
#217=ADVANCED_FACE('',(#216),#210,.T.);
#218=CARTESIAN_POINT('',(0.E0,0.E0,1.3E-2));
#219=DIRECTION('',(0.E0,0.E0,-1.E0));
#220=DIRECTION('',(0.E0,-1.E0,0.E0));
#221=AXIS2_PLACEMENT_3D('',#218,#219,#220);
#222=CYLINDRICAL_SURFACE('',#221,8.75E-1);
#224=ORIENTED_EDGE('',*,*,#223,.T.);
#226=ORIENTED_EDGE('',*,*,#225,.F.);
#227=ORIENTED_EDGE('',*,*,#211,.T.);
#229=ORIENTED_EDGE('',*,*,#228,.T.);
#230=EDGE_LOOP('',(#224,#226,#227,#229));
#231=FACE_OUTER_BOUND('',#230,.F.);
#232=ADVANCED_FACE('',(#231),#222,.T.);
#233=CARTESIAN_POINT('',(0.E0,0.E0,-2.E-2));
#234=DIRECTION('',(0.E0,0.E0,-1.E0));
#235=DIRECTION('',(-6.212937224872E-3,-9.999806995193E-1,0.E0));
#236=AXIS2_PLACEMENT_3D('',#233,#234,#235);
#237=TOROIDAL_SURFACE('',#236,8.55E-1,2.E-2);
#239=ORIENTED_EDGE('',*,*,#238,.T.);
#241=ORIENTED_EDGE('',*,*,#240,.T.);
#242=ORIENTED_EDGE('',*,*,#223,.F.);
#244=ORIENTED_EDGE('',*,*,#243,.F.);
#245=EDGE_LOOP('',(#239,#241,#242,#244));
#246=FACE_OUTER_BOUND('',#245,.F.);
#247=ADVANCED_FACE('',(#246),#237,.T.);
#248=CARTESIAN_POINT('',(0.E0,0.E0,0.E0));
#249=DIRECTION('',(0.E0,0.E0,-1.E0));
#250=DIRECTION('',(0.E0,-1.E0,0.E0));
#251=AXIS2_PLACEMENT_3D('',#248,#249,#250);
#252=PLANE('',#251);
#254=ORIENTED_EDGE('',*,*,#253,.F.);
#255=ORIENTED_EDGE('',*,*,#238,.F.);
#256=EDGE_LOOP('',(#254,#255));
#257=FACE_OUTER_BOUND('',#256,.F.);
#259=ORIENTED_EDGE('',*,*,#258,.T.);
#261=ORIENTED_EDGE('',*,*,#260,.T.);
#262=EDGE_LOOP('',(#259,#261));
#263=FACE_BOUND('',#262,.F.);
#264=ADVANCED_FACE('',(#257,#263),#252,.F.);
#265=CARTESIAN_POINT('',(0.E0,0.E0,-2.E-2));
#266=DIRECTION('',(0.E0,0.E0,-1.E0));
#267=DIRECTION('',(6.212937224872E-3,9.999806995193E-1,0.E0));
#268=AXIS2_PLACEMENT_3D('',#265,#266,#267);
#269=TOROIDAL_SURFACE('',#268,8.55E-1,2.E-2);
#270=ORIENTED_EDGE('',*,*,#253,.T.);
#271=ORIENTED_EDGE('',*,*,#243,.T.);
#273=ORIENTED_EDGE('',*,*,#272,.F.);
#274=ORIENTED_EDGE('',*,*,#240,.F.);
#275=EDGE_LOOP('',(#270,#271,#273,#274));
#276=FACE_OUTER_BOUND('',#275,.F.);
#277=ADVANCED_FACE('',(#276),#269,.T.);
#278=CARTESIAN_POINT('',(0.E0,0.E0,1.3E-2));
#279=DIRECTION('',(0.E0,0.E0,-1.E0));
#280=DIRECTION('',(0.E0,-1.E0,0.E0));
#281=AXIS2_PLACEMENT_3D('',#278,#279,#280);
#282=CYLINDRICAL_SURFACE('',#281,8.75E-1);
#283=ORIENTED_EDGE('',*,*,#272,.T.);
#284=ORIENTED_EDGE('',*,*,#228,.F.);
#285=ORIENTED_EDGE('',*,*,#213,.F.);
#286=ORIENTED_EDGE('',*,*,#225,.T.);
#287=EDGE_LOOP('',(#283,#284,#285,#286));
#288=FACE_OUTER_BOUND('',#287,.F.);
#289=ADVANCED_FACE('',(#288),#282,.T.);
#290=CARTESIAN_POINT('',(0.E0,0.E0,0.E0));
#291=DIRECTION('',(0.E0,0.E0,1.E0));
#292=DIRECTION('',(1.E0,0.E0,0.E0));
#293=AXIS2_PLACEMENT_3D('',#290,#291,#292);
#294=CYLINDRICAL_SURFACE('',#293,3.545E-1);
#296=ORIENTED_EDGE('',*,*,#295,.T.);
#298=ORIENTED_EDGE('',*,*,#297,.F.);
#299=ORIENTED_EDGE('',*,*,#258,.F.);
#301=ORIENTED_EDGE('',*,*,#300,.T.);
#302=EDGE_LOOP('',(#296,#298,#299,#301));
#303=FACE_OUTER_BOUND('',#302,.F.);
#304=ADVANCED_FACE('',(#303),#294,.T.);
#305=CARTESIAN_POINT('',(0.E0,1.97E-1,1.9685E0));
#306=DIRECTION('',(0.E0,0.E0,-1.E0));
#307=DIRECTION('',(-1.E0,0.E0,0.E0));
#308=AXIS2_PLACEMENT_3D('',#305,#306,#307);
#309=PLANE('',#308);
#310=ORIENTED_EDGE('',*,*,#295,.F.);
#312=ORIENTED_EDGE('',*,*,#311,.F.);
#314=ORIENTED_EDGE('',*,*,#313,.F.);
#316=ORIENTED_EDGE('',*,*,#315,.F.);
#318=ORIENTED_EDGE('',*,*,#317,.F.);
#320=ORIENTED_EDGE('',*,*,#319,.F.);
#321=EDGE_LOOP('',(#310,#312,#314,#316,#318,#320));
#322=FACE_OUTER_BOUND('',#321,.F.);
#323=ADVANCED_FACE('',(#322),#309,.T.);
#324=CARTESIAN_POINT('',(0.E0,0.E0,0.E0));
#325=DIRECTION('',(0.E0,0.E0,1.E0));
#326=DIRECTION('',(1.E0,0.E0,0.E0));
#327=AXIS2_PLACEMENT_3D('',#324,#325,#326);
#328=CYLINDRICAL_SURFACE('',#327,3.545E-1);
#330=ORIENTED_EDGE('',*,*,#329,.T.);
#331=ORIENTED_EDGE('',*,*,#311,.T.);
#332=ORIENTED_EDGE('',*,*,#300,.F.);
#333=ORIENTED_EDGE('',*,*,#260,.F.);
#334=ORIENTED_EDGE('',*,*,#297,.T.);
#335=ORIENTED_EDGE('',*,*,#319,.T.);
#336=EDGE_LOOP('',(#330,#331,#332,#333,#334,#335));
#337=FACE_OUTER_BOUND('',#336,.F.);
#338=ADVANCED_FACE('',(#337),#328,.T.);
#339=CARTESIAN_POINT('',(0.E0,0.E0,1.9685E0));
#340=DIRECTION('',(0.E0,0.E0,1.E0));
#341=DIRECTION('',(1.E0,0.E0,0.E0));
#342=AXIS2_PLACEMENT_3D('',#339,#340,#341);
#343=PLANE('',#342);
#345=ORIENTED_EDGE('',*,*,#344,.F.);
#346=ORIENTED_EDGE('',*,*,#329,.F.);
#347=EDGE_LOOP('',(#345,#346));
#348=FACE_OUTER_BOUND('',#347,.F.);
#349=ADVANCED_FACE('',(#348),#343,.T.);
#350=CARTESIAN_POINT('',(0.E0,1.97E-1,1.9885E0));
#351=DIRECTION('',(0.E0,0.E0,-1.E0));
#352=DIRECTION('',(9.999999336336E-1,3.643251211443E-4,0.E0));
#353=AXIS2_PLACEMENT_3D('',#350,#351,#352);
#354=TOROIDAL_SURFACE('',#353,5.31E-1,2.E-2);
#355=ORIENTED_EDGE('',*,*,#344,.T.);
#356=ORIENTED_EDGE('',*,*,#317,.T.);
#358=ORIENTED_EDGE('',*,*,#357,.T.);
#360=ORIENTED_EDGE('',*,*,#359,.F.);
#362=ORIENTED_EDGE('',*,*,#361,.F.);
#363=ORIENTED_EDGE('',*,*,#313,.T.);
#364=EDGE_LOOP('',(#355,#356,#358,#360,#362,#363));
#365=FACE_OUTER_BOUND('',#364,.F.);
#366=ADVANCED_FACE('',(#365),#354,.T.);
#367=CARTESIAN_POINT('',(0.E0,1.97E-1,1.9885E0));
#368=DIRECTION('',(0.E0,0.E0,-1.E0));
#369=DIRECTION('',(-9.999999336336E-1,-3.643251211443E-4,0.E0));
#370=AXIS2_PLACEMENT_3D('',#367,#368,#369);
#371=TOROIDAL_SURFACE('',#370,5.31E-1,2.E-2);
#372=ORIENTED_EDGE('',*,*,#315,.T.);
#373=ORIENTED_EDGE('',*,*,#361,.T.);
#375=ORIENTED_EDGE('',*,*,#374,.F.);
#376=ORIENTED_EDGE('',*,*,#357,.F.);
#377=EDGE_LOOP('',(#372,#373,#375,#376));
#378=FACE_OUTER_BOUND('',#377,.F.);
#379=ADVANCED_FACE('',(#378),#371,.T.);
#380=CARTESIAN_POINT('',(0.E0,1.97E-1,2.1285E0));
#381=DIRECTION('',(0.E0,0.E0,-1.E0));
#382=DIRECTION('',(-1.E0,0.E0,0.E0));
#383=AXIS2_PLACEMENT_3D('',#380,#381,#382);
#384=CYLINDRICAL_SURFACE('',#383,5.51E-1);
#385=ORIENTED_EDGE('',*,*,#374,.T.);
#387=ORIENTED_EDGE('',*,*,#386,.F.);
#389=ORIENTED_EDGE('',*,*,#388,.T.);
#391=ORIENTED_EDGE('',*,*,#390,.T.);
#392=EDGE_LOOP('',(#385,#387,#389,#391));
#393=FACE_OUTER_BOUND('',#392,.F.);
#394=ADVANCED_FACE('',(#393),#384,.T.);
#395=CARTESIAN_POINT('',(0.E0,1.97E-1,2.1285E0));
#396=DIRECTION('',(0.E0,0.E0,-1.E0));
#397=DIRECTION('',(-1.E0,0.E0,0.E0));
#398=AXIS2_PLACEMENT_3D('',#395,#396,#397);
#399=CYLINDRICAL_SURFACE('',#398,5.51E-1);
#400=ORIENTED_EDGE('',*,*,#359,.T.);
#401=ORIENTED_EDGE('',*,*,#390,.F.);
#403=ORIENTED_EDGE('',*,*,#402,.T.);
#404=ORIENTED_EDGE('',*,*,#386,.T.);
#405=EDGE_LOOP('',(#400,#401,#403,#404));
#406=FACE_OUTER_BOUND('',#405,.F.);
#407=ADVANCED_FACE('',(#406),#399,.T.);
#408=CARTESIAN_POINT('',(0.E0,1.97E-1,2.1085E0));
#409=DIRECTION('',(0.E0,0.E0,-1.E0));
#410=DIRECTION('',(-9.999998660740E-1,5.175440948057E-4,0.E0));
#411=AXIS2_PLACEMENT_3D('',#408,#409,#410);
#412=TOROIDAL_SURFACE('',#411,5.31E-1,2.E-2);
#414=ORIENTED_EDGE('',*,*,#413,.T.);
#416=ORIENTED_EDGE('',*,*,#415,.T.);
#417=ORIENTED_EDGE('',*,*,#402,.F.);
#419=ORIENTED_EDGE('',*,*,#418,.F.);
#420=EDGE_LOOP('',(#414,#416,#417,#419));
#421=FACE_OUTER_BOUND('',#420,.F.);
#422=ADVANCED_FACE('',(#421),#412,.T.);
#423=CARTESIAN_POINT('',(0.E0,1.97E-1,2.1285E0));
#424=DIRECTION('',(0.E0,0.E0,-1.E0));
#425=DIRECTION('',(-1.E0,0.E0,0.E0));
#426=AXIS2_PLACEMENT_3D('',#423,#424,#425);
#427=PLANE('',#426);
#429=ORIENTED_EDGE('',*,*,#428,.F.);
#430=ORIENTED_EDGE('',*,*,#413,.F.);
#431=EDGE_LOOP('',(#429,#430));
#432=FACE_OUTER_BOUND('',#431,.F.);
#433=ADVANCED_FACE('',(#432),#427,.F.);
#434=CARTESIAN_POINT('',(0.E0,1.97E-1,2.1085E0));
#435=DIRECTION('',(0.E0,0.E0,-1.E0));
#436=DIRECTION('',(9.999998660740E-1,-5.175440948058E-4,0.E0));
#437=AXIS2_PLACEMENT_3D('',#434,#435,#436);
#438=TOROIDAL_SURFACE('',#437,5.31E-1,2.E-2);
#439=ORIENTED_EDGE('',*,*,#428,.T.);
#440=ORIENTED_EDGE('',*,*,#418,.T.);
#441=ORIENTED_EDGE('',*,*,#388,.F.);
#442=ORIENTED_EDGE('',*,*,#415,.F.);
#443=EDGE_LOOP('',(#439,#440,#441,#442));
#444=FACE_OUTER_BOUND('',#443,.F.);
#445=ADVANCED_FACE('',(#444),#438,.T.);
#446=CLOSED_SHELL('',(#217,#232,#247,#264,#277,#289,#304,#323,#338,#349,#366,
#379,#394,#407,#422,#433,#445));
#447=MANIFOLD_SOLID_BREP('',#446);
#448=DIMENSIONAL_EXPONENTS(1.E0,0.E0,0.E0,0.E0,0.E0,0.E0,0.E0);
#450=LENGTH_MEASURE_WITH_UNIT(LENGTH_MEASURE(2.54E1),#449);
#451=(CONVERSION_BASED_UNIT('INCH',#450)LENGTH_UNIT()NAMED_UNIT(#448));
#452=DIMENSIONAL_EXPONENTS(0.E0,0.E0,0.E0,0.E0,0.E0,0.E0,0.E0);
#454=PLANE_ANGLE_MEASURE_WITH_UNIT(PLANE_ANGLE_MEASURE(1.745329251994E-2),#453);
#455=(CONVERSION_BASED_UNIT('DEGREE',#454)NAMED_UNIT(*)PLANE_ANGLE_UNIT());
#457=UNCERTAINTY_MEASURE_WITH_UNIT(LENGTH_MEASURE(1.358175577017E-5),#451,
'closure',
'Maximum model space distance between geometric entities at asserted connectivities');
#458=(GEOMETRIC_REPRESENTATION_CONTEXT(3)GLOBAL_UNCERTAINTY_ASSIGNED_CONTEXT((
#457))GLOBAL_UNIT_ASSIGNED_CONTEXT((#451,#455,#456))REPRESENTATION_CONTEXT
('ID1','3'));
#460=APPLICATION_CONTEXT(
'CONFIGURATION CONTROLLED 3D DESIGNS OF MECHANICAL PARTS AND ASSEMBLIES');
#461=APPLICATION_PROTOCOL_DEFINITION('international standard',
'config_control_design',1994,#460);
#462=DESIGN_CONTEXT('',#460,'design');
#463=MECHANICAL_CONTEXT('',#460,'mechanical');
#464=PRODUCT('990-1650','990-1650','NOT SPECIFIED',(#463));
#465=PRODUCT_DEFINITION_FORMATION_WITH_SPECIFIED_SOURCE('1','LAST_VERSION',#464,
.MADE.);
#469=PRODUCT_CATEGORY('part','');
#470=PRODUCT_RELATED_PRODUCT_CATEGORY('detail','',(#464));
#471=PRODUCT_CATEGORY_RELATIONSHIP('','',#469,#470);
#472=SECURITY_CLASSIFICATION_LEVEL('unclassified');
#473=SECURITY_CLASSIFICATION('','',#472);
#474=CC_DESIGN_SECURITY_CLASSIFICATION(#473,(#465));
#475=APPROVAL_STATUS('approved');
#476=APPROVAL(#475,'');
#477=CC_DESIGN_APPROVAL(#476,(#473,#465,#466));
#478=CALENDAR_DATE(121,28,10);
#479=COORDINATED_UNIVERSAL_TIME_OFFSET(5,30,.AHEAD.);
#480=LOCAL_TIME(13,42,4.8E1,#479);
#481=DATE_AND_TIME(#478,#480);
#482=APPROVAL_DATE_TIME(#481,#476);
#483=DATE_TIME_ROLE('creation_date');
#484=CC_DESIGN_DATE_AND_TIME_ASSIGNMENT(#481,#483,(#466));
#485=DATE_TIME_ROLE('classification_date');
#486=CC_DESIGN_DATE_AND_TIME_ASSIGNMENT(#481,#485,(#473));
#487=PERSON('UNSPECIFIED','UNSPECIFIED',$,$,$,$);
#488=ORGANIZATION('UNSPECIFIED','UNSPECIFIED','UNSPECIFIED');
#489=PERSON_AND_ORGANIZATION(#487,#488);
#490=APPROVAL_ROLE('approver');
#491=APPROVAL_PERSON_ORGANIZATION(#489,#476,#490);
#492=PERSON_AND_ORGANIZATION_ROLE('creator');
#493=CC_DESIGN_PERSON_AND_ORGANIZATION_ASSIGNMENT(#489,#492,(#465,#466));
#494=PERSON_AND_ORGANIZATION_ROLE('design_supplier');
#495=CC_DESIGN_PERSON_AND_ORGANIZATION_ASSIGNMENT(#489,#494,(#465));
#496=PERSON_AND_ORGANIZATION_ROLE('classification_officer');
#497=CC_DESIGN_PERSON_AND_ORGANIZATION_ASSIGNMENT(#489,#496,(#473));
#498=PERSON_AND_ORGANIZATION_ROLE('design_owner');
#499=CC_DESIGN_PERSON_AND_ORGANIZATION_ASSIGNMENT(#489,#498,(#464));
#6=CIRCLE('',#5,8.75E-1);
#11=CIRCLE('',#10,8.75E-1);
#16=CIRCLE('',#15,2.E-2);
#21=CIRCLE('',#20,8.55E-1);
#26=CIRCLE('',#25,8.55E-1);
#31=CIRCLE('',#30,3.545E-1);
#36=CIRCLE('',#35,3.545E-1);
#41=CIRCLE('',#40,2.E-2);
#46=CIRCLE('',#45,8.75E-1);
#55=CIRCLE('',#54,8.75E-1);
#64=CIRCLE('',#63,3.545E-1);
#73=CIRCLE('',#72,5.31E-1);
#78=CIRCLE('',#77,5.31E-1);
#83=CIRCLE('',#82,5.31E-1);
#88=CIRCLE('',#87,3.545E-1);
#97=CIRCLE('',#96,3.545E-1);
#102=CIRCLE('',#101,5.31E-1);
#107=CIRCLE('',#106,3.545E-1);
#112=CIRCLE('',#111,2.E-2);
#117=CIRCLE('',#116,2.E-2);
#122=CIRCLE('',#121,5.51E-1);
#127=CIRCLE('',#126,5.51E-1);
#136=CIRCLE('',#135,5.51E-1);
#141=CIRCLE('',#140,5.51E-1);
#150=CIRCLE('',#149,2.E-2);
#155=CIRCLE('',#154,5.31E-1);
#160=CIRCLE('',#159,5.31E-1);
#165=CIRCLE('',#164,2.E-2);
#211=EDGE_CURVE('',#168,#169,#11,.T.);
#213=EDGE_CURVE('',#168,#169,#55,.T.);
#223=EDGE_CURVE('',#177,#176,#6,.T.);
#225=EDGE_CURVE('',#168,#176,#59,.T.);
#228=EDGE_CURVE('',#169,#177,#50,.T.);
#238=EDGE_CURVE('',#173,#172,#26,.T.);
#240=EDGE_CURVE('',#172,#176,#41,.T.);
#243=EDGE_CURVE('',#173,#177,#16,.T.);
#253=EDGE_CURVE('',#172,#173,#21,.T.);
#258=EDGE_CURVE('',#180,#181,#31,.T.);
#260=EDGE_CURVE('',#181,#180,#36,.T.);
#272=EDGE_CURVE('',#176,#177,#46,.T.);
#295=EDGE_CURVE('',#204,#205,#64,.T.);
#297=EDGE_CURVE('',#181,#205,#92,.T.);
#300=EDGE_CURVE('',#180,#204,#68,.T.);
#311=EDGE_CURVE('',#200,#204,#88,.T.);
#313=EDGE_CURVE('',#185,#200,#73,.T.);
#315=EDGE_CURVE('',#184,#185,#78,.T.);
#317=EDGE_CURVE('',#201,#184,#83,.T.);
#319=EDGE_CURVE('',#205,#201,#97,.T.);
#329=EDGE_CURVE('',#201,#200,#107,.T.);
#344=EDGE_CURVE('',#200,#201,#102,.T.);
#357=EDGE_CURVE('',#184,#188,#117,.T.);
#359=EDGE_CURVE('',#189,#188,#136,.T.);
#361=EDGE_CURVE('',#185,#189,#112,.T.);
#374=EDGE_CURVE('',#188,#189,#122,.T.);
#386=EDGE_CURVE('',#196,#189,#145,.T.);
#388=EDGE_CURVE('',#196,#197,#127,.T.);
#390=EDGE_CURVE('',#197,#188,#131,.T.);
#402=EDGE_CURVE('',#197,#196,#141,.T.);
#413=EDGE_CURVE('',#193,#192,#160,.T.);
#415=EDGE_CURVE('',#192,#196,#165,.T.);
#418=EDGE_CURVE('',#193,#197,#150,.T.);
#428=EDGE_CURVE('',#192,#193,#155,.T.);
#449=(LENGTH_UNIT()NAMED_UNIT(*)SI_UNIT(.MILLI.,.METRE.));
#453=(NAMED_UNIT(*)PLANE_ANGLE_UNIT()SI_UNIT($,.RADIAN.));
#456=(NAMED_UNIT(*)SI_UNIT($,.STERADIAN.)SOLID_ANGLE_UNIT());
#459=ADVANCED_BREP_SHAPE_REPRESENTATION('',(#447),#458);
#466=PRODUCT_DEFINITION('design','',#465,#462);
#467=PRODUCT_DEFINITION_SHAPE('','SHAPE FOR 990-1650.',#466);
#468=SHAPE_DEFINITION_REPRESENTATION(#467,#459);
ENDSEC;
END-ISO-10303-21;
