999
DXF file: E:\BT Custom\CADOUTPUT\_FRONT.dxf
999
Pro/ENGINEER 2018400 by Parametric Technology Corporation
  0
SECTION
  2
HEADER
  9
$ACADVER
  1
AC1018
  9
$DWGCODEPAGE
  3
ANSI_1252
  9
$EXTMAX
 10
22.0
 20
17.0
 30
0.0
  9
$EXTMIN
 10
0.0
 20
0.0
 30
0.0
  9
$LIMMIN
 10
0.0
 20
0.0
  9
$LIMMAX
 10
22.0
 20
17.0
  9
$VIEWCTR
 10
11.0
 20
8.5
  9
$VIEWSIZE
 40
17.0
  9
$CLAYER
  8
0
  9
$LTSCALE
 40
1.21
  9
$CELTYPE
  6
BYLAYER
  9
$DIMSCALE
 40
1.0
  9
$DIMASZ
 40
0.1
  9
$DIMEXO
 40
0.0625
  9
$DIMDLI
 40
0.836
  9
$DIMEXE
 40
0.125
  9
$DIMCEN
 40
0.198
  9
$DIMLFAC
 40
1.0
  9
$DIMBLK
  1
_FILLED
  9
$DIMALT
 70
1
  9
$DIMALTD
 70
2
  9
$DIMALTTD
 70
2
  9
$DIMALTF
 40
25.4
  9
$DIMTXT
 40
0.08
  9
$DIMTOL
 70
1
  9
$DIMLIM
 70
0
  9
$DIMTFAC
 40
1.0
  9
$DIMTP
 40
0.001
  9
$DIMTM
 40
0.001
  9
$DIMGAP
 40
0.09
  9
$DIMDSEP
 70
46
  9
$AUNITS
 70
0
  9
$PDMODE
 70
3
  9
$PDSIZE
 40
0.06
  9
$HANDSEED
  5
230
  9
$TILEMODE
 70
1
  9
$MEASUREMENT
 70
0
  9
$INSUNITS
 70
1
  0
ENDSEC
  0
SECTION
  2
CLASSES
  0
CLASS
  1
ACDBDICTIONARYWDFLT
  2
AcDbDictionaryWithDefault
  3
AutoCAD 2000
 90
0
 91
1
280
0
281
0
  0
CLASS
  1
ACDBPLACEHOLDER
  2
AcDbPlaceHolder
  3
AutoCAD 2000
 90
0
 91
1
280
0
281
0
  0
CLASS
  1
LAYOUT
  2
AcDbLayout
  3
AutoCAD 2000
 90
0
 91
0
280
0
281
0
  0
ENDSEC
  0
SECTION
  2
TABLES
  0
TABLE
  2
VPORT
  5
8
100
AcDbSymbolTable
 70
2
  0
VPORT
  5
1F4
100
AcDbSymbolTableRecord
100
AcDbViewportTableRecord
  2
*ACTIVE
 70
0
 10
0.0
 20
0.0
 11
1.0
 21
1.0
 12
11.0
 22
8.5
 13
0.0
 23
0.0
 14
1.0
 24
1.0
 15
0.0
 25
0.0
 16
0.0
 26
0.0
 36
1.0
 17
0.0
 27
0.0
 37
0.0
 40
17.0
 41
1.2941176471
 42
50.0
 43
0.0
 44
0.0
 50
0.0
 51
0.0
 71
0
 72
100
 73
1
 74
1
 75
0
 76
0
 77
0
 78
0
  0
ENDTAB
  0
TABLE
  2
LTYPE
  5
5
100
AcDbSymbolTable
 70
6
  0
LTYPE
  5
14
100
AcDbSymbolTableRecord
100
AcDbLinetypeTableRecord
  2
BYBLOCK
 70
0
  3

 72
65
 73
0
 40
0.0
  0
LTYPE
  5
15
100
AcDbSymbolTableRecord
100
AcDbLinetypeTableRecord
  2
BYLAYER
 70
0
  3

 72
65
 73
0
 40
0.0
  0
LTYPE
  5
16
100
AcDbSymbolTableRecord
100
AcDbLinetypeTableRecord
  2
CONTINUOUS
 70
64
  3
Solid line
 72
65
 73
0
 40
0.0
  0
LTYPE
  5
1F5
100
AcDbSymbolTableRecord
100
AcDbLinetypeTableRecord
  2
CENTER
 70
64
  3
____ _ ____ _ ____ _ ____ _ ____ _ ____ _ ____
 72
65
 73
4
 40
0.6
 49
0.375
 74
0
 49
-0.075
 74
0
 49
0.075
 74
0
 49
-0.075
 74
0
  0
LTYPE
  5
1F6
100
AcDbSymbolTableRecord
100
AcDbLinetypeTableRecord
  2
HIDDEN
 70
64
  3
- - - - - - - - - - - - - - - - - - - -
 72
65
 73
2
 40
0.2
 49
0.1
 74
0
 49
-0.1
 74
0
  0
LTYPE
  5
1F7
100
AcDbSymbolTableRecord
100
AcDbLinetypeTableRecord
  2
PHANTOM
 70
64
  3
_____ _ _ _____ _ _ _____ _ _ _____
 72
65
 73
6
 40
0.8
 49
0.45
 74
0
 49
-0.05
 74
0
 49
0.1
 74
0
 49
-0.05
 74
0
 49
0.1
 74
0
 49
-0.05
 74
0
  0
LTYPE
  5
1F8
100
AcDbSymbolTableRecord
100
AcDbLinetypeTableRecord
  2
DOT
 70
64
  3
. . . . . . . . . . . . . . . . . . . .
 72
65
 73
2
 40
0.2
 49
0.1
 74
0
 49
-0.1
 74
0
  0
LTYPE
  5
1F9
100
AcDbSymbolTableRecord
100
AcDbLinetypeTableRecord
  2
DASHED
 70
64
  3
- - - - - - - - - - - - - - - - - - - -
 72
65
 73
2
 40
0.2
 49
0.1
 74
0
 49
-0.1
 74
0
  0
ENDTAB
  0
TABLE
  2
LAYER
  5
2
100
AcDbSymbolTable
 70
36
  0
LAYER
  5
10
100
AcDbSymbolTableRecord
100
AcDbLayerTableRecord
  2
0
 70
0
 62
7
  6
CONTINUOUS
370
-3
390
F
  0
LAYER
  5
1FA
100
AcDbSymbolTableRecord
100
AcDbLayerTableRecord
  2
DEFAULT_1
 70
0
 62
7
  6
CENTER
370
-3
390
F
  0
LAYER
  5
1FB
100
AcDbSymbolTableRecord
100
AcDbLayerTableRecord
  2
DEFAULT_2
 70
0
 62
8
  6
HIDDEN
370
-3
390
F
  0
LAYER
  5
1FC
100
AcDbSymbolTableRecord
100
AcDbLayerTableRecord
  2
DEFAULT_3
 70
0
 62
7
  6
PHANTOM
370
-3
390
F
  0
LAYER
  5
1FD
100
AcDbSymbolTableRecord
100
AcDbLayerTableRecord
  2
ALL_FEATURES
 70
0
 62
7
  6
CONTINUOUS
370
-3
390
F
  0
LAYER
  5
1FE
100
AcDbSymbolTableRecord
100
AcDbLayerTableRecord
  2
AXES_FEATURES
 70
0
 62
7
  6
CONTINUOUS
370
-3
390
F
  0
LAYER
  5
1FF
100
AcDbSymbolTableRecord
100
AcDbLayerTableRecord
  2
DEFAULT_COORDINATE_SYSTEM
 70
0
 62
7
  6
CONTINUOUS
370
-3
390
F
  0
LAYER
  5
200
100
AcDbSymbolTableRecord
100
AcDbLayerTableRecord
  2
DEFAULT_DATUM_AXES
 70
0
 62
7
  6
CONTINUOUS
370
-3
390
F
  0
LAYER
  5
201
100
AcDbSymbolTableRecord
100
AcDbLayerTableRecord
  2
DEFAULT_DATUM_PLANES
 70
0
 62
7
  6
CONTINUOUS
370
-3
390
F
  0
LAYER
  5
202
100
AcDbSymbolTableRecord
100
AcDbLayerTableRecord
  2
DIMENSIONS
 70
0
 62
7
  6
CONTINUOUS
370
-3
390
F
  0
ENDTAB
  0
TABLE
  2
STYLE
  5
3
100
AcDbSymbolTable
 70
1
  0
STYLE
  5
11
100
AcDbSymbolTableRecord
100
AcDbTextStyleTableRecord
  2
STANDARD
 70
0
 40
0.0
 41
0.8
 50
0.0
 71
0
 42
0.2
  3
txt
  4

  0
STYLE
  5
203
100
AcDbSymbolTableRecord
100
AcDbTextStyleTableRecord
  2
TEXTSTYLE_1
 70
0
 40
0.0
 41
0.8
 50
0.0
 71
0
 42
0.2
  3
gdt
  4

  0
ENDTAB
  0
TABLE
  2
VIEW
  5
6
100
AcDbSymbolTable
 70
0
  0
ENDTAB
  0
TABLE
  2
UCS
  5
7
100
AcDbSymbolTable
 70
0
  0
ENDTAB
  0
TABLE
  2
APPID
  5
9
100
AcDbSymbolTable
 70
1
  0
APPID
  5
204
100
AcDbSymbolTableRecord
100
AcDbRegAppTableRecord
  2
ACAD
 70
0
  0
ENDTAB
  0
TABLE
  2
BLOCK_RECORD
  5
1
100
AcDbSymbolTable
 70
0
  0
BLOCK_RECORD
  5
205
100
AcDbSymbolTableRecord
100
AcDbBlockTableRecord
  2
*Model_Space
  0
BLOCK_RECORD
  5
206
100
AcDbSymbolTableRecord
100
AcDbBlockTableRecord
  2
*Paper_Space
  0
BLOCK_RECORD
  5
207
100
AcDbSymbolTableRecord
100
AcDbBlockTableRecord
  2
_FILLED
  0
ENDTAB
  0
TABLE
  2
DIMSTYLE
  5
A
100
AcDbSymbolTable
 70
1
100
AcDbDimStyleTable
 71
0
  0
DIMSTYLE
105
208
100
AcDbSymbolTableRecord
100
AcDbDimStyleTableRecord
  2
STANDARD
 70
0
  3

  4

 40
1.0
 41
0.1
 42
0.0625
 43
0.38
 44
0.125
 45
0.0
 46
0.0
 47
0.001
 48
0.001
140
0.08
141
0.09
142
0.0
143
25.4
144
1.0
145
0.0
146
1.0
147
0.09
 71
1.0
 72
0.0
 73
1
 74
1
 75
0
 76
0
 77
0
 78
4
 79
1
170
1
171
2
172
0
173
0
174
0
175
0
176
0
177
0
178
0
270
2
179
3
271
3
272
3
273
2
274
2
275
0
280
0
281
0
282
0
283
1
284
4
285
0
286
0
287
3
288
0
340
11
278
46
341
207
342
207
343
207
344
207
  0
ENDTAB
  0
ENDSEC
  0
SECTION
  2
BLOCKS
  0
BLOCK
  5
20
100
AcDbEntity
  8
0
100
AcDbBlockBegin
  2
*Model_Space
 70
0
 10
0.0
 20
0.0
 30
0.0
  3
*Model_Space
  1

  0
ENDBLK
  5
21
100
AcDbEntity
  8
0
100
AcDbBlockEnd
  0
BLOCK
  5
1C
100
AcDbEntity
  8
0
100
AcDbBlockBegin
  2
*Paper_Space
 70
0
 10
0.0
 20
0.0
 30
0.0
  3
*Paper_Space
  1

  0
ENDBLK
  5
1D
100
AcDbEntity
  8
0
100
AcDbBlockEnd
  0
BLOCK
  5
209
100
AcDbEntity
  8
0
100
AcDbBlockBegin
  2
_FILLED
 70
64
 10
0.0
 20
0.0
  3
_FILLED
  1

  0
SOLID
  5
20A
100
AcDbEntity
  8
0
  6
BYBLOCK
 62
0
100
AcDbTrace
 10
0.0
 20
0.0
 11
-1.0
 21
0.2
 12
-1.0
 22
-0.2
 13
-1.0
 23
-0.2
  0
ENDBLK
  5
20B
100
AcDbEntity
  8
0
  6
BYBLOCK
 62
0
100
AcDbBlockEnd
  0
ENDSEC
  0
SECTION
  2
ENTITIES
  0
LINE
  5
20C
100
AcDbEntity
  8
0
100
AcDbLine
 62
9
  6
CONTINUOUS
 10
9.8383701452
 20
9.8466664293
 11
9.8525122808
 21
9.8608085649
  0
LINE
  5
20D
100
AcDbEntity
  8
0
100
AcDbLine
 62
9
  6
CONTINUOUS
 10
9.9634321863
 20
9.7498886595
 11
9.9492900506
 21
9.7357465239
  0
LINE
  5
20E
100
AcDbEntity
  8
0
100
AcDbLine
 62
7
  6
CONTINUOUS
 10
10.5831923427
 20
9.397308062
 11
10.5831923427
 21
10.0526378892
  0
LINE
  5
20F
100
AcDbEntity
  8
0
100
AcDbLine
 62
7
  6
CONTINUOUS
 10
9.8383701452
 20
9.8466664293
 11
9.9492900506
 21
9.7357465239
  0
LINE
  5
210
100
AcDbEntity
  8
0
100
AcDbLine
 62
9
  6
CONTINUOUS
 10
9.8525122808
 20
9.8608085649
 11
9.9634321863
 21
9.7498886595
  0
LINE
  5
211
100
AcDbEntity
  8
0
100
AcDbLine
 62
9
  6
CONTINUOUS
 10
9.8525122808
 20
9.8608085649
 11
9.8385532305
 21
9.8751314457
  0
LINE
  5
212
100
AcDbEntity
  8
0
100
AcDbLine
 62
9
  6
CONTINUOUS
 10
9.9773705485
 20
9.7355456452
 11
9.9634321863
 21
9.7498886595
  0
LINE
  5
213
100
AcDbEntity
  8
0
100
AcDbLine
 62
7
  6
CONTINUOUS
 10
10.6826923427
 20
9.4368911054
 11
10.6826923427
 21
9.3341643444
  0
LINE
  5
214
100
AcDbEntity
  8
0
100
AcDbLine
 62
7
  6
CONTINUOUS
 10
11.1926923427
 20
9.4368911054
 11
11.1926923427
 21
9.3341643444
  0
LINE
  5
215
100
AcDbEntity
  8
0
100
AcDbLine
 62
7
  6
CONTINUOUS
 10
11.2921923427
 20
9.397308062
 11
11.2921923427
 21
10.0526378892
  0
LINE
  5
216
100
AcDbEntity
  8
0
100
AcDbLine
 62
9
  6
CONTINUOUS
 10
11.9119524992
 20
9.7498886595
 11
11.898014137
 21
9.7355456452
  0
LINE
  5
217
100
AcDbEntity
  8
0
100
AcDbLine
 62
9
  6
CONTINUOUS
 10
12.036831455
 20
9.8751314457
 11
12.0228724047
 21
9.8608085649
  0
LINE
  5
218
100
AcDbEntity
  8
0
100
AcDbLine
 62
9
  6
CONTINUOUS
 10
11.9119524992
 20
9.7498886595
 11
12.0228724047
 21
9.8608085649
  0
LINE
  5
219
100
AcDbEntity
  8
0
100
AcDbLine
 62
7
  6
CONTINUOUS
 10
11.9260946348
 20
9.7357465239
 11
12.0370145403
 21
9.8466664293
  0
LINE
  5
21A
100
AcDbEntity
  8
0
100
AcDbLine
 62
9
  6
CONTINUOUS
 10
11.9260946348
 20
9.7357465239
 11
11.9119524992
 21
9.7498886595
  0
LINE
  5
21B
100
AcDbEntity
  8
0
100
AcDbLine
 62
9
  6
CONTINUOUS
 10
12.0228724047
 20
9.8608085649
 11
12.0370145403
 21
9.8466664293
  0
ARC
  5
21C
100
AcDbEntity
  8
0
100
AcDbCircle
 62
7
  6
CONTINUOUS
 10
10.6031923427
 20
9.397308062
 40
0.02
100
AcDbArc
 50
179.9999999982
 51
314.7658008745
  0
ARC
  5
21D
100
AcDbEntity
  8
0
100
AcDbCircle
 62
7
  6
CONTINUOUS
 10
9.8525122808
 20
9.8608085649
 40
0.02
100
AcDbArc
 50
134.262964041
 51
225.0
  0
ARC
  5
21E
100
AcDbEntity
  8
0
100
AcDbCircle
 62
7
  6
CONTINUOUS
 10
9.9634321863
 20
9.7498886595
 40
0.02
100
AcDbArc
 50
225.0
 51
314.1802635387
  0
ARC
  5
21F
100
AcDbEntity
  8
0
100
AcDbCircle
 62
7
  6
CONTINUOUS
 10
10.5631923427
 20
10.0526378892
 40
0.02
100
AcDbArc
 50
0.0
 51
106.0086416055
  0
ARC
  5
220
100
AcDbEntity
  8
0
100
AcDbCircle
 62
7
  6
CONTINUOUS
 10
10.9376923427
 20
8.7473442318
 40
1.574805
100
AcDbArc
 50
45.737035959
 51
134.262964041
  0
ARC
  5
221
100
AcDbEntity
  8
0
100
AcDbCircle
 62
9
  6
CONTINUOUS
 10
10.9376923427
 20
8.7473442318
 40
1.554805
100
AcDbArc
 50
45.737035959
 51
134.262964041
  0
ARC
  5
222
100
AcDbEntity
  8
0
100
AcDbCircle
 62
9
  6
CONTINUOUS
 10
10.9376923427
 20
8.7473442318
 40
1.397955
100
AcDbArc
 50
45.8197364613
 51
134.1802635387
  0
ARC
  5
223
100
AcDbEntity
  8
0
100
AcDbCircle
 62
7
  6
CONTINUOUS
 10
10.9376923427
 20
8.7473442318
 40
1.377955
100
AcDbArc
 50
45.8197364613
 51
134.1802635387
  0
ARC
  5
224
100
AcDbEntity
  8
0
100
AcDbCircle
 62
7
  6
CONTINUOUS
 10
10.9376923427
 20
9.0881897725
 40
0.875
100
AcDbArc
 50
113.9240734826
 51
66.0759265176
  0
ARC
  5
225
100
AcDbEntity
  8
0
100
AcDbCircle
 62
9
  6
CONTINUOUS
 10
10.9376923427
 20
9.0881897725
 40
0.855
100
AcDbArc
 50
114.5244037142
 51
65.4755962964
  0
ARC
  5
226
100
AcDbEntity
  8
0
100
AcDbCircle
 62
7
  6
CONTINUOUS
 10
10.9376923427
 20
9.0600622318
 40
0.455
100
AcDbArc
 50
45.2342011428
 51
134.7657988651
  0
CIRCLE
  5
227
100
AcDbEntity
  8
0
100
AcDbCircle
 62
7
  6
CONTINUOUS
 10
10.9376923427
 20
9.0881897725
 40
0.3543
  0
ARC
  5
228
100
AcDbEntity
  8
0
100
AcDbCircle
 62
7
  6
CONTINUOUS
 10
11.2721923427
 20
9.397308062
 40
0.02
100
AcDbArc
 50
225.2341986055
 51
360.0
  0
ARC
  5
229
100
AcDbEntity
  8
0
100
AcDbCircle
 62
7
  6
CONTINUOUS
 10
12.0228724047
 20
9.8608085649
 40
0.02
100
AcDbArc
 50
315.0
 51
45.737035959
  0
ARC
  5
22A
100
AcDbEntity
  8
0
100
AcDbCircle
 62
7
  6
CONTINUOUS
 10
11.9119524992
 20
9.7498886595
 40
0.02
100
AcDbArc
 50
225.8197364613
 51
315.0
  0
ARC
  5
22B
100
AcDbEntity
  8
0
100
AcDbCircle
 62
7
  6
CONTINUOUS
 10
11.3121923427
 20
10.0526378892
 40
0.02
100
AcDbArc
 50
73.9913583945
 51
180.0
  0
SPLINE
  5
22C
100
AcDbEntity
  8
0
100
AcDbSpline
 62
9
  6
CONTINUOUS
 70
0
 71
3
 72
79
 73
75
 74
0
 42
0.0000001
 43
0.0000001
 44
0.0000000001
 40
0.0
 40
0.0
 40
0.0
 40
0.0
 40
0.0000098258
 40
0.0000392703
 40
0.0000883231
 40
0.0001569739
 40
0.0002452124
 40
0.0003530281
 40
0.0006273502
 40
0.0009798574
 40
0.001410467
 40
0.0019190965
 40
0.0025056632
 40
0.0031700829
 40
0.003912205
 40
0.0056285964
 40
0.0076528879
 40
0.0099831266
 40
0.0126173531
 40
0.0155531774
 40
0.0187876045
 40
0.0223175996
 40
0.0302520381
 40
0.0393289048
 40
0.04951747
 40
0.0607853366
 40
0.073097425
 40
0.0864179383
 40
0.1007090711
 40
0.1159326657
 40
0.149018309
 40
0.185351546
 40
0.224596135
 40
0.2664004652
 40
0.3103934445
 40
0.356180807
 40
0.4033433826
 40
0.451438485
 40
0.5000049494
 40
0.5966566557
 40
0.6438192307
 40
0.6896065911
 40
0.7335995669
 40
0.7754038942
 40
0.8146484822
 40
0.8509817177
 40
0.8840673585
 40
0.8992909523
 40
0.9135820845
 40
0.9269025986
 40
0.9392146895
 40
0.9504825569
 40
0.9606711192
 40
0.969747979
 40
0.9776824142
 40
0.9812124072
 40
0.9844468304
 40
0.9873826483
 40
0.9900168646
 40
0.9923470892
 40
0.9943713665
 40
0.9960877481
 40
0.9974942886
 40
0.9980808581
 40
0.9985894921
 40
0.9990201076
 40
0.9993726215
 40
0.9996469508
 40
0.9997547703
 40
0.9998430124
 40
0.9999116669
 40
0.9999607232
 40
0.999990171
 40
1.0
 40
1.0
 40
1.0
 40
1.0
 10
11.2921923427
 20
10.0526378892
 30
0.0
 10
11.2921902081
 20
10.0526388864
 30
0.0
 10
11.2921809084
 20
10.0526408681
 30
0.0
 10
11.2921609247
 20
10.0526477552
 30
0.0
 10
11.2921270031
 20
10.0526575898
 30
0.0
 10
11.29207982
 20
10.0526721137
 30
0.0
 10
11.2920190528
 20
10.0526904648
 30
0.0
 10
11.2919111274
 20
10.0527232189
 30
0.0
 10
11.2917425257
 20
10.0527742595
 30
0.0
 10
11.291499837
 20
10.0528476973
 30
0.0
 10
11.291203341
 20
10.0529373049
 30
0.0
 10
11.290853092
 20
10.0530430512
 30
0.0
 10
11.290449135
 20
10.0531648799
 30
0.0
 10
11.2899915353
 20
10.0533027438
 30
0.0
 10
11.2892744652
 20
10.0535185155
 30
0.0
 10
11.2882449275
 20
10.0538275079
 30
0.0
 10
11.2868501725
 20
10.0542443491
 30
0.0
 10
11.285243919
 20
10.054722092
 30
0.0
 10
11.2834274059
 20
10.0552595897
 30
0.0
 10
11.2814020543
 20
10.0558554241
 30
0.0
 10
11.2791694443
 20
10.0565077911
 30
0.0
 10
11.2757843708
 20
10.0574895192
 30
0.0
 10
11.2710492682
 20
10.0588457489
 30
0.0
 10
11.2647704154
 20
10.0606104662
 30
0.0
 10
11.2577109656
 20
10.0625515476
 30
0.0
 10
11.2498902541
 20
10.064649511
 30
0.0
 10
11.2413284995
 20
10.0668827946
 30
0.0
 10
11.2320474479
 20
10.0692296811
 30
0.0
 10
11.2220694666
 20
10.0716669857
 30
0.0
 10
11.2074571952
 20
10.0751026918
 30
0.0
 10
11.1876348559
 20
10.0794680068
 30
0.0
 10
11.1620779506
 20
10.0845523445
 30
0.0
 10
11.1343548355
 20
10.0894298821
 30
0.0
 10
11.1047067448
 20
10.0939196571
 30
0.0
 10
11.0733974926
 20
10.0978540057
 30
0.0
 10
11.0407159478
 20
10.1010841746
 30
0.0
 10
11.0069766541
 20
10.1034861545
 30
0.0
 10
10.9725166825
 20
10.1049662796
 30
0.0
 10
10.9261632066
 20
10.1056319169
 30
0.0
 10
10.8800219772
 20
10.1043130052
 30
0.0
 10
10.8346689342
 20
10.1010841337
 30
0.0
 10
10.8019871098
 20
10.0978540173
 30
0.0
 10
10.7706779262
 20
10.0939196902
 30
0.0
 10
10.7410298219
 20
10.0894299012
 30
0.0
 10
10.713306717
 20
10.0845523377
 30
0.0
 10
10.6877498125
 20
10.0794679976
 30
0.0
 10
10.6679274737
 20
10.0751026865
 30
0.0
 10
10.6533152038
 20
10.0716669783
 30
0.0
 10
10.6433372236
 20
10.0692296693
 30
0.0
 10
10.6340561736
 20
10.066882774
 30
0.0
 10
10.6254944217
 20
10.0646494763
 30
0.0
 10
10.6176737128
 20
10.062551503
 30
0.0
 10
10.6106142634
 20
10.0606104283
 30
0.0
 10
10.6043354085
 20
10.0588457301
 30
0.0
 10
10.5996003073
 20
10.0574895059
 30
0.0
 10
10.5962152355
 20
10.0565077799
 30
0.0
 10
10.5939826268
 20
10.055855419
 30
0.0
 10
10.5919572764
 20
10.0552595985
 30
0.0
 10
10.5901407629
 20
10.054722128
 30
0.0
 10
10.5885345081
 20
10.0542444218
 30
0.0
 10
10.5871397519
 20
10.0538276167
 30
0.0
 10
10.5859576216
 20
10.0534728461
 30
0.0
 10
10.5851059164
 20
10.0532163908
 30
0.0
 10
10.5845315929
 20
10.0530431645
 30
0.0
 10
10.5841813457
 20
10.0529374012
 30
0.0
 10
10.5838848517
 20
10.0528477732
 30
0.0
 10
10.5836421634
 20
10.0527743167
 30
0.0
 10
10.5834735646
 20
10.0527232542
 30
0.0
 10
10.5833656362
 20
10.0526904944
 30
0.0
 10
10.5833048753
 20
10.0526721206
 30
0.0
 10
10.5832576743
 20
10.0526576282
 30
0.0
 10
10.5832237904
 20
10.052647702
 30
0.0
 10
10.5832037373
 20
10.0526409628
 30
0.0
 10
10.5831945069
 20
10.0526388225
 30
0.0
 10
10.5831923427
 20
10.0526378892
 30
0.0
  0
SPLINE
  5
22D
100
AcDbEntity
  8
0
100
AcDbSpline
 62
9
  6
CONTINUOUS
 70
0
 71
3
 72
95
 73
91
 74
0
 42
0.0000001
 43
0.0000001
 44
0.0000000001
 40
0.0
 40
0.0
 40
0.0
 40
0.0
 40
0.0000031907
 40
0.000012733
 40
0.0000286191
 40
0.0000508413
 40
0.0001142622
 40
0.0002029331
 40
0.0003167916
 40
0.0004557751
 40
0.0006198212
 40
0.0008088674
 40
0.0012617106
 40
0.001813806
 40
0.0024646535
 40
0.0032135802
 40
0.0040596096
 40
0.0050017352
 40
0.0071702535
 40
0.009711104
 40
0.0126153036
 40
0.0158713691
 40
0.0194674641
 40
0.0233918109
 40
0.027632575
 40
0.0370157479
 40
0.0475234437
 40
0.0590697519
 40
0.0715743716
 40
0.0849663086
 40
0.099182804
 40
0.1141680982
 40
0.1298766464
 40
0.1462667776
 40
0.1633032622
 40
0.1991890029
 40
0.2373179129
 40
0.2774910028
 40
0.3194982972
 40
0.3630916315
 40
0.4079642324
 40
0.4537418317
 40
0.476839171
 40
0.499996329
 40
0.5231534832
 40
0.5462508455
 40
0.5920284556
 40
0.6146060639
 40
0.636907175
 40
0.6805005627
 40
0.7225078252
 40
0.7626809744
 40
0.8008100531
 40
0.8366957166
 40
0.8537319568
 40
0.8701220588
 40
0.8858308138
 40
0.9008163455
 40
0.9150327968
 40
0.928424335
 40
0.9409289818
 40
0.9524756396
 40
0.962983913
 40
0.9678221145
 40
0.972367529
 40
0.9766083063
 40
0.9805325309
 40
0.9841284891
 40
0.9873845893
 40
0.9902891841
 40
0.9928309848
 40
0.993962898
 40
0.9950007076
 40
0.9959433276
 40
0.9967896709
 40
0.9975386487
 40
0.9981892317
 40
0.998740828
 40
0.999193037
 40
0.9993817463
 40
0.9995454588
 40
0.9996841246
 40
0.9997976935
 40
0.9998861156
 40
0.9999208809
 40
0.9999493407
 40
0.9999714888
 40
0.9999873189
 40
0.9999968247
 40
1.0
 40
1.0
 40
1.0
 40
1.0
 10
10.5831923427
 20
9.397308062
 30
0.0
 10
10.583193049
 20
9.3973084947
 30
0.0
 10
10.5831951974
 20
9.3973110961
 30
0.0
 10
10.5832008382
 20
9.3973158823
 30
0.0
 10
10.583209689
 20
9.3973245589
 30
0.0
 10
10.5832289299
 20
9.3973425477
 30
0.0
 10
10.5832617745
 20
9.3973736844
 30
0.0
 10
10.5833120408
 20
9.397420994
 30
0.0
 10
10.5833765794
 20
9.3974817679
 30
0.0
 10
10.5834554305
 20
9.3975558779
 30
0.0
 10
10.583548556
 20
9.3976432991
 30
0.0
 10
10.5837011805
 20
9.3977863714
 30
0.0
 10
10.5839275214
 20
9.3979980871
 30
0.0
 10
10.5842418097
 20
9.3982912552
 30
0.0
 10
10.5846127755
 20
9.3986363346
 30
0.0
 10
10.5850401736
 20
9.3990327683
 30
0.0
 10
10.5855237027
 20
9.3994798653
 30
0.0
 10
10.5862789245
 20
9.4001758945
 30
0.0
 10
10.5873603008
 20
9.4011671755
 30
0.0
 10
10.5888218532
 20
9.4024974109
 30
0.0
 10
10.5904980251
 20
9.404011216
 30
0.0
 10
10.5923855898
 20
9.4056995908
 30
0.0
 10
10.5944805925
 20
9.4075531899
 30
0.0
 10
10.5967790179
 20
9.4095625315
 30
0.0
 10
10.6002276393
 20
9.4125383851
 30
0.0
 10
10.605014068
 20
9.4165793823
 30
0.0
 10
10.6113313178
 20
9.421745368
 30
0.0
 10
10.6183726215
 20
9.4273039526
 30
0.0
 10
10.6261130497
 20
9.4331826482
 30
0.0
 10
10.6345304425
 20
9.4393127124
 30
0.0
 10
10.6436059965
 20
9.445628774
 30
0.0
 10
10.6533239332
 20
9.4520694886
 30
0.0
 10
10.6636685748
 20
9.4585799835
 30
0.0
 10
10.6746279273
 20
9.4651065463
 30
0.0
 10
10.6903168036
 20
9.473916453
 30
0.0
 10
10.7113853389
 20
9.484654185
 30
0.0
 10
10.7385185775
 20
9.4966232445
 30
0.0
 10
10.7677986058
 20
9.5075367293
 30
0.0
 10
10.7990493952
 20
9.5170557636
 30
0.0
 10
10.8320288806
 20
9.5248618932
 30
0.0
 10
10.8664123452
 20
9.5306694609
 30
0.0
 10
10.8958116052
 20
9.5336478176
 30
0.0
 10
10.91967357
 20
9.534859416
 30
0.0
 10
10.9376918884
 20
9.5351632272
 30
0.0
 10
10.95571027
 20
9.5348587079
 30
0.0
 10
10.9795719432
 20
9.533647511
 30
0.0
 10
11.003210732
 20
9.531253483
 30
0.0
 10
11.0264782307
 20
9.5277133532
 30
0.0
 10
11.0490590711
 20
9.5235111007
 30
0.0
 10
11.0763347493
 20
9.5170554229
 30
0.0
 10
11.1075854358
 20
9.5075375366
 30
0.0
 10
11.1368655151
 20
9.4966236252
 30
0.0
 10
11.1639983886
 20
9.4846537348
 30
0.0
 10
11.1850670558
 20
9.473916408
 30
0.0
 10
11.2007564698
 20
9.4651076468
 30
0.0
 10
11.2117160171
 20
9.45858143
 30
0.0
 10
11.2220604934
 20
9.4520704608
 30
0.0
 10
11.2317781993
 20
9.4456292161
 30
0.0
 10
11.240853832
 20
9.4393133729
 30
0.0
 10
11.2492716354
 20
9.4331840577
 30
0.0
 10
11.2570121843
 20
9.4273055151
 30
0.0
 10
11.2640533377
 20
9.4217463536
 30
0.0
 10
11.26945712
 20
9.4173266024
 30
0.0
 10
11.2734141815
 20
9.4140095883
 30
0.0
 10
11.2761076081
 20
9.4117177319
 30
0.0
 10
11.2786054761
 20
9.4095622739
 30
0.0
 10
11.2809039554
 20
9.4075530929
 30
0.0
 10
11.2829990416
 20
9.4056996756
 30
0.0
 10
11.284886683
 20
9.4040112719
 30
0.0
 10
11.2865629422
 20
9.4024970281
 30
0.0
 10
11.2878252725
 20
9.4013471362
 30
0.0
 10
11.288726951
 20
9.4005209049
 30
0.0
 10
11.2893216062
 20
9.3999740483
 30
0.0
 10
11.2898608774
 20
9.3994764758
 30
0.0
 10
11.2903443863
 20
9.3990290285
 30
0.0
 10
11.2907717576
 20
9.3986325278
 30
0.0
 10
11.2911427339
 20
9.3982877315
 30
0.0
 10
11.2914570494
 20
9.3979951249
 30
0.0
 10
11.2916834406
 20
9.3977840224
 30
0.0
 10
11.2918361026
 20
9.3976414856
 30
0.0
 10
11.2919292393
 20
9.3975544523
 30
0.0
 10
11.2920080986
 20
9.3974807061
 30
0.0
 10
11.2920726488
 20
9.3974202748
 30
0.0
 10
11.2921175167
 20
9.3973782732
 30
0.0
 10
11.2921462082
 20
9.3973513328
 30
0.0
 10
11.2921624287
 20
9.3973362144
 30
0.0
 10
11.29217486
 20
9.3973243088
 30
0.0
 10
11.2921841752
 20
9.3973161123
 30
0.0
 10
11.2921889926
 20
9.3973106257
 30
0.0
 10
11.292191989
 20
9.3973088064
 30
0.0
 10
11.2921923427
 20
9.397308062
 30
0.0
  0
ENDSEC
  0
SECTION
  2
OBJECTS
  0
DICTIONARY
  5
C
100
AcDbDictionary
280
0
281
1
  3
ACAD_GROUP
350
D
  3
ACAD_MLINESTYLE
350
17
  3
ACAD_LAYOUT
350
1A
  3
ACAD_PLOTSETTINGS
350
19
  3
ACAD_PLOTSTYLENAME
350
E
  0
DICTIONARY
  5
D
102
{ACAD_REACTORS
330
C
102
}
100
AcDbDictionary
280
0
281
1
  0
ACDBDICTIONARYWDFLT
  5
E
102
{ACAD_REACTORS
330
C
102
}
100
AcDbDictionary
281
1
  3
Normal
350
F
100
AcDbDictionaryWithDefault
340
F
  0
DICTIONARY
  5
17
102
{ACAD_REACTORS
330
C
102
}
100
AcDbDictionary
280
0
281
1
  3
Standard
350
18
  0
DICTIONARY
  5
19
102
{ACAD_REACTORS
330
C
102
}
100
AcDbDictionary
281
1
  0
DICTIONARY
  5
1A
102
{ACAD_REACTORS
330
C
102
}
100
AcDbDictionary
281
1
  3
Model
350
22E
  3
Layout1
350
22F
  0
ACDBPLACEHOLDER
  5
F
102
{ACAD_REACTORS
330
E
102
}
  0
MLINESTYLE
  5
18
102
{ACAD_REACTORS
330
17
102
}
100
AcDbMlineStyle
  2
STANDARD
 70
0
  3

 62
256
 51
90.0
 52
90.0
 71
2
 49
0.5
 62
256
  6
BYLAYER
 49
-0.5
 62
256
  6
BYLAYER
  0
LAYOUT
  5
22E
102
{ACAD_REACTORS
330
1A
102
}
100
AcDbPlotSettings
  1

  2
none_device
  4
ANSI_C_(22.00_x_17.00_Inches)
  6

 40
0.0
 41
0.0
 42
0.0
 43
0.0
 44
558.8
 45
431.8
 46
0.0
 47
0.0
 48
0.0
 49
0.0
140
0.0
141
0.0
142
1.0
143
1.0
 70
1024
 72
0
 73
0
 74
0
  7

 75
0
147
1.0
148
0.0
149
0.0
100
AcDbLayout
  1
Model
 70
0
 71
0
 10
0.0
 20
0.0
 11
22.0
 21
17.0
 12
0.0
 22
0.0
 32
0.0
 14
0.0
 24
0.0
 34
0.0
 15
0.0
 25
0.0
 35
0.0
146
0.0
 13
0.0
 23
0.0
 33
0.0
 16
1.0
 26
0.0
 36
0.0
 17
0.0
 27
1.0
 37
0.0
 76
0
330
205
345
0
346
0
  0
LAYOUT
  5
22F
102
{ACAD_REACTORS
330
1A
102
}
100
AcDbPlotSettings
  1

  2
none_device
  4
ANSI_C_(22.00_x_17.00_Inches)
  6

 40
0.0
 41
0.0
 42
0.0
 43
0.0
 44
558.8
 45
431.8
 46
0.0
 47
0.0
 48
0.0
 49
0.0
140
0.0
141
0.0
142
1.0
143
1.0
 70
0
 72
0
 73
0
 74
0
  7

 75
0
147
1.0
148
0.0
149
0.0
100
AcDbLayout
  1
Layout1
 70
0
 71
1
 10
0.0
 20
0.0
 11
22.0
 21
17.0
 12
0.0
 22
0.0
 32
0.0
 14
0.0
 24
0.0
 34
0.0
 15
0.0
 25
0.0
 35
0.0
146
0.0
 13
0.0
 23
0.0
 33
0.0
 16
1.0
 26
0.0
 36
0.0
 17
0.0
 27
1.0
 37
0.0
 76
0
330
206
345
0
346
0
  0
ENDSEC
  0
EOF
