999
DXF file: 990-3924_front.dxf
999
Pro/ENGINEER 2013150 by Parametric Technology Corporation
  0
SECTION
  2
HEADER
  9
$ACADVER
  1
AC1021
  9
$DWGCODEPAGE
  3
ANSI_1252
  9
$EXTMAX
 10
11.0
 20
8.5
 30
0.0
  9
$EXTMIN
 10
0.0
 20
0.0
 30
0.0
  9
$LIMMIN
 10
0.0
 20
0.0
  9
$LIMMAX
 10
11.0
 20
8.5
  9
$VIEWCTR
 10
5.5
 20
4.25
  9
$VIEWSIZE
 40
8.5
  9
$CLAYER
  8
0
  9
$LTSCALE
 40
0.605
  9
$CELTYPE
  6
BYLAYER
  9
$DIMSCALE
 40
1.0
  9
$DIMASZ
 40
0.1
  9
$DIMEXO
 40
0.0625
  9
$DIMDLI
 40
0.418
  9
$DIMEXE
 40
0.125
  9
$DIMCEN
 40
0.099
  9
$DIMLFAC
 40
1.0
  9
$DIMBLK
  1
_FILLED
  9
$DIMTXT
 40
0.08
  9
$DIMTOL
 70
1
  9
$DIMLIM
 70
0
  9
$DIMTFAC
 40
1.0
  9
$DIMTP
 40
0.001
  9
$DIMTM
 40
0.001
  9
$DIMGAP
 40
0.09
  9
$DIMDSEP
 70
46
  9
$PDMODE
 70
3
  9
$PDSIZE
 40
0.3125
  9
$HANDSEED
  5
252
  9
$TILEMODE
 70
1
  9
$MEASUREMENT
 70
0
  9
$INSUNITS
 70
1
  0
ENDSEC
  0
SECTION
  2
CLASSES
  0
CLASS
  1
ACDBDICTIONARYWDFLT
  2
AcDbDictionaryWithDefault
  3
AutoCAD 2000
 90
0
 91
1
280
0
281
0
  0
CLASS
  1
ACDBPLACEHOLDER
  2
AcDbPlaceHolder
  3
AutoCAD 2000
 90
0
 91
1
280
0
281
0
  0
CLASS
  1
LAYOUT
  2
AcDbLayout
  3
AutoCAD 2000
 90
0
 91
0
280
0
281
0
  0
ENDSEC
  0
SECTION
  2
TABLES
  0
TABLE
  2
VPORT
  5
8
100
AcDbSymbolTable
 70
2
  0
VPORT
  5
1F4
100
AcDbSymbolTableRecord
100
AcDbViewportTableRecord
  2
*ACTIVE
 70
0
 10
0.0
 20
0.0
 11
1.0
 21
1.0
 12
5.5
 22
4.25
 13
0.0
 23
0.0
 14
1.0
 24
1.0
 15
0.0
 25
0.0
 16
0.0
 26
0.0
 36
1.0
 17
0.0
 27
0.0
 37
0.0
 40
8.5
 41
1.2941176471
 42
50.0
 43
0.0
 44
0.0
 50
0.0
 51
0.0
 71
0
 72
100
 73
1
 74
1
 75
0
 76
0
 77
0
 78
0
  0
ENDTAB
  0
TABLE
  2
LTYPE
  5
5
100
AcDbSymbolTable
 70
6
  0
LTYPE
  5
14
100
AcDbSymbolTableRecord
100
AcDbLinetypeTableRecord
  2
BYBLOCK
 70
0
  3

 72
65
 73
0
 40
0.0
  0
LTYPE
  5
15
100
AcDbSymbolTableRecord
100
AcDbLinetypeTableRecord
  2
BYLAYER
 70
0
  3

 72
65
 73
0
 40
0.0
  0
LTYPE
  5
16
100
AcDbSymbolTableRecord
100
AcDbLinetypeTableRecord
  2
CONTINUOUS
 70
64
  3
Solid line
 72
65
 73
0
 40
0.0
  0
LTYPE
  5
1F5
100
AcDbSymbolTableRecord
100
AcDbLinetypeTableRecord
  2
CENTER
 70
64
  3
____ _ ____ _ ____ _ ____ _ ____ _ ____ _ ____
 72
65
 73
4
 40
0.6
 49
0.375
 74
0
 49
-0.075
 74
0
 49
0.075
 74
0
 49
-0.075
 74
0
  0
LTYPE
  5
1F6
100
AcDbSymbolTableRecord
100
AcDbLinetypeTableRecord
  2
HIDDEN
 70
64
  3
- - - - - - - - - - - - - - - - - - - -
 72
65
 73
2
 40
0.2
 49
0.1
 74
0
 49
-0.1
 74
0
  0
LTYPE
  5
1F7
100
AcDbSymbolTableRecord
100
AcDbLinetypeTableRecord
  2
PHANTOM
 70
64
  3
_____ _ _ _____ _ _ _____ _ _ _____
 72
65
 73
6
 40
0.8
 49
0.45
 74
0
 49
-0.05
 74
0
 49
0.1
 74
0
 49
-0.05
 74
0
 49
0.1
 74
0
 49
-0.05
 74
0
  0
LTYPE
  5
1F8
100
AcDbSymbolTableRecord
100
AcDbLinetypeTableRecord
  2
DOT
 70
64
  3
. . . . . . . . . . . . . . . . . . . .
 72
65
 73
2
 40
0.2
 49
0.1
 74
0
 49
-0.1
 74
0
  0
LTYPE
  5
1F9
100
AcDbSymbolTableRecord
100
AcDbLinetypeTableRecord
  2
DASHED
 70
64
  3
- - - - - - - - - - - - - - - - - - - -
 72
65
 73
2
 40
0.2
 49
0.1
 74
0
 49
-0.1
 74
0
  0
ENDTAB
  0
TABLE
  2
LAYER
  5
2
100
AcDbSymbolTable
 70
36
  0
LAYER
  5
10
100
AcDbSymbolTableRecord
100
AcDbLayerTableRecord
  2
0
 70
0
 62
7
  6
CONTINUOUS
370
-3
390
F
  0
LAYER
  5
1FA
100
AcDbSymbolTableRecord
100
AcDbLayerTableRecord
  2
DEFAULT_1
 70
0
 62
7
  6
CENTER
370
-3
390
F
  0
LAYER
  5
1FB
100
AcDbSymbolTableRecord
100
AcDbLayerTableRecord
  2
DEFAULT_2
 70
0
 62
8
  6
HIDDEN
370
-3
390
F
  0
LAYER
  5
1FC
100
AcDbSymbolTableRecord
100
AcDbLayerTableRecord
  2
DEFAULT_3
 70
0
 62
7
  6
PHANTOM
370
-3
390
F
  0
LAYER
  5
1FD
100
AcDbSymbolTableRecord
100
AcDbLayerTableRecord
  2
_  SHELL
 70
0
 62
7
  6
CONTINUOUS
370
-3
390
F
  0
LAYER
  5
1FE
100
AcDbSymbolTableRecord
100
AcDbLayerTableRecord
  2
06___PRT_ALL_SURFS
 70
0
 62
7
  6
CONTINUOUS
370
-3
390
F
  0
LAYER
  5
1FF
100
AcDbSymbolTableRecord
100
AcDbLayerTableRecord
  2
ALL_FEATURES
 70
0
 62
7
  6
CONTINUOUS
370
-3
390
F
  0
LAYER
  5
200
100
AcDbSymbolTableRecord
100
AcDbLayerTableRecord
  2
AXES_FEATURES
 70
0
 62
7
  6
CONTINUOUS
370
-3
390
F
  0
LAYER
  5
201
100
AcDbSymbolTableRecord
100
AcDbLayerTableRecord
  2
CS1_LOGO
 70
0
 62
7
  6
CONTINUOUS
370
-3
390
F
  0
LAYER
  5
202
100
AcDbSymbolTableRecord
100
AcDbLayerTableRecord
  2
DEFAULT_COORDINATE_SYSTEM
 70
0
 62
7
  6
CONTINUOUS
370
-3
390
F
  0
LAYER
  5
203
100
AcDbSymbolTableRecord
100
AcDbLayerTableRecord
  2
DEFAULT_DATUM_AXES
 70
0
 62
7
  6
CONTINUOUS
370
-3
390
F
  0
LAYER
  5
204
100
AcDbSymbolTableRecord
100
AcDbLayerTableRecord
  2
DEFAULT_DATUM_CURVES
 70
0
 62
7
  6
CONTINUOUS
370
-3
390
F
  0
LAYER
  5
205
100
AcDbSymbolTableRecord
100
AcDbLayerTableRecord
  2
DEFAULT_DATUM_PLANES
 70
0
 62
7
  6
CONTINUOUS
370
-3
390
F
  0
LAYER
  5
206
100
AcDbSymbolTableRecord
100
AcDbLayerTableRecord
  2
DEFAULT_SURFACES
 70
0
 62
7
  6
CONTINUOUS
370
-3
390
F
  0
LAYER
  5
207
100
AcDbSymbolTableRecord
100
AcDbLayerTableRecord
  2
DIMENSIONS
 70
0
 62
7
  6
CONTINUOUS
370
-3
390
F
  0
LAYER
  5
208
100
AcDbSymbolTableRecord
100
AcDbLayerTableRecord
  2
INTF_BLANK
 70
0
 62
7
  6
CONTINUOUS
370
-3
390
F
  0
LAYER
  5
209
100
AcDbSymbolTableRecord
100
AcDbLayerTableRecord
  2
PLATED_SURFACE_AREA
 70
0
 62
7
  6
CONTINUOUS
370
-3
390
F
  0
LAYER
  5
20A
100
AcDbSymbolTableRecord
100
AcDbLayerTableRecord
  2
SHELL
 70
0
 62
7
  6
CONTINUOUS
370
-3
390
F
  0
LAYER
  5
20B
100
AcDbSymbolTableRecord
100
AcDbLayerTableRecord
  2
XSEC_DATUMS
 70
0
 62
7
  6
CONTINUOUS
370
-3
390
F
  0
LAYER
  5
20C
100
AcDbSymbolTableRecord
100
AcDbLayerTableRecord
  2
___SHELL
 70
0
 62
7
  6
CONTINUOUS
370
-3
390
F
  0
ENDTAB
  0
TABLE
  2
STYLE
  5
3
100
AcDbSymbolTable
 70
1
  0
STYLE
  5
11
100
AcDbSymbolTableRecord
100
AcDbTextStyleTableRecord
  2
STANDARD
 70
0
 40
0.0
 41
0.8
 50
0.0
 71
0
 42
0.2
  3
txt
  4

  0
STYLE
  5
20D
100
AcDbSymbolTableRecord
100
AcDbTextStyleTableRecord
  2
TEXTSTYLE_1
 70
0
 40
0.0
 41
0.8
 50
0.0
 71
0
 42
0.2
  3
gdt
  4

  0
ENDTAB
  0
TABLE
  2
VIEW
  5
6
100
AcDbSymbolTable
 70
0
  0
ENDTAB
  0
TABLE
  2
UCS
  5
7
100
AcDbSymbolTable
 70
0
  0
ENDTAB
  0
TABLE
  2
APPID
  5
9
100
AcDbSymbolTable
 70
1
  0
APPID
  5
20E
100
AcDbSymbolTableRecord
100
AcDbRegAppTableRecord
  2
ACAD
 70
0
  0
ENDTAB
  0
TABLE
  2
BLOCK_RECORD
  5
1
100
AcDbSymbolTable
 70
0
  0
BLOCK_RECORD
  5
20F
100
AcDbSymbolTableRecord
100
AcDbBlockTableRecord
  2
*Model_Space
  0
BLOCK_RECORD
  5
210
100
AcDbSymbolTableRecord
100
AcDbBlockTableRecord
  2
*Paper_Space
  0
ENDTAB
  0
TABLE
  2
DIMSTYLE
  5
A
100
AcDbSymbolTable
 70
1
100
AcDbDimStyleTable
 71
0
  0
DIMSTYLE
105
211
100
AcDbSymbolTableRecord
100
AcDbDimStyleTableRecord
  2
STANDARD
 70
0
  3

  4

 40
1.0
 41
0.1
 42
0.0625
 43
0.38
 44
0.125
 45
0.0
 46
0.0
 47
0.001
 48
0.001
140
0.08
141
0.09
142
0.0
143
25.4
144
1.0
145
0.0
146
1.0
147
0.09
 71
1.0
 72
0.0
 73
1
 74
1
 75
0
 76
0
 77
0
 78
4
170
0
171
2
172
0
173
0
174
0
175
0
176
0
177
0
178
0
270
2
271
3
272
3
273
2
274
2
275
0
280
0
281
0
282
0
283
1
284
4
285
0
286
0
287
3
288
0
340
11
278
46
  0
ENDTAB
  0
ENDSEC
  0
SECTION
  2
BLOCKS
  0
BLOCK
  5
20
100
AcDbEntity
  8
0
100
AcDbBlockBegin
  2
*Model_Space
 70
0
 10
0.0
 20
0.0
 30
0.0
  3
*Model_Space
  1

  0
ENDBLK
  5
21
100
AcDbEntity
  8
0
100
AcDbBlockEnd
  0
BLOCK
  5
1C
100
AcDbEntity
  8
0
100
AcDbBlockBegin
  2
*Paper_Space
 70
0
 10
0.0
 20
0.0
 30
0.0
  3
*Paper_Space
  1

  0
ENDBLK
  5
1D
100
AcDbEntity
  8
0
100
AcDbBlockEnd
  0
ENDSEC
  0
SECTION
  2
ENTITIES
  0
LINE
  5
212
100
AcDbEntity
  8
0
100
AcDbLine
 62
7
  6
CONTINUOUS
 10
0.0
 20
0.0
 11
0.0
 21
8.5
  0
LINE
  5
213
100
AcDbEntity
  8
0
100
AcDbLine
 62
7
  6
CONTINUOUS
 10
0.0
 20
0.0
 11
11.0
 21
0.0
  0
LINE
  5
214
100
AcDbEntity
  8
0
100
AcDbLine
 62
7
  6
CONTINUOUS
 10
0.0
 20
8.5
 11
11.0
 21
8.5
  0
LINE
  5
215
100
AcDbEntity
  8
0
100
AcDbLine
 62
7
  6
CONTINUOUS
 10
11.0
 20
0.0
 11
11.0
 21
8.5
  0
LINE
  5
216
100
AcDbEntity
  8
0
100
AcDbLine
 62
7
  6
CONTINUOUS
 10
1.4999806141
 20
4.1274038462
 11
1.4999806141
 21
3.6586538462
  0
LINE
  5
217
100
AcDbEntity
  8
0
100
AcDbLine
 62
7
  6
CONTINUOUS
 10
0.8906056141
 20
3.6586538462
 11
9.8906056141
 21
3.6586538462
  0
LINE
  5
218
100
AcDbEntity
  8
0
100
AcDbLine
 62
7
  6
CONTINUOUS
 10
0.8906056141
 20
4.1274038462
 11
9.8906056141
 21
4.1274038462
  0
LINE
  5
219
100
AcDbEntity
  8
0
100
AcDbLine
 62
7
  6
CONTINUOUS
 10
9.2812306141
 20
4.1274038462
 11
9.2812306141
 21
3.6586538462
  0
ARC
  5
21A
100
AcDbEntity
  8
0
100
AcDbCircle
 62
7
  6
CONTINUOUS
 10
0.8906055709
 20
3.892857393
 40
0.2345837604
100
AcDbArc
 50
88.5353016742
 51
89.1811181574
  0
ARC
  5
21B
100
AcDbEntity
  8
0
100
AcDbCircle
 62
7
  6
CONTINUOUS
 10
0.8906051376
 20
3.8928840286
 40
0.2345571337
100
AcDbArc
 50
89.180919324
 51
92.7038761632
  0
ARC
  5
21C
100
AcDbEntity
  8
0
100
AcDbCircle
 62
7
  6
CONTINUOUS
 10
0.8906056558
 20
3.8930287911
 40
0.2344124227
100
AcDbArc
 50
109.0761298554
 51
174.414757622
  0
ARC
  5
21D
100
AcDbEntity
  8
0
100
AcDbCircle
 62
7
  6
CONTINUOUS
 10
0.8905173639
 20
3.893021902
 40
0.2343249894
100
AcDbArc
 50
174.4109800055
 51
174.7606630075
  0
ARC
  5
21E
100
AcDbEntity
  8
0
100
AcDbCircle
 62
7
  6
CONTINUOUS
 10
0.7736148711
 20
3.7723781093
 40
0.1601965239
100
AcDbArc
 50
223.4430698095
 51
224.5958506924
  0
ARC
  5
21F
100
AcDbEntity
  8
0
100
AcDbCircle
 62
7
  6
CONTINUOUS
 10
0.753118066
 20
3.7521930607
 40
0.1314292712
100
AcDbArc
 50
224.6034930921
 51
225.7895888401
  0
ARC
  5
220
100
AcDbEntity
  8
0
100
AcDbCircle
 62
7
  6
CONTINUOUS
 10
0.8906056141
 20
3.4852163462
 40
0.0770625
100
AcDbArc
 50
81.7981656341
 51
98.2018347684
  0
ARC
  5
221
100
AcDbEntity
  8
0
100
AcDbCircle
 62
7
  6
CONTINUOUS
 10
0.4827931141
 20
3.8930288462
 40
0.0770625
100
AcDbArc
 50
351.7981656341
 51
8.2018347684
  0
ARC
  5
222
100
AcDbEntity
  8
0
100
AcDbCircle
 62
7
  6
CONTINUOUS
 10
0.8906056141
 20
3.8930288462
 40
0.5625
100
AcDbArc
 50
24.6249031313
 51
335.3750968687
  0
ARC
  5
223
100
AcDbEntity
  8
0
100
AcDbCircle
 62
7
  6
CONTINUOUS
 10
0.8906056141
 20
3.8930288462
 40
0.5451489599
100
AcDbArc
 50
25.4579615342
 51
334.5431425419
  0
ARC
  5
224
100
AcDbEntity
  8
0
100
AcDbCircle
 62
7
  6
CONTINUOUS
 10
0.8906056141
 20
3.8930288462
 40
0.4957921117
100
AcDbArc
 50
28.2100945524
 51
331.7914120027
  0
ARC
  5
225
100
AcDbEntity
  8
0
100
AcDbCircle
 62
7
  6
CONTINUOUS
 10
0.8906056141
 20
3.8930288462
 40
0.331875
100
AcDbArc
 50
44.9295275057
 51
315.0704724943
  0
ARC
  5
226
100
AcDbEntity
  8
0
100
AcDbCircle
 62
7
  6
CONTINUOUS
 10
0.8906056141
 20
3.8930288462
 40
0.328125
100
AcDbArc
 50
45.5865880924
 51
314.4131874768
  0
ARC
  5
227
100
AcDbEntity
  8
0
100
AcDbCircle
 62
7
  6
CONTINUOUS
 10
0.8906056141
 20
3.8930288462
 40
0.3056249996
100
AcDbArc
 50
50.0804485035
 51
309.9194554667
  0
ARC
  5
228
100
AcDbEntity
  8
0
100
AcDbCircle
 62
7
  6
CONTINUOUS
 10
0.8906056141
 20
3.8930288462
 40
0.23625
100
AcDbArc
 50
82.9145677466
 51
277.0854322534
  0
ARC
  5
229
100
AcDbEntity
  8
0
100
AcDbCircle
 62
7
  6
CONTINUOUS
 10
0.8906049294
 20
3.8930341548
 40
0.2344071067
100
AcDbArc
 50
99.9759066234
 51
109.0763905357
  0
ARC
  5
22A
100
AcDbEntity
  8
0
100
AcDbCircle
 62
7
  6
CONTINUOUS
 10
0.8906025342
 20
3.893059863
 40
0.2343813724
100
AcDbArc
 50
92.7052681872
 51
99.9764186474
  0
ARC
  5
22B
100
AcDbEntity
  8
0
100
AcDbCircle
 62
7
  6
CONTINUOUS
 10
0.8906056141
 20
3.8930288462
 40
0.234375
100
AcDbArc
 50
90.0
 51
270.0
  0
ARC
  5
22C
100
AcDbEntity
  8
0
100
AcDbCircle
 62
7
  6
CONTINUOUS
 10
0.8903564833
 20
3.8930365979
 40
0.234163439
100
AcDbArc
 50
174.7606491821
 51
175.2168757305
  0
ARC
  5
22D
100
AcDbEntity
  8
0
100
AcDbCircle
 62
7
  6
CONTINUOUS
 10
0.8903098363
 20
3.8930395428
 40
0.2341166981
100
AcDbArc
 50
174.7955298185
 51
175.2397461215
  0
ARC
  5
22E
100
AcDbEntity
  8
0
100
AcDbCircle
 62
7
  6
CONTINUOUS
 10
0.8899744012
 20
3.8930677381
 40
0.233780091
100
AcDbArc
 50
175.2166728081
 51
176.3759778601
  0
ARC
  5
22F
100
AcDbEntity
  8
0
100
AcDbCircle
 62
7
  6
CONTINUOUS
 10
0.8899192038
 20
3.8930712391
 40
0.2337247827
100
AcDbArc
 50
175.2395425846
 51
176.3759790965
  0
ARC
  5
230
100
AcDbEntity
  8
0
100
AcDbCircle
 62
7
  6
CONTINUOUS
 10
0.8906056141
 20
4.3008413462
 40
0.0770625
100
AcDbArc
 50
261.7981656341
 51
278.2018347684
  0
ARC
  5
231
100
AcDbEntity
  8
0
100
AcDbCircle
 62
7
  6
CONTINUOUS
 10
9.890534947
 20
3.8925451219
 40
0.2349005084
100
AcDbArc
 50
81.6153798396
 51
82.0464126992
  0
ARC
  5
232
100
AcDbEntity
  8
0
100
AcDbCircle
 62
7
  6
CONTINUOUS
 10
9.8905614741
 20
3.8927432659
 40
0.2347005998
100
AcDbArc
 50
82.0461330734
 51
85.1051811276
  0
ARC
  5
233
100
AcDbEntity
  8
0
100
AcDbCircle
 62
7
  6
CONTINUOUS
 10
9.8906047608
 20
3.8928043337
 40
0.2346368231
100
AcDbArc
 50
88.5354350852
 51
90.9324218672
  0
ARC
  5
234
100
AcDbEntity
  8
0
100
AcDbCircle
 62
7
  6
CONTINUOUS
 10
9.752175608
 20
3.7512294401
 40
0.1300813918
100
AcDbArc
 50
225.3714151758
 51
225.7911791434
  0
ARC
  5
235
100
AcDbEntity
  8
0
100
AcDbCircle
 62
7
  6
CONTINUOUS
 10
9.8906056141
 20
3.4852163462
 40
0.0770625
100
AcDbArc
 50
81.7981656341
 51
98.2018347684
  0
ARC
  5
236
100
AcDbEntity
  8
0
100
AcDbCircle
 62
7
  6
CONTINUOUS
 10
9.8906056141
 20
3.8930288462
 40
0.5625
100
AcDbArc
 50
204.6249031313
 51
155.3750968687
  0
ARC
  5
237
100
AcDbEntity
  8
0
100
AcDbCircle
 62
7
  6
CONTINUOUS
 10
9.8906056141
 20
3.8930288462
 40
0.5451489599
100
AcDbArc
 50
205.4579615308
 51
154.5431425419
  0
ARC
  5
238
100
AcDbEntity
  8
0
100
AcDbCircle
 62
7
  6
CONTINUOUS
 10
9.8906056141
 20
3.8930288462
 40
0.4957921117
100
AcDbArc
 50
208.2100945621
 51
151.7914120025
  0
ARC
  5
239
100
AcDbEntity
  8
0
100
AcDbCircle
 62
7
  6
CONTINUOUS
 10
9.8906056141
 20
3.8930288462
 40
0.331875
100
AcDbArc
 50
224.9295275057
 51
135.0704724943
  0
ARC
  5
23A
100
AcDbEntity
  8
0
100
AcDbCircle
 62
7
  6
CONTINUOUS
 10
9.8906056141
 20
3.8930288462
 40
0.328125
100
AcDbArc
 50
225.5865880924
 51
134.4131874768
  0
ARC
  5
23B
100
AcDbEntity
  8
0
100
AcDbCircle
 62
7
  6
CONTINUOUS
 10
9.8906056141
 20
3.8930288462
 40
0.3056249996
100
AcDbArc
 50
230.0804485035
 51
129.9194554667
  0
ARC
  5
23C
100
AcDbEntity
  8
0
100
AcDbCircle
 62
7
  6
CONTINUOUS
 10
9.8906056141
 20
3.8930288462
 40
0.23625
100
AcDbArc
 50
262.9145677466
 51
97.0854322534
  0
ARC
  5
23D
100
AcDbEntity
  8
0
100
AcDbCircle
 62
7
  6
CONTINUOUS
 10
9.8906056141
 20
3.8930288462
 40
0.234375
100
AcDbArc
 50
270.0
 51
90.0
  0
ARC
  5
23E
100
AcDbEntity
  8
0
100
AcDbCircle
 62
7
  6
CONTINUOUS
 10
9.8906138135
 20
3.8931287592
 40
0.2343122722
100
AcDbArc
 50
86.4847890583
 51
88.5356204017
  0
ARC
  5
23F
100
AcDbEntity
  8
0
100
AcDbCircle
 62
7
  6
CONTINUOUS
 10
9.8906420969
 20
3.8936431354
 40
0.2337971297
100
AcDbArc
 50
85.2349827866
 51
86.483978373
  0
ARC
  5
240
100
AcDbEntity
  8
0
100
AcDbCircle
 62
7
  6
CONTINUOUS
 10
9.8906056141
 20
4.3008413462
 40
0.0770625
100
AcDbArc
 50
261.7981656341
 51
278.2018347684
  0
ARC
  5
241
100
AcDbEntity
  8
0
100
AcDbCircle
 62
7
  6
CONTINUOUS
 10
10.2984181141
 20
3.8930288462
 40
0.0770625
100
AcDbArc
 50
171.7981656341
 51
188.2018347684
  0
SPLINE
  5
242
100
AcDbEntity
  8
0
100
AcDbSpline
 62
7
  6
CONTINUOUS
 70
0
 71
3
 72
13
 73
9
 74
0
 42
0.0000001
 43
0.0000001
 44
0.0000000001
 40
0.0
 40
0.0
 40
0.0
 40
0.0
 40
0.2612289866
 40
0.513042321
 40
0.635218149
 40
0.7556118052
 40
0.8758356352
 40
1.0
 40
1.0
 40
1.0
 40
1.0
 10
0.8753103505
 20
3.5615543854
 30
0.0
 10
0.8764846016
 20
3.5619857966
 30
0.0
 10
0.8787922683
 20
3.5628285815
 30
0.0
 10
0.8816917719
 20
3.5637573705
 30
0.0
 10
0.8839920899
 20
3.5643222101
 30
0.0
 10
0.8857020122
 20
3.5646364804
 30
0.0
 10
0.8874392999
 20
3.5648334972
 30
0.0
 10
0.888609554
 20
3.564881062
 30
0.0
 10
0.8892040692
 20
3.56489152
 30
0.0
  0
SPLINE
  5
243
100
AcDbEntity
  8
0
100
AcDbSpline
 62
7
  6
CONTINUOUS
 70
0
 71
3
 72
13
 73
9
 74
0
 42
0.0000001
 43
0.0000001
 44
0.0000000001
 40
0.0
 40
0.0
 40
0.0
 40
0.0
 40
0.1241605483
 40
0.2443815789
 40
0.364777704
 40
0.4869541972
 40
0.7387695373
 40
1.0
 40
1.0
 40
1.0
 40
1.0
 10
0.562468288
 20
3.8916273012
 30
0.0
 10
0.5624578308
 20
3.8910328303
 30
0.0
 10
0.5624102687
 20
3.8898626593
 30
0.0
 10
0.5622132689
 20
3.8881254674
 30
0.0
 10
0.5618990408
 20
3.8864156134
 30
0.0
 10
0.5613342403
 20
3.8841153674
 30
0.0
 10
0.5604055191
 20
3.8812159603
 30
0.0
 10
0.559562724
 20
3.8789083947
 30
0.0
 10
0.55913138
 20
3.8777341699
 30
0.0
  0
LINE
  5
244
100
AcDbEntity
  8
0
100
AcDbLine
 62
7
  6
CONTINUOUS
 10
0.6573029073
 20
3.6622216144
 11
0.6550384235
 21
3.6646115831
  0
SPLINE
  5
245
100
AcDbEntity
  8
0
100
AcDbSpline
 62
7
  6
CONTINUOUS
 70
0
 71
3
 72
13
 73
9
 74
0
 42
0.0000001
 43
0.0000001
 44
0.0000000001
 40
0.0
 40
0.0
 40
0.0
 40
0.0
 40
0.2612289866
 40
0.513042321
 40
0.635218149
 40
0.7556118052
 40
0.8758356352
 40
1.0
 40
1.0
 40
1.0
 40
1.0
 10
0.5591311533
 20
3.9083241098
 30
0.0
 10
0.5595625646
 20
3.9071498587
 30
0.0
 10
0.5604053495
 20
3.904842192
 30
0.0
 10
0.5613341385
 20
3.9019426884
 30
0.0
 10
0.5618989781
 20
3.8996423704
 30
0.0
 10
0.5622132484
 20
3.8979324481
 30
0.0
 10
0.5624102652
 20
3.8961951604
 30
0.0
 10
0.56245783
 20
3.8950249063
 30
0.0
 10
0.562468288
 20
3.8944303911
 30
0.0
  0
SPLINE
  5
246
100
AcDbEntity
  8
0
100
AcDbSpline
 62
7
  6
CONTINUOUS
 70
0
 71
3
 72
13
 73
9
 74
0
 42
0.0000001
 43
0.0000001
 44
0.0000000001
 40
0.0
 40
0.0
 40
0.0
 40
0.0
 40
0.1241605483
 40
0.2443815789
 40
0.3647777039
 40
0.4869541971
 40
0.7387695373
 40
1.0
 40
1.0
 40
1.0
 40
1.0
 10
0.8892040692
 20
4.2211661723
 30
0.0
 10
0.8886095983
 20
4.2211766295
 30
0.0
 10
0.8874394273
 20
4.2212241916
 30
0.0
 10
0.8857022354
 20
4.2214211914
 30
0.0
 10
0.8839923814
 20
4.2217354195
 30
0.0
 10
0.8816921354
 20
4.22230022
 30
0.0
 10
0.8787927283
 20
4.2232289412
 30
0.0
 10
0.8764851626
 20
4.2240717363
 30
0.0
 10
0.8753109378
 20
4.2245030803
 30
0.0
  0
SPLINE
  5
247
100
AcDbEntity
  8
0
100
AcDbSpline
 62
7
  6
CONTINUOUS
 70
0
 71
3
 72
13
 73
9
 74
0
 42
0.0000001
 43
0.0000001
 44
0.0000000001
 40
0.0
 40
0.0
 40
0.0
 40
0.0
 40
0.2612289866
 40
0.5130423211
 40
0.635218149
 40
0.7556118053
 40
0.8758356352
 40
1.0
 40
1.0
 40
1.0
 40
1.0
 10
0.9059008778
 20
4.224503307
 30
0.0
 10
0.9047266267
 20
4.2240718957
 30
0.0
 10
0.90241896
 20
4.2232291108
 30
0.0
 10
0.8995194564
 20
4.2223003218
 30
0.0
 10
0.8972191384
 20
4.2217354822
 30
0.0
 10
0.8955092161
 20
4.2214212119
 30
0.0
 10
0.8937719284
 20
4.2212241951
 30
0.0
 10
0.8926016743
 20
4.2211766303
 30
0.0
 10
0.8920071591
 20
4.2211661723
 30
0.0
  0
SPLINE
  5
248
100
AcDbEntity
  8
0
100
AcDbSpline
 62
7
  6
CONTINUOUS
 70
0
 71
3
 72
13
 73
9
 74
0
 42
0.0000001
 43
0.0000001
 44
0.0000000001
 40
0.0
 40
0.0
 40
0.0
 40
0.0
 40
0.1241605483
 40
0.2443815789
 40
0.364777704
 40
0.4869541972
 40
0.7387695373
 40
1.0
 40
1.0
 40
1.0
 40
1.0
 10
0.8920071591
 20
3.56489152
 30
0.0
 10
0.89260163
 20
3.5648810628
 30
0.0
 10
0.893771801
 20
3.5648335008
 30
0.0
 10
0.8955089929
 20
3.5646365009
 30
0.0
 10
0.8972188469
 20
3.5643222728
 30
0.0
 10
0.8995190929
 20
3.5637574723
 30
0.0
 10
0.9024185
 20
3.5628287511
 30
0.0
 10
0.9047260656
 20
3.561985956
 30
0.0
 10
0.9059002904
 20
3.561554612
 30
0.0
  0
LINE
  5
249
100
AcDbEntity
  8
0
100
AcDbLine
 62
7
  6
CONTINUOUS
 10
9.9105877312
 20
4.1265879165
 11
9.9100634852
 21
4.126632207
  0
SPLINE
  5
24A
100
AcDbEntity
  8
0
100
AcDbSpline
 62
7
  6
CONTINUOUS
 70
0
 71
3
 72
13
 73
9
 74
0
 42
0.0000001
 43
0.0000001
 44
0.0000000001
 40
0.0
 40
0.0
 40
0.0
 40
0.0
 40
0.2612289866
 40
0.513042321
 40
0.635218149
 40
0.7556118052
 40
0.8758356352
 40
1.0
 40
1.0
 40
1.0
 40
1.0
 10
9.8753103505
 20
3.5615543854
 30
0.0
 10
9.8764846016
 20
3.5619857966
 30
0.0
 10
9.8787922683
 20
3.5628285815
 30
0.0
 10
9.8816917719
 20
3.5637573705
 30
0.0
 10
9.8839920899
 20
3.5643222101
 30
0.0
 10
9.8857020122
 20
3.5646364804
 30
0.0
 10
9.8874392999
 20
3.5648334972
 30
0.0
 10
9.888609554
 20
3.564881062
 30
0.0
 10
9.8892040692
 20
3.56489152
 30
0.0
  0
SPLINE
  5
24B
100
AcDbEntity
  8
0
100
AcDbSpline
 62
7
  6
CONTINUOUS
 70
0
 71
3
 72
13
 73
9
 74
0
 42
0.0000001
 43
0.0000001
 44
0.0000000001
 40
0.0
 40
0.0
 40
0.0
 40
0.0
 40
0.1241605483
 40
0.2443815789
 40
0.3647777039
 40
0.4869541971
 40
0.7387695373
 40
1.0
 40
1.0
 40
1.0
 40
1.0
 10
9.8892040692
 20
4.2211661723
 30
0.0
 10
9.8886095983
 20
4.2211766295
 30
0.0
 10
9.8874394273
 20
4.2212241916
 30
0.0
 10
9.8857022354
 20
4.2214211914
 30
0.0
 10
9.8839923814
 20
4.2217354195
 30
0.0
 10
9.8816921354
 20
4.22230022
 30
0.0
 10
9.8787927283
 20
4.2232289412
 30
0.0
 10
9.8764851626
 20
4.2240717363
 30
0.0
 10
9.8753109378
 20
4.2245030803
 30
0.0
  0
SPLINE
  5
24C
100
AcDbEntity
  8
0
100
AcDbSpline
 62
7
  6
CONTINUOUS
 70
0
 71
3
 72
13
 73
9
 74
0
 42
0.0000001
 43
0.0000001
 44
0.0000000001
 40
0.0
 40
0.0
 40
0.0
 40
0.0
 40
0.2612289866
 40
0.5130423211
 40
0.635218149
 40
0.7556118053
 40
0.8758356352
 40
1.0
 40
1.0
 40
1.0
 40
1.0
 10
9.9059008778
 20
4.224503307
 30
0.0
 10
9.9047266267
 20
4.2240718957
 30
0.0
 10
9.90241896
 20
4.2232291108
 30
0.0
 10
9.8995194564
 20
4.2223003218
 30
0.0
 10
9.8972191384
 20
4.2217354822
 30
0.0
 10
9.8955092161
 20
4.2214212119
 30
0.0
 10
9.8937719284
 20
4.2212241951
 30
0.0
 10
9.8926016743
 20
4.2211766303
 30
0.0
 10
9.8920071591
 20
4.2211661723
 30
0.0
  0
SPLINE
  5
24D
100
AcDbEntity
  8
0
100
AcDbSpline
 62
7
  6
CONTINUOUS
 70
0
 71
3
 72
13
 73
9
 74
0
 42
0.0000001
 43
0.0000001
 44
0.0000000001
 40
0.0
 40
0.0
 40
0.0
 40
0.0
 40
0.1241605483
 40
0.2443815789
 40
0.364777704
 40
0.4869541972
 40
0.7387695373
 40
1.0
 40
1.0
 40
1.0
 40
1.0
 10
10.2187429403
 20
3.8944303911
 30
0.0
 10
10.2187533975
 20
3.895024862
 30
0.0
 10
10.2188009595
 20
3.896195033
 30
0.0
 10
10.2189979594
 20
3.8979322249
 30
0.0
 10
10.2193121875
 20
3.8996420789
 30
0.0
 10
10.219876988
 20
3.9019423249
 30
0.0
 10
10.2208057092
 20
3.904841732
 30
0.0
 10
10.2216485043
 20
3.9071492976
 30
0.0
 10
10.2220798483
 20
3.9083235224
 30
0.0
  0
SPLINE
  5
24E
100
AcDbEntity
  8
0
100
AcDbSpline
 62
7
  6
CONTINUOUS
 70
0
 71
3
 72
13
 73
9
 74
0
 42
0.0000001
 43
0.0000001
 44
0.0000000001
 40
0.0
 40
0.0
 40
0.0
 40
0.0
 40
0.2612289866
 40
0.513042321
 40
0.635218149
 40
0.7556118052
 40
0.8758356352
 40
1.0
 40
1.0
 40
1.0
 40
1.0
 10
10.2220800749
 20
3.8777335825
 30
0.0
 10
10.2216486637
 20
3.8789078336
 30
0.0
 10
10.2208058788
 20
3.8812155003
 30
0.0
 10
10.2198770898
 20
3.8841150039
 30
0.0
 10
10.2193122502
 20
3.8864153219
 30
0.0
 10
10.2189979799
 20
3.8881252442
 30
0.0
 10
10.2188009631
 20
3.8898625319
 30
0.0
 10
10.2187533983
 20
3.891032786
 30
0.0
 10
10.2187429403
 20
3.8916273012
 30
0.0
  0
SPLINE
  5
24F
100
AcDbEntity
  8
0
100
AcDbSpline
 62
7
  6
CONTINUOUS
 70
0
 71
3
 72
13
 73
9
 74
0
 42
0.0000001
 43
0.0000001
 44
0.0000000001
 40
0.0
 40
0.0
 40
0.0
 40
0.0
 40
0.1241605483
 40
0.2443815789
 40
0.364777704
 40
0.4869541972
 40
0.7387695373
 40
1.0
 40
1.0
 40
1.0
 40
1.0
 10
9.8920071591
 20
3.56489152
 30
0.0
 10
9.89260163
 20
3.5648810628
 30
0.0
 10
9.893771801
 20
3.5648335008
 30
0.0
 10
9.8955089929
 20
3.5646365009
 30
0.0
 10
9.8972188469
 20
3.5643222728
 30
0.0
 10
9.8995190929
 20
3.5637574723
 30
0.0
 10
9.9024185
 20
3.5628287511
 30
0.0
 10
9.9047260656
 20
3.561985956
 30
0.0
 10
9.9059002904
 20
3.561554612
 30
0.0
  0
ENDSEC
  0
SECTION
  2
OBJECTS
  0
DICTIONARY
  5
C
100
AcDbDictionary
280
0
281
1
  3
ACAD_GROUP
350
D
  3
ACAD_MLINESTYLE
350
17
  3
ACAD_LAYOUT
350
1A
  3
ACAD_PLOTSETTINGS
350
19
  3
ACAD_PLOTSTYLENAME
350
E
  0
DICTIONARY
  5
D
102
{ACAD_REACTORS
330
C
102
}
100
AcDbDictionary
280
0
281
1
  0
ACDBDICTIONARYWDFLT
  5
E
102
{ACAD_REACTORS
330
C
102
}
100
AcDbDictionary
281
1
  3
Normal
350
F
100
AcDbDictionaryWithDefault
340
F
  0
DICTIONARY
  5
17
102
{ACAD_REACTORS
330
C
102
}
100
AcDbDictionary
280
0
281
1
  3
Standard
350
18
  0
DICTIONARY
  5
19
102
{ACAD_REACTORS
330
C
102
}
100
AcDbDictionary
281
1
  0
DICTIONARY
  5
1A
102
{ACAD_REACTORS
330
C
102
}
100
AcDbDictionary
281
1
  3
Model
350
250
  3
Layout1
350
251
  0
ACDBPLACEHOLDER
  5
F
102
{ACAD_REACTORS
330
E
102
}
  0
MLINESTYLE
  5
18
102
{ACAD_REACTORS
330
17
102
}
100
AcDbMlineStyle
  2
STANDARD
 70
0
  3

 62
256
 51
90.0
 52
90.0
 71
2
 49
0.5
 62
256
  6
BYLAYER
 49
-0.5
 62
256
  6
BYLAYER
  0
LAYOUT
  5
250
102
{ACAD_REACTORS
330
1A
102
}
100
AcDbPlotSettings
  1

  2
none_device
  4
ANSI_A_(11.00_x_8.50_Inches)
  6

 40
0.0
 41
0.0
 42
0.0
 43
0.0
 44
279.4
 45
215.9
 46
0.0
 47
0.0
 48
0.0
 49
0.0
140
0.0
141
0.0
142
1.0
143
1.0
 70
1024
 72
0
 73
0
 74
0
  7

 75
0
147
1.0
148
0.0
149
0.0
100
AcDbLayout
  1
Model
 70
0
 71
0
 10
0.0
 20
0.0
 11
11.0
 21
8.5
 12
0.0
 22
0.0
 32
0.0
 14
0.0
 24
0.0
 34
0.0
 15
0.0
 25
0.0
 35
0.0
146
0.0
 13
0.0
 23
0.0
 33
0.0
 16
1.0
 26
0.0
 36
0.0
 17
0.0
 27
1.0
 37
0.0
 76
0
330
20F
345
0
346
0
  0
LAYOUT
  5
251
102
{ACAD_REACTORS
330
1A
102
}
100
AcDbPlotSettings
  1

  2
none_device
  4
ANSI_A_(11.00_x_8.50_Inches)
  6

 40
0.0
 41
0.0
 42
0.0
 43
0.0
 44
279.4
 45
215.9
 46
0.0
 47
0.0
 48
0.0
 49
0.0
140
0.0
141
0.0
142
1.0
143
1.0
 70
0
 72
0
 73
0
 74
0
  7

 75
0
147
1.0
148
0.0
149
0.0
100
AcDbLayout
  1
Layout1
 70
0
 71
1
 10
0.0
 20
0.0
 11
11.0
 21
8.5
 12
0.0
 22
0.0
 32
0.0
 14
0.0
 24
0.0
 34
0.0
 15
0.0
 25
0.0
 35
0.0
146
0.0
 13
0.0
 23
0.0
 33
0.0
 16
1.0
 26
0.0
 36
0.0
 17
0.0
 27
1.0
 37
0.0
 76
0
330
210
345
0
346
0
  0
ENDSEC
  0
EOF
