999
DXF file: 990-3936_front.dxf
999
Pro/ENGINEER 2013150 by Parametric Technology Corporation
  0
SECTION
  2
HEADER
  9
$ACADVER
  1
AC1021
  9
$DWGCODEPAGE
  3
ANSI_1252
  9
$EXTMAX
 10
11.0
 20
8.5
 30
0.0
  9
$EXTMIN
 10
0.0
 20
0.0
 30
0.0
  9
$LIMMIN
 10
0.0
 20
0.0
  9
$LIMMAX
 10
11.0
 20
8.5
  9
$VIEWCTR
 10
5.5
 20
4.25
  9
$VIEWSIZE
 40
8.5
  9
$CLAYER
  8
0
  9
$LTSCALE
 40
0.605
  9
$CELTYPE
  6
BYLAYER
  9
$DIMSCALE
 40
1.0
  9
$DIMASZ
 40
0.1
  9
$DIMEXO
 40
0.0625
  9
$DIMDLI
 40
0.418
  9
$DIMEXE
 40
0.125
  9
$DIMCEN
 40
0.099
  9
$DIMLFAC
 40
1.0
  9
$DIMBLK
  1
_FILLED
  9
$DIMTXT
 40
0.08
  9
$DIMTOL
 70
1
  9
$DIMLIM
 70
0
  9
$DIMTFAC
 40
1.0
  9
$DIMTP
 40
0.001
  9
$DIMTM
 40
0.001
  9
$DIMGAP
 40
0.09
  9
$DIMDSEP
 70
46
  9
$PDMODE
 70
3
  9
$PDSIZE
 40
0.3125
  9
$HANDSEED
  5
256
  9
$TILEMODE
 70
1
  9
$MEASUREMENT
 70
0
  9
$INSUNITS
 70
1
  0
ENDSEC
  0
SECTION
  2
CLASSES
  0
CLASS
  1
ACDBDICTIONARYWDFLT
  2
AcDbDictionaryWithDefault
  3
AutoCAD 2000
 90
0
 91
1
280
0
281
0
  0
CLASS
  1
ACDBPLACEHOLDER
  2
AcDbPlaceHolder
  3
AutoCAD 2000
 90
0
 91
1
280
0
281
0
  0
CLASS
  1
LAYOUT
  2
AcDbLayout
  3
AutoCAD 2000
 90
0
 91
0
280
0
281
0
  0
ENDSEC
  0
SECTION
  2
TABLES
  0
TABLE
  2
VPORT
  5
8
100
AcDbSymbolTable
 70
2
  0
VPORT
  5
1F4
100
AcDbSymbolTableRecord
100
AcDbViewportTableRecord
  2
*ACTIVE
 70
0
 10
0.0
 20
0.0
 11
1.0
 21
1.0
 12
5.5
 22
4.25
 13
0.0
 23
0.0
 14
1.0
 24
1.0
 15
0.0
 25
0.0
 16
0.0
 26
0.0
 36
1.0
 17
0.0
 27
0.0
 37
0.0
 40
8.5
 41
1.2941176471
 42
50.0
 43
0.0
 44
0.0
 50
0.0
 51
0.0
 71
0
 72
100
 73
1
 74
1
 75
0
 76
0
 77
0
 78
0
  0
ENDTAB
  0
TABLE
  2
LTYPE
  5
5
100
AcDbSymbolTable
 70
6
  0
LTYPE
  5
14
100
AcDbSymbolTableRecord
100
AcDbLinetypeTableRecord
  2
BYBLOCK
 70
0
  3

 72
65
 73
0
 40
0.0
  0
LTYPE
  5
15
100
AcDbSymbolTableRecord
100
AcDbLinetypeTableRecord
  2
BYLAYER
 70
0
  3

 72
65
 73
0
 40
0.0
  0
LTYPE
  5
16
100
AcDbSymbolTableRecord
100
AcDbLinetypeTableRecord
  2
CONTINUOUS
 70
64
  3
Solid line
 72
65
 73
0
 40
0.0
  0
LTYPE
  5
1F5
100
AcDbSymbolTableRecord
100
AcDbLinetypeTableRecord
  2
CENTER
 70
64
  3
____ _ ____ _ ____ _ ____ _ ____ _ ____ _ ____
 72
65
 73
4
 40
0.6
 49
0.375
 74
0
 49
-0.075
 74
0
 49
0.075
 74
0
 49
-0.075
 74
0
  0
LTYPE
  5
1F6
100
AcDbSymbolTableRecord
100
AcDbLinetypeTableRecord
  2
HIDDEN
 70
64
  3
- - - - - - - - - - - - - - - - - - - -
 72
65
 73
2
 40
0.2
 49
0.1
 74
0
 49
-0.1
 74
0
  0
LTYPE
  5
1F7
100
AcDbSymbolTableRecord
100
AcDbLinetypeTableRecord
  2
PHANTOM
 70
64
  3
_____ _ _ _____ _ _ _____ _ _ _____
 72
65
 73
6
 40
0.8
 49
0.45
 74
0
 49
-0.05
 74
0
 49
0.1
 74
0
 49
-0.05
 74
0
 49
0.1
 74
0
 49
-0.05
 74
0
  0
LTYPE
  5
1F8
100
AcDbSymbolTableRecord
100
AcDbLinetypeTableRecord
  2
DOT
 70
64
  3
. . . . . . . . . . . . . . . . . . . .
 72
65
 73
2
 40
0.2
 49
0.1
 74
0
 49
-0.1
 74
0
  0
LTYPE
  5
1F9
100
AcDbSymbolTableRecord
100
AcDbLinetypeTableRecord
  2
DASHED
 70
64
  3
- - - - - - - - - - - - - - - - - - - -
 72
65
 73
2
 40
0.2
 49
0.1
 74
0
 49
-0.1
 74
0
  0
ENDTAB
  0
TABLE
  2
LAYER
  5
2
100
AcDbSymbolTable
 70
36
  0
LAYER
  5
10
100
AcDbSymbolTableRecord
100
AcDbLayerTableRecord
  2
0
 70
0
 62
7
  6
CONTINUOUS
370
-3
390
F
  0
LAYER
  5
1FA
100
AcDbSymbolTableRecord
100
AcDbLayerTableRecord
  2
DEFAULT_1
 70
0
 62
7
  6
CENTER
370
-3
390
F
  0
LAYER
  5
1FB
100
AcDbSymbolTableRecord
100
AcDbLayerTableRecord
  2
DEFAULT_2
 70
0
 62
8
  6
HIDDEN
370
-3
390
F
  0
LAYER
  5
1FC
100
AcDbSymbolTableRecord
100
AcDbLayerTableRecord
  2
DEFAULT_3
 70
0
 62
7
  6
PHANTOM
370
-3
390
F
  0
LAYER
  5
1FD
100
AcDbSymbolTableRecord
100
AcDbLayerTableRecord
  2
_  SHELL
 70
0
 62
7
  6
CONTINUOUS
370
-3
390
F
  0
LAYER
  5
1FE
100
AcDbSymbolTableRecord
100
AcDbLayerTableRecord
  2
06___PRT_ALL_SURFS
 70
0
 62
7
  6
CONTINUOUS
370
-3
390
F
  0
LAYER
  5
1FF
100
AcDbSymbolTableRecord
100
AcDbLayerTableRecord
  2
ALL_FEATURES
 70
0
 62
7
  6
CONTINUOUS
370
-3
390
F
  0
LAYER
  5
200
100
AcDbSymbolTableRecord
100
AcDbLayerTableRecord
  2
AXES_FEATURES
 70
0
 62
7
  6
CONTINUOUS
370
-3
390
F
  0
LAYER
  5
201
100
AcDbSymbolTableRecord
100
AcDbLayerTableRecord
  2
CS1_LOGO
 70
0
 62
7
  6
CONTINUOUS
370
-3
390
F
  0
LAYER
  5
202
100
AcDbSymbolTableRecord
100
AcDbLayerTableRecord
  2
DEFAULT_COORDINATE_SYSTEM
 70
0
 62
7
  6
CONTINUOUS
370
-3
390
F
  0
LAYER
  5
203
100
AcDbSymbolTableRecord
100
AcDbLayerTableRecord
  2
DEFAULT_DATUM_AXES
 70
0
 62
7
  6
CONTINUOUS
370
-3
390
F
  0
LAYER
  5
204
100
AcDbSymbolTableRecord
100
AcDbLayerTableRecord
  2
DEFAULT_DATUM_CURVES
 70
0
 62
7
  6
CONTINUOUS
370
-3
390
F
  0
LAYER
  5
205
100
AcDbSymbolTableRecord
100
AcDbLayerTableRecord
  2
DEFAULT_DATUM_PLANES
 70
0
 62
7
  6
CONTINUOUS
370
-3
390
F
  0
LAYER
  5
206
100
AcDbSymbolTableRecord
100
AcDbLayerTableRecord
  2
DEFAULT_SURFACES
 70
0
 62
7
  6
CONTINUOUS
370
-3
390
F
  0
LAYER
  5
207
100
AcDbSymbolTableRecord
100
AcDbLayerTableRecord
  2
DIMENSIONS
 70
0
 62
7
  6
CONTINUOUS
370
-3
390
F
  0
LAYER
  5
208
100
AcDbSymbolTableRecord
100
AcDbLayerTableRecord
  2
INTF_BLANK
 70
0
 62
7
  6
CONTINUOUS
370
-3
390
F
  0
LAYER
  5
209
100
AcDbSymbolTableRecord
100
AcDbLayerTableRecord
  2
PLATED_SURFACE_AREA
 70
0
 62
7
  6
CONTINUOUS
370
-3
390
F
  0
LAYER
  5
20A
100
AcDbSymbolTableRecord
100
AcDbLayerTableRecord
  2
SHELL
 70
0
 62
7
  6
CONTINUOUS
370
-3
390
F
  0
LAYER
  5
20B
100
AcDbSymbolTableRecord
100
AcDbLayerTableRecord
  2
XSEC_DATUMS
 70
0
 62
7
  6
CONTINUOUS
370
-3
390
F
  0
LAYER
  5
20C
100
AcDbSymbolTableRecord
100
AcDbLayerTableRecord
  2
___SHELL
 70
0
 62
7
  6
CONTINUOUS
370
-3
390
F
  0
ENDTAB
  0
TABLE
  2
STYLE
  5
3
100
AcDbSymbolTable
 70
1
  0
STYLE
  5
11
100
AcDbSymbolTableRecord
100
AcDbTextStyleTableRecord
  2
STANDARD
 70
0
 40
0.0
 41
0.8
 50
0.0
 71
0
 42
0.2
  3
txt
  4

  0
STYLE
  5
20D
100
AcDbSymbolTableRecord
100
AcDbTextStyleTableRecord
  2
TEXTSTYLE_1
 70
0
 40
0.0
 41
0.8
 50
0.0
 71
0
 42
0.2
  3
gdt
  4

  0
ENDTAB
  0
TABLE
  2
VIEW
  5
6
100
AcDbSymbolTable
 70
0
  0
ENDTAB
  0
TABLE
  2
UCS
  5
7
100
AcDbSymbolTable
 70
0
  0
ENDTAB
  0
TABLE
  2
APPID
  5
9
100
AcDbSymbolTable
 70
1
  0
APPID
  5
20E
100
AcDbSymbolTableRecord
100
AcDbRegAppTableRecord
  2
ACAD
 70
0
  0
ENDTAB
  0
TABLE
  2
BLOCK_RECORD
  5
1
100
AcDbSymbolTable
 70
0
  0
BLOCK_RECORD
  5
20F
100
AcDbSymbolTableRecord
100
AcDbBlockTableRecord
  2
*Model_Space
  0
BLOCK_RECORD
  5
210
100
AcDbSymbolTableRecord
100
AcDbBlockTableRecord
  2
*Paper_Space
  0
ENDTAB
  0
TABLE
  2
DIMSTYLE
  5
A
100
AcDbSymbolTable
 70
1
100
AcDbDimStyleTable
 71
0
  0
DIMSTYLE
105
211
100
AcDbSymbolTableRecord
100
AcDbDimStyleTableRecord
  2
STANDARD
 70
0
  3

  4

 40
1.0
 41
0.1
 42
0.0625
 43
0.38
 44
0.125
 45
0.0
 46
0.0
 47
0.001
 48
0.001
140
0.08
141
0.09
142
0.0
143
25.4
144
1.0
145
0.0
146
1.0
147
0.09
 71
1.0
 72
0.0
 73
1
 74
1
 75
0
 76
0
 77
0
 78
4
170
0
171
2
172
0
173
0
174
0
175
0
176
0
177
0
178
0
270
2
271
3
272
3
273
2
274
2
275
0
280
0
281
0
282
0
283
1
284
4
285
0
286
0
287
3
288
0
340
11
278
46
  0
ENDTAB
  0
ENDSEC
  0
SECTION
  2
BLOCKS
  0
BLOCK
  5
20
100
AcDbEntity
  8
0
100
AcDbBlockBegin
  2
*Model_Space
 70
0
 10
0.0
 20
0.0
 30
0.0
  3
*Model_Space
  1

  0
ENDBLK
  5
21
100
AcDbEntity
  8
0
100
AcDbBlockEnd
  0
BLOCK
  5
1C
100
AcDbEntity
  8
0
100
AcDbBlockBegin
  2
*Paper_Space
 70
0
 10
0.0
 20
0.0
 30
0.0
  3
*Paper_Space
  1

  0
ENDBLK
  5
1D
100
AcDbEntity
  8
0
100
AcDbBlockEnd
  0
ENDSEC
  0
SECTION
  2
ENTITIES
  0
LINE
  5
212
100
AcDbEntity
  8
0
100
AcDbLine
 62
7
  6
CONTINUOUS
 10
0.0
 20
0.0
 11
0.0
 21
8.5
  0
LINE
  5
213
100
AcDbEntity
  8
0
100
AcDbLine
 62
7
  6
CONTINUOUS
 10
0.0
 20
0.0
 11
11.0
 21
0.0
  0
LINE
  5
214
100
AcDbEntity
  8
0
100
AcDbLine
 62
7
  6
CONTINUOUS
 10
0.0
 20
8.5
 11
11.0
 21
8.5
  0
LINE
  5
215
100
AcDbEntity
  8
0
100
AcDbLine
 62
7
  6
CONTINUOUS
 10
11.0
 20
0.0
 11
11.0
 21
8.5
  0
LINE
  5
216
100
AcDbEntity
  8
0
100
AcDbLine
 62
7
  6
CONTINUOUS
 10
1.4810987903
 20
4.5674627792
 11
1.4810987903
 21
4.2549627792
  0
LINE
  5
217
100
AcDbEntity
  8
0
100
AcDbLine
 62
7
  6
CONTINUOUS
 10
1.0748487903
 20
4.2549627792
 11
10.0748487903
 21
4.2549627792
  0
LINE
  5
218
100
AcDbEntity
  8
0
100
AcDbLine
 62
7
  6
CONTINUOUS
 10
1.0748487903
 20
4.5674627792
 11
10.0748487903
 21
4.5674627792
  0
LINE
  5
219
100
AcDbEntity
  8
0
100
AcDbLine
 62
7
  6
CONTINUOUS
 10
9.6685987903
 20
4.5674627792
 11
9.6685987903
 21
4.2549627792
  0
ARC
  5
21A
100
AcDbEntity
  8
0
100
AcDbCircle
 62
7
  6
CONTINUOUS
 10
1.0748484726
 20
4.4111162341
 40
0.1563714225
100
AcDbArc
 50
89.180919324
 51
92.7038761632
  0
ARC
  5
21B
100
AcDbEntity
  8
0
100
AcDbCircle
 62
7
  6
CONTINUOUS
 10
1.0748717206
 20
4.4111509634
 40
0.1563408138
100
AcDbArc
 50
107.9384873392
 51
109.0766626995
  0
ARC
  5
21C
100
AcDbEntity
  8
0
100
AcDbCircle
 62
7
  6
CONTINUOUS
 10
1.074869759
 20
4.4112003485
 40
0.1562968422
100
AcDbArc
 50
174.0842969753
 51
174.4109829242
  0
ARC
  5
21D
100
AcDbEntity
  8
0
100
AcDbCircle
 62
7
  6
CONTINUOUS
 10
1.0748493792
 20
4.411210796
 40
0.1562770088
100
AcDbArc
 50
92.7058436567
 51
107.9374507995
  0
ARC
  5
21E
100
AcDbEntity
  8
0
100
AcDbCircle
 62
7
  6
CONTINUOUS
 10
1.0748026957
 20
4.4112060653
 40
0.1562295223
100
AcDbArc
 50
174.1400376811
 51
174.7954995876
  0
ARC
  5
21F
100
AcDbEntity
  8
0
100
AcDbCircle
 62
7
  6
CONTINUOUS
 10
0.9968549617
 20
4.3307789546
 40
0.1067976826
100
AcDbArc
 50
223.4430698095
 51
224.5958506923
  0
ARC
  5
220
100
AcDbEntity
  8
0
100
AcDbCircle
 62
7
  6
CONTINUOUS
 10
0.9838239244
 20
4.3179601162
 40
0.0885184591
100
AcDbArc
 50
224.6095159731
 51
225.7835659591
  0
ARC
  5
221
100
AcDbEntity
  8
0
100
AcDbCircle
 62
7
  6
CONTINUOUS
 10
1.0748487903
 20
4.1393377792
 40
0.051375
100
AcDbArc
 50
81.7981656341
 51
98.2018347684
  0
ARC
  5
222
100
AcDbEntity
  8
0
100
AcDbCircle
 62
7
  6
CONTINUOUS
 10
0.8029737903
 20
4.4112127792
 40
0.051375
100
AcDbArc
 50
351.7981656341
 51
8.2018347684
  0
ARC
  5
223
100
AcDbEntity
  8
0
100
AcDbCircle
 62
7
  6
CONTINUOUS
 10
1.0748487903
 20
4.4112127792
 40
0.375
100
AcDbArc
 50
24.6249031313
 51
335.3750968687
  0
ARC
  5
224
100
AcDbEntity
  8
0
100
AcDbCircle
 62
7
  6
CONTINUOUS
 10
1.0748487903
 20
4.4112127792
 40
0.36343264
100
AcDbArc
 50
25.4579615342
 51
334.5431425419
  0
ARC
  5
225
100
AcDbEntity
  8
0
100
AcDbCircle
 62
7
  6
CONTINUOUS
 10
1.0748487903
 20
4.4112127792
 40
0.3305280745
100
AcDbArc
 50
28.2100945524
 51
331.7914120027
  0
ARC
  5
226
100
AcDbEntity
  8
0
100
AcDbCircle
 62
7
  6
CONTINUOUS
 10
1.0748487903
 20
4.4112127792
 40
0.22125
100
AcDbArc
 50
44.9295275057
 51
315.0704724943
  0
ARC
  5
227
100
AcDbEntity
  8
0
100
AcDbCircle
 62
7
  6
CONTINUOUS
 10
1.0748487903
 20
4.4112127792
 40
0.21875
100
AcDbArc
 50
45.5865880924
 51
314.4131874768
  0
ARC
  5
228
100
AcDbEntity
  8
0
100
AcDbCircle
 62
7
  6
CONTINUOUS
 10
1.0748487903
 20
4.4112127792
 40
0.2037499997
100
AcDbArc
 50
50.0804485035
 51
309.9194554667
  0
ARC
  5
229
100
AcDbEntity
  8
0
100
AcDbCircle
 62
7
  6
CONTINUOUS
 10
1.0748487903
 20
4.4112127792
 40
0.1575
100
AcDbArc
 50
82.9145677466
 51
277.0854322534
  0
ARC
  5
22A
100
AcDbEntity
  8
0
100
AcDbCircle
 62
7
  6
CONTINUOUS
 10
1.0748483708
 20
4.4112131444
 40
0.1562743806
100
AcDbArc
 50
109.0760230297
 51
174.0881552182
  0
ARC
  5
22B
100
AcDbEntity
  8
0
100
AcDbCircle
 62
7
  6
CONTINUOUS
 10
1.0748487903
 20
4.4112127792
 40
0.15625
100
AcDbArc
 50
90.0
 51
270.0
  0
ARC
  5
22C
100
AcDbEntity
  8
0
100
AcDbCircle
 62
7
  6
CONTINUOUS
 10
1.0746106628
 20
4.4112242613
 40
0.1560366435
100
AcDbArc
 50
174.7605424979
 51
175.7079657568
  0
ARC
  5
22D
100
AcDbEntity
  8
0
100
AcDbCircle
 62
7
  6
CONTINUOUS
 10
1.0745763277
 20
4.4112264675
 40
0.1560022368
100
AcDbArc
 50
174.7954203044
 51
175.7282526216
  0
ARC
  5
22E
100
AcDbEntity
  8
0
100
AcDbCircle
 62
7
  6
CONTINUOUS
 10
1.0743406036
 20
4.4112447163
 40
0.1557658108
100
AcDbArc
 50
175.7080342924
 51
176.376152238
  0
ARC
  5
22F
100
AcDbEntity
  8
0
100
AcDbCircle
 62
7
  6
CONTINUOUS
 10
1.074300974
 20
4.4112472328
 40
0.1557261014
100
AcDbArc
 50
175.7283252249
 51
176.3761547046
  0
ARC
  5
230
100
AcDbEntity
  8
0
100
AcDbCircle
 62
7
  6
CONTINUOUS
 10
1.0748487903
 20
4.6830877792
 40
0.051375
100
AcDbArc
 50
261.7981656341
 51
278.2018347684
  0
ARC
  5
231
100
AcDbEntity
  8
0
100
AcDbCircle
 62
7
  6
CONTINUOUS
 10
10.0748016789
 20
4.4108902963
 40
0.156600339
100
AcDbArc
 50
81.6153798397
 51
82.0464126991
  0
ARC
  5
232
100
AcDbEntity
  8
0
100
AcDbCircle
 62
7
  6
CONTINUOUS
 10
10.0748120194
 20
4.4109673352
 40
0.1565226103
100
AcDbArc
 50
82.0462593777
 51
83.966729081
  0
ARC
  5
233
100
AcDbEntity
  8
0
100
AcDbCircle
 62
7
  6
CONTINUOUS
 10
10.0748482707
 20
4.4110626481
 40
0.1564250055
100
AcDbArc
 50
88.9662549574
 51
90.9324372215
  0
ARC
  5
234
100
AcDbEntity
  8
0
100
AcDbCircle
 62
7
  6
CONTINUOUS
 10
10.0748509021
 20
4.4111872966
 40
0.1563003299
100
AcDbArc
 50
87.1653384571
 51
88.966395016
  0
ARC
  5
235
100
AcDbEntity
  8
0
100
AcDbCircle
 62
7
  6
CONTINUOUS
 10
9.9825621195
 20
4.3166798418
 40
0.0867209279
100
AcDbArc
 50
225.3714151759
 51
225.7911791434
  0
ARC
  5
236
100
AcDbEntity
  8
0
100
AcDbCircle
 62
7
  6
CONTINUOUS
 10
10.0748487903
 20
4.1393377792
 40
0.051375
100
AcDbArc
 50
81.7981656341
 51
98.2018347684
  0
ARC
  5
237
100
AcDbEntity
  8
0
100
AcDbCircle
 62
7
  6
CONTINUOUS
 10
10.0748487903
 20
4.4112127792
 40
0.375
100
AcDbArc
 50
204.6249031313
 51
155.3750968687
  0
ARC
  5
238
100
AcDbEntity
  8
0
100
AcDbCircle
 62
7
  6
CONTINUOUS
 10
10.0748487903
 20
4.4112127792
 40
0.36343264
100
AcDbArc
 50
205.4579615308
 51
154.5431425419
  0
ARC
  5
239
100
AcDbEntity
  8
0
100
AcDbCircle
 62
7
  6
CONTINUOUS
 10
10.0748487903
 20
4.4112127792
 40
0.3305280745
100
AcDbArc
 50
208.2100945621
 51
151.7914120025
  0
ARC
  5
23A
100
AcDbEntity
  8
0
100
AcDbCircle
 62
7
  6
CONTINUOUS
 10
10.0748487903
 20
4.4112127792
 40
0.22125
100
AcDbArc
 50
224.9295275057
 51
135.0704724943
  0
ARC
  5
23B
100
AcDbEntity
  8
0
100
AcDbCircle
 62
7
  6
CONTINUOUS
 10
10.0748487903
 20
4.4112127792
 40
0.21875
100
AcDbArc
 50
225.5865880924
 51
134.4131874768
  0
ARC
  5
23C
100
AcDbEntity
  8
0
100
AcDbCircle
 62
7
  6
CONTINUOUS
 10
10.0748487903
 20
4.4112127792
 40
0.2037499997
100
AcDbArc
 50
230.0804485035
 51
129.9194554667
  0
ARC
  5
23D
100
AcDbEntity
  8
0
100
AcDbCircle
 62
7
  6
CONTINUOUS
 10
10.0748487903
 20
4.4112127792
 40
0.1575
100
AcDbArc
 50
262.9145677466
 51
97.0854322534
  0
ARC
  5
23E
100
AcDbEntity
  8
0
100
AcDbCircle
 62
7
  6
CONTINUOUS
 10
10.0748487903
 20
4.4112127792
 40
0.15625
100
AcDbArc
 50
270.0
 51
90.0
  0
ARC
  5
23F
100
AcDbEntity
  8
0
100
AcDbCircle
 62
7
  6
CONTINUOUS
 10
10.0748416817
 20
4.4112457118
 40
0.1562426572
100
AcDbArc
 50
84.0540563927
 51
85.106347812
  0
ARC
  5
240
100
AcDbEntity
  8
0
100
AcDbCircle
 62
7
  6
CONTINUOUS
 10
10.0748620084
 20
4.4114251263
 40
0.156062242
100
AcDbArc
 50
86.4843490577
 51
87.1650928804
  0
ARC
  5
241
100
AcDbEntity
  8
0
100
AcDbCircle
 62
7
  6
CONTINUOUS
 10
10.0748579941
 20
4.4114318272
 40
0.1560558288
100
AcDbArc
 50
85.1064859144
 51
85.4335153628
  0
ARC
  5
242
100
AcDbEntity
  8
0
100
AcDbCircle
 62
7
  6
CONTINUOUS
 10
10.0748714527
 20
4.411603052
 40
0.155884076
100
AcDbArc
 50
85.4334358516
 51
86.1757586976
  0
ARC
  5
243
100
AcDbEntity
  8
0
100
AcDbCircle
 62
7
  6
CONTINUOUS
 10
10.0748843994
 20
4.4117932515
 40
0.1556934365
100
AcDbArc
 50
86.1758441639
 51
86.4842662413
  0
ARC
  5
244
100
AcDbEntity
  8
0
100
AcDbCircle
 62
7
  6
CONTINUOUS
 10
10.0748487903
 20
4.6830877792
 40
0.051375
100
AcDbArc
 50
261.7981656341
 51
278.2018347684
  0
ARC
  5
245
100
AcDbEntity
  8
0
100
AcDbCircle
 62
7
  6
CONTINUOUS
 10
10.3467237903
 20
4.4112127792
 40
0.051375
100
AcDbArc
 50
171.7981656341
 51
188.2018347684
  0
LINE
  5
246
100
AcDbEntity
  8
0
100
AcDbLine
 62
7
  6
CONTINUOUS
 10
10.0912634774
 20
4.5666229714
 11
10.0910268778
 21
4.5666477947
  0
SPLINE
  5
247
100
AcDbEntity
  8
0
100
AcDbSpline
 62
7
  6
CONTINUOUS
 70
0
 71
3
 72
12
 73
8
 74
0
 42
0.0000001
 43
0.0000001
 44
0.0000000001
 40
0.0
 40
0.0
 40
0.0
 40
0.0
 40
0.2612559704
 40
0.5130953159
 40
0.7555865611
 40
0.8758228096
 40
1.0
 40
1.0
 40
1.0
 40
1.0
 10
10.0646519479
 20
4.1902298053
 30
0.0
 10
10.0654347819
 20
4.1905174128
 30
0.0
 10
10.0669734488
 20
4.1910791791
 30
0.0
 10
10.0692715423
 20
4.1918160167
 30
0.0
 10
10.0711921378
 20
4.1922408125
 30
0.0
 10
10.0727379144
 20
4.1924158322
 30
0.0
 10
10.0735180835
 20
4.1924475897
 30
0.0
 10
10.073914427
 20
4.1924545617
 30
0.0
  0
SPLINE
  5
248
100
AcDbEntity
  8
0
100
AcDbSpline
 62
7
  6
CONTINUOUS
 70
0
 71
3
 72
12
 73
8
 74
0
 42
0.0000001
 43
0.0000001
 44
0.0000000001
 40
0.0
 40
0.0
 40
0.0
 40
0.0
 40
0.124173375
 40
0.2444068253
 40
0.4869011956
 40
0.7387425502
 40
1.0
 40
1.0
 40
1.0
 40
1.0
 10
10.073914427
 20
4.6299709966
 30
0.0
 10
10.0735181131
 20
4.629977968
 30
0.0
 10
10.0727379994
 20
4.6300097241
 30
0.0
 10
10.0711923012
 20
4.6301847274
 30
0.0
 10
10.0692717768
 20
4.6306094772
 30
0.0
 10
10.0669737557
 20
4.6313462672
 30
0.0
 10
10.065435156
 20
4.6319080393
 30
0.0
 10
10.0646523395
 20
4.6321956019
 30
0.0
  0
SPLINE
  5
249
100
AcDbEntity
  8
0
100
AcDbSpline
 62
7
  6
CONTINUOUS
 70
0
 71
3
 72
12
 73
8
 74
0
 42
0.0000001
 43
0.0000001
 44
0.0000000001
 40
0.0
 40
0.0
 40
0.0
 40
0.0
 40
0.2612559704
 40
0.5130953159
 40
0.7555865611
 40
0.8758228096
 40
1.0
 40
1.0
 40
1.0
 40
1.0
 10
10.0850456328
 20
4.632195753
 30
0.0
 10
10.0842627987
 20
4.6319081456
 30
0.0
 10
10.0827241319
 20
4.6313463792
 30
0.0
 10
10.0804260383
 20
4.6306095416
 30
0.0
 10
10.0785054429
 20
4.6301847458
 30
0.0
 10
10.0769596663
 20
4.6300097261
 30
0.0
 10
10.0761794971
 20
4.6299779686
 30
0.0
 10
10.0757831536
 20
4.6299709966
 30
0.0
  0
SPLINE
  5
24A
100
AcDbEntity
  8
0
100
AcDbSpline
 62
7
  6
CONTINUOUS
 70
0
 71
3
 72
12
 73
8
 74
0
 42
0.0000001
 43
0.0000001
 44
0.0000000001
 40
0.0
 40
0.0
 40
0.0
 40
0.0
 40
0.124173375
 40
0.2444068253
 40
0.4869011957
 40
0.7387425502
 40
1.0
 40
1.0
 40
1.0
 40
1.0
 10
10.2936070078
 20
4.4121471425
 30
0.0
 10
10.2936139792
 20
4.4125434564
 30
0.0
 10
10.2936457352
 20
4.4133235701
 30
0.0
 10
10.2938207385
 20
4.4148692683
 30
0.0
 10
10.2942454884
 20
4.4167897926
 30
0.0
 10
10.2949822783
 20
4.4190878138
 30
0.0
 10
10.2955440504
 20
4.4206264135
 30
0.0
 10
10.2958316131
 20
4.42140923
 30
0.0
  0
SPLINE
  5
24B
100
AcDbEntity
  8
0
100
AcDbSpline
 62
7
  6
CONTINUOUS
 70
0
 71
3
 72
12
 73
8
 74
0
 42
0.0000001
 43
0.0000001
 44
0.0000000001
 40
0.0
 40
0.0
 40
0.0
 40
0.0
 40
0.2612559704
 40
0.5130953159
 40
0.7555865611
 40
0.8758228096
 40
1.0
 40
1.0
 40
1.0
 40
1.0
 10
10.2958317642
 20
4.4010159367
 30
0.0
 10
10.2955441567
 20
4.4017987708
 30
0.0
 10
10.2949823904
 20
4.4033374376
 30
0.0
 10
10.2942455528
 20
4.4056355311
 30
0.0
 10
10.293820757
 20
4.4075561266
 30
0.0
 10
10.2936457372
 20
4.4091019032
 30
0.0
 10
10.2936139797
 20
4.4098820724
 30
0.0
 10
10.2936070078
 20
4.4102784159
 30
0.0
  0
SPLINE
  5
24C
100
AcDbEntity
  8
0
100
AcDbSpline
 62
7
  6
CONTINUOUS
 70
0
 71
3
 72
12
 73
8
 74
0
 42
0.0000001
 43
0.0000001
 44
0.0000000001
 40
0.0
 40
0.0
 40
0.0
 40
0.0
 40
0.124173375
 40
0.2444068253
 40
0.4869011957
 40
0.7387425502
 40
1.0
 40
1.0
 40
1.0
 40
1.0
 10
10.0757831536
 20
4.1924545617
 30
0.0
 10
10.0761794675
 20
4.1924475903
 30
0.0
 10
10.0769595813
 20
4.1924158342
 30
0.0
 10
10.0785052794
 20
4.1922408309
 30
0.0
 10
10.0804258038
 20
4.1918160811
 30
0.0
 10
10.0827238249
 20
4.1910792911
 30
0.0
 10
10.0842624247
 20
4.190517519
 30
0.0
 10
10.0850452412
 20
4.1902299564
 30
0.0
  0
SPLINE
  5
24D
100
AcDbEntity
  8
0
100
AcDbSpline
 62
7
  6
CONTINUOUS
 70
0
 71
3
 72
12
 73
8
 74
0
 42
0.0000001
 43
0.0000001
 44
0.0000000001
 40
0.0
 40
0.0
 40
0.0
 40
0.0
 40
0.2612559704
 40
0.5130953159
 40
0.7555865611
 40
0.8758228096
 40
1.0
 40
1.0
 40
1.0
 40
1.0
 10
1.0646519479
 20
4.1902298053
 30
0.0
 10
1.0654347819
 20
4.1905174128
 30
0.0
 10
1.0669734488
 20
4.1910791791
 30
0.0
 10
1.0692715423
 20
4.1918160167
 30
0.0
 10
1.0711921378
 20
4.1922408125
 30
0.0
 10
1.0727379144
 20
4.1924158322
 30
0.0
 10
1.0735180835
 20
4.1924475897
 30
0.0
 10
1.073914427
 20
4.1924545617
 30
0.0
  0
SPLINE
  5
24E
100
AcDbEntity
  8
0
100
AcDbSpline
 62
7
  6
CONTINUOUS
 70
0
 71
3
 72
12
 73
8
 74
0
 42
0.0000001
 43
0.0000001
 44
0.0000000001
 40
0.0
 40
0.0
 40
0.0
 40
0.0
 40
0.124173375
 40
0.2444068253
 40
0.4869011957
 40
0.7387425502
 40
1.0
 40
1.0
 40
1.0
 40
1.0
 10
0.8560905729
 20
4.4102784159
 30
0.0
 10
0.8560836014
 20
4.4098821019
 30
0.0
 10
0.8560518454
 20
4.4091019882
 30
0.0
 10
0.8558768421
 20
4.40755629
 30
0.0
 10
0.8554520923
 20
4.4056357657
 30
0.0
 10
0.8547153023
 20
4.4033377446
 30
0.0
 10
0.8541535302
 20
4.4017991448
 30
0.0
 10
0.8538659675
 20
4.4010163283
 30
0.0
  0
LINE
  5
24F
100
AcDbEntity
  8
0
100
AcDbLine
 62
7
  6
CONTINUOUS
 10
0.9193136524
 20
4.2573412913
 11
0.9178039966
 21
4.2589346038
  0
SPLINE
  5
250
100
AcDbEntity
  8
0
100
AcDbSpline
 62
7
  6
CONTINUOUS
 70
0
 71
3
 72
12
 73
8
 74
0
 42
0.0000001
 43
0.0000001
 44
0.0000000001
 40
0.0
 40
0.0
 40
0.0
 40
0.0
 40
0.2612559704
 40
0.5130953159
 40
0.7555865611
 40
0.8758228096
 40
1.0
 40
1.0
 40
1.0
 40
1.0
 10
0.8538658165
 20
4.4214096216
 30
0.0
 10
0.8541534239
 20
4.4206267875
 30
0.0
 10
0.8547151903
 20
4.4190881207
 30
0.0
 10
0.8554520279
 20
4.4167900272
 30
0.0
 10
0.8558768236
 20
4.4148694317
 30
0.0
 10
0.8560518434
 20
4.4133236551
 30
0.0
 10
0.8560836009
 20
4.4125434859
 30
0.0
 10
0.8560905729
 20
4.4121471425
 30
0.0
  0
SPLINE
  5
251
100
AcDbEntity
  8
0
100
AcDbSpline
 62
7
  6
CONTINUOUS
 70
0
 71
3
 72
12
 73
8
 74
0
 42
0.0000001
 43
0.0000001
 44
0.0000000001
 40
0.0
 40
0.0
 40
0.0
 40
0.0
 40
0.124173375
 40
0.2444068253
 40
0.4869011956
 40
0.7387425502
 40
1.0
 40
1.0
 40
1.0
 40
1.0
 10
1.073914427
 20
4.6299709966
 30
0.0
 10
1.0735181131
 20
4.629977968
 30
0.0
 10
1.0727379994
 20
4.6300097241
 30
0.0
 10
1.0711923012
 20
4.6301847274
 30
0.0
 10
1.0692717768
 20
4.6306094772
 30
0.0
 10
1.0669737557
 20
4.6313462672
 30
0.0
 10
1.065435156
 20
4.6319080393
 30
0.0
 10
1.0646523395
 20
4.6321956019
 30
0.0
  0
SPLINE
  5
252
100
AcDbEntity
  8
0
100
AcDbSpline
 62
7
  6
CONTINUOUS
 70
0
 71
3
 72
12
 73
8
 74
0
 42
0.0000001
 43
0.0000001
 44
0.0000000001
 40
0.0
 40
0.0
 40
0.0
 40
0.0
 40
0.2612559704
 40
0.5130953159
 40
0.7555865611
 40
0.8758228096
 40
1.0
 40
1.0
 40
1.0
 40
1.0
 10
1.0850456328
 20
4.632195753
 30
0.0
 10
1.0842627987
 20
4.6319081456
 30
0.0
 10
1.0827241319
 20
4.6313463792
 30
0.0
 10
1.0804260383
 20
4.6306095416
 30
0.0
 10
1.0785054429
 20
4.6301847458
 30
0.0
 10
1.0769596663
 20
4.6300097261
 30
0.0
 10
1.0761794971
 20
4.6299779686
 30
0.0
 10
1.0757831536
 20
4.6299709966
 30
0.0
  0
SPLINE
  5
253
100
AcDbEntity
  8
0
100
AcDbSpline
 62
7
  6
CONTINUOUS
 70
0
 71
3
 72
12
 73
8
 74
0
 42
0.0000001
 43
0.0000001
 44
0.0000000001
 40
0.0
 40
0.0
 40
0.0
 40
0.0
 40
0.124173375
 40
0.2444068253
 40
0.4869011957
 40
0.7387425502
 40
1.0
 40
1.0
 40
1.0
 40
1.0
 10
1.0757831536
 20
4.1924545617
 30
0.0
 10
1.0761794675
 20
4.1924475903
 30
0.0
 10
1.0769595813
 20
4.1924158342
 30
0.0
 10
1.0785052794
 20
4.1922408309
 30
0.0
 10
1.0804258038
 20
4.1918160811
 30
0.0
 10
1.0827238249
 20
4.1910792911
 30
0.0
 10
1.0842624247
 20
4.190517519
 30
0.0
 10
1.0850452412
 20
4.1902299564
 30
0.0
  0
ENDSEC
  0
SECTION
  2
OBJECTS
  0
DICTIONARY
  5
C
100
AcDbDictionary
280
0
281
1
  3
ACAD_GROUP
350
D
  3
ACAD_MLINESTYLE
350
17
  3
ACAD_LAYOUT
350
1A
  3
ACAD_PLOTSETTINGS
350
19
  3
ACAD_PLOTSTYLENAME
350
E
  0
DICTIONARY
  5
D
102
{ACAD_REACTORS
330
C
102
}
100
AcDbDictionary
280
0
281
1
  0
ACDBDICTIONARYWDFLT
  5
E
102
{ACAD_REACTORS
330
C
102
}
100
AcDbDictionary
281
1
  3
Normal
350
F
100
AcDbDictionaryWithDefault
340
F
  0
DICTIONARY
  5
17
102
{ACAD_REACTORS
330
C
102
}
100
AcDbDictionary
280
0
281
1
  3
Standard
350
18
  0
DICTIONARY
  5
19
102
{ACAD_REACTORS
330
C
102
}
100
AcDbDictionary
281
1
  0
DICTIONARY
  5
1A
102
{ACAD_REACTORS
330
C
102
}
100
AcDbDictionary
281
1
  3
Model
350
254
  3
Layout1
350
255
  0
ACDBPLACEHOLDER
  5
F
102
{ACAD_REACTORS
330
E
102
}
  0
MLINESTYLE
  5
18
102
{ACAD_REACTORS
330
17
102
}
100
AcDbMlineStyle
  2
STANDARD
 70
0
  3

 62
256
 51
90.0
 52
90.0
 71
2
 49
0.5
 62
256
  6
BYLAYER
 49
-0.5
 62
256
  6
BYLAYER
  0
LAYOUT
  5
254
102
{ACAD_REACTORS
330
1A
102
}
100
AcDbPlotSettings
  1

  2
none_device
  4
ANSI_A_(11.00_x_8.50_Inches)
  6

 40
0.0
 41
0.0
 42
0.0
 43
0.0
 44
279.4
 45
215.9
 46
0.0
 47
0.0
 48
0.0
 49
0.0
140
0.0
141
0.0
142
1.0
143
1.0
 70
1024
 72
0
 73
0
 74
0
  7

 75
0
147
1.0
148
0.0
149
0.0
100
AcDbLayout
  1
Model
 70
0
 71
0
 10
0.0
 20
0.0
 11
11.0
 21
8.5
 12
0.0
 22
0.0
 32
0.0
 14
0.0
 24
0.0
 34
0.0
 15
0.0
 25
0.0
 35
0.0
146
0.0
 13
0.0
 23
0.0
 33
0.0
 16
1.0
 26
0.0
 36
0.0
 17
0.0
 27
1.0
 37
0.0
 76
0
330
20F
345
0
346
0
  0
LAYOUT
  5
255
102
{ACAD_REACTORS
330
1A
102
}
100
AcDbPlotSettings
  1

  2
none_device
  4
ANSI_A_(11.00_x_8.50_Inches)
  6

 40
0.0
 41
0.0
 42
0.0
 43
0.0
 44
279.4
 45
215.9
 46
0.0
 47
0.0
 48
0.0
 49
0.0
140
0.0
141
0.0
142
1.0
143
1.0
 70
0
 72
0
 73
0
 74
0
  7

 75
0
147
1.0
148
0.0
149
0.0
100
AcDbLayout
  1
Layout1
 70
0
 71
1
 10
0.0
 20
0.0
 11
11.0
 21
8.5
 12
0.0
 22
0.0
 32
0.0
 14
0.0
 24
0.0
 34
0.0
 15
0.0
 25
0.0
 35
0.0
146
0.0
 13
0.0
 23
0.0
 33
0.0
 16
1.0
 26
0.0
 36
0.0
 17
0.0
 27
1.0
 37
0.0
 76
0
330
210
345
0
346
0
  0
ENDSEC
  0
EOF
