999
DXF file: 990ls_RIGHT.dxf
999
Pro/ENGINEER 2023134 by Parametric Technology Corporation
  0
SECTION
  2
HEADER
  9
$ACADVER
  1
AC1032
  9
$DWGCODEPAGE
  3
ANSI_1252
  9
$EXTMAX
 10
11.0
 20
8.5
 30
0.0
  9
$EXTMIN
 10
0.0
 20
0.0
 30
0.0
  9
$LIMMIN
 10
0.0
 20
0.0
  9
$LIMMAX
 10
11.0
 20
8.5
  9
$VIEWCTR
 10
5.5
 20
4.25
  9
$VIEWSIZE
 40
8.5
  9
$CLAYER
  8
0
  9
$LTSCALE
 40
0.605
  9
$CELTYPE
  6
BYLAYER
  9
$DIMSCALE
 40
1.0
  9
$DIMASZ
 40
0.1875
  9
$DIMEXO
 40
0.0625
  9
$DIMDLI
 40
0.418
  9
$DIMEXE
 40
0.125
  9
$DIMCEN
 40
0.099
  9
$DIMLFAC
 40
1.0
  9
$DIMBLK
  1
_FILLED
  9
$DIMALT
 70
0
  9
$DIMALTF
 40
25.4
  9
$DIMTXT
 40
0.15625
  9
$DIMTOL
 70
0
  9
$DIMLIM
 70
0
  9
$DIMTFAC
 40
1.0
  9
$DIMGAP
 40
0.09
  9
$DIMDSEP
 70
46
  9
$AUNITS
 70
0
  9
$PDMODE
 70
3
  9
$PDSIZE
 40
0.3125
  9
$HANDSEED
  5
25E
  9
$TILEMODE
 70
1
  9
$MEASUREMENT
 70
0
  9
$INSUNITS
 70
1
  0
ENDSEC
  0
SECTION
  2
CLASSES
  0
CLASS
  1
ACDBDICTIONARYWDFLT
  2
AcDbDictionaryWithDefault
  3
AutoCAD 2000
 90
0
 91
1
280
0
281
0
  0
CLASS
  1
ACDBPLACEHOLDER
  2
AcDbPlaceHolder
  3
AutoCAD 2000
 90
0
 91
1
280
0
281
0
  0
CLASS
  1
LAYOUT
  2
AcDbLayout
  3
AutoCAD 2000
 90
0
 91
0
280
0
281
0
  0
ENDSEC
  0
SECTION
  2
TABLES
  0
TABLE
  2
VPORT
  5
8
100
AcDbSymbolTable
 70
2
  0
VPORT
  5
1F4
100
AcDbSymbolTableRecord
100
AcDbViewportTableRecord
  2
*ACTIVE
 70
0
 10
0.0
 20
0.0
 11
1.0
 21
1.0
 12
5.5
 22
4.25
 13
0.0
 23
0.0
 14
1.0
 24
1.0
 15
0.0
 25
0.0
 16
0.0
 26
0.0
 36
1.0
 17
0.0
 27
0.0
 37
0.0
 40
8.5
 41
1.2941176471
 42
50.0
 43
0.0
 44
0.0
 50
0.0
 51
0.0
 71
0
 72
100
 73
1
 74
1
 75
0
 76
0
 77
0
 78
0
  0
ENDTAB
  0
TABLE
  2
LTYPE
  5
5
100
AcDbSymbolTable
 70
6
  0
LTYPE
  5
14
100
AcDbSymbolTableRecord
100
AcDbLinetypeTableRecord
  2
BYBLOCK
 70
0
  3

 72
65
 73
0
 40
0.0
  0
LTYPE
  5
15
100
AcDbSymbolTableRecord
100
AcDbLinetypeTableRecord
  2
BYLAYER
 70
0
  3

 72
65
 73
0
 40
0.0
  0
LTYPE
  5
16
100
AcDbSymbolTableRecord
100
AcDbLinetypeTableRecord
  2
CONTINUOUS
 70
64
  3
Solid line
 72
65
 73
0
 40
0.0
  0
LTYPE
  5
1F5
100
AcDbSymbolTableRecord
100
AcDbLinetypeTableRecord
  2
CENTER
 70
64
  3
____ _ ____ _ ____ _ ____ _ ____ _ ____ _ ____
 72
65
 73
4
 40
0.6
 49
0.375
 74
0
 49
-0.075
 74
0
 49
0.075
 74
0
 49
-0.075
 74
0
  0
LTYPE
  5
1F6
100
AcDbSymbolTableRecord
100
AcDbLinetypeTableRecord
  2
HIDDEN
 70
64
  3
- - - - - - - - - - - - - - - - - - - -
 72
65
 73
2
 40
0.2
 49
0.1
 74
0
 49
-0.1
 74
0
  0
LTYPE
  5
1F7
100
AcDbSymbolTableRecord
100
AcDbLinetypeTableRecord
  2
PHANTOM
 70
64
  3
_____ _ _ _____ _ _ _____ _ _ _____
 72
65
 73
6
 40
0.8
 49
0.45
 74
0
 49
-0.05
 74
0
 49
0.1
 74
0
 49
-0.05
 74
0
 49
0.1
 74
0
 49
-0.05
 74
0
  0
LTYPE
  5
1F8
100
AcDbSymbolTableRecord
100
AcDbLinetypeTableRecord
  2
DOT
 70
64
  3
. . . . . . . . . . . . . . . . . . . .
 72
65
 73
2
 40
0.2
 49
0.1
 74
0
 49
-0.1
 74
0
  0
LTYPE
  5
1F9
100
AcDbSymbolTableRecord
100
AcDbLinetypeTableRecord
  2
DASHED
 70
64
  3
- - - - - - - - - - - - - - - - - - - -
 72
65
 73
2
 40
0.2
 49
0.1
 74
0
 49
-0.1
 74
0
  0
ENDTAB
  0
TABLE
  2
LAYER
  5
2
100
AcDbSymbolTable
 70
36
  0
LAYER
  5
10
100
AcDbSymbolTableRecord
100
AcDbLayerTableRecord
  2
0
 70
0
 62
7
  6
CONTINUOUS
370
-3
390
F
  0
LAYER
  5
1FA
100
AcDbSymbolTableRecord
100
AcDbLayerTableRecord
  2
DEFAULT_1
 70
0
 62
7
  6
CENTER
370
-3
390
F
  0
LAYER
  5
1FB
100
AcDbSymbolTableRecord
100
AcDbLayerTableRecord
  2
DEFAULT_2
 70
0
 62
8
  6
HIDDEN
370
-3
390
F
  0
LAYER
  5
1FC
100
AcDbSymbolTableRecord
100
AcDbLayerTableRecord
  2
DEFAULT_3
 70
0
 62
7
  6
PHANTOM
370
-3
390
F
  0
LAYER
  5
1FD
100
AcDbSymbolTableRecord
100
AcDbLayerTableRecord
  2
3_ALL_SYMBOLS
 70
0
 62
7
  6
CONTINUOUS
370
-3
390
F
  0
LAYER
  5
1FE
100
AcDbSymbolTableRecord
100
AcDbLayerTableRecord
  2
DEFAULT_COORDINATE_SYSTEM
 70
0
 62
7
  6
CONTINUOUS
370
-3
390
F
  0
LAYER
  5
1FF
100
AcDbSymbolTableRecord
100
AcDbLayerTableRecord
  2
DEFAULT_DATUM_AXES
 70
0
 62
7
  6
CONTINUOUS
370
-3
390
F
  0
LAYER
  5
200
100
AcDbSymbolTableRecord
100
AcDbLayerTableRecord
  2
DEFAULT_DATUM_PLANES
 70
0
 62
7
  6
CONTINUOUS
370
-3
390
F
  0
ENDTAB
  0
TABLE
  2
STYLE
  5
3
100
AcDbSymbolTable
 70
1
  0
STYLE
  5
11
100
AcDbSymbolTableRecord
100
AcDbTextStyleTableRecord
  2
STANDARD
 70
0
 40
0.0
 41
1.0
 50
0.0
 71
0
 42
0.2
  3
ar_wgl__.ttf
  4

1001
ACAD
1000
Arial WGL
1071
34
  0
STYLE
  5
201
100
AcDbSymbolTableRecord
100
AcDbTextStyleTableRecord
  2
TEXTSTYLE_1
 70
0
 40
0.0
 41
0.8
 50
0.0
 71
0
 42
0.2
  3
gdt
  4

  0
ENDTAB
  0
TABLE
  2
VIEW
  5
6
100
AcDbSymbolTable
 70
0
  0
ENDTAB
  0
TABLE
  2
UCS
  5
7
100
AcDbSymbolTable
 70
0
  0
ENDTAB
  0
TABLE
  2
APPID
  5
9
100
AcDbSymbolTable
 70
1
  0
APPID
  5
202
100
AcDbSymbolTableRecord
100
AcDbRegAppTableRecord
  2
ACAD
 70
0
  0
ENDTAB
  0
TABLE
  2
BLOCK_RECORD
  5
1
100
AcDbSymbolTable
 70
0
  0
BLOCK_RECORD
  5
203
100
AcDbSymbolTableRecord
100
AcDbBlockTableRecord
  2
*Model_Space
  0
BLOCK_RECORD
  5
204
100
AcDbSymbolTableRecord
100
AcDbBlockTableRecord
  2
*Paper_Space
  0
BLOCK_RECORD
  5
205
100
AcDbSymbolTableRecord
100
AcDbBlockTableRecord
  2
_FILLED
  0
ENDTAB
  0
TABLE
  2
DIMSTYLE
  5
A
100
AcDbSymbolTable
 70
1
100
AcDbDimStyleTable
 71
0
  0
DIMSTYLE
105
206
100
AcDbSymbolTableRecord
100
AcDbDimStyleTableRecord
  2
STANDARD
 70
0
  3

  4

 40
1.0
 41
0.1875
 42
0.0625
 43
0.38
 44
0.125
 45
0.0
 46
0.0
 47
0.001
 48
0.001
140
0.15625
141
0.09
142
0.0
143
25.4
144
1.0
145
0.0
146
1.0
147
0.09
 71
0
 72
0
 73
1
 74
1
 75
0
 76
0
 77
0
 78
4
 79
1
170
0
171
2
172
0
173
0
174
0
175
0
176
0
177
0
178
0
270
2
179
3
271
3
272
3
273
2
274
2
275
0
280
0
281
0
282
0
283
1
284
4
285
0
286
0
287
3
288
0
340
11
278
46
341
205
342
205
343
205
344
205
  0
ENDTAB
  0
ENDSEC
  0
SECTION
  2
BLOCKS
  0
BLOCK
  5
20
100
AcDbEntity
  8
0
100
AcDbBlockBegin
  2
*Model_Space
 70
0
 10
0.0
 20
0.0
 30
0.0
  3
*Model_Space
  1

  0
ENDBLK
  5
21
100
AcDbEntity
  8
0
100
AcDbBlockEnd
  0
BLOCK
  5
1C
100
AcDbEntity
  8
0
100
AcDbBlockBegin
  2
*Paper_Space
 70
0
 10
0.0
 20
0.0
 30
0.0
  3
*Paper_Space
  1

  0
ENDBLK
  5
1D
100
AcDbEntity
  8
0
100
AcDbBlockEnd
  0
BLOCK
  5
207
100
AcDbEntity
  8
0
100
AcDbBlockBegin
  2
_FILLED
 70
64
 10
0.0
 20
0.0
  3
_FILLED
  1

  0
SOLID
  5
208
100
AcDbEntity
  8
0
  6
BYBLOCK
 62
0
100
AcDbTrace
 10
0.0
 20
0.0
 11
-1.0
 21
0.1666666667
 12
-1.0
 22
-0.1666666667
 13
-1.0
 23
-0.1666666667
  0
ENDBLK
  5
209
100
AcDbEntity
  8
0
  6
BYBLOCK
 62
0
100
AcDbBlockEnd
  0
ENDSEC
  0
SECTION
  2
ENTITIES
  0
LINE
  5
20A
100
AcDbEntity
  8
0
100
AcDbLine
 62
7
  6
CONTINUOUS
 10
0.0
 20
0.0
 11
0.0
 21
8.5
  0
LINE
  5
20B
100
AcDbEntity
  8
0
100
AcDbLine
 62
7
  6
CONTINUOUS
 10
0.0
 20
0.0
 11
11.0
 21
0.0
  0
LINE
  5
20C
100
AcDbEntity
  8
0
100
AcDbLine
 62
7
  6
CONTINUOUS
 10
0.0
 20
8.5
 11
11.0
 21
8.5
  0
LINE
  5
20D
100
AcDbEntity
  8
0
100
AcDbLine
 62
7
  6
CONTINUOUS
 10
11.0
 20
0.0
 11
11.0
 21
8.5
  0
LINE
  5
20E
100
AcDbEntity
  8
0
100
AcDbLine
 62
7
  6
CONTINUOUS
 10
6.0086342732
 20
1.9773275784
 11
7.1961342732
 21
1.9773275784
  0
LINE
  5
20F
100
AcDbEntity
  8
0
100
AcDbLine
 62
7
  6
CONTINUOUS
 10
6.0086342732
 20
2.1498275784
 11
7.1961342732
 21
2.1498275784
  0
LINE
  5
210
100
AcDbEntity
  8
0
100
AcDbLine
 62
7
  6
CONTINUOUS
 10
6.0236342732
 20
2.1648275784
 11
7.1811342732
 21
2.1648275784
  0
LINE
  5
211
100
AcDbEntity
  8
0
100
AcDbLine
 62
7
  6
CONTINUOUS
 10
3.2586342732
 20
4.6273275784
 11
3.2586342732
 21
5.2508275784
  0
LINE
  5
212
100
AcDbEntity
  8
0
100
AcDbLine
 62
7
  6
CONTINUOUS
 10
6.2742592732
 20
2.7188275784
 11
6.9305092732
 21
2.7188275784
  0
LINE
  5
213
100
AcDbEntity
  8
0
100
AcDbLine
 62
7
  6
CONTINUOUS
 10
6.7586342732
 20
2.7288275784
 11
6.4461342732
 21
2.7288275784
  0
LINE
  5
214
100
AcDbEntity
  8
0
100
AcDbLine
 62
7
  6
CONTINUOUS
 10
6.7048815187
 20
2.8088275784
 11
6.7212114503
 21
2.8088275784
  0
LINE
  5
215
100
AcDbEntity
  8
0
100
AcDbLine
 62
7
  6
CONTINUOUS
 10
3.6961342732
 20
4.6273275784
 11
3.6961342732
 21
5.2508275784
  0
LINE
  5
216
100
AcDbEntity
  8
0
100
AcDbLine
 62
7
  6
CONTINUOUS
 10
6.7293764161
 20
2.8288275784
 11
6.7112035461
 21
2.8288275784
  0
LINE
  5
217
100
AcDbEntity
  8
0
100
AcDbLine
 62
7
  6
CONTINUOUS
 10
6.7212114503
 20
2.8488275784
 11
6.7048815187
 21
2.8488275784
  0
LINE
  5
218
100
AcDbEntity
  8
0
100
AcDbLine
 62
7
  6
CONTINUOUS
 10
6.2623842732
 20
3.0723275784
 11
6.4461342732
 21
3.0723275784
  0
LINE
  5
219
100
AcDbEntity
  8
0
100
AcDbLine
 62
7
  6
CONTINUOUS
 10
6.7586342732
 20
3.0723275784
 11
6.9423842732
 21
3.0723275784
  0
LINE
  5
21A
100
AcDbEntity
  8
0
100
AcDbLine
 62
7
  6
CONTINUOUS
 10
6.9273842732
 20
3.0873275784
 11
6.7586342732
 21
3.0873275784
  0
LINE
  5
21B
100
AcDbEntity
  8
0
100
AcDbLine
 62
7
  6
CONTINUOUS
 10
6.4461342732
 20
3.0873275784
 11
6.2773842732
 21
3.0873275784
  0
LINE
  5
21C
100
AcDbEntity
  8
0
100
AcDbLine
 62
7
  6
CONTINUOUS
 10
3.2586342732
 20
4.6273275784
 11
3.6961342732
 21
4.6273275784
  0
LINE
  5
21D
100
AcDbEntity
  8
0
100
AcDbLine
 62
7
  6
CONTINUOUS
 10
6.0086342732
 20
1.9773275784
 11
6.0086342732
 21
2.1498275784
  0
LINE
  5
21E
100
AcDbEntity
  8
0
100
AcDbLine
 62
7
  6
CONTINUOUS
 10
6.8211342732
 20
5.2508275784
 11
6.3836342732
 21
5.2508275784
  0
LINE
  5
21F
100
AcDbEntity
  8
0
100
AcDbLine
 62
7
  6
CONTINUOUS
 10
3.2586342732
 20
5.2508275784
 11
3.6961342732
 21
5.2508275784
  0
LINE
  5
220
100
AcDbEntity
  8
0
100
AcDbLine
 62
7
  6
CONTINUOUS
 10
6.6967165529
 20
2.8288275784
 11
6.7048815187
 21
2.8088275784
  0
LINE
  5
221
100
AcDbEntity
  8
0
100
AcDbLine
 62
7
  6
CONTINUOUS
 10
6.7293764161
 20
2.8288275784
 11
6.7212114503
 21
2.8488275784
  0
LINE
  5
222
100
AcDbEntity
  8
0
100
AcDbLine
 62
7
  6
CONTINUOUS
 10
6.2623842732
 20
3.0723275784
 11
6.2623842732
 21
2.1648275784
  0
LINE
  5
223
100
AcDbEntity
  8
0
100
AcDbLine
 62
7
  6
CONTINUOUS
 10
6.2742592732
 20
2.1648275784
 11
6.2742592732
 21
2.7188275784
  0
LINE
  5
224
100
AcDbEntity
  8
0
100
AcDbLine
 62
7
  6
CONTINUOUS
 10
6.3836342732
 20
5.2508275784
 11
6.3836342732
 21
3.0873275784
  0
LINE
  5
225
100
AcDbEntity
  8
0
100
AcDbLine
 62
7
  6
CONTINUOUS
 10
6.4461342732
 20
3.2338244666
 11
6.4461342732
 21
2.7288275784
  0
LINE
  5
226
100
AcDbEntity
  8
0
100
AcDbLine
 62
7
  6
CONTINUOUS
 10
6.4695614972
 20
2.7188275784
 11
6.4695614972
 21
2.7288275784
  0
LINE
  5
227
100
AcDbEntity
  8
0
100
AcDbLine
 62
7
  6
CONTINUOUS
 10
6.7340936867
 20
2.8382882187
 11
6.734105047
 21
2.8382293635
  0
LINE
  5
228
100
AcDbEntity
  8
0
100
AcDbLine
 62
7
  6
CONTINUOUS
 10
6.7340940132
 20
2.8382883412
 11
6.7341050464
 21
2.8382293633
  0
LINE
  5
229
100
AcDbEntity
  8
0
100
AcDbLine
 62
7
  6
CONTINUOUS
 10
6.7352070492
 20
2.7188275784
 11
6.7352070492
 21
2.7288275784
  0
LINE
  5
22A
100
AcDbEntity
  8
0
100
AcDbLine
 62
7
  6
CONTINUOUS
 10
6.7586342732
 20
3.2338244577
 11
6.7586342732
 21
2.7288275784
  0
LINE
  5
22B
100
AcDbEntity
  8
0
100
AcDbLine
 62
7
  6
CONTINUOUS
 10
6.8211342732
 20
5.2508275784
 11
6.8211342732
 21
3.0873275784
  0
LINE
  5
22C
100
AcDbEntity
  8
0
100
AcDbLine
 62
7
  6
CONTINUOUS
 10
6.9305092732
 20
2.1648275784
 11
6.9305092732
 21
2.7188275784
  0
LINE
  5
22D
100
AcDbEntity
  8
0
100
AcDbLine
 62
7
  6
CONTINUOUS
 10
6.9423842732
 20
3.0723275784
 11
6.9423842732
 21
2.1648275784
  0
LINE
  5
22E
100
AcDbEntity
  8
0
100
AcDbLine
 62
7
  6
CONTINUOUS
 10
7.1961342732
 20
1.9773275784
 11
7.1961342732
 21
2.1498275784
  0
LINE
  5
22F
100
AcDbEntity
  8
0
100
AcDbLine
 62
7
  6
CONTINUOUS
 10
6.7048815187
 20
2.8488275784
 11
6.6967165529
 21
2.8288275784
  0
LINE
  5
230
100
AcDbEntity
  8
0
100
AcDbLine
 62
7
  6
CONTINUOUS
 10
6.7212114503
 20
2.8088275784
 11
6.7293764161
 21
2.8288275784
  0
ARC
  5
231
100
AcDbEntity
  8
0
100
AcDbCircle
 62
7
  6
CONTINUOUS
 10
5.0398842732
 20
5.2508275784
 40
1.78125
100
AcDbArc
 50
0.0
 51
180.0
  0
ARC
  5
232
100
AcDbEntity
  8
0
100
AcDbCircle
 62
7
  6
CONTINUOUS
 10
5.0398842732
 20
5.2508275784
 40
1.34375
100
AcDbArc
 50
0.0
 51
180.0
  0
CIRCLE
  5
233
100
AcDbEntity
  8
0
100
AcDbCircle
 62
7
  6
CONTINUOUS
 10
6.6023842732
 20
3.2338275784
 40
0.15625
  0
CIRCLE
  5
234
100
AcDbEntity
  8
0
100
AcDbCircle
 62
7
  6
CONTINUOUS
 10
6.6023842732
 20
3.2338275784
 40
0.14625
  0
ARC
  5
235
100
AcDbEntity
  8
0
100
AcDbCircle
 62
7
  6
CONTINUOUS
 10
6.7162923587
 20
2.8048875387
 40
0.0576279871
100
AcDbArc
 50
116.3103154036
 51
118.6602028429
  0
ARC
  5
236
100
AcDbEntity
  8
0
100
AcDbCircle
 62
7
  6
CONTINUOUS
 10
6.6830236125
 20
2.8319763885
 40
0.05177315
100
AcDbArc
 50
0.9974310667
 51
1.3641441166
  0
ARC
  5
237
100
AcDbEntity
  8
0
100
AcDbCircle
 62
7
  6
CONTINUOUS
 10
6.6843800877
 20
2.8289677149
 40
0.050580131
100
AcDbArc
 50
4.8099783124
 51
10.5508697552
  0
ARC
  5
238
100
AcDbEntity
  8
0
100
AcDbCircle
 62
7
  6
CONTINUOUS
 10
6.6879764071
 20
2.8292580506
 40
0.0469721333
100
AcDbArc
 50
4.8249122058
 51
11.0788200695
  0
ARC
  5
239
100
AcDbEntity
  8
0
100
AcDbCircle
 62
7
  6
CONTINUOUS
 10
6.6899291953
 20
2.8288819
 40
0.0450370203
100
AcDbArc
 50
359.9308933955
 51
12.0212248676
  0
ARC
  5
23A
100
AcDbEntity
  8
0
100
AcDbCircle
 62
7
  6
CONTINUOUS
 10
6.6918425471
 20
2.8292373855
 40
0.0430916876
100
AcDbArc
 50
12.08878526
 51
12.457489364
  0
ARC
  5
23B
100
AcDbEntity
  8
0
100
AcDbCircle
 62
7
  6
CONTINUOUS
 10
6.6940497664
 20
2.8292531699
 40
0.0408821792
100
AcDbArc
 50
12.5350924073
 51
12.7095526914
  0
ARC
  5
23C
100
AcDbEntity
  8
0
100
AcDbCircle
 62
7
  6
CONTINUOUS
 10
6.7015938051
 20
2.8330659631
 40
0.0327956671
100
AcDbArc
 50
22.9961977075
 51
23.1673978449
  0
ARC
  5
23D
100
AcDbEntity
  8
0
100
AcDbCircle
 62
7
  6
CONTINUOUS
 10
6.9273842732
 20
3.0723275784
 40
0.015
100
AcDbArc
 50
0.0
 51
90.0
  0
ARC
  5
23E
100
AcDbEntity
  8
0
100
AcDbCircle
 62
7
  6
CONTINUOUS
 10
6.2773842732
 20
3.0723275784
 40
0.015
100
AcDbArc
 50
90.0
 51
180.0
  0
ARC
  5
23F
100
AcDbEntity
  8
0
100
AcDbCircle
 62
7
  6
CONTINUOUS
 10
6.0236342732
 20
2.1498275784
 40
0.015
100
AcDbArc
 50
90.0
 51
180.0
  0
ARC
  5
240
100
AcDbEntity
  8
0
100
AcDbCircle
 62
7
  6
CONTINUOUS
 10
7.1811342732
 20
2.1498275784
 40
0.015
100
AcDbArc
 50
0.0
 51
90.0
  0
SPLINE
  5
241
100
AcDbEntity
  8
0
100
AcDbSpline
 62
7
  6
CONTINUOUS
 70
0
 71
3
 72
11
 73
7
 74
0
 42
0.0000001
 43
0.0000001
 44
0.0000000001
 40
0.0
 40
0.0
 40
0.0
 40
0.0
 40
0.2396846296
 40
0.4868506807
 40
0.7406044942
 40
1.0
 40
1.0
 40
1.0
 40
1.0
 10
6.6962784299
 20
2.7942315302
 30
0.0
 10
6.6952404319
 20
2.7950461475
 30
0.0
 10
6.693220694
 20
2.7968167112
 30
0.0
 10
6.6904399839
 20
2.7998072795
 30
0.0
 10
6.687901992
 20
2.8031437499
 30
0.0
 10
6.6864150571
 20
2.8055517861
 30
0.0
 10
6.6857237223
 20
2.8068012767
 30
0.0
  0
SPLINE
  5
242
100
AcDbEntity
  8
0
100
AcDbSpline
 62
7
  6
CONTINUOUS
 70
0
 71
3
 72
15
 73
11
 74
0
 42
0.0000001
 43
0.0000001
 44
0.0000000001
 40
0.0
 40
0.0
 40
0.0
 40
0.0
 40
0.1279878132
 40
0.2555730376
 40
0.3825337846
 40
0.5086452647
 40
0.6336801011
 40
0.7574074839
 40
0.8795929249
 40
1.0
 40
1.0
 40
1.0
 40
1.0
 10
6.680127322
 20
2.8315264181
 30
0.0
 10
6.6801923874
 20
2.8326226767
 30
0.0
 10
6.6804015863
 20
2.8348078693
 30
0.0
 10
6.6809496216
 20
2.8380468275
 30
0.0
 10
6.681724794
 20
2.8412226163
 30
0.0
 10
6.6827177462
 20
2.8443141131
 30
0.0
 10
6.683916973
 20
2.8473016569
 30
0.0
 10
6.6853092744
 20
2.8501668388
 30
0.0
 10
6.6868799176
 20
2.8528923092
 30
0.0
 10
6.6880450789
 20
2.8546196819
 30
0.0
 10
6.6886531622
 20
2.8554549166
 30
0.0
  0
SPLINE
  5
243
100
AcDbEntity
  8
0
100
AcDbSpline
 62
7
  6
CONTINUOUS
 70
0
 71
3
 72
36
 73
32
 74
0
 42
0.0000001
 43
0.0000001
 44
0.0000000001
 40
0.0
 40
0.0
 40
0.0
 40
0.0
 40
0.075516207
 40
0.1123177428
 40
0.148418139
 40
0.1837855829
 40
0.2183968988
 40
0.2852755206
 40
0.3175778934
 40
0.3491331021
 40
0.3799717149
 40
0.4101363631
 40
0.4396817304
 40
0.4686742519
 40
0.497191381
 40
0.5253204857
 40
0.5531572394
 40
0.5808036204
 40
0.6083655558
 40
0.6359503071
 40
0.6636638372
 40
0.6916082115
 40
0.7198793032
 40
0.7485648548
 40
0.7777429648
 40
0.8074810853
 40
0.8378354022
 40
0.8688506639
 40
0.9005602504
 40
0.9329866366
 40
1.0
 40
1.0
 40
1.0
 40
1.0
 10
6.7319813711
 20
2.8459608486
 30
0.0
 10
6.7315779337
 20
2.8473059833
 30
0.0
 10
6.730882861
 20
2.8492804166
 30
0.0
 10
6.7297696098
 20
2.8518069657
 30
0.0
 10
6.7288621054
 20
2.8536053797
 30
0.0
 10
6.7278787561
 20
2.855316764
 30
0.0
 10
6.7264882503
 20
2.8574494779
 30
0.0
 10
6.7249493277
 20
2.8594139678
 30
0.0
 10
6.7232715719
 20
2.861175464
 30
0.0
 10
6.721973965
 20
2.8623680888
 30
0.0
 10
6.7206278316
 20
2.8634430601
 30
0.0
 10
6.7192382422
 20
2.8643968234
 30
0.0
 10
6.7178104716
 20
2.8652261757
 30
0.0
 10
6.7163498917
 20
2.865928386
 30
0.0
 10
6.7148619819
 20
2.8665011761
 30
0.0
 10
6.7133523076
 20
2.8669427395
 30
0.0
 10
6.7118265026
 20
2.8672517508
 30
0.0
 10
6.7102902449
 20
2.8674273776
 30
0.0
 10
6.7087492287
 20
2.8674692872
 30
0.0
 10
6.707209132
 20
2.8673776484
 30
0.0
 10
6.7056755835
 20
2.8671531258
 30
0.0
 10
6.7041541312
 20
2.8667968667
 30
0.0
 10
6.7026502151
 20
2.866310482
 30
0.0
 10
6.7011691456
 20
2.8656960245
 30
0.0
 10
6.6997160868
 20
2.8649559644
 30
0.0
 10
6.6982960475
 20
2.8640931702
 30
0.0
 10
6.6969138628
 20
2.8631108783
 30
0.0
 10
6.69557422
 20
2.8620127119
 30
0.0
 10
6.6942815286
 20
2.8608025215
 30
0.0
 10
6.6926084433
 20
2.859026382
 30
0.0
 10
6.6914646174
 20
2.8575664398
 30
0.0
 10
6.690749757
 20
2.8565456493
 30
0.0
  0
SPLINE
  5
244
100
AcDbEntity
  8
0
100
AcDbSpline
 62
7
  6
CONTINUOUS
 70
0
 71
3
 72
15
 73
11
 74
0
 42
0.0000001
 43
0.0000001
 44
0.0000000001
 40
0.0
 40
0.0
 40
0.0
 40
0.0
 40
0.1191469701
 40
0.239243152
 40
0.3607001061
 40
0.483893242
 40
0.6091574443
 40
0.7367806279
 40
0.8669992009
 40
1.0
 40
1.0
 40
1.0
 40
1.0
 10
6.7097235928
 20
2.787975685
 30
0.0
 10
6.7091278284
 20
2.7880355835
 30
0.0
 10
6.7079361719
 20
2.7882081076
 30
0.0
 10
6.7061690749
 20
2.7886213054
 30
0.0
 10
6.7044236041
 20
2.7891880075
 30
0.0
 10
6.7027066449
 20
2.7899059227
 30
0.0
 10
6.70102472
 20
2.7907721871
 30
0.0
 10
6.699384219
 20
2.7917833994
 30
0.0
 10
6.6977914291
 20
2.7929355259
 30
0.0
 10
6.6967762322
 20
2.793785506
 30
0.0
 10
6.6962784299
 20
2.7942315302
 30
0.0
  0
SPLINE
  5
245
100
AcDbEntity
  8
0
100
AcDbSpline
 62
7
  6
CONTINUOUS
 70
0
 71
3
 72
37
 73
33
 74
0
 42
0.0000001
 43
0.0000001
 44
0.0000000001
 40
0.0
 40
0.0
 40
0.0
 40
0.0
 40
0.0732948941
 40
0.1097203255
 40
0.1458683133
 40
0.1816524867
 40
0.2169917817
 40
0.2518119482
 40
0.2860470905
 40
0.3196412891
 40
0.3525502415
 40
0.3847429912
 40
0.4162035728
 40
0.4469326547
 40
0.4769489493
 40
0.50629035
 40
0.5350145478
 40
0.5631989962
 40
0.590939911
 40
0.6183502677
 40
0.6455565788
 40
0.6726946466
 40
0.6999044428
 40
0.7273245977
 40
0.7550869157
 40
0.7833114233
 40
0.8121023346
 40
0.8415449972
 40
0.871704073
 40
0.9026225754
 40
0.9343218496
 40
1.0
 40
1.0
 40
1.0
 40
1.0
 10
6.6835315041
 20
2.8288275784
 30
0.0
 10
6.6836380726
 20
2.8270891849
 30
0.0
 10
6.6839301221
 20
2.8244922409
 30
0.0
 10
6.6845856353
 20
2.8210875002
 30
0.0
 10
6.6852062588
 20
2.8185872096
 30
0.0
 10
6.6859543217
 20
2.8161491042
 30
0.0
 10
6.6868267342
 20
2.81378618
 30
0.0
 10
6.6878196942
 20
2.8115113569
 30
0.0
 10
6.6889287281
 20
2.8093371524
 30
0.0
 10
6.6901487047
 20
2.80727568
 30
0.0
 10
6.691473857
 20
2.8053385642
 30
0.0
 10
6.6928977938
 20
2.8035368738
 30
0.0
 10
6.6944135341
 20
2.8018810631
 30
0.0
 10
6.6960135286
 20
2.8003809128
 30
0.0
 10
6.6976896768
 20
2.7990454651
 30
0.0
 10
6.6994333599
 20
2.7978829785
 30
0.0
 10
6.7012354532
 20
2.7969008624
 30
0.0
 10
6.7030863451
 20
2.7961056094
 30
0.0
 10
6.7049759679
 20
2.7955027363
 30
0.0
 10
6.7068938242
 20
2.7950966843
 30
0.0
 10
6.7088290484
 20
2.7948907441
 30
0.0
 10
6.7107704831
 20
2.7948869774
 30
0.0
 10
6.7127067831
 20
2.7950861392
 30
0.0
 10
6.7146265303
 20
2.7954876686
 30
0.0
 10
6.7165183484
 20
2.7960896693
 30
0.0
 10
6.7183710051
 20
2.7968889449
 30
0.0
 10
6.7201734814
 20
2.7978810402
 30
0.0
 10
6.7219150579
 20
2.7990602864
 30
0.0
 10
6.7235852927
 20
2.8004197838
 30
0.0
 10
6.7251742961
 20
2.8019517135
 30
0.0
 10
6.7271947417
 20
2.8042377603
 30
0.0
 10
6.7285234701
 20
2.8061454737
 30
0.0
 10
6.7293265862
 20
2.807483637
 30
0.0
  0
SPLINE
  5
246
100
AcDbEntity
  8
0
100
AcDbSpline
 62
7
  6
CONTINUOUS
 70
0
 71
3
 72
13
 73
9
 74
0
 42
0.0000001
 43
0.0000001
 44
0.0000000001
 40
0.0
 40
0.0
 40
0.0
 40
0.0
 40
0.2367963725
 40
0.3595372977
 40
0.4846593281
 40
0.611749733
 40
0.7403532114
 40
1.0
 40
1.0
 40
1.0
 40
1.0
 10
6.7293265862
 20
2.807483637
 30
0.0
 10
6.7302495417
 20
2.8089860887
 30
0.0
 10
6.7314649922
 20
2.8113868888
 30
0.0
 10
6.7327412965
 20
2.8147644591
 30
0.0
 10
6.7335449837
 20
2.8174408895
 30
0.0
 10
6.7341766344
 20
2.8202075948
 30
0.0
 10
6.7347847805
 20
2.8239984504
 30
0.0
 10
6.7349667947
 20
2.826894129
 30
0.0
 10
6.7349667947
 20
2.8288275784
 30
0.0
  0
SPLINE
  5
247
100
AcDbEntity
  8
0
100
AcDbSpline
 62
7
  6
CONTINUOUS
 70
0
 71
3
 72
13
 73
9
 74
0
 42
0.0000001
 43
0.0000001
 44
0.0000000001
 40
0.0
 40
0.0
 40
0.0
 40
0.0
 40
0.2629059769
 40
0.3916814364
 40
0.5183262054
 40
0.642639621
 40
0.7644553678
 40
1.0
 40
1.0
 40
1.0
 40
1.0
 10
6.7339196981
 20
2.8385329171
 30
0.0
 10
6.7336077311
 20
2.8399450461
 30
0.0
 10
6.7330363295
 20
2.8420278459
 30
0.0
 10
6.7320619129
 20
2.8447084382
 30
0.0
 10
6.7312403645
 20
2.8466301515
 30
0.0
 10
6.7303269766
 20
2.8484674686
 30
0.0
 10
6.7290078557
 20
2.8507663777
 30
0.0
 10
6.7278725935
 20
2.8523800941
 30
0.0
 10
6.7270551846
 20
2.8533853825
 30
0.0
  0
SPLINE
  5
248
100
AcDbEntity
  8
0
100
AcDbSpline
 62
7
  6
CONTINUOUS
 70
0
 71
3
 72
15
 73
11
 74
0
 42
0.0000001
 43
0.0000001
 44
0.0000000001
 40
0.0
 40
0.0
 40
0.0
 40
0.0
 40
0.1144675437
 40
0.2328201115
 40
0.3547365071
 40
0.4797879765
 40
0.6074560149
 40
0.7371500759
 40
0.8682252087
 40
1.0
 40
1.0
 40
1.0
 40
1.0
 10
6.6900585689
 20
2.8561994091
 30
0.0
 10
6.6894658168
 20
2.8552834572
 30
0.0
 10
6.6883491556
 20
2.853361548
 30
0.0
 10
6.686914377
 20
2.8502956525
 30
0.0
 10
6.6857063285
 20
2.8470257586
 30
0.0
 10
6.6847394382
 20
2.8435846256
 30
0.0
 10
6.6840256279
 20
2.8400067657
 30
0.0
 10
6.6835744961
 20
2.8363286001
 30
0.0
 10
6.6833930218
 20
2.8325883836
 30
0.0
 10
6.6834546532
 20
2.830081204
 30
0.0
 10
6.6835315041
 20
2.8288275784
 30
0.0
  0
SPLINE
  5
249
100
AcDbEntity
  8
0
100
AcDbSpline
 62
7
  6
CONTINUOUS
 70
0
 71
3
 72
48
 73
44
 74
0
 42
0.0000001
 43
0.0000001
 44
0.0000000001
 40
0.0
 40
0.0
 40
0.0
 40
0.0
 40
0.0181494588
 40
0.0362795133
 40
0.05437156
 40
0.0724078131
 40
0.0903721203
 40
0.1082501824
 40
0.1260296997
 40
0.1437005108
 40
0.161254634
 40
0.178686225
 40
0.1959912619
 40
0.2131673304
 40
0.2302134752
 40
0.2471300026
 40
0.263918498
 40
0.2805813762
 40
0.3135385787
 40
0.3298436883
 40
0.3460371298
 40
0.4097533774
 40
0.4254534921
 40
0.4410678362
 40
0.4566004035
 40
0.4720548799
 40
0.5027431435
 40
0.5331641555
 40
0.5633436745
 40
0.5933069084
 40
0.6230758437
 40
0.6526710909
 40
0.682111822
 40
0.711415127
 40
0.7405975637
 40
0.7696737976
 40
0.7986582126
 40
0.8275636445
 40
0.8851804593
 40
0.9139224575
 40
0.9426325601
 40
0.971321379
 40
1.0
 40
1.0
 40
1.0
 40
1.0
 10
6.6023842732
 20
3.0325775784
 30
0.0
 10
6.6006790389
 20
3.0325776669
 30
0.0
 10
6.5972699647
 20
3.0326505493
 30
0.0
 10
6.5921703404
 20
3.0329744171
 30
0.0
 10
6.5870991068
 20
3.0335089392
 30
0.0
 10
6.5820697333
 20
3.0342503513
 30
0.0
 10
6.5770951977
 20
3.0351959418
 30
0.0
 10
6.5721869141
 20
3.0363380586
 30
0.0
 10
6.567354643
 20
3.0376673517
 30
0.0
 10
6.5626070164
 20
3.0391750649
 30
0.0
 10
6.5579515035
 20
3.0408526619
 30
0.0
 10
6.5533946851
 20
3.0426922426
 30
0.0
 10
6.5489411829
 20
3.0446838282
 30
0.0
 10
6.5445943942
 20
3.0468175715
 30
0.0
 10
6.5403568216
 20
3.0490842114
 30
0.0
 10
6.5362299656
 20
3.0514746992
 30
0.0
 10
6.5322152033
 20
3.0539816903
 30
0.0
 10
6.5270317863
 20
3.0574563195
 30
0.0
 10
6.5220508018
 20
3.0611457656
 30
0.0
 10
6.5172763326
 20
3.0650232645
 30
0.0
 10
6.5104257211
 20
3.0709222148
 30
0.0
 10
6.5040275616
 20
3.0772598112
 30
0.0
 10
6.4980976965
 20
3.0839348887
 30
0.0
 10
6.4952564923
 20
3.0872973054
 30
0.0
 10
6.4925119296
 20
3.0907092832
 30
0.0
 10
6.4889868964
 20
3.0953090641
 30
0.0
 10
6.484809127
 20
3.1011684195
 30
0.0
 10
6.4801417076
 20
3.1083674057
 30
0.0
 10
6.4758174117
 20
3.1156984522
 30
0.0
 10
6.4718249265
 20
3.1231456765
 30
0.0
 10
6.4681523397
 20
3.1306945656
 30
0.0
 10
6.4647894968
 20
3.1383326819
 30
0.0
 10
6.4617272865
 20
3.146049034
 30
0.0
 10
6.4589570808
 20
3.1538336979
 30
0.0
 10
6.4564718001
 20
3.161677954
 30
0.0
 10
6.4542646244
 20
3.169573739
 30
0.0
 10
6.4523300505
 20
3.1775139735
 30
0.0
 10
6.4501099011
 20
3.1881383989
 30
0.0
 10
6.4484119451
 20
3.1988431772
 30
0.0
 10
6.4472287995
 20
3.2095908732
 30
0.0
 10
6.4465969028
 20
3.2176609955
 30
0.0
 10
6.4462183644
 20
3.2257407861
 30
0.0
 10
6.4461343658
 20
3.2311311334
 30
0.0
 10
6.4461342733
 20
3.2338256363
 30
0.0
  0
SPLINE
  5
24A
100
AcDbEntity
  8
0
100
AcDbSpline
 62
7
  6
CONTINUOUS
 70
0
 71
3
 72
48
 73
44
 74
0
 42
0.0000001
 43
0.0000001
 44
0.0000000001
 40
0.0
 40
0.0
 40
0.0
 40
0.0
 40
0.028678454
 40
0.0573671695
 40
0.0860771152
 40
0.1148189718
 40
0.1724354668
 40
0.2013407953
 40
0.2303250259
 40
0.2885748511
 40
0.3178780199
 40
0.3473186087
 40
0.3769136108
 40
0.3917757091
 40
0.4066838672
 40
0.466813798
 40
0.4972345074
 40
0.5279226344
 40
0.5589074364
 40
0.5902191416
 40
0.6218915401
 40
0.637874794
 40
0.6539608516
 40
0.6701541486
 40
0.6864592016
 40
0.7028799809
 40
0.7194200826
 40
0.7360828526
 40
0.7528712431
 40
0.7697876837
 40
0.786833744
 40
0.8040097219
 40
0.8213146621
 40
0.8387461537
 40
0.8563001831
 40
0.8739709059
 40
0.8917503362
 40
0.909628311
 40
0.9275925304
 40
0.9456286967
 40
0.9637206574
 40
0.9818506264
 40
1.0
 40
1.0
 40
1.0
 40
1.0
 10
6.7586342732
 20
3.2338275784
 30
0.0
 10
6.7586342097
 20
3.2311330582
 30
0.0
 10
6.7585502392
 20
3.2257426699
 30
0.0
 10
6.7581717582
 20
3.2176628174
 30
0.0
 10
6.7575399119
 20
3.2095926317
 30
0.0
 10
6.7563568313
 20
3.1988448439
 30
0.0
 10
6.7546589324
 20
3.1881400375
 30
0.0
 10
6.7524388212
 20
3.177515382
 30
0.0
 10
6.7498554272
 20
3.1669119693
 30
0.0
 10
6.7467275416
 20
3.1564081514
 30
0.0
 10
6.7430417463
 20
3.1460503186
 30
0.0
 10
6.7399795587
 20
3.1383338299
 30
0.0
 10
6.737181139
 20
3.1319777211
 30
0.0
 10
6.7347888893
 20
3.126938642
 30
0.0
 10
6.7310196564
 20
3.1193794713
 30
0.0
 10
6.726158502
 20
3.1107295134
 30
0.0
 10
6.7199599451
 20
3.1011693204
 30
0.0
 10
6.7149348046
 20
3.0941214861
 30
0.0
 10
6.7095389919
 20
3.0872463319
 30
0.0
 10
6.7037561714
 20
3.0805701446
 30
0.0
 10
6.6986187536
 20
3.0752119788
 30
0.0
 10
6.6943042159
 20
3.0710575293
 30
0.0
 10
6.6909522424
 20
3.0680026715
 30
0.0
 10
6.6874926324
 20
3.0650237203
 30
0.0
 10
6.6839243179
 20
3.062125666
 30
0.0
 10
6.6802458691
 20
3.0593146783
 30
0.0
 10
6.6764559572
 20
3.0565976963
 30
0.0
 10
6.6725537817
 20
3.0539819284
 30
0.0
 10
6.6685390085
 20
3.0514749845
 30
0.0
 10
6.664412143
 20
3.049084426
 30
0.0
 10
6.6601745706
 20
3.0468177193
 30
0.0
 10
6.6558277652
 20
3.044683931
 30
0.0
 10
6.6513742286
 20
3.0426923409
 30
0.0
 10
6.6468173519
 20
3.0408528154
 30
0.0
 10
6.6421617912
 20
3.0391752538
 30
0.0
 10
6.6374141433
 20
3.0376674921
 30
0.0
 10
6.6325818502
 20
3.0363381414
 30
0.0
 10
6.6276735409
 20
3.0351959688
 30
0.0
 10
6.622698964
 20
3.0342503933
 30
0.0
 10
6.6176695524
 20
3.0335089837
 30
0.0
 10
6.6125982817
 20
3.0329744513
 30
0.0
 10
6.6074986199
 20
3.0326505684
 30
0.0
 10
6.6040895204
 20
3.0325776784
 30
0.0
 10
6.6023842732
 20
3.0325775784
 30
0.0
  0
SPLINE
  5
24B
100
AcDbEntity
  8
0
100
AcDbSpline
 62
7
  6
CONTINUOUS
 70
0
 71
3
 72
11
 73
7
 74
0
 42
0.0000001
 43
0.0000001
 44
0.0000000001
 40
0.0
 40
0.0
 40
0.0
 40
0.0
 40
0.2464111825
 40
0.4959448607
 40
0.7474573357
 40
1.0
 40
1.0
 40
1.0
 40
1.0
 10
6.6857237223
 20
2.8068012767
 30
0.0
 10
6.6848465199
 20
2.8087045613
 30
0.0
 10
6.6832923924
 20
2.8126360733
 30
0.0
 10
6.6815813144
 20
2.8187695514
 30
0.0
 10
6.6804885029
 20
2.8250953938
 30
0.0
 10
6.6801784352
 20
2.8293791744
 30
0.0
 10
6.680127322
 20
2.8315264181
 30
0.0
  0
SPLINE
  5
24C
100
AcDbEntity
  8
0
100
AcDbSpline
 62
7
  6
CONTINUOUS
 70
0
 71
3
 72
9
 73
5
 74
0
 42
0.0000001
 43
0.0000001
 44
0.0000000001
 40
0.0
 40
0.0
 40
0.0
 40
0.0
 40
0.2461549535
 40
1.0
 40
1.0
 40
1.0
 40
1.0
 10
6.7319813711
 20
2.8459608486
 30
0.0
 10
6.7322086641
 20
2.8453482393
 30
0.0
 10
6.7330764739
 20
2.84283915
 30
0.0
 10
6.7337248596
 20
2.8402550702
 30
0.0
 10
6.7340940132
 20
2.8382883412
 30
0.0
  0
SPLINE
  5
24D
100
AcDbEntity
  8
0
100
AcDbSpline
 62
7
  6
CONTINUOUS
 70
0
 71
3
 72
60
 73
56
 74
0
 42
0.0000001
 43
0.0000001
 44
0.0000000001
 40
0.0
 40
0.0
 40
0.0
 40
0.0
 40
0.0335891191
 40
0.0500816472
 40
0.0663467541
 40
0.0981146959
 40
0.1135953007
 40
0.1287842092
 40
0.1436701808
 40
0.1582457492
 40
0.1725083684
 40
0.1864615964
 40
0.200116189
 40
0.2134910161
 40
0.2266135833
 40
0.2395200535
 40
0.2522546077
 40
0.2648681264
 40
0.2774162586
 40
0.2899570238
 40
0.3025482782
 40
0.3152452803
 40
0.3280986699
 40
0.3411529791
 40
0.3544457501
 40
0.3680072174
 40
0.3818604126
 40
0.3960216086
 40
0.410500924
 40
0.4253030151
 40
0.4404277804
 40
0.4558709958
 40
0.4716249011
 40
0.4876786973
 40
0.5040189513
 40
0.5206299526
 40
0.5374939896
 40
0.554591581
 40
0.5893985308
 40
0.6248705162
 40
0.6608061981
 40
0.6969922455
 40
0.7332087724
 40
0.7692350953
 40
0.8048555204
 40
0.8398648794
 40
0.8570822547
 40
0.8740774847
 40
0.8908302089
 40
0.9073217134
 40
0.9235351508
 40
0.9394557994
 40
0.9550713595
 40
0.9703723394
 40
1.0
 40
1.0
 40
1.0
 40
1.0
 10
6.690749757
 20
2.8565456493
 30
0.0
 10
6.6914504423
 20
2.8576323947
 30
0.0
 10
6.6925657574
 20
2.8592091348
 30
0.0
 10
6.6941820617
 20
2.8611877181
 30
0.0
 10
6.6958436442
 20
2.8630350875
 30
0.0
 10
6.6976112454
 20
2.8647318754
 30
0.0
 10
6.6994755113
 20
2.8662506268
 30
0.0
 10
6.7008964452
 20
2.8672802083
 30
0.0
 10
6.7023468557
 20
2.8682045836
 30
0.0
 10
6.7038214564
 20
2.869018656
 30
0.0
 10
6.7053145685
 20
2.8697175591
 30
0.0
 10
6.7068202392
 20
2.8702968367
 30
0.0
 10
6.7083322683
 20
2.870752553
 30
0.0
 10
6.70984428
 20
2.8710814235
 30
0.0
 10
6.7113498044
 20
2.871280937
 30
0.0
 10
6.7128423773
 20
2.8713494651
 30
0.0
 10
6.7143156552
 20
2.8712863481
 30
0.0
 10
6.7157635431
 20
2.8710919478
 30
0.0
 10
6.7171803263
 20
2.8707676537
 30
0.0
 10
6.7185607959
 20
2.8703158345
 30
0.0
 10
6.7199003487
 20
2.86973974
 30
0.0
 10
6.721195052
 20
2.8690433626
 30
0.0
 10
6.7224416638
 20
2.8682312782
 30
0.0
 10
6.7236376127
 20
2.8673084847
 30
0.0
 10
6.7247809462
 20
2.8662802563
 30
0.0
 10
6.7258702601
 20
2.8651520196
 30
0.0
 10
6.7269046203
 20
2.8639292571
 30
0.0
 10
6.727883485
 20
2.8626174338
 30
0.0
 10
6.7288066318
 20
2.8612219461
 30
0.0
 10
6.7296740916
 20
2.8597480877
 30
0.0
 10
6.730486091
 20
2.8582010297
 30
0.0
 10
6.731243002
 20
2.8565858123
 30
0.0
 10
6.7319452993
 20
2.8549073454
 30
0.0
 10
6.732593524
 20
2.8531704159
 30
0.0
 10
6.7331882549
 20
2.8513796986
 30
0.0
 10
6.7337300794
 20
2.8495397763
 30
0.0
 10
6.7342195903
 20
2.8476551346
 30
0.0
 10
6.734806681
 20
2.8450733881
 30
0.0
 10
6.7354090346
 20
2.8417621732
 30
0.0
 10
6.7359271954
 20
2.8377045701
 30
0.0
 10
6.7362476873
 20
2.8335734137
 30
0.0
 10
6.736372231
 20
2.8294031438
 30
0.0
 10
6.7363015036
 20
2.8252281335
 30
0.0
 10
6.7360351201
 20
2.8210827678
 30
0.0
 10
6.7355716447
 20
2.8170014991
 30
0.0
 10
6.7350160651
 20
2.813663828
 30
0.0
 10
6.7344671391
 20
2.8110558773
 30
0.0
 10
6.7340062152
 20
2.8091485022
 30
0.0
 10
6.7334932887
 20
2.8072833946
 30
0.0
 10
6.73292778
 20
2.8054650061
 30
0.0
 10
6.7323090988
 20
2.8036978642
 30
0.0
 10
6.7316366735
 20
2.8019866226
 30
0.0
 10
6.7309098803
 20
2.8003358817
 30
0.0
 10
6.7298790208
 20
2.798245108
 30
0.0
 10
6.7290069413
 20
2.7967470359
 30
0.0
 10
6.7283795288
 20
2.7957945634
 30
0.0
  0
SPLINE
  5
24E
100
AcDbEntity
  8
0
100
AcDbSpline
 62
7
  6
CONTINUOUS
 70
0
 71
3
 72
26
 73
22
 74
0
 42
0.0000001
 43
0.0000001
 44
0.0000000001
 40
0.0
 40
0.0
 40
0.0
 40
0.0
 40
0.066336117
 40
0.133295252
 40
0.2005152696
 40
0.267662214
 40
0.3344352813
 40
0.4005707305
 40
0.4658451548
 40
0.5300780891
 40
0.5931340637
 40
0.6549241304
 40
0.7154066066
 40
0.7451641718
 40
0.7746007342
 40
0.8325307129
 40
0.8893057494
 40
0.9173089751
 40
0.9450770463
 40
0.9726331603
 40
1.0
 40
1.0
 40
1.0
 40
1.0
 10
6.682874803
 20
2.8265357078
 30
0.0
 10
6.6829296366
 20
2.8254302933
 30
0.0
 10
6.6831182072
 20
2.8232122434
 30
0.0
 10
6.6836295219
 20
2.8199036067
 30
0.0
 10
6.6843668148
 20
2.8166238618
 30
0.0
 10
6.6853236271
 20
2.813404578
 30
0.0
 10
6.6864916884
 20
2.8102750248
 30
0.0
 10
6.6878611203
 20
2.8072624057
 30
0.0
 10
6.6894206561
 20
2.8043916786
 30
0.0
 10
6.6911578317
 20
2.8016855442
 30
0.0
 10
6.6930592302
 20
2.7991643754
 30
0.0
 10
6.6951104621
 20
2.7968463717
 30
0.0
 10
6.6969424649
 20
2.7950874291
 30
0.0
 10
6.6984683851
 20
2.793798771
 30
0.0
 10
6.7000146892
 20
2.7926030965
 30
0.0
 10
6.7020121941
 20
2.7912578301
 30
0.0
 10
6.7041030688
 20
2.7901111682
 30
0.0
 10
6.7058097642
 20
2.7893266891
 30
0.0
 10
6.7070996856
 20
2.7888066056
 30
0.0
 10
6.7084030906
 20
2.7883527837
 30
0.0
 10
6.7092825448
 20
2.7880938283
 30
0.0
 10
6.7097235928
 20
2.787975685
 30
0.0
  0
SPLINE
  5
24F
100
AcDbEntity
  8
0
100
AcDbSpline
 62
7
  6
CONTINUOUS
 70
0
 71
3
 72
11
 73
7
 74
0
 42
0.0000001
 43
0.0000001
 44
0.0000000001
 40
0.0
 40
0.0
 40
0.0
 40
0.0
 40
0.2552384506
 40
0.5079373548
 40
0.7566351051
 40
1.0
 40
1.0
 40
1.0
 40
1.0
 10
6.682874803
 20
2.8265357078
 30
0.0
 10
6.6829345359
 20
2.8253391239
 30
0.0
 10
6.6831467336
 20
2.8229614327
 30
0.0
 10
6.6837431864
 20
2.8194565033
 30
0.0
 10
6.6846095799
 20
2.8160657371
 30
0.0
 10
6.6853699512
 20
2.8138811171
 30
0.0
 10
6.6857937011
 20
2.8128202792
 30
0.0
  0
SPLINE
  5
250
100
AcDbEntity
  8
0
100
AcDbSpline
 62
7
  6
CONTINUOUS
 70
0
 71
3
 72
22
 73
18
 74
0
 42
0.0000001
 43
0.0000001
 44
0.0000000001
 40
0.0
 40
0.0
 40
0.0
 40
0.0
 40
0.1438978088
 40
0.2137394445
 40
0.282004738
 40
0.3486331978
 40
0.4136068556
 40
0.4769527138
 40
0.5387446356
 40
0.5991036789
 40
0.6581969788
 40
0.7162343523
 40
0.7734625919
 40
0.830157256
 40
0.8866123092
 40
0.9431282809
 40
1.0
 40
1.0
 40
1.0
 40
1.0
 10
6.6857937011
 20
2.8128202792
 30
0.0
 10
6.6864104173
 20
2.811254058
 30
0.0
 10
6.6874754039
 20
2.8089810308
 30
0.0
 10
6.6891805857
 20
2.806154763
 30
0.0
 10
6.690563946
 20
2.8041969338
 30
0.0
 10
6.6920551576
 20
2.8023932604
 30
0.0
 10
6.6936449216
 20
2.800754792
 30
0.0
 10
6.6953232929
 20
2.7992916838
 30
0.0
 10
6.6970798772
 20
2.7980128363
 30
0.0
 10
6.6989038584
 20
2.7969259624
 30
0.0
 10
6.7007840431
 20
2.796037515
 30
0.0
 10
6.7027089154
 20
2.795352668
 30
0.0
 10
6.7046666986
 20
2.7948752582
 30
0.0
 10
6.7066454063
 20
2.7946077368
 30
0.0
 10
6.7086330575
 20
2.7945511613
 30
0.0
 10
6.7106173752
 20
2.7947050763
 30
0.0
 10
6.7119245584
 20
2.7949458243
 30
0.0
 10
6.7125718391
 20
2.7950994674
 30
0.0
  0
SPLINE
  5
251
100
AcDbEntity
  8
0
100
AcDbSpline
 62
7
  6
CONTINUOUS
 70
0
 71
3
 72
14
 73
10
 74
0
 42
0.0000001
 43
0.0000001
 44
0.0000000001
 40
0.0
 40
0.0
 40
0.0
 40
0.0
 40
0.1152822491
 40
0.2332026608
 40
0.3539418282
 40
0.4775900245
 40
0.6041505516
 40
0.7335448748
 40
1.0
 40
1.0
 40
1.0
 40
1.0
 10
6.6979627388
 20
2.7988852692
 30
0.0
 10
6.6973314
 20
2.7992363854
 30
0.0
 10
6.6960877627
 20
2.8000085535
 30
0.0
 10
6.694315311
 20
2.8013464158
 30
0.0
 10
6.692626064
 20
2.8028674324
 30
0.0
 10
6.6910304265
 20
2.8045611377
 30
0.0
 10
6.6895377302
 20
2.8064163805
 30
0.0
 10
6.6876791855
 20
2.8091138792
 30
0.0
 10
6.6864933676
 20
2.8113042225
 30
0.0
 10
6.6857937011
 20
2.8128202792
 30
0.0
  0
SPLINE
  5
252
100
AcDbEntity
  8
0
100
AcDbSpline
 62
7
  6
CONTINUOUS
 70
0
 71
3
 72
15
 73
11
 74
0
 42
0.0000001
 43
0.0000001
 44
0.0000000001
 40
0.0
 40
0.0
 40
0.0
 40
0.0
 40
0.11602486
 40
0.2354646345
 40
0.3579579981
 40
0.4830820806
 40
0.6103658845
 40
0.7393025812
 40
0.8693611984
 40
1.0
 40
1.0
 40
1.0
 40
1.0
 10
6.6863755631
 20
2.8488012803
 30
0.0
 10
6.6859929454
 20
2.8480061957
 30
0.0
 10
6.6852818589
 20
2.8463603969
 30
0.0
 10
6.684393625
 20
2.8437846812
 30
0.0
 10
6.6836756862
 20
2.841084702
 30
0.0
 10
6.6831353713
 20
2.8382830362
 30
0.0
 10
6.6827784279
 20
2.8354028538
 30
0.0
 10
6.6826091515
 20
2.8324680109
 30
0.0
 10
6.6826302558
 20
2.829503002
 30
0.0
 10
6.6827719509
 20
2.8275238653
 30
0.0
 10
6.682874803
 20
2.8265357078
 30
0.0
  0
SPLINE
  5
253
100
AcDbEntity
  8
0
100
AcDbSpline
 62
7
  6
CONTINUOUS
 70
0
 71
3
 72
14
 73
10
 74
0
 42
0.0000001
 43
0.0000001
 44
0.0000000001
 40
0.0
 40
0.0
 40
0.0
 40
0.0
 40
0.1306484167
 40
0.2607218115
 40
0.389659595
 40
0.5169255555
 40
0.6420225948
 40
0.7645058473
 40
1.0
 40
1.0
 40
1.0
 40
1.0
 10
6.7349667947
 20
2.8288275784
 30
0.0
 10
6.7349667947
 20
2.8278575746
 30
0.0
 10
6.7349025736
 20
2.8259212142
 30
0.0
 10
6.7346142105
 20
2.8230405161
 30
0.0
 10
6.7341363807
 20
2.8202103682
 30
0.0
 10
6.7334732976
 20
2.8174558605
 30
0.0
 10
6.7326304811
 20
2.8148005866
 30
0.0
 10
6.7312955236
 20
2.8114697175
 30
0.0
 10
6.7300245749
 20
2.8091177969
 30
0.0
 10
6.7290605132
 20
2.8076591644
 30
0.0
  0
SPLINE
  5
254
100
AcDbEntity
  8
0
100
AcDbSpline
 62
7
  6
CONTINUOUS
 70
0
 71
3
 72
36
 73
32
 74
0
 42
0.0000001
 43
0.0000001
 44
0.0000000001
 40
0.0
 40
0.0
 40
0.0
 40
0.0
 40
0.0643187564
 40
0.0952671812
 40
0.125410725
 40
0.1547865129
 40
0.1834524219
 40
0.2114870766
 40
0.2389890428
 40
0.2660748494
 40
0.292875905
 40
0.3195342361
 40
0.3461973406
 40
0.3730125309
 40
0.400121298
 40
0.4276542082
 40
0.4557267183
 40
0.4844361552
 40
0.5138598222
 40
0.5440542552
 40
0.5750552627
 40
0.6068786741
 40
0.6395214833
 40
0.6729633572
 40
0.7071681632
 40
0.7420857051
 40
0.7776533702
 40
0.8504074774
 40
0.8874506329
 40
0.9248022727
 40
1.0
 40
1.0
 40
1.0
 40
1.0
 10
6.7290605132
 20
2.8076591644
 30
0.0
 10
6.7283342648
 20
2.8065603451
 30
0.0
 10
6.7271466256
 20
2.8050010994
 30
0.0
 10
6.7253638616
 20
2.8031497256
 30
0.0
 10
6.7239742668
 20
2.8019211313
 30
0.0
 10
6.7225232256
 20
2.8008423496
 30
0.0
 10
6.7210185959
 20
2.7999194053
 30
0.0
 10
6.7194687254
 20
2.7991576915
 30
0.0
 10
6.7178822464
 20
2.798561684
 30
0.0
 10
6.7162680895
 20
2.7981349577
 30
0.0
 10
6.7146354283
 20
2.7978801157
 30
0.0
 10
6.7129936199
 20
2.7977987293
 30
0.0
 10
6.711352116
 20
2.7978913025
 30
0.0
 10
6.7097203654
 20
2.7981572631
 30
0.0
 10
6.7081077154
 20
2.7985949702
 30
0.0
 10
6.7065233262
 20
2.7992017565
 30
0.0
 10
6.704976109
 20
2.7999739902
 30
0.0
 10
6.7034746839
 20
2.8009071273
 30
0.0
 10
6.7020273466
 20
2.8019957588
 30
0.0
 10
6.7006420509
 20
2.8032336615
 30
0.0
 10
6.6993263862
 20
2.804613832
 30
0.0
 10
6.6980875467
 20
2.8061285162
 30
0.0
 10
6.6969323083
 20
2.8077692472
 30
0.0
 10
6.695866995
 20
2.8095268933
 30
0.0
 10
6.6948974549
 20
2.8113916563
 30
0.0
 10
6.6940289711
 20
2.8133532771
 30
0.0
 10
6.6930046746
 20
2.816103374
 30
0.0
 10
6.6922122551
 20
2.8189806573
 30
0.0
 10
6.6916527464
 20
2.8219427711
 30
0.0
 10
6.6912475297
 20
2.8249803709
 30
0.0
 10
6.6911261743
 20
2.8272876631
 30
0.0
 10
6.6911261743
 20
2.8288275784
 30
0.0
  0
SPLINE
  5
255
100
AcDbEntity
  8
0
100
AcDbSpline
 62
7
  6
CONTINUOUS
 70
0
 71
3
 72
11
 73
7
 74
0
 42
0.0000001
 43
0.0000001
 44
0.0000000001
 40
0.0
 40
0.0
 40
0.0
 40
0.0
 40
0.2589946977
 40
0.5123161077
 40
0.7594699691
 40
1.0
 40
1.0
 40
1.0
 40
1.0
 10
6.7340731567
 20
2.8382841786
 30
0.0
 10
6.7339405879
 20
2.8389571494
 30
0.0
 10
6.7336472488
 20
2.8402824692
 30
0.0
 10
6.7331165686
 20
2.8422233786
 30
0.0
 10
6.7325022253
 20
2.8440880752
 30
0.0
 10
6.732032085
 20
2.8452918668
 30
0.0
 10
6.7317832262
 20
2.8458782477
 30
0.0
  0
SPLINE
  5
256
100
AcDbEntity
  8
0
100
AcDbSpline
 62
7
  6
CONTINUOUS
 70
0
 71
3
 72
11
 73
7
 74
0
 42
0.0000001
 43
0.0000001
 44
0.0000000001
 40
0.0
 40
0.0
 40
0.0
 40
0.0
 40
0.2667866517
 40
0.5226187051
 40
0.7670765516
 40
1.0
 40
1.0
 40
1.0
 40
1.0
 10
6.7317448083
 20
2.8459683965
 30
0.0
 10
6.7314363334
 20
2.8466892526
 30
0.0
 10
6.7307810847
 20
2.8480803549
 30
0.0
 10
6.7296607152
 20
2.8500396054
 30
0.0
 10
6.728431727
 20
2.8518130803
 30
0.0
 10
6.727524566
 20
2.8528870796
 30
0.0
 10
6.7270551846
 20
2.8533853825
 30
0.0
  0
SPLINE
  5
257
100
AcDbEntity
  8
0
100
AcDbSpline
 62
7
  6
CONTINUOUS
 70
0
 71
3
 72
45
 73
41
 74
0
 42
0.0000001
 43
0.0000001
 44
0.0000000001
 40
0.0
 40
0.0
 40
0.0
 40
0.0
 40
0.0737105719
 40
0.1102262873
 40
0.1463206638
 40
0.1818666436
 40
0.2167487723
 40
0.2508663081
 40
0.2841363308
 40
0.3164970256
 40
0.3479108989
 40
0.3783679802
 40
0.407888685
 40
0.4365261114
 40
0.464367278
 40
0.4915327504
 40
0.5049143526
 40
0.5181861929
 40
0.5313711925
 40
0.5444934098
 40
0.5575777386
 40
0.5706495881
 40
0.5837345449
 40
0.5968580092
 40
0.6100448581
 40
0.6233191255
 40
0.6367037012
 40
0.650220051
 40
0.6638880087
 40
0.6777255957
 40
0.7059616959
 40
0.7350428892
 40
0.7499277981
 40
0.7650472251
 40
0.7959938835
 40
0.8278958453
 40
0.8607286704
 40
0.8944419831
 40
0.9289627682
 40
1.0
 40
1.0
 40
1.0
 40
1.0
 10
6.6911261743
 20
2.8288275784
 30
0.0
 10
6.6911261743
 20
2.8306511573
 30
0.0
 10
6.6912961758
 20
2.833382373
 30
0.0
 10
6.6918641403
 20
2.8369591885
 30
0.0
 10
6.6924542185
 20
2.8395711854
 30
0.0
 10
6.6932050191
 20
2.8420993598
 30
0.0
 10
6.6941107811
 20
2.8445242833
 30
0.0
 10
6.6951645272
 20
2.8468270247
 30
0.0
 10
6.6963581735
 20
2.8489896748
 30
0.0
 10
6.6976825758
 20
2.8509953791
 30
0.0
 10
6.6991276228
 20
2.8528284663
 30
0.0
 10
6.7006822944
 20
2.8544745555
 30
0.0
 10
6.7023347293
 20
2.8559206164
 30
0.0
 10
6.7040723514
 20
2.857155085
 30
0.0
 10
6.7058815977
 20
2.8581678429
 30
0.0
 10
6.7074458355
 20
2.8588234832
 30
0.0
 10
6.7087154524
 20
2.8592267969
 30
0.0
 10
6.7096716646
 20
2.8594682344
 30
0.0
 10
6.7106345306
 20
2.8596495421
 30
0.0
 10
6.7116021808
 20
2.8597703731
 30
0.0
 10
6.7125726909
 20
2.8598304761
 30
0.0
 10
6.7135441406
 20
2.8598297285
 30
0.0
 10
6.7145146038
 20
2.8597681313
 30
0.0
 10
6.7154821581
 20
2.8596458118
 30
0.0
 10
6.7164448883
 20
2.8594630188
 30
0.0
 10
6.7174008913
 20
2.8592201232
 30
0.0
 10
6.7183482821
 20
2.858917614
 30
0.0
 10
6.7192851893
 20
2.8585561079
 30
0.0
 10
6.7202097965
 20
2.8581363133
 30
0.0
 10
6.721431775
 20
2.8574958332
 30
0.0
 10
6.7229206517
 20
2.8565497776
 30
0.0
 10
6.724322869
 20
2.8554380916
 30
0.0
 10
6.7253994428
 20
2.8544485955
 30
0.0
 10
6.7264602877
 20
2.8533762528
 30
0.0
 10
6.7277200761
 20
2.8519118442
 30
0.0
 10
6.7291045833
 20
2.8499885013
 30
0.0
 10
6.7303632081
 20
2.8479003807
 30
0.0
 10
6.7314863116
 20
2.845663651
 30
0.0
 10
6.732803618
 20
2.842477535
 30
0.0
 10
6.7335435919
 20
2.839961991
 30
0.0
 10
6.7339302454
 20
2.8382476111
 30
0.0
  0
SPLINE
  5
258
100
AcDbEntity
  8
0
100
AcDbSpline
 62
7
  6
CONTINUOUS
 70
0
 71
3
 72
10
 73
6
 74
0
 42
0.0000001
 43
0.0000001
 44
0.0000000001
 40
0.0
 40
0.0
 40
0.0
 40
0.0
 40
0.2475165662
 40
0.6225340632
 40
1.0
 40
1.0
 40
1.0
 40
1.0
 10
6.7339574477
 20
2.8381261372
 30
0.0
 10
6.7341252261
 20
2.8373715268
 30
0.0
 10
6.7344934998
 20
2.8354613163
 30
0.0
 10
6.7348720554
 20
2.8323576886
 30
0.0
 10
6.7349667947
 20
2.8300064701
 30
0.0
 10
6.7349667947
 20
2.8288275784
 30
0.0
  0
SPLINE
  5
259
100
AcDbEntity
  8
0
100
AcDbSpline
 62
7
  6
CONTINUOUS
 70
0
 71
3
 72
31
 73
27
 74
0
 42
0.0000001
 43
0.0000001
 44
0.0000000001
 40
0.0
 40
0.0
 40
0.0
 40
0.0
 40
0.0650802825
 40
0.0968309056
 40
0.1280738614
 40
0.1891237984
 40
0.2190237488
 40
0.2485589134
 40
0.2777822404
 40
0.3067530696
 40
0.3355363884
 40
0.3642017415
 40
0.3928218589
 40
0.4214710389
 40
0.4502233482
 40
0.4791507735
 40
0.5083214878
 40
0.5377982752
 40
0.5676372535
 40
0.5978869666
 40
0.6597455671
 40
0.7236274772
 40
0.7896329441
 40
0.8577590045
 40
0.9279251453
 40
1.0
 40
1.0
 40
1.0
 40
1.0
 10
6.7283795288
 20
2.7957945634
 30
0.0
 10
6.7279283012
 20
2.7951095566
 30
0.0
 10
6.7272156974
 20
2.794116301
 30
0.0
 10
6.7261865489
 20
2.7928720162
 30
0.0
 10
6.7251331255
 20
2.7917161516
 30
0.0
 10
6.7240102854
 20
2.7906569237
 30
0.0
 10
6.7228210043
 20
2.7897115098
 30
0.0
 10
6.7219065185
 20
2.789068118
 30
0.0
 10
6.7209644852
 20
2.7884877892
 30
0.0
 10
6.7199960253
 20
2.7879724991
 30
0.0
 10
6.7190025018
 20
2.7875241229
 30
0.0
 10
6.717985473
 20
2.7871443487
 30
0.0
 10
6.7169467037
 20
2.7868346576
 30
0.0
 10
6.7158881534
 20
2.7865962876
 30
0.0
 10
6.7148119625
 20
2.7864302065
 30
0.0
 10
6.7137204334
 20
2.7863370896
 30
0.0
 10
6.7126160022
 20
2.7863173051
 30
0.0
 10
6.7115012267
 20
2.786370902
 30
0.0
 10
6.7103786961
 20
2.7864976371
 30
0.0
 10
6.7088643073
 20
2.7867652744
 30
0.0
 10
6.7069627641
 20
2.7872840122
 30
0.0
 10
6.7047128296
 20
2.7881785895
 30
0.0
 10
6.702497179
 20
2.7893362133
 30
0.0
 10
6.700334925
 20
2.7907409898
 30
0.0
 10
6.6982434603
 20
2.7923755726
 30
0.0
 10
6.6969231808
 20
2.7935915791
 30
0.0
 10
6.6962784299
 20
2.7942315302
 30
0.0
  0
ELLIPSE
  5
25A
100
AcDbEntity
  8
0
100
AcDbEllipse
 62
7
  6
CONTINUOUS
 10
6.6023842732
 20
2.8688275784
 30
0.0
 11
-0.107751439
 21
0.2270851912
 31
0.0
 40
0.3419987131
 41
-1.9064306549
 42
-1.8230204921
  0
ELLIPSE
  5
25B
100
AcDbEntity
  8
0
100
AcDbEllipse
 62
7
  6
CONTINUOUS
 10
6.6023842732
 20
2.7888275784
 30
0.0
 11
0.107751439
 21
0.2270851912
 31
0.0
 40
0.3419987131
 41
-1.3185721614
 42
-1.2351619986
  0
ENDSEC
  0
SECTION
  2
OBJECTS
  0
DICTIONARY
  5
C
100
AcDbDictionary
280
0
281
1
  3
ACAD_GROUP
350
D
  3
ACAD_MLINESTYLE
350
17
  3
ACAD_LAYOUT
350
1A
  3
ACAD_PLOTSETTINGS
350
19
  3
ACAD_PLOTSTYLENAME
350
E
  0
DICTIONARY
  5
D
102
{ACAD_REACTORS
330
C
102
}
100
AcDbDictionary
280
0
281
1
  0
ACDBDICTIONARYWDFLT
  5
E
102
{ACAD_REACTORS
330
C
102
}
100
AcDbDictionary
281
1
  3
Normal
350
F
100
AcDbDictionaryWithDefault
340
F
  0
DICTIONARY
  5
17
102
{ACAD_REACTORS
330
C
102
}
100
AcDbDictionary
280
0
281
1
  3
Standard
350
18
  0
DICTIONARY
  5
19
102
{ACAD_REACTORS
330
C
102
}
100
AcDbDictionary
281
1
  0
DICTIONARY
  5
1A
102
{ACAD_REACTORS
330
C
102
}
100
AcDbDictionary
281
1
  3
Model
350
25C
  3
Layout1
350
25D
  0
ACDBPLACEHOLDER
  5
F
102
{ACAD_REACTORS
330
E
102
}
  0
MLINESTYLE
  5
18
102
{ACAD_REACTORS
330
17
102
}
100
AcDbMlineStyle
  2
STANDARD
 70
0
  3

 62
256
 51
90.0
 52
90.0
 71
2
 49
0.5
 62
256
  6
BYLAYER
 49
-0.5
 62
256
  6
BYLAYER
  0
LAYOUT
  5
25C
102
{ACAD_REACTORS
330
1A
102
}
100
AcDbPlotSettings
  1

  2
none_device
  4
ANSI_A_(11.00_x_8.50_Inches)
  6

 40
0.0
 41
0.0
 42
0.0
 43
0.0
 44
279.4
 45
215.9
 46
0.0
 47
0.0
 48
0.0
 49
0.0
140
0.0
141
0.0
142
1.0
143
1.0
 70
1024
 72
0
 73
0
 74
0
  7

 75
0
147
1.0
148
0.0
149
0.0
100
AcDbLayout
  1
Model
 70
0
 71
0
 10
0.0
 20
0.0
 11
11.0
 21
8.5
 12
0.0
 22
0.0
 32
0.0
 14
0.0
 24
0.0
 34
0.0
 15
0.0
 25
0.0
 35
0.0
146
0.0
 13
0.0
 23
0.0
 33
0.0
 16
1.0
 26
0.0
 36
0.0
 17
0.0
 27
1.0
 37
0.0
 76
0
330
203
345
0
346
0
  0
LAYOUT
  5
25D
102
{ACAD_REACTORS
330
1A
102
}
100
AcDbPlotSettings
  1

  2
none_device
  4
ANSI_A_(11.00_x_8.50_Inches)
  6

 40
0.0
 41
0.0
 42
0.0
 43
0.0
 44
279.4
 45
215.9
 46
0.0
 47
0.0
 48
0.0
 49
0.0
140
0.0
141
0.0
142
1.0
143
1.0
 70
0
 72
0
 73
0
 74
0
  7

 75
0
147
1.0
148
0.0
149
0.0
100
AcDbLayout
  1
Layout1
 70
0
 71
1
 10
0.0
 20
0.0
 11
11.0
 21
8.5
 12
0.0
 22
0.0
 32
0.0
 14
0.0
 24
0.0
 34
0.0
 15
0.0
 25
0.0
 35
0.0
146
0.0
 13
0.0
 23
0.0
 33
0.0
 16
1.0
 26
0.0
 36
0.0
 17
0.0
 27
1.0
 37
0.0
 76
0
330
204
345
0
346
0
  0
ENDSEC
  0
EOF
