999
DXF file: E:\BT Custom\CADOUTPUT\_FRONT.dxf
999
Pro/ENGINEER 2018400 by Parametric Technology Corporation
  0
SECTION
  2
HEADER
  9
$ACADVER
  1
AC1018
  9
$DWGCODEPAGE
  3
ANSI_1252
  9
$EXTMAX
 10
22.0
 20
17.0
 30
0.0
  9
$EXTMIN
 10
0.0
 20
0.0
 30
0.0
  9
$LIMMIN
 10
0.0
 20
0.0
  9
$LIMMAX
 10
22.0
 20
17.0
  9
$VIEWCTR
 10
11.0
 20
8.5
  9
$VIEWSIZE
 40
17.0
  9
$CLAYER
  8
0
  9
$LTSCALE
 40
1.21
  9
$CELTYPE
  6
BYLAYER
  9
$DIMSCALE
 40
1.0
  9
$DIMASZ
 40
0.1
  9
$DIMEXO
 40
0.0625
  9
$DIMDLI
 40
0.836
  9
$DIMEXE
 40
0.125
  9
$DIMCEN
 40
0.198
  9
$DIMLFAC
 40
1.0
  9
$DIMBLK
  1
_FILLED
  9
$DIMALT
 70
1
  9
$DIMALTD
 70
2
  9
$DIMALTTD
 70
2
  9
$DIMALTF
 40
25.4
  9
$DIMTXT
 40
0.08
  9
$DIMTOL
 70
1
  9
$DIMLIM
 70
0
  9
$DIMTFAC
 40
1.0
  9
$DIMTP
 40
0.001
  9
$DIMTM
 40
0.001
  9
$DIMGAP
 40
0.09
  9
$DIMDSEP
 70
46
  9
$AUNITS
 70
0
  9
$PDMODE
 70
3
  9
$PDSIZE
 40
0.06
  9
$HANDSEED
  5
293
  9
$TILEMODE
 70
1
  9
$MEASUREMENT
 70
0
  9
$INSUNITS
 70
1
  0
ENDSEC
  0
SECTION
  2
CLASSES
  0
CLASS
  1
ACDBDICTIONARYWDFLT
  2
AcDbDictionaryWithDefault
  3
AutoCAD 2000
 90
0
 91
1
280
0
281
0
  0
CLASS
  1
ACDBPLACEHOLDER
  2
AcDbPlaceHolder
  3
AutoCAD 2000
 90
0
 91
1
280
0
281
0
  0
CLASS
  1
LAYOUT
  2
AcDbLayout
  3
AutoCAD 2000
 90
0
 91
0
280
0
281
0
  0
ENDSEC
  0
SECTION
  2
TABLES
  0
TABLE
  2
VPORT
  5
8
100
AcDbSymbolTable
 70
2
  0
VPORT
  5
1F4
100
AcDbSymbolTableRecord
100
AcDbViewportTableRecord
  2
*ACTIVE
 70
0
 10
0.0
 20
0.0
 11
1.0
 21
1.0
 12
11.0
 22
8.5
 13
0.0
 23
0.0
 14
1.0
 24
1.0
 15
0.0
 25
0.0
 16
0.0
 26
0.0
 36
1.0
 17
0.0
 27
0.0
 37
0.0
 40
17.0
 41
1.2941176471
 42
50.0
 43
0.0
 44
0.0
 50
0.0
 51
0.0
 71
0
 72
100
 73
1
 74
1
 75
0
 76
0
 77
0
 78
0
  0
ENDTAB
  0
TABLE
  2
LTYPE
  5
5
100
AcDbSymbolTable
 70
6
  0
LTYPE
  5
14
100
AcDbSymbolTableRecord
100
AcDbLinetypeTableRecord
  2
BYBLOCK
 70
0
  3

 72
65
 73
0
 40
0.0
  0
LTYPE
  5
15
100
AcDbSymbolTableRecord
100
AcDbLinetypeTableRecord
  2
BYLAYER
 70
0
  3

 72
65
 73
0
 40
0.0
  0
LTYPE
  5
16
100
AcDbSymbolTableRecord
100
AcDbLinetypeTableRecord
  2
CONTINUOUS
 70
64
  3
Solid line
 72
65
 73
0
 40
0.0
  0
LTYPE
  5
1F5
100
AcDbSymbolTableRecord
100
AcDbLinetypeTableRecord
  2
CENTER
 70
64
  3
____ _ ____ _ ____ _ ____ _ ____ _ ____ _ ____
 72
65
 73
4
 40
0.6
 49
0.375
 74
0
 49
-0.075
 74
0
 49
0.075
 74
0
 49
-0.075
 74
0
  0
LTYPE
  5
1F6
100
AcDbSymbolTableRecord
100
AcDbLinetypeTableRecord
  2
HIDDEN
 70
64
  3
- - - - - - - - - - - - - - - - - - - -
 72
65
 73
2
 40
0.2
 49
0.1
 74
0
 49
-0.1
 74
0
  0
LTYPE
  5
1F7
100
AcDbSymbolTableRecord
100
AcDbLinetypeTableRecord
  2
PHANTOM
 70
64
  3
_____ _ _ _____ _ _ _____ _ _ _____
 72
65
 73
6
 40
0.8
 49
0.45
 74
0
 49
-0.05
 74
0
 49
0.1
 74
0
 49
-0.05
 74
0
 49
0.1
 74
0
 49
-0.05
 74
0
  0
LTYPE
  5
1F8
100
AcDbSymbolTableRecord
100
AcDbLinetypeTableRecord
  2
DOT
 70
64
  3
. . . . . . . . . . . . . . . . . . . .
 72
65
 73
2
 40
0.2
 49
0.1
 74
0
 49
-0.1
 74
0
  0
LTYPE
  5
1F9
100
AcDbSymbolTableRecord
100
AcDbLinetypeTableRecord
  2
DASHED
 70
64
  3
- - - - - - - - - - - - - - - - - - - -
 72
65
 73
2
 40
0.2
 49
0.1
 74
0
 49
-0.1
 74
0
  0
ENDTAB
  0
TABLE
  2
LAYER
  5
2
100
AcDbSymbolTable
 70
36
  0
LAYER
  5
10
100
AcDbSymbolTableRecord
100
AcDbLayerTableRecord
  2
0
 70
0
 62
7
  6
CONTINUOUS
370
-3
390
F
  0
LAYER
  5
1FA
100
AcDbSymbolTableRecord
100
AcDbLayerTableRecord
  2
DEFAULT_1
 70
0
 62
7
  6
CENTER
370
-3
390
F
  0
LAYER
  5
1FB
100
AcDbSymbolTableRecord
100
AcDbLayerTableRecord
  2
DEFAULT_2
 70
0
 62
8
  6
HIDDEN
370
-3
390
F
  0
LAYER
  5
1FC
100
AcDbSymbolTableRecord
100
AcDbLayerTableRecord
  2
DEFAULT_3
 70
0
 62
7
  6
PHANTOM
370
-3
390
F
  0
LAYER
  5
1FD
100
AcDbSymbolTableRecord
100
AcDbLayerTableRecord
  2
ALL_FEATURES
 70
0
 62
7
  6
CONTINUOUS
370
-3
390
F
  0
LAYER
  5
1FE
100
AcDbSymbolTableRecord
100
AcDbLayerTableRecord
  2
AXES_FEATURES
 70
0
 62
7
  6
CONTINUOUS
370
-3
390
F
  0
LAYER
  5
1FF
100
AcDbSymbolTableRecord
100
AcDbLayerTableRecord
  2
DIMENSIONS
 70
0
 62
7
  6
CONTINUOUS
370
-3
390
F
  0
ENDTAB
  0
TABLE
  2
STYLE
  5
3
100
AcDbSymbolTable
 70
1
  0
STYLE
  5
11
100
AcDbSymbolTableRecord
100
AcDbTextStyleTableRecord
  2
STANDARD
 70
0
 40
0.0
 41
0.8
 50
0.0
 71
0
 42
0.2
  3
txt
  4

  0
STYLE
  5
200
100
AcDbSymbolTableRecord
100
AcDbTextStyleTableRecord
  2
TEXTSTYLE_1
 70
0
 40
0.0
 41
0.8
 50
0.0
 71
0
 42
0.2
  3
gdt
  4

  0
ENDTAB
  0
TABLE
  2
VIEW
  5
6
100
AcDbSymbolTable
 70
0
  0
ENDTAB
  0
TABLE
  2
UCS
  5
7
100
AcDbSymbolTable
 70
0
  0
ENDTAB
  0
TABLE
  2
APPID
  5
9
100
AcDbSymbolTable
 70
1
  0
APPID
  5
201
100
AcDbSymbolTableRecord
100
AcDbRegAppTableRecord
  2
ACAD
 70
0
  0
ENDTAB
  0
TABLE
  2
BLOCK_RECORD
  5
1
100
AcDbSymbolTable
 70
0
  0
BLOCK_RECORD
  5
202
100
AcDbSymbolTableRecord
100
AcDbBlockTableRecord
  2
*Model_Space
  0
BLOCK_RECORD
  5
203
100
AcDbSymbolTableRecord
100
AcDbBlockTableRecord
  2
*Paper_Space
  0
BLOCK_RECORD
  5
204
100
AcDbSymbolTableRecord
100
AcDbBlockTableRecord
  2
_FILLED
  0
ENDTAB
  0
TABLE
  2
DIMSTYLE
  5
A
100
AcDbSymbolTable
 70
1
100
AcDbDimStyleTable
 71
0
  0
DIMSTYLE
105
205
100
AcDbSymbolTableRecord
100
AcDbDimStyleTableRecord
  2
STANDARD
 70
0
  3

  4

 40
1.0
 41
0.1
 42
0.0625
 43
0.38
 44
0.125
 45
0.0
 46
0.0
 47
0.001
 48
0.001
140
0.08
141
0.09
142
0.0
143
25.4
144
1.0
145
0.0
146
1.0
147
0.09
 71
1.0
 72
0.0
 73
1
 74
1
 75
0
 76
0
 77
0
 78
4
 79
1
170
1
171
2
172
0
173
0
174
0
175
0
176
0
177
0
178
0
270
2
179
3
271
3
272
3
273
2
274
2
275
0
280
0
281
0
282
0
283
1
284
4
285
0
286
0
287
3
288
0
340
11
278
46
341
204
342
204
343
204
344
204
  0
ENDTAB
  0
ENDSEC
  0
SECTION
  2
BLOCKS
  0
BLOCK
  5
20
100
AcDbEntity
  8
0
100
AcDbBlockBegin
  2
*Model_Space
 70
0
 10
0.0
 20
0.0
 30
0.0
  3
*Model_Space
  1

  0
ENDBLK
  5
21
100
AcDbEntity
  8
0
100
AcDbBlockEnd
  0
BLOCK
  5
1C
100
AcDbEntity
  8
0
100
AcDbBlockBegin
  2
*Paper_Space
 70
0
 10
0.0
 20
0.0
 30
0.0
  3
*Paper_Space
  1

  0
ENDBLK
  5
1D
100
AcDbEntity
  8
0
100
AcDbBlockEnd
  0
BLOCK
  5
206
100
AcDbEntity
  8
0
100
AcDbBlockBegin
  2
_FILLED
 70
64
 10
0.0
 20
0.0
  3
_FILLED
  1

  0
SOLID
  5
207
100
AcDbEntity
  8
0
  6
BYBLOCK
 62
0
100
AcDbTrace
 10
0.0
 20
0.0
 11
-1.0
 21
0.2
 12
-1.0
 22
-0.2
 13
-1.0
 23
-0.2
  0
ENDBLK
  5
208
100
AcDbEntity
  8
0
  6
BYBLOCK
 62
0
100
AcDbBlockEnd
  0
ENDSEC
  0
SECTION
  2
ENTITIES
  0
LINE
  5
209
100
AcDbEntity
  8
0
100
AcDbLine
 62
7
  6
CONTINUOUS
 10
3.9486923427
 20
9.3966695021
 11
3.9486923427
 21
8.8116695021
  0
LINE
  5
20A
100
AcDbEntity
  8
0
100
AcDbLine
 62
7
  6
CONTINUOUS
 10
3.9686923427
 20
9.4166695021
 11
3.9686923427
 21
8.7916695021
  0
LINE
  5
20B
100
AcDbEntity
  8
0
100
AcDbLine
 62
7
  6
CONTINUOUS
 10
5.7501923427
 20
6.9661695021
 11
5.7501923427
 21
6.5911695021
  0
LINE
  5
20C
100
AcDbEntity
  8
0
100
AcDbLine
 62
7
  6
CONTINUOUS
 10
3.9486923427
 20
9.3966695021
 11
3.9686923427
 21
9.4166695021
  0
LINE
  5
20D
100
AcDbEntity
  8
0
100
AcDbLine
 62
7
  6
CONTINUOUS
 10
3.9486923427
 20
8.8116695021
 11
3.9686923427
 21
8.7916695021
  0
LINE
  5
20E
100
AcDbEntity
  8
0
100
AcDbLine
 62
7
  6
CONTINUOUS
 10
6.2814423427
 20
8.0741695021
 11
6.2814423427
 21
6.9661695021
  0
LINE
  5
20F
100
AcDbEntity
  8
0
100
AcDbLine
 62
7
  6
CONTINUOUS
 10
6.6251923427
 20
8.0941695021
 11
6.6251923427
 21
8.7016695254
  0
LINE
  5
210
100
AcDbEntity
  8
0
100
AcDbLine
 62
7
  6
CONTINUOUS
 10
6.7376923427
 20
8.0741695021
 11
6.7376923427
 21
8.0941695021
  0
LINE
  5
211
100
AcDbEntity
  8
0
100
AcDbLine
 62
7
  6
CONTINUOUS
 10
7.1376923427
 20
8.0741695021
 11
7.1376923427
 21
8.0941695021
  0
LINE
  5
212
100
AcDbEntity
  8
0
100
AcDbLine
 62
7
  6
CONTINUOUS
 10
7.2501923427
 20
8.0941695021
 11
7.2501923427
 21
8.7016695282
  0
LINE
  5
213
100
AcDbEntity
  8
0
100
AcDbLine
 62
7
  6
CONTINUOUS
 10
7.5939423427
 20
8.0741695021
 11
7.5939423427
 21
6.9661695021
  0
LINE
  5
214
100
AcDbEntity
  8
0
100
AcDbLine
 62
7
  6
CONTINUOUS
 10
7.8036923427
 20
8.7916695021
 11
7.8036923427
 21
9.4166695021
  0
LINE
  5
215
100
AcDbEntity
  8
0
100
AcDbLine
 62
7
  6
CONTINUOUS
 10
7.8236923427
 20
8.8116695021
 11
7.8236923427
 21
9.3966695021
  0
LINE
  5
216
100
AcDbEntity
  8
0
100
AcDbLine
 62
7
  6
CONTINUOUS
 10
8.1251923427
 20
6.9661695021
 11
8.1251923427
 21
6.5911695021
  0
LINE
  5
217
100
AcDbEntity
  8
0
100
AcDbLine
 62
7
  6
CONTINUOUS
 10
5.7501923427
 20
6.5911695021
 11
8.1251923427
 21
6.5911695021
  0
LINE
  5
218
100
AcDbEntity
  8
0
100
AcDbLine
 62
7
  6
CONTINUOUS
 10
9.9251923427
 20
6.5911695021
 11
11.9501923427
 21
6.5911695021
  0
LINE
  5
219
100
AcDbEntity
  8
0
100
AcDbLine
 62
7
  6
CONTINUOUS
 10
13.7502079371
 20
6.5911695021
 11
16.1251767484
 21
6.5911695021
  0
LINE
  5
21A
100
AcDbEntity
  8
0
100
AcDbLine
 62
9
  6
CONTINUOUS
 10
11.9501923427
 20
6.8401369698
 11
11.6344325794
 21
6.8401369698
  0
LINE
  5
21B
100
AcDbEntity
  8
0
100
AcDbLine
 62
9
  6
CONTINUOUS
 10
10.240952106
 20
6.8401369698
 11
9.9251923427
 21
6.8401369698
  0
LINE
  5
21C
100
AcDbEntity
  8
0
100
AcDbLine
 62
7
  6
CONTINUOUS
 10
11.9126923427
 20
6.9111695021
 11
11.5924278532
 21
6.9111695021
  0
LINE
  5
21D
100
AcDbEntity
  8
0
100
AcDbLine
 62
7
  6
CONTINUOUS
 10
10.2829568323
 20
6.9111695021
 11
9.9626923427
 21
6.9111695021
  0
LINE
  5
21E
100
AcDbEntity
  8
0
100
AcDbLine
 62
7
  6
CONTINUOUS
 10
16.1251767484
 20
6.9661695021
 11
13.7502079371
 21
6.9661695021
  0
LINE
  5
21F
100
AcDbEntity
  8
0
100
AcDbLine
 62
7
  6
CONTINUOUS
 10
8.1251923427
 20
6.9661695021
 11
5.7501923427
 21
6.9661695021
  0
LINE
  5
220
100
AcDbEntity
  8
0
100
AcDbLine
 62
7
  6
CONTINUOUS
 10
11.4326923427
 20
7.0911695021
 11
10.4426923427
 21
7.0911695021
  0
LINE
  5
221
100
AcDbEntity
  8
0
100
AcDbLine
 62
9
  6
CONTINUOUS
 10
11.4001923427
 20
7.1711695021
 11
10.4751923427
 21
7.1711695021
  0
LINE
  5
222
100
AcDbEntity
  8
0
100
AcDbLine
 62
9
  6
CONTINUOUS
 10
10.5104088365
 20
7.3352720662
 11
11.3649804298
 21
7.3352720662
  0
LINE
  5
223
100
AcDbEntity
  8
0
100
AcDbLine
 62
7
  6
CONTINUOUS
 10
7.8236923427
 20
9.3966695021
 11
7.8036923427
 21
9.4166695021
  0
LINE
  5
224
100
AcDbEntity
  8
0
100
AcDbLine
 62
7
  6
CONTINUOUS
 10
7.8236923427
 20
8.8116695021
 11
7.8036923427
 21
8.7916695021
  0
LINE
  5
225
100
AcDbEntity
  8
0
100
AcDbLine
 62
7
  6
CONTINUOUS
 10
11.3558607276
 20
7.3411695021
 11
10.5195284409
 21
7.3411695021
  0
LINE
  5
226
100
AcDbEntity
  8
0
100
AcDbLine
 62
9
  6
CONTINUOUS
 10
10.2295001452
 20
7.7519146422
 11
11.6458845403
 21
7.7519146422
  0
LINE
  5
227
100
AcDbEntity
  8
0
100
AcDbLine
 62
7
  6
CONTINUOUS
 10
9.8723147386
 20
11.0591695021
 11
9.8723147386
 21
11.6691695021
  0
LINE
  5
228
100
AcDbEntity
  8
0
100
AcDbLine
 62
7
  6
CONTINUOUS
 10
9.9251923427
 20
6.8401369698
 11
9.9251923427
 21
6.5911695021
  0
LINE
  5
229
100
AcDbEntity
  8
0
100
AcDbLine
 62
9
  6
CONTINUOUS
 10
10.2808217393
 20
7.894510275
 11
11.5945629461
 21
7.894510275
  0
LINE
  5
22A
100
AcDbEntity
  8
0
100
AcDbLine
 62
7
  6
CONTINUOUS
 10
15.5939414597
 20
8.0741695021
 11
14.2814432257
 21
8.0741695021
  0
LINE
  5
22B
100
AcDbEntity
  8
0
100
AcDbLine
 62
7
  6
CONTINUOUS
 10
7.5939423427
 20
8.0741695021
 11
6.2814423427
 21
8.0741695021
  0
LINE
  5
22C
100
AcDbEntity
  8
0
100
AcDbLine
 62
7
  6
CONTINUOUS
 10
6.6251923427
 20
8.0941695021
 11
7.2501923427
 21
8.0941695021
  0
LINE
  5
22D
100
AcDbEntity
  8
0
100
AcDbLine
 62
7
  6
CONTINUOUS
 10
14.6251923427
 20
8.0941695021
 11
15.2501923427
 21
8.0941695021
  0
LINE
  5
22E
100
AcDbEntity
  8
0
100
AcDbLine
 62
7
  6
CONTINUOUS
 10
10.2991642053
 20
11.0432445381
 11
10.2983232992
 21
11.0591695021
  0
LINE
  5
22F
100
AcDbEntity
  8
0
100
AcDbLine
 62
7
  6
CONTINUOUS
 10
10.0703899294
 20
11.0591695021
 11
10.0703899294
 21
11.6691695021
  0
LINE
  5
230
100
AcDbEntity
  8
0
100
AcDbLine
 62
7
  6
CONTINUOUS
 10
10.1776923427
 20
10.693430271
 11
10.1776923427
 21
10.1340026499
  0
LINE
  5
231
100
AcDbEntity
  8
0
100
AcDbLine
 62
7
  6
CONTINUOUS
 10
10.2983232992
 20
11.0591695021
 11
10.2983232992
 21
11.6691695021
  0
LINE
  5
232
100
AcDbEntity
  8
0
100
AcDbLine
 62
7
  6
CONTINUOUS
 10
10.4751923427
 20
7.0911695021
 11
10.4751923427
 21
7.1711695021
  0
LINE
  5
233
100
AcDbEntity
  8
0
100
AcDbLine
 62
7
  6
CONTINUOUS
 10
10.3621034099
 20
10.0591695021
 11
10.2808217393
 21
7.894510275
  0
LINE
  5
234
100
AcDbEntity
  8
0
100
AcDbLine
 62
7
  6
CONTINUOUS
 10
11.9276923427
 20
10.969602573
 11
11.7261611215
 21
10.7633107717
  0
LINE
  5
235
100
AcDbEntity
  8
0
100
AcDbLine
 62
7
  6
CONTINUOUS
 10
17.9066923427
 20
8.7916695021
 11
15.3401923427
 21
8.7916695021
  0
LINE
  5
236
100
AcDbEntity
  8
0
100
AcDbLine
 62
7
  6
CONTINUOUS
 10
14.5351923427
 20
8.7916695021
 11
14.0716923427
 21
8.7916695021
  0
LINE
  5
237
100
AcDbEntity
  8
0
100
AcDbLine
 62
7
  6
CONTINUOUS
 10
7.8036923427
 20
8.7916695021
 11
7.3401923427
 21
8.7916695021
  0
LINE
  5
238
100
AcDbEntity
  8
0
100
AcDbLine
 62
7
  6
CONTINUOUS
 10
6.5351923427
 20
8.7916695021
 11
3.9686923427
 21
8.7916695021
  0
LINE
  5
239
100
AcDbEntity
  8
0
100
AcDbLine
 62
7
  6
CONTINUOUS
 10
10.7765191113
 20
11.0591695021
 11
10.7765191113
 21
11.6691695021
  0
LINE
  5
23A
100
AcDbEntity
  8
0
100
AcDbLine
 62
7
  6
CONTINUOUS
 10
11.0988655742
 20
11.0591695021
 11
11.0988655742
 21
11.6691695021
  0
LINE
  5
23B
100
AcDbEntity
  8
0
100
AcDbLine
 62
7
  6
CONTINUOUS
 10
11.4001923427
 20
7.0911695021
 11
11.4001923427
 21
7.1711695021
  0
LINE
  5
23C
100
AcDbEntity
  8
0
100
AcDbLine
 62
7
  6
CONTINUOUS
 10
11.5770613863
 20
11.0591695021
 11
11.5762204802
 21
11.0432443145
  0
LINE
  5
23D
100
AcDbEntity
  8
0
100
AcDbLine
 62
7
  6
CONTINUOUS
 10
17.9066923427
 20
9.4166695021
 11
14.0716923427
 21
9.4166695021
  0
LINE
  5
23E
100
AcDbEntity
  8
0
100
AcDbLine
 62
7
  6
CONTINUOUS
 10
7.8036923427
 20
9.4166695021
 11
3.9686923427
 21
9.4166695021
  0
LINE
  5
23F
100
AcDbEntity
  8
0
100
AcDbLine
 62
7
  6
CONTINUOUS
 10
9.9476923427
 20
10.969602573
 11
10.149223564
 21
10.7633107717
  0
LINE
  5
240
100
AcDbEntity
  8
0
100
AcDbLine
 62
7
  6
CONTINUOUS
 10
11.5132812755
 20
10.0591695021
 11
11.5945629461
 21
7.894510275
  0
LINE
  5
241
100
AcDbEntity
  8
0
100
AcDbLine
 62
7
  6
CONTINUOUS
 10
11.5770613863
 20
11.0591695021
 11
11.5770613863
 21
11.6691695021
  0
LINE
  5
242
100
AcDbEntity
  8
0
100
AcDbLine
 62
7
  6
CONTINUOUS
 10
11.6976923427
 20
10.693430271
 11
11.6976923427
 21
10.1340026499
  0
LINE
  5
243
100
AcDbEntity
  8
0
100
AcDbLine
 62
7
  6
CONTINUOUS
 10
11.8049947561
 20
11.0591695021
 11
11.8049947561
 21
11.6691695021
  0
LINE
  5
244
100
AcDbEntity
  8
0
100
AcDbLine
 62
7
  6
CONTINUOUS
 10
11.9501923427
 20
6.8401369698
 11
11.9501923427
 21
6.5911695021
  0
LINE
  5
245
100
AcDbEntity
  8
0
100
AcDbLine
 62
7
  6
CONTINUOUS
 10
10.1976923427
 20
10.0591695021
 11
11.6776923427
 21
10.0591695021
  0
LINE
  5
246
100
AcDbEntity
  8
0
100
AcDbLine
 62
9
  6
CONTINUOUS
 10
10.1776923427
 20
10.1340026499
 11
11.6976923427
 21
10.1340026499
  0
LINE
  5
247
100
AcDbEntity
  8
0
100
AcDbLine
 62
7
  6
CONTINUOUS
 10
12.0030699469
 20
11.0591695021
 11
12.0030699469
 21
11.6691695021
  0
LINE
  5
248
100
AcDbEntity
  8
0
100
AcDbLine
 62
9
  6
CONTINUOUS
 10
11.6976923427
 20
10.693430271
 11
10.1777068276
 21
10.693430271
  0
LINE
  5
249
100
AcDbEntity
  8
0
100
AcDbLine
 62
9
  6
CONTINUOUS
 10
10.149223564
 20
10.7633107717
 11
11.7261611215
 21
10.7633107717
  0
LINE
  5
24A
100
AcDbEntity
  8
0
100
AcDbLine
 62
7
  6
CONTINUOUS
 10
9.8723147386
 20
11.0591695021
 11
10.0703899294
 21
11.0591695021
  0
LINE
  5
24B
100
AcDbEntity
  8
0
100
AcDbLine
 62
7
  6
CONTINUOUS
 10
10.2983232992
 20
11.0591695021
 11
10.7765191113
 21
11.0591695021
  0
LINE
  5
24C
100
AcDbEntity
  8
0
100
AcDbLine
 62
7
  6
CONTINUOUS
 10
11.0988655742
 20
11.0591695021
 11
11.5770613863
 21
11.0591695021
  0
LINE
  5
24D
100
AcDbEntity
  8
0
100
AcDbLine
 62
7
  6
CONTINUOUS
 10
11.8049947561
 20
11.0591695021
 11
12.0030699469
 21
11.0591695021
  0
LINE
  5
24E
100
AcDbEntity
  8
0
100
AcDbLine
 62
7
  6
CONTINUOUS
 10
14.0516923427
 20
8.8116695021
 11
14.0716923427
 21
8.7916695021
  0
LINE
  5
24F
100
AcDbEntity
  8
0
100
AcDbLine
 62
7
  6
CONTINUOUS
 10
14.0516923427
 20
9.3966695021
 11
14.0716923427
 21
9.4166695021
  0
LINE
  5
250
100
AcDbEntity
  8
0
100
AcDbLine
 62
9
  6
CONTINUOUS
 10
12.0030699469
 20
11.6691695021
 11
11.8049947561
 21
11.6691695021
  0
LINE
  5
251
100
AcDbEntity
  8
0
100
AcDbLine
 62
9
  6
CONTINUOUS
 10
11.5770613863
 20
11.6691695021
 11
11.0988655742
 21
11.6691695021
  0
LINE
  5
252
100
AcDbEntity
  8
0
100
AcDbLine
 62
9
  6
CONTINUOUS
 10
10.7765191113
 20
11.6691695021
 11
10.2983232992
 21
11.6691695021
  0
LINE
  5
253
100
AcDbEntity
  8
0
100
AcDbLine
 62
9
  6
CONTINUOUS
 10
10.0703899294
 20
11.6691695021
 11
9.8723147386
 21
11.6691695021
  0
LINE
  5
254
100
AcDbEntity
  8
0
100
AcDbLine
 62
7
  6
CONTINUOUS
 10
11.8651923427
 20
11.8191695021
 11
10.0101923427
 21
11.8191695021
  0
LINE
  5
255
100
AcDbEntity
  8
0
100
AcDbLine
 62
7
  6
CONTINUOUS
 10
13.7501923427
 20
6.9661695021
 11
13.7501923427
 21
6.5911695021
  0
LINE
  5
256
100
AcDbEntity
  8
0
100
AcDbLine
 62
9
  6
CONTINUOUS
 10
10.0285559097
 20
11.8791695021
 11
11.8468287758
 21
11.8791695021
  0
LINE
  5
257
100
AcDbEntity
  8
0
100
AcDbLine
 62
7
  6
CONTINUOUS
 10
14.0516923427
 20
9.3966695021
 11
14.0516923427
 21
8.8116695021
  0
LINE
  5
258
100
AcDbEntity
  8
0
100
AcDbLine
 62
7
  6
CONTINUOUS
 10
14.0716923427
 20
9.4166695021
 11
14.0716923427
 21
8.7916695021
  0
LINE
  5
259
100
AcDbEntity
  8
0
100
AcDbLine
 62
7
  6
CONTINUOUS
 10
14.2814423427
 20
8.0741695021
 11
14.2814423427
 21
6.9661695021
  0
LINE
  5
25A
100
AcDbEntity
  8
0
100
AcDbLine
 62
7
  6
CONTINUOUS
 10
14.6251923427
 20
8.0941695021
 11
14.6251923427
 21
8.7016695254
  0
LINE
  5
25B
100
AcDbEntity
  8
0
100
AcDbLine
 62
7
  6
CONTINUOUS
 10
14.7376923427
 20
8.0741695021
 11
14.7376923427
 21
8.0941695021
  0
LINE
  5
25C
100
AcDbEntity
  8
0
100
AcDbLine
 62
7
  6
CONTINUOUS
 10
15.1376923427
 20
8.0741695021
 11
15.1376923427
 21
8.0941695021
  0
LINE
  5
25D
100
AcDbEntity
  8
0
100
AcDbLine
 62
7
  6
CONTINUOUS
 10
15.2501923427
 20
8.0941695021
 11
15.2501923427
 21
8.7016695282
  0
LINE
  5
25E
100
AcDbEntity
  8
0
100
AcDbLine
 62
7
  6
CONTINUOUS
 10
15.5939423427
 20
8.0741695021
 11
15.5939423427
 21
6.9661695021
  0
LINE
  5
25F
100
AcDbEntity
  8
0
100
AcDbLine
 62
7
  6
CONTINUOUS
 10
17.9266923427
 20
9.3966695021
 11
17.9066923427
 21
9.4166695021
  0
LINE
  5
260
100
AcDbEntity
  8
0
100
AcDbLine
 62
7
  6
CONTINUOUS
 10
16.1251923427
 20
6.9661695021
 11
16.1251923427
 21
6.5911695021
  0
LINE
  5
261
100
AcDbEntity
  8
0
100
AcDbLine
 62
7
  6
CONTINUOUS
 10
17.9266923427
 20
8.8116695021
 11
17.9066923427
 21
8.7916695021
  0
LINE
  5
262
100
AcDbEntity
  8
0
100
AcDbLine
 62
7
  6
CONTINUOUS
 10
17.9066923427
 20
8.7916695021
 11
17.9066923427
 21
9.4166695021
  0
LINE
  5
263
100
AcDbEntity
  8
0
100
AcDbLine
 62
7
  6
CONTINUOUS
 10
17.9266923427
 20
8.8116695021
 11
17.9266923427
 21
9.3966695021
  0
ARC
  5
264
100
AcDbEntity
  8
0
100
AcDbCircle
 62
7
  6
CONTINUOUS
 10
10.6136723347
 20
6.9616374993
 40
1.3
100
AcDbArc
 50
357.7751307225
 51
37.4382101819
  0
ARC
  5
265
100
AcDbEntity
  8
0
100
AcDbCircle
 62
7
  6
CONTINUOUS
 10
10.8464719365
 20
6.4082744624
 40
0.9
100
AcDbArc
 50
11.7251268757
 51
49.3560828237
  0
ARC
  5
266
100
AcDbEntity
  8
0
100
AcDbCircle
 62
7
  6
CONTINUOUS
 10
10.8751923427
 20
7.1711695021
 40
0.4
100
AcDbArc
 50
155.7790568907
 51
180.0
  0
ARC
  5
267
100
AcDbEntity
  8
0
100
AcDbCircle
 62
7
  6
CONTINUOUS
 10
10.0309977979
 20
7.9038910159
 40
0.25
100
AcDbArc
 50
322.5617898181
 51
357.849587733
  0
ARC
  5
268
100
AcDbEntity
  8
0
100
AcDbCircle
 62
7
  6
CONTINUOUS
 10
10.0112172848
 20
6.8401369698
 40
0.0860249421
100
AcDbArc
 50
124.338423378
 51
180.0
  0
ARC
  5
269
100
AcDbEntity
  8
0
100
AcDbCircle
 62
7
  6
CONTINUOUS
 10
10.5195239579
 20
7.3311695021
 40
0.01
100
AcDbArc
 50
90.0
 51
155.7790568908
  0
ARC
  5
26A
100
AcDbEntity
  8
0
100
AcDbCircle
 62
7
  6
CONTINUOUS
 10
7.7763594631
 20
9.2187570005
 40
2.7892914321
100
AcDbArc
 50
38.8808295209
 51
41.2856606157
  0
ARC
  5
26B
100
AcDbEntity
  8
0
100
AcDbCircle
 62
7
  6
CONTINUOUS
 10
10.0101923427
 20
11.6691695021
 40
0.15
100
AcDbArc
 50
90.0
 51
114.6243183522
  0
ARC
  5
26C
100
AcDbEntity
  8
0
100
AcDbCircle
 62
7
  6
CONTINUOUS
 10
10.3276923427
 20
10.1340026499
 40
0.15
100
AcDbArc
 50
180.0
 51
209.9264348665
  0
ARC
  5
26D
100
AcDbEntity
  8
0
100
AcDbCircle
 62
7
  6
CONTINUOUS
 10
10.0776923427
 20
10.693430271
 40
0.1
100
AcDbArc
 50
0.0
 51
44.3312080467
  0
ARC
  5
26E
100
AcDbEntity
  8
0
100
AcDbCircle
 62
7
  6
CONTINUOUS
 10
7.3402337132
 20
8.7016281317
 40
0.0900428184
100
AcDbArc
 50
90.0263362352
 51
179.9736585503
  0
ARC
  5
26F
100
AcDbEntity
  8
0
100
AcDbCircle
 62
7
  6
CONTINUOUS
 10
6.5351509723
 20
8.7016281317
 40
0.0900428184
100
AcDbArc
 50
0.0263396321
 51
89.9736658789
  0
ARC
  5
270
100
AcDbEntity
  8
0
100
AcDbCircle
 62
7
  6
CONTINUOUS
 10
10.0328456949
 20
11.8493228543
 40
0.0301533521
100
AcDbArc
 50
98.1789688981
 51
270.0
  0
ARC
  5
271
100
AcDbEntity
  8
0
100
AcDbCircle
 62
7
  6
CONTINUOUS
 10
10.9376923427
 20
5.553753703
 40
6.3904157991
100
AcDbArc
 50
81.821031102
 51
98.178968898
  0
ARC
  5
272
100
AcDbEntity
  8
0
100
AcDbCircle
 62
7
  6
CONTINUOUS
 10
11.2617123508
 20
6.9616374993
 40
1.3
100
AcDbArc
 50
142.5617898182
 51
182.2248692774
  0
ARC
  5
273
100
AcDbEntity
  8
0
100
AcDbCircle
 62
7
  6
CONTINUOUS
 10
11.028912749
 20
6.4082744624
 40
0.9
100
AcDbArc
 50
130.6439171763
 51
168.2748731243
  0
ARC
  5
274
100
AcDbEntity
  8
0
100
AcDbCircle
 62
7
  6
CONTINUOUS
 10
11.0001923427
 20
7.1711695021
 40
0.4
100
AcDbArc
 50
0.0
 51
24.2209431093
  0
ARC
  5
275
100
AcDbEntity
  8
0
100
AcDbCircle
 62
7
  6
CONTINUOUS
 10
11.8443868875
 20
7.9038910159
 40
0.25
100
AcDbArc
 50
182.150412267
 51
217.4382101819
  0
ARC
  5
276
100
AcDbEntity
  8
0
100
AcDbCircle
 62
7
  6
CONTINUOUS
 10
11.8641674007
 20
6.8401369698
 40
0.0860249421
100
AcDbArc
 50
0.0
 51
55.661576622
  0
ARC
  5
277
100
AcDbEntity
  8
0
100
AcDbCircle
 62
7
  6
CONTINUOUS
 10
11.3558607276
 20
7.3311695021
 40
0.01
100
AcDbArc
 50
24.2209431092
 51
90.0
  0
ARC
  5
278
100
AcDbEntity
  8
0
100
AcDbCircle
 62
7
  6
CONTINUOUS
 10
14.0990265924
 20
9.2187558476
 40
2.7892932223
100
AcDbArc
 50
138.7143401561
 51
141.1191697073
  0
ARC
  5
279
100
AcDbEntity
  8
0
100
AcDbCircle
 62
7
  6
CONTINUOUS
 10
11.8651923427
 20
11.6691695021
 40
0.15
100
AcDbArc
 50
65.3756816478
 51
90.0
  0
ARC
  5
27A
100
AcDbEntity
  8
0
100
AcDbCircle
 62
7
  6
CONTINUOUS
 10
11.5476923427
 20
10.1340026499
 40
0.15
100
AcDbArc
 50
330.0735651335
 51
360.0
  0
ARC
  5
27B
100
AcDbEntity
  8
0
100
AcDbCircle
 62
7
  6
CONTINUOUS
 10
11.7976923427
 20
10.693430271
 40
0.1
100
AcDbArc
 50
135.6687919533
 51
180.0
  0
ARC
  5
27C
100
AcDbEntity
  8
0
100
AcDbCircle
 62
7
  6
CONTINUOUS
 10
15.3402337132
 20
8.7016281317
 40
0.0900428184
100
AcDbArc
 50
90.0263362413
 51
179.9736585456
  0
ARC
  5
27D
100
AcDbEntity
  8
0
100
AcDbCircle
 62
7
  6
CONTINUOUS
 10
14.5351509723
 20
8.7016281317
 40
0.0900428184
100
AcDbArc
 50
0.0263396308
 51
89.9736658786
  0
ARC
  5
27E
100
AcDbEntity
  8
0
100
AcDbCircle
 62
7
  6
CONTINUOUS
 10
11.8425389906
 20
11.8493228543
 40
0.0301533521
100
AcDbArc
 50
270.0
 51
81.8210311019
  0
SPLINE
  5
27F
100
AcDbEntity
  8
0
100
AcDbSpline
 62
7
  6
CONTINUOUS
 70
0
 71
3
 72
11
 73
7
 74
0
 42
0.0000001
 43
0.0000001
 44
0.0000000001
 40
0.0
 40
0.0
 40
0.0
 40
0.0
 40
0.2326649289
 40
0.480301574
 40
0.7379674473
 40
1.0
 40
1.0
 40
1.0
 40
1.0
 10
11.576220501
 20
11.7356954053
 30
0.0
 10
11.5762195279
 20
11.730535514
 30
0.0
 10
11.5763591067
 20
11.7198839421
 30
0.0
 10
11.5767084064
 20
11.7035216788
 30
0.0
 10
11.576981936
 20
11.686506251
 30
0.0
 10
11.5770613863
 20
11.6749806896
 30
0.0
 10
11.5770613863
 20
11.6691695021
 30
0.0
  0
SPLINE
  5
280
100
AcDbEntity
  8
0
100
AcDbSpline
 62
7
  6
CONTINUOUS
 70
0
 71
3
 72
11
 73
7
 74
0
 42
0.0000001
 43
0.0000001
 44
0.0000000001
 40
0.0
 40
0.0
 40
0.0
 40
0.0
 40
0.2620142826
 40
0.5196800622
 40
0.7673310429
 40
1.0
 40
1.0
 40
1.0
 40
1.0
 10
10.2983232992
 20
11.6691695021
 30
0.0
 10
10.2983232992
 20
11.674980293
 30
0.0
 10
10.2984029648
 20
11.6865054621
 30
0.0
 10
10.2986762064
 20
11.703520831
 30
0.0
 10
10.2990257487
 20
11.7198835156
 30
0.0
 10
10.299165688
 20
11.7305355131
 30
0.0
 10
10.2991643643
 20
11.7356955013
 30
0.0
  0
SPLINE
  5
281
100
AcDbEntity
  8
0
100
AcDbSpline
 62
7
  6
CONTINUOUS
 70
0
 71
3
 72
17
 73
13
 74
0
 42
0.0000001
 43
0.0000001
 44
0.0000000001
 40
0.0
 40
0.0
 40
0.0
 40
0.0
 40
0.0984980257
 40
0.1964939791
 40
0.2930442436
 40
0.3872890399
 40
0.478268414
 40
0.5647738692
 40
0.6455454751
 40
0.7194133388
 40
0.93040296
 40
1.0
 40
1.0
 40
1.0
 40
1.0
 10
9.8723147386
 20
11.6691695021
 30
0.0
 10
9.8723147386
 20
11.6745211923
 30
0.0
 10
9.8728347578
 20
11.6852039488
 30
0.0
 10
9.8751151538
 20
11.7009851851
 30
0.0
 10
9.878846219
 20
11.7162506738
 30
0.0
 10
9.8838592396
 20
11.7307397869
 30
0.0
 10
9.8899708974
 20
11.7442019787
 30
0.0
 10
9.8968894044
 20
11.7564297929
 30
0.0
 10
9.9043239083
 20
11.7672406523
 30
0.0
 10
9.9168751127
 20
11.782647748
 30
0.0
 10
9.9314047834
 20
11.7956655083
 30
0.0
 10
9.9443881001
 20
11.803693173
 30
0.0
 10
9.9476923427
 20
11.8055284036
 30
0.0
  0
SPLINE
  5
282
100
AcDbEntity
  8
0
100
AcDbSpline
 62
7
  6
CONTINUOUS
 70
0
 71
3
 72
24
 73
20
 74
0
 42
0.0000001
 43
0.0000001
 44
0.0000000001
 40
0.0
 40
0.0
 40
0.0
 40
0.0
 40
0.0043116968
 40
0.0172913256
 40
0.0390154125
 40
0.0695657361
 40
0.109071062
 40
0.1576269261
 40
0.215001199
 40
0.2809866204
 40
0.3548414536
 40
0.4355608409
 40
0.4781813404
 40
0.522072953
 40
0.6129920139
 40
0.7071871304
 40
0.8036899931
 40
0.9016102092
 40
1.0
 40
1.0
 40
1.0
 40
1.0
 10
11.9276923427
 20
11.8055284036
 30
0.0
 10
11.9278985386
 20
11.8054169112
 30
0.0
 10
11.9287222305
 20
11.8049639858
 30
0.0
 10
11.9305564483
 20
11.8038985033
 30
0.0
 10
11.9335913154
 20
11.802061331
 30
0.0
 10
11.9377728371
 20
11.7993367276
 30
0.0
 10
11.9430067158
 20
11.7955661377
 30
0.0
 10
11.9491774528
 20
11.7906165
 30
0.0
 10
11.9560865715
 20
11.7843122142
 30
0.0
 10
11.9634798551
 20
11.7765347584
 30
0.0
 10
11.9710692609
 20
11.7672364732
 30
0.0
 10
11.977146691
 20
11.7583882595
 30
0.0
 10
11.9818019273
 20
11.7505765767
 30
0.0
 10
11.9863765974
 20
11.742081804
 30
0.0
 10
11.9915307378
 20
11.7307285332
 30
0.0
 10
11.9965402141
 20
11.7162390159
 30
0.0
 10
12.0002719225
 20
11.7009744166
 30
0.0
 10
12.0025492629
 20
11.6851967062
 30
0.0
 10
12.0030699469
 20
11.6745182262
 30
0.0
 10
12.0030699469
 20
11.6691695021
 30
0.0
  0
SPLINE
  5
283
100
AcDbEntity
  8
0
100
AcDbSpline
 62
7
  6
CONTINUOUS
 70
0
 71
3
 72
39
 73
35
 74
0
 42
0.0000001
 43
0.0000001
 44
0.0000000001
 40
0.0
 40
0.0
 40
0.0
 40
0.0
 40
0.0394031321
 40
0.0788887787
 40
0.1183766381
 40
0.1578376915
 40
0.1972855066
 40
0.2367420512
 40
0.2761786545
 40
0.2958725981
 40
0.3155302948
 40
0.3546816645
 40
0.393502856
 40
0.4317850314
 40
0.469373912
 40
0.5416369294
 40
0.5760031502
 40
0.6089520053
 40
0.6403365038
 40
0.6700426268
 40
0.6979527428
 40
0.7239866532
 40
0.7481097273
 40
0.7703445641
 40
0.7908527248
 40
0.8099759754
 40
0.8282870605
 40
0.8466435189
 40
0.8660357682
 40
0.887373005
 40
0.9112498442
 40
0.9380097887
 40
0.9676759245
 40
1.0
 40
1.0
 40
1.0
 40
1.0
 10
11.8049947561
 20
11.6691695021
 30
0.0
 10
11.8049947561
 20
11.6737948507
 30
0.0
 10
11.8044911229
 20
11.6830628078
 30
0.0
 10
11.802245738
 20
11.6968020886
 30
0.0
 10
11.7985102745
 20
11.7102231711
 30
0.0
 10
11.7933113352
 20
11.7231427967
 30
0.0
 10
11.7867107211
 20
11.7354029397
 30
0.0
 10
11.7787653795
 20
11.7468328065
 30
0.0
 10
11.7711408451
 20
11.755571387
 30
0.0
 10
11.7645153757
 20
11.7620297129
 30
0.0
 10
11.757576797
 20
11.7680998599
 30
0.0
 10
11.7483769597
 20
11.774968143
 30
0.0
 10
11.736704251
 20
11.7820729661
 30
0.0
 10
11.724615699
 20
11.7880370092
 30
0.0
 10
11.7084513357
 20
11.7944827498
 30
0.0
 10
11.6921181694
 20
11.7991303651
 30
0.0
 10
11.6760332052
 20
11.8022702947
 30
0.0
 10
11.6645623462
 20
11.8039327452
 30
0.0
 10
11.6535720128
 20
11.8050074613
 30
0.0
 10
11.6431340824
 20
11.8055335135
 30
0.0
 10
11.6333108092
 20
11.8055660863
 30
0.0
 10
11.6241534974
 20
11.8050890513
 30
0.0
 10
11.6157095019
 20
11.804067725
 30
0.0
 10
11.6080118086
 20
11.8024731731
 30
0.0
 10
11.6010919497
 20
11.8002050472
 30
0.0
 10
11.5949826575
 20
11.7971446869
 30
0.0
 10
11.5897319124
 20
11.7931589208
 30
0.0
 10
11.5853932094
 20
11.7881468853
 30
0.0
 10
11.5820006942
 20
11.7820473356
 30
0.0
 10
11.5795261454
 20
11.7748477084
 30
0.0
 10
11.5778223454
 20
11.7665561425
 30
0.0
 10
11.5767902898
 20
11.7571771461
 30
0.0
 10
11.5762941456
 20
11.7467671857
 30
0.0
 10
11.5762212166
 20
11.7394897765
 30
0.0
 10
11.576220501
 20
11.7356954053
 30
0.0
  0
SPLINE
  5
284
100
AcDbEntity
  8
0
100
AcDbSpline
 62
7
  6
CONTINUOUS
 70
0
 71
3
 72
30
 73
26
 74
0
 42
0.0000001
 43
0.0000001
 44
0.0000000001
 40
0.0
 40
0.0
 40
0.0
 40
0.0
 40
0.081357976
 40
0.162714594
 40
0.2435885802
 40
0.3233527442
 40
0.4011369522
 40
0.4757894445
 40
0.5115235822
 40
0.5459443943
 40
0.5788838895
 40
0.6102089719
 40
0.6398461395
 40
0.6678039288
 40
0.6941822621
 40
0.719169977
 40
0.7430283659
 40
0.7660584707
 40
0.7885664908
 40
0.8108376441
 40
0.8331137304
 40
0.8555858061
 40
0.9016040912
 40
0.94964977
 40
1.0
 40
1.0
 40
1.0
 40
1.0
 10
10.0703899294
 20
11.0591695021
 30
0.0
 10
10.0765385323
 20
11.0537682282
 30
0.0
 10
10.0890153323
 20
11.0431678733
 30
0.0
 10
10.1082706896
 20
11.0280036042
 30
0.0
 10
10.1280333278
 20
11.0137750949
 30
0.0
 10
10.148202023
 20
11.0007722385
 30
0.0
 10
10.1686076828
 20
10.989369691
 30
0.0
 10
10.1858401564
 20
10.9814651214
 30
0.0
 10
10.1995245051
 20
10.9764518965
 30
0.0
 10
10.2094653809
 20
10.9734722994
 30
0.0
 10
10.2191565903
 20
10.9712801532
 30
0.0
 10
10.2285167056
 20
10.9699288513
 30
0.0
 10
10.2374627199
 20
10.9694544665
 30
0.0
 10
10.2459160936
 20
10.9698726083
 30
0.0
 10
10.2538076097
 20
10.9711772096
 30
0.0
 10
10.2610811904
 20
10.9733397287
 30
0.0
 10
10.2676974856
 20
10.9763099579
 30
0.0
 10
10.2736345531
 20
10.9800234716
 30
0.0
 10
10.2788878371
 20
10.9844066088
 30
0.0
 10
10.2834690765
 20
10.989382333
 30
0.0
 10
10.2874001338
 20
10.9948789947
 30
0.0
 10
10.2918470579
 20
11.0028720142
 30
0.0
 10
10.2959209743
 20
11.0139448935
 30
0.0
 10
10.298631919
 20
11.0282656344
 30
0.0
 10
10.2991641431
 20
11.0381777726
 30
0.0
 10
10.2991642597
 20
11.043242673
 30
0.0
  0
SPLINE
  5
285
100
AcDbEntity
  8
0
100
AcDbSpline
 62
7
  6
CONTINUOUS
 70
0
 71
3
 72
21
 73
17
 74
0
 42
0.0000001
 43
0.0000001
 44
0.0000000001
 40
0.0
 40
0.0
 40
0.0
 40
0.0
 40
0.1143910132
 40
0.1741407562
 40
0.2357521023
 40
0.2993213125
 40
0.3648129096
 40
0.4319268679
 40
0.4999999145
 40
0.5680728646
 40
0.6351868922
 40
0.7006783793
 40
0.7642475587
 40
0.825858949
 40
0.8856087498
 40
1.0
 40
1.0
 40
1.0
 40
1.0
 10
10.7765191113
 20
11.0591695021
 30
0.0
 10
10.7851360828
 20
11.0474087836
 30
0.0
 10
10.7998268602
 20
11.0305687045
 30
0.0
 10
10.8225692941
 20
11.0108750524
 30
0.0
 10
10.8419258678
 20
10.997340292
 30
0.0
 10
10.8633560895
 20
10.9857567151
 30
0.0
 10
10.8867546897
 20
10.9767322922
 30
0.0
 10
10.9117607286
 20
10.97093679
 30
0.0
 10
10.9376922984
 20
10.9689310838
 30
0.0
 10
10.9636238764
 20
10.9709367821
 30
0.0
 10
10.9886299047
 20
10.9767322552
 30
0.0
 10
11.0120284973
 20
10.9857566726
 30
0.0
 10
11.0334587166
 20
10.9973402272
 30
0.0
 10
11.0528153055
 20
11.010874982
 30
0.0
 10
11.075557783
 20
11.0305686502
 30
0.0
 10
11.0902485848
 20
11.0474087592
 30
0.0
 10
11.0988655742
 20
11.0591695021
 30
0.0
  0
SPLINE
  5
286
100
AcDbEntity
  8
0
100
AcDbSpline
 62
7
  6
CONTINUOUS
 70
0
 71
3
 72
42
 73
38
 74
0
 42
0.0000001
 43
0.0000001
 44
0.0000000001
 40
0.0
 40
0.0
 40
0.0
 40
0.0
 40
0.0330342289
 40
0.0658398593
 40
0.0980672423
 40
0.1295141418
 40
0.1601220168
 40
0.1899807886
 40
0.2047035584
 40
0.2193337967
 40
0.2484997266
 40
0.2631472974
 40
0.2778847417
 40
0.3077552268
 40
0.3383132754
 40
0.3695947468
 40
0.401549301
 40
0.4340405954
 40
0.4669039197
 40
0.4999620033
 40
0.53301991
 40
0.5658891201
 40
0.5983932609
 40
0.6303558004
 40
0.6616511062
 40
0.6922255666
 40
0.7221091556
 40
0.7514912475
 40
0.7806677398
 40
0.7953013133
 40
0.8100265568
 40
0.8398890201
 40
0.8704972068
 40
0.901940605
 40
0.9341633575
 40
0.966966395
 40
1.0
 40
1.0
 40
1.0
 40
1.0
 10
11.0988655742
 20
11.6691695021
 30
0.0
 10
11.0988655742
 20
11.674516999
 30
0.0
 10
11.0984416209
 20
11.6851801868
 30
0.0
 10
11.0965034639
 20
11.7009548847
 30
0.0
 10
11.0932200297
 20
11.7162474534
 30
0.0
 10
11.0885220969
 20
11.7308002412
 30
0.0
 10
11.0823211516
 20
11.7443658013
 30
0.0
 10
11.0758372495
 20
11.7547160257
 30
0.0
 10
11.0698996796
 20
11.7622506882
 30
0.0
 10
11.0634920105
 20
11.7692374975
 30
0.0
 10
11.0563335425
 20
11.7754830224
 30
0.0
 10
11.0485690356
 20
11.7809285424
 30
0.0
 10
11.0403511612
 20
11.7858893771
 30
0.0
 10
11.0293422922
 20
11.7911465885
 30
0.0
 10
11.0153091734
 20
11.7960606746
 30
0.0
 10
11.0005705777
 20
11.7997778574
 30
0.0
 10
10.9852968478
 20
11.802456975
 30
0.0
 10
10.9696418609
 20
11.8042699517
 30
0.0
 10
10.9537388964
 20
11.8053063184
 30
0.0
 10
10.9377152234
 20
11.805639306
 30
0.0
 10
10.9216901541
 20
11.805313255
 30
0.0
 10
10.9057849891
 20
11.804266798
 30
0.0
 10
10.8901241609
 20
11.8024679287
 30
0.0
 10
10.874844761
 20
11.7997863945
 30
0.0
 10
10.8601009977
 20
11.7960660181
 30
0.0
 10
10.8460590917
 20
11.7911536746
 30
0.0
 10
10.8329016529
 20
11.7848755296
 30
0.0
 10
10.8208568467
 20
11.7770555862
 30
0.0
 10
10.8118947318
 20
11.7692366548
 30
0.0
 10
10.8054832245
 20
11.7622491159
 30
0.0
 10
10.7995443618
 20
11.7547135799
 30
0.0
 10
10.7930617191
 20
11.7443612293
 30
0.0
 10
10.7868608308
 20
11.7307956826
 30
0.0
 10
10.7821634569
 20
11.7162439962
 30
0.0
 10
10.7788810707
 20
11.7009529918
 30
0.0
 10
10.7769431523
 20
11.6851795631
 30
0.0
 10
10.7765191113
 20
11.674516898
 30
0.0
 10
10.7765191113
 20
11.6691695021
 30
0.0
  0
SPLINE
  5
287
100
AcDbEntity
  8
0
100
AcDbSpline
 62
7
  6
CONTINUOUS
 70
0
 71
3
 72
38
 73
34
 74
0
 42
0.0000001
 43
0.0000001
 44
0.0000000001
 40
0.0
 40
0.0
 40
0.0
 40
0.0
 40
0.0323261072
 40
0.0619913406
 40
0.0887530333
 40
0.1126285355
 40
0.1339580296
 40
0.1533416916
 40
0.1716925882
 40
0.1900013555
 40
0.209114375
 40
0.2296103414
 40
0.2518409532
 40
0.2759544503
 40
0.3019816728
 40
0.3298910281
 40
0.3595928909
 40
0.3909835162
 40
0.4582941817
 40
0.4939109729
 40
0.5306342614
 40
0.5682385001
 40
0.6065403618
 40
0.6453844713
 40
0.6845531358
 40
0.7042170756
 40
0.7239160856
 40
0.7633612125
 40
0.8028244445
 40
0.842273766
 40
0.881733236
 40
0.9212204096
 40
1.0
 40
1.0
 40
1.0
 40
1.0
 10
10.2991643643
 20
11.7356955013
 30
0.0
 10
10.299163391
 20
11.739489728
 30
0.0
 10
10.2990899809
 20
11.7467665314
 30
0.0
 10
10.2985936996
 20
11.7571757477
 30
0.0
 10
10.2975634213
 20
11.7665538762
 30
0.0
 10
10.2958618658
 20
11.77484419
 30
0.0
 10
10.2933875064
 20
11.7820410465
 30
0.0
 10
10.2899965676
 20
11.7881372326
 30
0.0
 10
10.2856646639
 20
11.7931516429
 30
0.0
 10
10.2804162457
 20
11.7971364581
 30
0.0
 10
10.2743100633
 20
11.8001948645
 30
0.0
 10
10.2673947071
 20
11.8024631947
 30
0.0
 10
10.259703129
 20
11.8040685731
 30
0.0
 10
10.2512615187
 20
11.8050857344
 30
0.0
 10
10.2421073
 20
11.8055591698
 30
0.0
 10
10.2322864041
 20
11.8055412776
 30
0.0
 10
10.2218490862
 20
11.8050097545
 30
0.0
 10
10.2068466776
 20
11.8035385201
 30
0.0
 10
10.191268897
 20
11.8009154243
 30
0.0
 10
10.1753738472
 20
11.7968809488
 30
0.0
 10
10.1630746492
 20
11.7929440388
 30
0.0
 10
10.1507831834
 20
11.7880453105
 30
0.0
 10
10.1386910415
 20
11.7820771732
 30
0.0
 10
10.1270136864
 20
11.7749690269
 30
0.0
 10
10.1178094523
 20
11.7680995649
 30
0.0
 10
10.1108680142
 20
11.7620289784
 30
0.0
 10
10.1042412575
 20
11.755569924
 30
0.0
 10
10.0966172613
 20
11.7468292791
 30
0.0
 10
10.0886717417
 20
11.7353987685
 30
0.0
 10
10.0820709903
 20
11.7231400779
 30
0.0
 10
10.0768733753
 20
11.7102188736
 30
0.0
 10
10.0719011205
 20
11.6923594484
 30
0.0
 10
10.0703899294
 20
11.6784161347
 30
0.0
 10
10.0703899294
 20
11.6691695021
 30
0.0
  0
SPLINE
  5
288
100
AcDbEntity
  8
0
100
AcDbSpline
 62
7
  6
CONTINUOUS
 70
0
 71
3
 72
30
 73
26
 74
0
 42
0.0000001
 43
0.0000001
 44
0.0000000001
 40
0.0
 40
0.0
 40
0.0
 40
0.0
 40
0.0503501128
 40
0.0983957601
 40
0.144414012
 40
0.1668861045
 40
0.1891621889
 40
0.2114333425
 40
0.233941365
 40
0.256971573
 40
0.2808299474
 40
0.3058175866
 40
0.3321959494
 40
0.3601537685
 40
0.3897908837
 40
0.4211158974
 40
0.4540554891
 40
0.4884762785
 40
0.5242102442
 40
0.5988626924
 40
0.6766468482
 40
0.7564110562
 40
0.8372850856
 40
0.9186418782
 40
1.0
 40
1.0
 40
1.0
 40
1.0
 10
11.5762204276
 20
11.0432426746
 30
0.0
 10
11.5762205431
 20
11.038177786
 30
0.0
 10
11.576752768
 20
11.028265663
 30
0.0
 10
11.5794637
 20
11.0139449387
 30
0.0
 10
11.5835376052
 20
11.0028720604
 30
0.0
 10
11.5879845241
 20
10.9948790398
 30
0.0
 10
11.5919155779
 20
10.989382374
 30
0.0
 10
11.5964968088
 20
10.984406642
 30
0.0
 10
11.6017500986
 20
10.9800234938
 30
0.0
 10
11.6076871763
 20
10.9763099805
 30
0.0
 10
11.6143034635
 20
10.9733397296
 30
0.0
 10
11.6215770424
 20
10.9711772241
 30
0.0
 10
11.6294685539
 20
10.9698726096
 30
0.0
 10
11.637921929
 20
10.9694544668
 30
0.0
 10
11.6468679338
 20
10.9699288485
 30
0.0
 10
11.6562280485
 20
10.9712801397
 30
0.0
 10
11.6659192565
 20
10.9734722944
 30
0.0
 10
11.6758601277
 20
10.9764518722
 30
0.0
 10
11.6895444522
 20
10.9814650943
 30
0.0
 10
11.7067769068
 20
10.9893696394
 30
0.0
 10
11.7271825644
 20
11.000772181
 30
0.0
 10
11.7473512673
 20
11.013775032
 30
0.0
 10
11.7671139304
 20
11.0280035521
 30
0.0
 10
11.7863693191
 20
11.0431678408
 30
0.0
 10
11.7988461421
 20
11.0537682185
 30
0.0
 10
11.8049947561
 20
11.0591695021
 30
0.0
  0
LINE
  5
289
100
AcDbEntity
  8
0
100
AcDbLine
 62
9
  6
CONTINUOUS
 10
6.9376925844
 20
9.1041698589
 11
6.5351922078
 21
8.7916695019
  0
LINE
  5
28A
100
AcDbEntity
  8
0
100
AcDbLine
 62
9
  6
CONTINUOUS
 10
6.6251923427
 20
8.7016695254
 11
6.9376928614
 21
9.1041695021
  0
LINE
  5
28B
100
AcDbEntity
  8
0
100
AcDbLine
 62
9
  6
CONTINUOUS
 10
7.2501923427
 20
8.7016695282
 11
6.9376928614
 21
9.1041695021
  0
LINE
  5
28C
100
AcDbEntity
  8
0
100
AcDbLine
 62
9
  6
CONTINUOUS
 10
7.3401925109
 20
8.7916695021
 11
6.9376927687
 21
9.1041693827
  0
LINE
  5
28D
100
AcDbEntity
  8
0
100
AcDbLine
 62
9
  6
CONTINUOUS
 10
14.6251923427
 20
8.7016695254
 11
14.9376928614
 21
9.1041695021
  0
LINE
  5
28E
100
AcDbEntity
  8
0
100
AcDbLine
 62
9
  6
CONTINUOUS
 10
15.2501923427
 20
8.7016695282
 11
14.9376928614
 21
9.1041695021
  0
LINE
  5
28F
100
AcDbEntity
  8
0
100
AcDbLine
 62
9
  6
CONTINUOUS
 10
15.3401925109
 20
8.7916695021
 11
14.9376927687
 21
9.1041693827
  0
LINE
  5
290
100
AcDbEntity
  8
0
100
AcDbLine
 62
9
  6
CONTINUOUS
 10
14.9376925844
 20
9.1041698589
 11
14.5351922078
 21
8.7916695019
  0
ENDSEC
  0
SECTION
  2
OBJECTS
  0
DICTIONARY
  5
C
100
AcDbDictionary
280
0
281
1
  3
ACAD_GROUP
350
D
  3
ACAD_MLINESTYLE
350
17
  3
ACAD_LAYOUT
350
1A
  3
ACAD_PLOTSETTINGS
350
19
  3
ACAD_PLOTSTYLENAME
350
E
  0
DICTIONARY
  5
D
102
{ACAD_REACTORS
330
C
102
}
100
AcDbDictionary
280
0
281
1
  0
ACDBDICTIONARYWDFLT
  5
E
102
{ACAD_REACTORS
330
C
102
}
100
AcDbDictionary
281
1
  3
Normal
350
F
100
AcDbDictionaryWithDefault
340
F
  0
DICTIONARY
  5
17
102
{ACAD_REACTORS
330
C
102
}
100
AcDbDictionary
280
0
281
1
  3
Standard
350
18
  0
DICTIONARY
  5
19
102
{ACAD_REACTORS
330
C
102
}
100
AcDbDictionary
281
1
  0
DICTIONARY
  5
1A
102
{ACAD_REACTORS
330
C
102
}
100
AcDbDictionary
281
1
  3
Model
350
291
  3
Layout1
350
292
  0
ACDBPLACEHOLDER
  5
F
102
{ACAD_REACTORS
330
E
102
}
  0
MLINESTYLE
  5
18
102
{ACAD_REACTORS
330
17
102
}
100
AcDbMlineStyle
  2
STANDARD
 70
0
  3

 62
256
 51
90.0
 52
90.0
 71
2
 49
0.5
 62
256
  6
BYLAYER
 49
-0.5
 62
256
  6
BYLAYER
  0
LAYOUT
  5
291
102
{ACAD_REACTORS
330
1A
102
}
100
AcDbPlotSettings
  1

  2
none_device
  4
ANSI_C_(22.00_x_17.00_Inches)
  6

 40
0.0
 41
0.0
 42
0.0
 43
0.0
 44
558.8
 45
431.8
 46
0.0
 47
0.0
 48
0.0
 49
0.0
140
0.0
141
0.0
142
1.0
143
1.0
 70
1024
 72
0
 73
0
 74
0
  7

 75
0
147
1.0
148
0.0
149
0.0
100
AcDbLayout
  1
Model
 70
0
 71
0
 10
0.0
 20
0.0
 11
22.0
 21
17.0
 12
0.0
 22
0.0
 32
0.0
 14
0.0
 24
0.0
 34
0.0
 15
0.0
 25
0.0
 35
0.0
146
0.0
 13
0.0
 23
0.0
 33
0.0
 16
1.0
 26
0.0
 36
0.0
 17
0.0
 27
1.0
 37
0.0
 76
0
330
202
345
0
346
0
  0
LAYOUT
  5
292
102
{ACAD_REACTORS
330
1A
102
}
100
AcDbPlotSettings
  1

  2
none_device
  4
ANSI_C_(22.00_x_17.00_Inches)
  6

 40
0.0
 41
0.0
 42
0.0
 43
0.0
 44
558.8
 45
431.8
 46
0.0
 47
0.0
 48
0.0
 49
0.0
140
0.0
141
0.0
142
1.0
143
1.0
 70
0
 72
0
 73
0
 74
0
  7

 75
0
147
1.0
148
0.0
149
0.0
100
AcDbLayout
  1
Layout1
 70
0
 71
1
 10
0.0
 20
0.0
 11
22.0
 21
17.0
 12
0.0
 22
0.0
 32
0.0
 14
0.0
 24
0.0
 34
0.0
 15
0.0
 25
0.0
 35
0.0
146
0.0
 13
0.0
 23
0.0
 33
0.0
 16
1.0
 26
0.0
 36
0.0
 17
0.0
 27
1.0
 37
0.0
 76
0
330
203
345
0
346
0
  0
ENDSEC
  0
EOF
